  0
SECTION
  2
HEADER
  9
$ACADVER
  1
AC1024
  9
$ACADMAINTVER
 70
   181
  9
$DWGCODEPAGE
  3
ANSI_932
  9
$AUTHOR
  1
水田
  9
$CUSTOMPROPERTYTAG
  1
マネージャ
  9
$CUSTOMPROPERTY
  1

  9
$CUSTOMPROPERTYTAG
  1
会社
  9
$CUSTOMPROPERTY
  1

  9
$CUSTOMPROPERTYTAG
  1
カテゴリ
  9
$CUSTOMPROPERTY
  1

  9
$CUSTOMPROPERTYTAG
  1
部品番号
  9
$CUSTOMPROPERTY
  1

  9
$CUSTOMPROPERTYTAG
  1
説明
  9
$CUSTOMPROPERTY
  1

  9
$CUSTOMPROPERTYTAG
  1
プロジェクト
  9
$CUSTOMPROPERTY
  1

  9
$CUSTOMPROPERTYTAG
  1
設計者
  9
$CUSTOMPROPERTY
  1
水田
  9
$CUSTOMPROPERTYTAG
  1
エンジニア
  9
$CUSTOMPROPERTY
  1

  9
$CUSTOMPROPERTYTAG
  1
責任者
  9
$CUSTOMPROPERTY
  1

  9
$CUSTOMPROPERTYTAG
  1
コスト センター
  9
$CUSTOMPROPERTY
  1

  9
$CUSTOMPROPERTYTAG
  1
原価
  9
$CUSTOMPROPERTY
  1

  9
$CUSTOMPROPERTYTAG
  1
ベンダー
  9
$CUSTOMPROPERTY
  1

  9
$CUSTOMPROPERTYTAG
  1
ユーザ ステータス
  9
$CUSTOMPROPERTY
  1

  9
$CUSTOMPROPERTYTAG
  1
設計ステータス
  9
$CUSTOMPROPERTY
  1
作業中
  9
$CUSTOMPROPERTYTAG
  1
確認者
  9
$CUSTOMPROPERTY
  1

  9
$CUSTOMPROPERTYTAG
  1
エンジニアリング承認者
  9
$CUSTOMPROPERTY
  1

  9
$CUSTOMPROPERTYTAG
  1
製造承認者
  9
$CUSTOMPROPERTY
  1

  9
$CUSTOMPROPERTYTAG
  1
作成日
  9
$CUSTOMPROPERTY
  1
06/28/2018
  9
$CUSTOMPROPERTYTAG
  1
ストック番号
  9
$CUSTOMPROPERTY
  1

  9
$INSBASE
 10
0.0
 20
0.0
 30
0.0
  9
$EXTMIN
 10
0.0
 20
0.0
 30
0.0
  9
$EXTMAX
 10
297.0
 20
210.0
 30
0.0
  9
$LIMMIN
 10
0.0
 20
0.0
  9
$LIMMAX
 10
297.0
 20
210.0
  9
$ORTHOMODE
 70
     0
  9
$REGENMODE
 70
     1
  9
$FILLMODE
 70
     1
  9
$QTEXTMODE
 70
     0
  9
$MIRRTEXT
 70
     0
  9
$LTSCALE
 40
1.0
  9
$ATTMODE
 70
     1
  9
$TEXTSIZE
 40
0.2
  9
$TRACEWID
 40
0.05
  9
$TEXTSTYLE
  7
Standard
  9
$CLAYER
  8
0
  9
$CELTYPE
  6
ByLayer
  9
$CECOLOR
 62
   256
  9
$CELTSCALE
 40
1.0
  9
$DISPSILH
 70
     0
  9
$DIMSCALE
 40
1.0
  9
$DIMASZ
 40
1.799999999999999
  9
$DIMEXO
 40
0.0625
  9
$DIMDLI
 40
0.38
  9
$DIMRND
 40
0.0
  9
$DIMDLE
 40
0.0
  9
$DIMEXE
 40
0.18
  9
$DIMTP
 40
0.0
  9
$DIMTM
 40
0.0
  9
$DIMTXT
 40
0.25
  9
$DIMCEN
 40
0.09
  9
$DIMTSZ
 40
0.0
  9
$DIMTOL
 70
     0
  9
$DIMLIM
 70
     0
  9
$DIMTIH
 70
     1
  9
$DIMTOH
 70
     1
  9
$DIMSE1
 70
     0
  9
$DIMSE2
 70
     0
  9
$DIMTAD
 70
     0
  9
$DIMZIN
 70
     0
  9
$DIMBLK
  1

  9
$DIMASO
 70
     1
  9
$DIMSHO
 70
     1
  9
$DIMPOST
  1

  9
$DIMAPOST
  1

  9
$DIMALT
 70
     0
  9
$DIMALTD
 70
     2
  9
$DIMALTF
 40
25.4
  9
$DIMLFAC
 40
1.0
  9
$DIMTOFL
 70
     0
  9
$DIMTVP
 40
0.0
  9
$DIMTIX
 70
     0
  9
$DIMSOXD
 70
     0
  9
$DIMSAH
 70
     0
  9
$DIMBLK1
  1

  9
$DIMBLK2
  1

  9
$DIMSTYLE
  2
Standard
  9
$DIMCLRD
 70
     0
  9
$DIMCLRE
 70
     0
  9
$DIMCLRT
 70
     0
  9
$DIMTFAC
 40
1.0
  9
$DIMGAP
 40
0.09
  9
$DIMJUST
 70
     0
  9
$DIMSD1
 70
     0
  9
$DIMSD2
 70
     0
  9
$DIMTOLJ
 70
     1
  9
$DIMTZIN
 70
     0
  9
$DIMALTZ
 70
     0
  9
$DIMALTTZ
 70
     0
  9
$DIMUPT
 70
     0
  9
$DIMDEC
 70
     4
  9
$DIMTDEC
 70
     4
  9
$DIMALTU
 70
     2
  9
$DIMALTTD
 70
     2
  9
$DIMTXSTY
  7
Standard
  9
$DIMAUNIT
 70
     0
  9
$DIMADEC
 70
     0
  9
$DIMALTRND
 40
0.0
  9
$DIMAZIN
 70
     0
  9
$DIMDSEP
 70
    46
  9
$DIMATFIT
 70
     3
  9
$DIMFRAC
 70
     0
  9
$DIMLDRBLK
  1

  9
$DIMLUNIT
 70
     2
  9
$DIMLWD
 70
    -2
  9
$DIMLWE
 70
    -2
  9
$DIMTMOVE
 70
     0
  9
$DIMFXL
 40
1.0
  9
$DIMFXLON
 70
     0
  9
$DIMJOGANG
 40
0.7853981633974483
  9
$DIMTFILL
 70
     0
  9
$DIMTFILLCLR
 70
     0
  9
$DIMARCSYM
 70
     0
  9
$DIMLTYPE
  6

  9
$DIMLTEX1
  6

  9
$DIMLTEX2
  6

  9
$DIMTXTDIRECTION
 70
     0
  9
$LUNITS
 70
     2
  9
$LUPREC
 70
     4
  9
$SKETCHINC
 40
0.1
  9
$FILLETRAD
 40
0.0
  9
$AUNITS
 70
     0
  9
$AUPREC
 70
     0
  9
$MENU
  1
.
  9
$ELEVATION
 40
0.0
  9
$PELEVATION
 40
0.0
  9
$THICKNESS
 40
0.0
  9
$LIMCHECK
 70
     0
  9
$CHAMFERA
 40
0.0
  9
$CHAMFERB
 40
0.0
  9
$CHAMFERC
 40
0.0
  9
$CHAMFERD
 40
0.0
  9
$SKPOLY
 70
     0
  9
$TDCREATE
 40
2458298.637761401
  9
$TDUCREATE
 40
2458298.262761401
  9
$TDUPDATE
 40
2458298.637761401
  9
$TDUUPDATE
 40
2458298.262761401
  9
$TDINDWG
 40
0.0000170370
  9
$TDUSRTIMER
 40
0.0000170370
  9
$USRTIMER
 70
     1
  9
$ANGBASE
 50
0.0
  9
$ANGDIR
 70
     0
  9
$PDMODE
 70
     0
  9
$PDSIZE
 40
0.0
  9
$PLINEWID
 40
0.0
  9
$SPLFRAME
 70
     0
  9
$SPLINETYPE
 70
     6
  9
$SPLINESEGS
 70
     8
  9
$HANDSEED
  5
371
  9
$SURFTAB1
 70
     6
  9
$SURFTAB2
 70
     6
  9
$SURFTYPE
 70
     6
  9
$SURFU
 70
     6
  9
$SURFV
 70
     6
  9
$UCSBASE
  2

  9
$UCSNAME
  2

  9
$UCSORG
 10
0.0
 20
0.0
 30
0.0
  9
$UCSXDIR
 10
1.0
 20
0.0
 30
0.0
  9
$UCSYDIR
 10
0.0
 20
1.0
 30
0.0
  9
$UCSORTHOREF
  2

  9
$UCSORTHOVIEW
 70
     0
  9
$UCSORGTOP
 10
0.0
 20
0.0
 30
0.0
  9
$UCSORGBOTTOM
 10
0.0
 20
0.0
 30
0.0
  9
$UCSORGLEFT
 10
0.0
 20
0.0
 30
0.0
  9
$UCSORGRIGHT
 10
0.0
 20
0.0
 30
0.0
  9
$UCSORGFRONT
 10
0.0
 20
0.0
 30
0.0
  9
$UCSORGBACK
 10
0.0
 20
0.0
 30
0.0
  9
$PUCSBASE
  2

  9
$PUCSNAME
  2

  9
$PUCSORG
 10
0.0
 20
0.0
 30
0.0
  9
$PUCSXDIR
 10
1.0
 20
0.0
 30
0.0
  9
$PUCSYDIR
 10
0.0
 20
1.0
 30
0.0
  9
$PUCSORTHOREF
  2

  9
$PUCSORTHOVIEW
 70
     0
  9
$PUCSORGTOP
 10
0.0
 20
0.0
 30
0.0
  9
$PUCSORGBOTTOM
 10
0.0
 20
0.0
 30
0.0
  9
$PUCSORGLEFT
 10
0.0
 20
0.0
 30
0.0
  9
$PUCSORGRIGHT
 10
0.0
 20
0.0
 30
0.0
  9
$PUCSORGFRONT
 10
0.0
 20
0.0
 30
0.0
  9
$PUCSORGBACK
 10
0.0
 20
0.0
 30
0.0
  9
$USERI1
 70
     0
  9
$USERI2
 70
     0
  9
$USERI3
 70
     0
  9
$USERI4
 70
     0
  9
$USERI5
 70
     0
  9
$USERR1
 40
0.0
  9
$USERR2
 40
0.0
  9
$USERR3
 40
0.0
  9
$USERR4
 40
0.0
  9
$USERR5
 40
0.0
  9
$WORLDVIEW
 70
     1
  9
$SHADEDGE
 70
     3
  9
$SHADEDIF
 70
    70
  9
$TILEMODE
 70
     1
  9
$MAXACTVP
 70
    64
  9
$PINSBASE
 10
0.0
 20
0.0
 30
0.0
  9
$PLIMCHECK
 70
     0
  9
$PEXTMIN
 10
0.0
 20
0.0
 30
0.0
  9
$PEXTMAX
 10
297.0
 20
210.0
 30
0.0
  9
$PLIMMIN
 10
0.0
 20
0.0
  9
$PLIMMAX
 10
297.0
 20
210.0
  9
$UNITMODE
 70
     0
  9
$VISRETAIN
 70
     1
  9
$PLINEGEN
 70
     0
  9
$PSLTSCALE
 70
     1
  9
$TREEDEPTH
 70
  3020
  9
$CMLSTYLE
  2
Standard
  9
$CMLJUST
 70
     0
  9
$CMLSCALE
 40
1.0
  9
$PROXYGRAPHICS
 70
     1
  9
$MEASUREMENT
 70
     1
  9
$CELWEIGHT
370
    -1
  9
$ENDCAPS
280
     0
  9
$JOINSTYLE
280
     0
  9
$LWDISPLAY
290
     0
  9
$INSUNITS
 70
     4
  9
$HYPERLINKBASE
  1

  9
$STYLESHEET
  1

  9
$XEDIT
290
     1
  9
$CEPSNTYPE
380
     0
  9
$PSTYLEMODE
290
     1
  9
$FINGERPRINTGUID
  2
{7D39D561-100E-42DA-8A09-18D30CA550F2}
  9
$VERSIONGUID
  2
{2CD92E71-4F66-476E-A1F7-C6ADA3C0DD79}
  9
$EXTNAMES
290
     1
  9
$PSVPSCALE
 40
0.0
  9
$OLESTARTUP
290
     0
  9
$SORTENTS
280
   127
  9
$INDEXCTL
280
     0
  9
$HIDETEXT
280
     1
  9
$XCLIPFRAME
280
     2
  9
$HALOGAP
280
     0
  9
$OBSCOLOR
 70
   257
  9
$OBSLTYPE
280
     0
  9
$INTERSECTIONDISPLAY
280
     0
  9
$INTERSECTIONCOLOR
 70
   257
  9
$DIMASSOC
280
     1
  9
$PROJECTNAME
  1

  9
$CAMERADISPLAY
290
     0
  9
$LENSLENGTH
 40
50.0
  9
$CAMERAHEIGHT
 40
0.0
  9
$STEPSPERSEC
 40
2.0
  9
$STEPSIZE
 40
6.0
  9
$3DDWFPREC
 40
2.0
  9
$PSOLWIDTH
 40
0.25
  9
$PSOLHEIGHT
 40
4.0
  9
$LOFTANG1
 40
1.570796326794896
  9
$LOFTANG2
 40
1.570796326794896
  9
$LOFTMAG1
 40
0.0
  9
$LOFTMAG2
 40
0.0
  9
$LOFTPARAM
 70
     7
  9
$LOFTNORMALS
280
     1
  9
$LATITUDE
 40
37.795
  9
$LONGITUDE
 40
-122.394
  9
$NORTHDIRECTION
 40
0.0
  9
$TIMEZONE
 70
 -8000
  9
$LIGHTGLYPHDISPLAY
280
     1
  9
$TILEMODELIGHTSYNCH
280
     1
  9
$CMATERIAL
347
11
  9
$SOLIDHIST
280
     0
  9
$SHOWHIST
280
     1
  9
$DWFFRAME
280
     2
  9
$DGNFRAME
280
     0
  9
$REALWORLDSCALE
290
     1
  9
$INTERFERECOLOR
 62
     1
  9
$INTERFEREOBJVS
345
33
  9
$INTERFEREVPVS
346
30
  9
$CSHADOW
280
     0
  9
$SHADOWPLANELOCATION
 40
0.0
  0
ENDSEC
  0
SECTION
  2
CLASSES
  0
CLASS
  1
ACDBDICTIONARYWDFLT
  2
AcDbDictionaryWithDefault
  3
ObjectDBX Classes
 90
        0
 91
        1
280
     0
281
     0
  0
CLASS
  1
MATERIAL
  2
AcDbMaterial
  3
ObjectDBX Classes
 90
     1153
 91
        3
280
     0
281
     0
  0
CLASS
  1
VISUALSTYLE
  2
AcDbVisualStyle
  3
ObjectDBX Classes
 90
     4095
 91
       24
280
     0
281
     0
  0
CLASS
  1
SCALE
  2
AcDbScale
  3
ObjectDBX Classes
 90
     1153
 91
       17
280
     0
281
     0
  0
CLASS
  1
TABLESTYLE
  2
AcDbTableStyle
  3
ObjectDBX Classes
 90
     4095
 91
        1
280
     0
281
     0
  0
CLASS
  1
MLEADERSTYLE
  2
AcDbMLeaderStyle
  3
ACDB_MLEADERSTYLE_CLASS
 90
     4095
 91
        1
280
     0
281
     0
  0
CLASS
  1
ACDBSECTIONVIEWSTYLE
  2
AcDbSectionViewStyle
  3
ObjectDBX Classes
 90
     1025
 91
        1
280
     0
281
     0
  0
CLASS
  1
ACDBDETAILVIEWSTYLE
  2
AcDbDetailViewStyle
  3
ObjectDBX Classes
 90
     1025
 91
        1
280
     0
281
     0
  0
CLASS
  1
DICTIONARYVAR
  2
AcDbDictionaryVar
  3
ObjectDBX Classes
 90
        0
 91
        5
280
     0
281
     0
  0
CLASS
  1
CELLSTYLEMAP
  2
AcDbCellStyleMap
  3
ObjectDBX Classes
 90
     1152
 91
        1
280
     0
281
     0
  0
ENDSEC
  0
SECTION
  2
TABLES
  0
TABLE
  2
VPORT
  5
8
330
0
100
AcDbSymbolTable
 70
     1
  0
VPORT
  5
57
330
8
100
AcDbSymbolTableRecord
100
AcDbViewportTableRecord
  2
*Active
 70
     0
 10
0.0
 20
0.0
 11
1.0
 21
1.0
 12
148.5
 22
105.0
 13
0.0
 23
0.0
 14
1.0
 24
1.0
 15
0.0
 25
0.0
 16
0.0
 26
0.0
 36
1.0
 17
0.0
 27
0.0
 37
0.0
 40
210.0
 41
1.414285714285714
 42
50.0
 43
0.0
 44
0.0
 50
0.0
 51
0.0
 71
     0
 72
   100
 73
     1
 74
     1
 75
     0
 76
     0
 77
     0
 78
     0
281
     0
 65
     1
110
0.0
120
0.0
130
0.0
111
1.0
121
0.0
131
0.0
112
0.0
122
1.0
132
0.0
 79
     0
146
0.0
 60
     3
 61
     5
292
     1
282
     1
141
0.0
142
0.0
 63
   250
421
  3355443
  0
ENDTAB
  0
TABLE
  2
LTYPE
  5
5
330
0
100
AcDbSymbolTable
 70
    58
  0
LTYPE
  5
5B
330
5
100
AcDbSymbolTableRecord
100
AcDbLinetypeTableRecord
  2
ByBlock
 70
     0
  3

 72
    65
 73
     0
 40
0.0
  0
LTYPE
  5
5C
330
5
100
AcDbSymbolTableRecord
100
AcDbLinetypeTableRecord
  2
ByLayer
 70
     0
  3

 72
    65
 73
     0
 40
0.0
  0
LTYPE
  5
5D
330
5
100
AcDbSymbolTableRecord
100
AcDbLinetypeTableRecord
  2
Continuous
 70
     0
  3
Solid line
 72
    65
 73
     0
 40
0.0
  0
LTYPE
  5
78
330
5
100
AcDbSymbolTableRecord
100
AcDbLinetypeTableRecord
  2
CHAIN
 70
     0
  3
Chain ____ _ ____ _ ____ _ ____ _ ____ _ ____
 72
    65
 73
     4
 40
0.3543
 49
0.2362
 74
     0
 49
-0.0295
 74
     0
 49
0.0591
 74
     0
 49
-0.0295
 74
     0
  0
LTYPE
  5
79
330
5
100
AcDbSymbolTableRecord
100
AcDbLinetypeTableRecord
  2
DASH_DOT
 70
     0
  3
Dash dot __ . __ . __ . __ . __ . __ . __ . __
 72
    65
 73
     4
 40
0.37
 49
0.24
 74
     0
 49
-0.06
 74
     0
 49
0.01
 74
     0
 49
-0.06
 74
     0
  0
LTYPE
  5
7A
330
5
100
AcDbSymbolTableRecord
100
AcDbLinetypeTableRecord
  2
DASH_DOUBLE_DOT
 70
     0
  3
Dash Double-Dot __ . . __ . . __ . . __ . .
 72
    65
 73
     6
 40
0.4398
 49
0.24
 74
     0
 49
-0.06
 74
     0
 49
0.0098
 74
     0
 49
-0.06
 74
     0
 49
0.01
 74
     0
 49
-0.06
 74
     0
  0
LTYPE
  5
7B
330
5
100
AcDbSymbolTableRecord
100
AcDbLinetypeTableRecord
  2
DASH_TRIPLE_DOT
 70
     0
  3
Dash Triple-Dot _ . . . _ . . . _ . . . _
 72
    65
 73
     8
 40
0.51
 49
0.24
 74
     0
 49
-0.06
 74
     0
 49
0.01
 74
     0
 49
-0.06
 74
     0
 49
0.01
 74
     0
 49
-0.06
 74
     0
 49
0.01
 74
     0
 49
-0.06
 74
     0
  0
LTYPE
  5
7C
330
5
100
AcDbSymbolTableRecord
100
AcDbLinetypeTableRecord
  2
DASHED
 70
     0
  3
Dashed __ __ __ __ __ __ __ __ __ __ __ __ __ _
 72
    65
 73
     2
 40
0.2067
 49
0.1654
 74
     0
 49
-0.0413
 74
     0
  0
LTYPE
  5
7D
330
5
100
AcDbSymbolTableRecord
100
AcDbLinetypeTableRecord
  2
DASHED_SPACE
 70
     0
  3
Dashed Space __ __ __ __ __ __ __ __ __ __ __ _
 72
    65
 73
     2
 40
0.0826
 49
0.0413
 74
     0
 49
-0.0413
 74
     0
  0
LTYPE
  5
7E
330
5
100
AcDbSymbolTableRecord
100
AcDbLinetypeTableRecord
  2
DOTTED
 70
     0
  3
Dotted . . . . . . . . . . . . . . . . . . . . 
 72
    65
 73
     2
 40
0.0482
 49
0.0069
 74
     0
 49
-0.0413
 74
     0
  0
LTYPE
  5
7F
330
5
100
AcDbSymbolTableRecord
100
AcDbLinetypeTableRecord
  2
DOUBLE_DASH_CHAIN
 70
     0
  3
Double Dash Chain ___ _ _ ___ _ _ ___ _ _ ___ _
 72
    65
 73
     6
 40
1.240299999999999
 49
0.6614
 74
     0
 49
-0.0827
 74
     0
 49
0.1654
 74
     0
 49
-0.0827
 74
     0
 49
0.1654
 74
     0
 49
-0.0827
 74
     0
  0
LTYPE
  5
80
330
5
100
AcDbSymbolTableRecord
100
AcDbLinetypeTableRecord
  2
DOUBLE_DASH_DOT
 70
     0
  3
Double Dash Dot __ __ . __ __ . __ __ . __ _
 72
    65
 73
     6
 40
0.67
 49
0.24
 74
     0
 49
-0.06
 74
     0
 49
0.24
 74
     0
 49
-0.06
 74
     0
 49
0.01
 74
     0
 49
-0.06
 74
     0
  0
LTYPE
  5
81
330
5
100
AcDbSymbolTableRecord
100
AcDbLinetypeTableRecord
  2
DOUBLE_DASH_DOUBLE_DOT
 70
     0
  3
Double-dash double-dot _ _ . . _ _ . . _
 72
    65
 73
     8
 40
0.7400000000000001
 49
0.24
 74
     0
 49
-0.06
 74
     0
 49
0.24
 74
     0
 49
-0.06
 74
     0
 49
0.01
 74
     0
 49
-0.06
 74
     0
 49
0.01
 74
     0
 49
-0.06
 74
     0
  0
LTYPE
  5
82
330
5
100
AcDbSymbolTableRecord
100
AcDbLinetypeTableRecord
  2
DOUBLE_DASH_TRIPLE_DOT
 70
     0
  3
Double Dash Triple Dot __ __ . . . __ __ . . .
 72
    65
 73
    10
 40
0.8100000000000001
 49
0.24
 74
     0
 49
-0.06
 74
     0
 49
0.24
 74
     0
 49
-0.06
 74
     0
 49
0.01
 74
     0
 49
-0.06
 74
     0
 49
0.01
 74
     0
 49
-0.06
 74
     0
 49
0.01
 74
     0
 49
-0.06
 74
     0
  0
LTYPE
  5
83
330
5
100
AcDbSymbolTableRecord
100
AcDbLinetypeTableRecord
  2
LONG_DASH_DOTTED
 70
     0
  3
Long Dash Dotted ____ . ____ . ____ . ____ . _
 72
    65
 73
     4
 40
0.61
 49
0.48
 74
     0
 49
-0.06
 74
     0
 49
0.01
 74
     0
 49
-0.06
 74
     0
  0
LTYPE
  5
84
330
5
100
AcDbSymbolTableRecord
100
AcDbLinetypeTableRecord
  2
LONG_DASH_DOUBLE_DOT
 70
     0
  3
Long Dash Double Dot ____ . . ____ . . ____ . .
 72
    65
 73
     6
 40
0.3345
 49
0.2362
 74
     0
 49
-0.0295
 74
     0
 49
0.0049
 74
     0
 49
-0.0295
 74
     0
 49
0.0049
 74
     0
 49
-0.0295
 74
     0
  0
LTYPE
  5
85
330
5
100
AcDbSymbolTableRecord
100
AcDbLinetypeTableRecord
  2
LONG_DASH_TRIPLE_DOT
 70
     0
  3
Long Dash Triple Dot ____ ... ____ ... ____
 72
    65
 73
     8
 40
0.75
 49
0.48
 74
     0
 49
-0.06
 74
     0
 49
0.01
 74
     0
 49
-0.06
 74
     0
 49
0.01
 74
     0
 49
-0.06
 74
     0
 49
0.01
 74
     0
 49
-0.06
 74
     0
  0
LTYPE
  5
86
330
5
100
AcDbSymbolTableRecord
100
AcDbLinetypeTableRecord
  2
BORDER
 70
     0
  3
Border __ __ . __ __ . __ __ . __ __ . __ __ .
 72
    65
 73
     6
 40
44.45
 49
12.7
 74
     0
 49
-6.349999999999999
 74
     0
 49
12.7
 74
     0
 49
-6.349999999999999
 74
     0
 49
0.0
 74
     0
 49
-6.349999999999999
 74
     0
  0
LTYPE
  5
87
330
5
100
AcDbSymbolTableRecord
100
AcDbLinetypeTableRecord
  2
BORDER2
 70
     0
  3
Border (.5x) __.__.__.__.__.__.__.__.__.__.__.
 72
    65
 73
     6
 40
22.225
 49
6.349999999999999
 74
     0
 49
-3.174999999999999
 74
     0
 49
6.349999999999999
 74
     0
 49
-3.174999999999999
 74
     0
 49
0.0
 74
     0
 49
-3.174999999999999
 74
     0
  0
LTYPE
  5
88
330
5
100
AcDbSymbolTableRecord
100
AcDbLinetypeTableRecord
  2
BORDERX2
 70
     0
  3
Border (2x) ____  ____  .  ____  ____  .  ___
 72
    65
 73
     6
 40
88.9
 49
25.4
 74
     0
 49
-12.7
 74
     0
 49
25.4
 74
     0
 49
-12.7
 74
     0
 49
0.0
 74
     0
 49
-12.7
 74
     0
  0
LTYPE
  5
89
330
5
100
AcDbSymbolTableRecord
100
AcDbLinetypeTableRecord
  2
CENTER
 70
     0
  3
Center ____ _ ____ _ ____ _ ____ _ ____ _ ____
 72
    65
 73
     4
 40
50.8
 49
31.75
 74
     0
 49
-6.349999999999999
 74
     0
 49
6.349999999999999
 74
     0
 49
-6.349999999999999
 74
     0
  0
LTYPE
  5
8A
330
5
100
AcDbSymbolTableRecord
100
AcDbLinetypeTableRecord
  2
CENTER2
 70
     0
  3
Center (.5x) ___ _ ___ _ ___ _ ___ _ ___ _ ___
 72
    65
 73
     4
 40
28.575
 49
19.05
 74
     0
 49
-3.174999999999999
 74
     0
 49
3.174999999999999
 74
     0
 49
-3.174999999999999
 74
     0
  0
LTYPE
  5
8B
330
5
100
AcDbSymbolTableRecord
100
AcDbLinetypeTableRecord
  2
CENTERX2
 70
     0
  3
Center (2x) ________  __  ________  __  _____
 72
    65
 73
     4
 40
101.6
 49
63.5
 74
     0
 49
-12.7
 74
     0
 49
12.7
 74
     0
 49
-12.7
 74
     0
  0
LTYPE
  5
8C
330
5
100
AcDbSymbolTableRecord
100
AcDbLinetypeTableRecord
  2
DASHDOT
 70
     0
  3
Dash dot __ . __ . __ . __ . __ . __ . __ . __
 72
    65
 73
     4
 40
25.4
 49
12.7
 74
     0
 49
-6.349999999999999
 74
     0
 49
0.0
 74
     0
 49
-6.349999999999999
 74
     0
  0
LTYPE
  5
8D
330
5
100
AcDbSymbolTableRecord
100
AcDbLinetypeTableRecord
  2
DASHDOT2
 70
     0
  3
Dash dot (.5x) _._._._._._._._._._._._._._._.
 72
    65
 73
     4
 40
12.7
 49
6.349999999999999
 74
     0
 49
-3.174999999999999
 74
     0
 49
0.0
 74
     0
 49
-3.174999999999999
 74
     0
  0
LTYPE
  5
8E
330
5
100
AcDbSymbolTableRecord
100
AcDbLinetypeTableRecord
  2
DASHDOTX2
 70
     0
  3
Dash dot (2x) ____  .  ____  .  ____  .  ___
 72
    65
 73
     4
 40
50.8
 49
25.4
 74
     0
 49
-12.7
 74
     0
 49
0.0
 74
     0
 49
-12.7
 74
     0
  0
LTYPE
  5
8F
330
5
100
AcDbSymbolTableRecord
100
AcDbLinetypeTableRecord
  2
DASHED2
 70
     0
  3
Dashed (.5x) _ _ _ _ _ _ _ _ _ _ _ _ _ _ _ _ _
 72
    65
 73
     2
 40
9.524999999999998
 49
6.349999999999999
 74
     0
 49
-3.174999999999999
 74
     0
  0
LTYPE
  5
90
330
5
100
AcDbSymbolTableRecord
100
AcDbLinetypeTableRecord
  2
DASHEDX2
 70
     0
  3
Dashed (2x) ____  ____  ____  ____  ____  ___
 72
    65
 73
     2
 40
38.1
 49
25.4
 74
     0
 49
-12.7
 74
     0
  0
LTYPE
  5
91
330
5
100
AcDbSymbolTableRecord
100
AcDbLinetypeTableRecord
  2
DIVIDE
 70
     0
  3
Divide ____ . . ____ . . ____ . . ____ . . ____
 72
    65
 73
     6
 40
31.75
 49
12.7
 74
     0
 49
-6.349999999999999
 74
     0
 49
0.0
 74
     0
 49
-6.349999999999999
 74
     0
 49
0.0
 74
     0
 49
-6.349999999999999
 74
     0
  0
LTYPE
  5
92
330
5
100
AcDbSymbolTableRecord
100
AcDbLinetypeTableRecord
  2
DIVIDE2
 70
     0
  3
Divide (.5x) __..__..__..__..__..__..__..__.._
 72
    65
 73
     6
 40
15.875
 49
6.349999999999999
 74
     0
 49
-3.174999999999999
 74
     0
 49
0.0
 74
     0
 49
-3.174999999999999
 74
     0
 49
0.0
 74
     0
 49
-3.174999999999999
 74
     0
  0
LTYPE
  5
93
330
5
100
AcDbSymbolTableRecord
100
AcDbLinetypeTableRecord
  2
DIVIDEX2
 70
     0
  3
Divide (2x) ________  .  .  ________  .  .  _
 72
    65
 73
     6
 40
63.49999999999999
 49
25.4
 74
     0
 49
-12.7
 74
     0
 49
0.0
 74
     0
 49
-12.7
 74
     0
 49
0.0
 74
     0
 49
-12.7
 74
     0
  0
LTYPE
  5
94
330
5
100
AcDbSymbolTableRecord
100
AcDbLinetypeTableRecord
  2
DOT2
 70
     0
  3
Dot (.5x) .....................................
 72
    65
 73
     2
 40
3.174999999999999
 49
0.0
 74
     0
 49
-3.174999999999999
 74
     0
  0
LTYPE
  5
95
330
5
100
AcDbSymbolTableRecord
100
AcDbLinetypeTableRecord
  2
DOTX2
 70
     0
  3
Dot (2x) .  .  .  .  .  .  .  .  .  .  .  .  . 
 72
    65
 73
     2
 40
12.7
 49
0.0
 74
     0
 49
-12.7
 74
     0
  0
LTYPE
  5
96
330
5
100
AcDbSymbolTableRecord
100
AcDbLinetypeTableRecord
  2
HIDDEN
 70
     0
  3
Hidden __ __ __ __ __ __ __ __ __ __ __ __ __ _
 72
    65
 73
     2
 40
9.524999999999998
 49
6.349999999999999
 74
     0
 49
-3.174999999999999
 74
     0
  0
LTYPE
  5
97
330
5
100
AcDbSymbolTableRecord
100
AcDbLinetypeTableRecord
  2
HIDDEN2
 70
     0
  3
Hidden (.5x) _ _ _ _ _ _ _ _ _ _ _ _ _ _ _ _ _
 72
    65
 73
     2
 40
4.762499999999999
 49
3.174999999999999
 74
     0
 49
-1.587499999999999
 74
     0
  0
LTYPE
  5
98
330
5
100
AcDbSymbolTableRecord
100
AcDbLinetypeTableRecord
  2
HIDDENX2
 70
     0
  3
Hidden (2x) ____ ____ ____ ____ ____ ____ ____
 72
    65
 73
     2
 40
19.05
 49
12.7
 74
     0
 49
-6.349999999999999
 74
     0
  0
LTYPE
  5
99
330
5
100
AcDbSymbolTableRecord
100
AcDbLinetypeTableRecord
  2
PHANTOM
 70
     0
  3
Phantom ______  __  __  ______  __  __  ______
 72
    65
 73
     6
 40
63.5
 49
31.75
 74
     0
 49
-6.349999999999999
 74
     0
 49
6.349999999999999
 74
     0
 49
-6.349999999999999
 74
     0
 49
6.349999999999999
 74
     0
 49
-6.349999999999999
 74
     0
  0
LTYPE
  5
9A
330
5
100
AcDbSymbolTableRecord
100
AcDbLinetypeTableRecord
  2
PHANTOM2
 70
     0
  3
Phantom (.5x) ___ _ _ ___ _ _ ___ _ _ ___ _ _
 72
    65
 73
     6
 40
31.75
 49
15.875
 74
     0
 49
-3.174999999999999
 74
     0
 49
3.174999999999999
 74
     0
 49
-3.174999999999999
 74
     0
 49
3.174999999999999
 74
     0
 49
-3.174999999999999
 74
     0
  0
LTYPE
  5
9B
330
5
100
AcDbSymbolTableRecord
100
AcDbLinetypeTableRecord
  2
PHANTOMX2
 70
     0
  3
Phantom (2x) ____________    ____    ____   _
 72
    65
 73
     6
 40
127.0
 49
63.5
 74
     0
 49
-12.7
 74
     0
 49
12.7
 74
     0
 49
-12.7
 74
     0
 49
12.7
 74
     0
 49
-12.7
 74
     0
  0
LTYPE
  5
9C
330
5
100
AcDbSymbolTableRecord
100
AcDbLinetypeTableRecord
  2
ACAD_ISO02W100
 70
     0
  3
ISO dash __ __ __ __ __ __ __ __ __ __ __ __ __
 72
    65
 73
     2
 40
15.0
 49
12.0
 74
     0
 49
-3.0
 74
     0
  0
LTYPE
  5
9D
330
5
100
AcDbSymbolTableRecord
100
AcDbLinetypeTableRecord
  2
ACAD_ISO03W100
 70
     0
  3
ISO dash space __    __    __    __    __    __
 72
    65
 73
     2
 40
30.0
 49
12.0
 74
     0
 49
-18.0
 74
     0
  0
LTYPE
  5
9E
330
5
100
AcDbSymbolTableRecord
100
AcDbLinetypeTableRecord
  2
ACAD_ISO04W100
 70
     0
  3
ISO long-dash dot ____ . ____ . ____ . ____ . _
 72
    65
 73
     4
 40
30.0
 49
24.0
 74
     0
 49
-3.0
 74
     0
 49
0.0
 74
     0
 49
-3.0
 74
     0
  0
LTYPE
  5
9F
330
5
100
AcDbSymbolTableRecord
100
AcDbLinetypeTableRecord
  2
ACAD_ISO05W100
 70
     0
  3
ISO long-dash double-dot ____ .. ____ .. ____ .
 72
    65
 73
     6
 40
33.0
 49
24.0
 74
     0
 49
-3.0
 74
     0
 49
0.0
 74
     0
 49
-3.0
 74
     0
 49
0.0
 74
     0
 49
-3.0
 74
     0
  0
LTYPE
  5
A0
330
5
100
AcDbSymbolTableRecord
100
AcDbLinetypeTableRecord
  2
ACAD_ISO06W100
 70
     0
  3
ISO long-dash triple-dot ____ ... ____ ... ____
 72
    65
 73
     8
 40
36.0
 49
24.0
 74
     0
 49
-3.0
 74
     0
 49
0.0
 74
     0
 49
-3.0
 74
     0
 49
0.0
 74
     0
 49
-3.0
 74
     0
 49
0.0
 74
     0
 49
-3.0
 74
     0
  0
LTYPE
  5
A1
330
5
100
AcDbSymbolTableRecord
100
AcDbLinetypeTableRecord
  2
ACAD_ISO07W100
 70
     0
  3
ISO dot . . . . . . . . . . . . . . . . . . . .
 72
    65
 73
     2
 40
3.0
 49
0.0
 74
     0
 49
-3.0
 74
     0
  0
LTYPE
  5
A2
330
5
100
AcDbSymbolTableRecord
100
AcDbLinetypeTableRecord
  2
ACAD_ISO08W100
 70
     0
  3
ISO long-dash short-dash ____ __ ____ __ ____ _
 72
    65
 73
     4
 40
36.0
 49
24.0
 74
     0
 49
-3.0
 74
     0
 49
6.0
 74
     0
 49
-3.0
 74
     0
  0
LTYPE
  5
A3
330
5
100
AcDbSymbolTableRecord
100
AcDbLinetypeTableRecord
  2
ACAD_ISO09W100
 70
     0
  3
ISO long-dash double-short-dash ____ __ __ ____
 72
    65
 73
     6
 40
45.0
 49
24.0
 74
     0
 49
-3.0
 74
     0
 49
6.0
 74
     0
 49
-3.0
 74
     0
 49
6.0
 74
     0
 49
-3.0
 74
     0
  0
LTYPE
  5
A4
330
5
100
AcDbSymbolTableRecord
100
AcDbLinetypeTableRecord
  2
ACAD_ISO10W100
 70
     0
  3
ISO dash dot __ . __ . __ . __ . __ . __ . __ .
 72
    65
 73
     4
 40
18.0
 49
12.0
 74
     0
 49
-3.0
 74
     0
 49
0.0
 74
     0
 49
-3.0
 74
     0
  0
LTYPE
  5
A5
330
5
100
AcDbSymbolTableRecord
100
AcDbLinetypeTableRecord
  2
ACAD_ISO11W100
 70
     0
  3
ISO double-dash dot __ __ . __ __ . __ __ . __ 
 72
    65
 73
     6
 40
33.0
 49
12.0
 74
     0
 49
-3.0
 74
     0
 49
12.0
 74
     0
 49
-3.0
 74
     0
 49
0.0
 74
     0
 49
-3.0
 74
     0
  0
LTYPE
  5
A6
330
5
100
AcDbSymbolTableRecord
100
AcDbLinetypeTableRecord
  2
ACAD_ISO12W100
 70
     0
  3
ISO dash double-dot __ . . __ . . __ . . __ . .
 72
    65
 73
     6
 40
21.0
 49
12.0
 74
     0
 49
-3.0
 74
     0
 49
0.0
 74
     0
 49
-3.0
 74
     0
 49
0.0
 74
     0
 49
-3.0
 74
     0
  0
LTYPE
  5
A7
330
5
100
AcDbSymbolTableRecord
100
AcDbLinetypeTableRecord
  2
ACAD_ISO13W100
 70
     0
  3
ISO double-dash double-dot __ __ . . __ __ . . 
 72
    65
 73
     8
 40
36.0
 49
12.0
 74
     0
 49
-3.0
 74
     0
 49
12.0
 74
     0
 49
-3.0
 74
     0
 49
0.0
 74
     0
 49
-3.0
 74
     0
 49
0.0
 74
     0
 49
-3.0
 74
     0
  0
LTYPE
  5
A8
330
5
100
AcDbSymbolTableRecord
100
AcDbLinetypeTableRecord
  2
ACAD_ISO14W100
 70
     0
  3
ISO dash triple-dot __ . . . __ . . . __ . . . 
 72
    65
 73
     8
 40
24.0
 49
12.0
 74
     0
 49
-3.0
 74
     0
 49
0.0
 74
     0
 49
-3.0
 74
     0
 49
0.0
 74
     0
 49
-3.0
 74
     0
 49
0.0
 74
     0
 49
-3.0
 74
     0
  0
LTYPE
  5
A9
330
5
100
AcDbSymbolTableRecord
100
AcDbLinetypeTableRecord
  2
ACAD_ISO15W100
 70
     0
  3
ISO double-dash triple-dot __ __ . . . __ __ . 
 72
    65
 73
    10
 40
39.0
 49
12.0
 74
     0
 49
-3.0
 74
     0
 49
12.0
 74
     0
 49
-3.0
 74
     0
 49
0.0
 74
     0
 49
-3.0
 74
     0
 49
0.0
 74
     0
 49
-3.0
 74
     0
 49
0.0
 74
     0
 49
-3.0
 74
     0
  0
LTYPE
  5
AC
330
5
100
AcDbSymbolTableRecord
100
AcDbLinetypeTableRecord
  2
FENCELINE1
 70
     0
  3
Fenceline circle ----0-----0----0-----0----0---
 72
    65
 73
     4
 40
36.83
 49
6.349999999999999
 74
     0
 49
-2.54
 74
     4
 75
   133
340
AB
 46
2.54
 50
0.0
 44
-2.54
 45
0.0
 49
-2.54
 74
     0
 49
25.4
 74
     0
  0
LTYPE
  5
AD
330
5
100
AcDbSymbolTableRecord
100
AcDbLinetypeTableRecord
  2
FENCELINE2
 70
     0
  3
Fenceline square ----[]-----[]----[]-----[]----
 72
    65
 73
     4
 40
36.83
 49
6.349999999999999
 74
     0
 49
-2.54
 74
     4
 75
   132
340
AB
 46
2.54
 50
0.0
 44
-2.54
 45
0.0
 49
-2.54
 74
     0
 49
25.4
 74
     0
  0
LTYPE
  5
AE
330
5
100
AcDbSymbolTableRecord
100
AcDbLinetypeTableRecord
  2
TRACKS
 70
     0
  3
Tracks -|-|-|-|-|-|-|-|-|-|-|-|-|-|-|-|-|-|-|-|
 72
    65
 73
     2
 40
7.62
 49
3.81
 74
     4
 75
   130
340
AB
 46
6.349999999999999
 50
0.0
 44
0.0
 45
0.0
 49
3.81
 74
     0
  0
LTYPE
  5
AF
330
5
100
AcDbSymbolTableRecord
100
AcDbLinetypeTableRecord
  2
BATTING
 70
     0
  3
Batting SSSSSSSSSSSSSSSSSSSSSSSSSSSSSSSSSSSSSSS
 72
    65
 73
     4
 40
10.16254
 49
0.00254
 74
     0
 49
-2.54
 74
     4
 75
   134
340
AB
 46
2.54
 50
0.0
 44
-2.54
 45
0.0
 49
-5.08
 74
     4
 75
   134
340
AB
 46
2.54
 50
180.0
 44
2.54
 45
0.0
 49
-2.54
 74
     0
  0
LTYPE
  5
B0
330
5
100
AcDbSymbolTableRecord
100
AcDbLinetypeTableRecord
  2
HOT_WATER_SUPPLY
 70
     0
  3
Hot water supply ---- HW ---- HW ---- HW ----
 72
    65
 73
     3
 40
22.86
 49
12.7
 74
     0
 49
-5.08
 74
     2
 75
     0
340
55
 46
2.54
 50
0.0
 44
-2.54
 45
-1.27
  9
HW
 49
-5.08
 74
     0
  0
LTYPE
  5
B1
330
5
100
AcDbSymbolTableRecord
100
AcDbLinetypeTableRecord
  2
GAS_LINE
 70
     0
  3
Gas line ----GAS----GAS----GAS----GAS----GAS---
 72
    65
 73
     3
 40
24.13
 49
12.7
 74
     0
 49
-5.08
 74
     2
 75
     0
340
55
 46
2.54
 50
0.0
 44
-2.54
 45
-1.27
  9
GAS
 49
-6.349999999999999
 74
     0
  0
LTYPE
  5
B2
330
5
100
AcDbSymbolTableRecord
100
AcDbLinetypeTableRecord
  2
ZIGZAG
 70
     0
  3
Zig zag /\/\/\/\/\/\/\/\/\/\/\/\/\/\/\/\/\/\/\/
 72
    65
 73
     4
 40
20.32254
 49
0.00254
 74
     0
 49
-5.08
 74
     4
 75
   131
340
AB
 46
5.08
 50
0.0
 44
-5.08
 45
0.0
 49
-10.16
 74
     4
 75
   131
340
AB
 46
5.08
 50
180.0
 44
5.08
 45
0.0
 49
-5.08
 74
     0
  0
ENDTAB
  0
TABLE
  2
LAYER
  5
2
330
0
100
AcDbSymbolTable
 70
    30
  0
LAYER
  5
54
330
2
100
AcDbSymbolTableRecord
100
AcDbLayerTableRecord
  2
0
 70
     0
 62
     7
  6
Continuous
370
    25
390
F
347
21
  0
LAYER
  5
B3
330
2
100
AcDbSymbolTableRecord
100
AcDbLayerTableRecord
  2
1
 70
     0
 62
     9
420
 12566463
  6
Continuous
370
    25
390
F
347
21
  0
LAYER
  5
B5
330
2
100
AcDbSymbolTableRecord
100
AcDbLayerTableRecord
  2
6
 70
     0
 62
     2
420
 16776960
  6
Continuous
370
    25
390
F
347
21
  0
LAYER
  5
B6
330
2
100
AcDbSymbolTableRecord
100
AcDbLayerTableRecord
  2
AM_6
 70
     0
 62
     2
420
 16776960
  6
Continuous
370
    35
390
F
347
21
  0
LAYER
  5
C6
330
2
100
AcDbSymbolTableRecord
100
AcDbLayerTableRecord
  2
Sketch Geometry (ISO)
 70
     0
 62
     7
  6
Continuous
370
    25
390
F
347
21
  0
LAYER
  5
C7
330
2
100
AcDbSymbolTableRecord
100
AcDbLayerTableRecord
  2
Symbol (ISO)
 70
     0
 62
     7
  6
Continuous
370
    25
390
F
347
21
  0
LAYER
  5
CA
330
2
100
AcDbSymbolTableRecord
100
AcDbLayerTableRecord
  2
Visible (ISO)
 70
     0
 62
     7
  6
Continuous
370
    35
390
F
347
21
  0
LAYER
  5
CB
330
2
100
AcDbSymbolTableRecord
100
AcDbLayerTableRecord
  2
Visible Narrow (ISO)
 70
     0
 62
     7
  6
Continuous
370
    35
390
F
347
21
  0
ENDTAB
  0
TABLE
  2
STYLE
  5
3
330
0
100
AcDbSymbolTable
 70
    17
  0
STYLE
  5
55
330
3
100
AcDbSymbolTableRecord
100
AcDbTextStyleTableRecord
  2
Standard
 70
     0
 40
0.0
 41
1.0
 50
0.0
 71
     0
 42
0.2
  3
tahoma.ttf
  4

1001
ACAD
1000
Tahoma
1071
      256
  0
STYLE
  5
5A
330
3
100
AcDbSymbolTableRecord
100
AcDbTextStyleTableRecord
  2
Annotative
 70
     0
 40
0.0
 41
1.0
 50
0.0
 71
     0
 42
0.2
  3
txt
  4

1001
AcadAnnotative
1000
AnnotativeData
1002
{
1070
     1
1070
     1
1002
}
  0
STYLE
  5
AB
330
3
100
AcDbSymbolTableRecord
100
AcDbTextStyleTableRecord
  2

 70
     1
 40
0.0
 41
1.0
 50
0.0
 71
     0
 42
0.2
  3
ltypeshp.shx
  4

  0
STYLE
  5
D0
330
3
100
AcDbSymbolTableRecord
100
AcDbTextStyleTableRecord
  2
Label Text (JIS)
 70
     0
 40
0.0
 41
1.0
 50
0.0
 71
     0
 42
0.2
  3

  4

1001
ACAD
1000
MS PGothic
1071
      256
  0
STYLE
  5
D1
330
3
100
AcDbSymbolTableRecord
100
AcDbTextStyleTableRecord
  2
Note Text (JIS)
 70
     0
 40
0.0
 41
1.0
 50
0.0
 71
     0
 42
0.2
  3

  4

1001
ACAD
1000
MS PGothic
1071
      256
  0
STYLE
  5
D2
330
3
100
AcDbSymbolTableRecord
100
AcDbTextStyleTableRecord
  2
ｽﾀｲﾙ1_35
 70
     0
 40
0.0
 41
1.0
 50
0.0
 71
     0
 42
0.2
  3

  4

1001
ACAD
1000
HGPSoeiKakugothicUB
1071
      256
  0
STYLE
  5
10F
330
3
100
AcDbSymbolTableRecord
100
AcDbTextStyleTableRecord
  2
文字スタイル256
 70
     0
 40
0.0
 41
1.0
 50
0.0
 71
     0
 42
0.2
  3
ISOCP.shx
  4

  0
STYLE
  5
12F
330
3
100
AcDbSymbolTableRecord
100
AcDbTextStyleTableRecord
  2
文字スタイル251
 70
     0
 40
0.0
 41
0.5
 50
0.0
 71
     0
 42
0.2
  3
ISOCP.shx
  4

  0
STYLE
  5
134
330
3
100
AcDbSymbolTableRecord
100
AcDbTextStyleTableRecord
  2
文字スタイル253
 70
     0
 40
0.0
 41
0.8000000119209289
 50
0.0
 71
     0
 42
0.2
  3
ISOCP.shx
  4

  0
STYLE
  5
136
330
3
100
AcDbSymbolTableRecord
100
AcDbTextStyleTableRecord
  2
文字スタイル249
 70
     0
 40
0.0
 41
1.0
 50
0.0
 71
     0
 42
0.2
  3
ISOCP.shx
  4

  0
STYLE
  5
142
330
3
100
AcDbSymbolTableRecord
100
AcDbTextStyleTableRecord
  2
文字スタイル241
 70
     0
 40
0.0
 41
1.0
 50
0.0
 71
     0
 42
0.2
  3
tahoma.ttf
  4

1001
ACAD
1000
Tahoma
1071
      256
  0
STYLE
  5
14D
330
3
100
AcDbSymbolTableRecord
100
AcDbTextStyleTableRecord
  2
文字スタイル245
 70
     0
 40
0.0
 41
0.7031300067901612
 50
0.0
 71
     0
 42
0.2
  3
tahoma.ttf
  4

1001
ACAD
1000
Tahoma
1071
      256
  0
STYLE
  5
160
330
3
100
AcDbSymbolTableRecord
100
AcDbTextStyleTableRecord
  2
文字スタイル240
 70
     0
 40
0.0
 41
1.036877036094665
 50
0.0
 71
     0
 42
0.2
  3
tahoma.ttf
  4

1001
ACAD
1000
Tahoma
1071
      256
  0
STYLE
  5
162
330
3
100
AcDbSymbolTableRecord
100
AcDbTextStyleTableRecord
  2
文字スタイル247
 70
     0
 40
0.0
 41
0.9907101988792419
 50
0.0
 71
     0
 42
0.2
  3
tahoma.ttf
  4

1001
ACAD
1000
Tahoma
1071
      256
  0
STYLE
  5
172
330
3
100
AcDbSymbolTableRecord
100
AcDbTextStyleTableRecord
  2
文字スタイル124
 70
     0
 40
0.0
 41
1.0
 50
0.0
 71
     0
 42
0.2
  3

  4

1001
ACAD
1000
MS PGothic
1071
      256
  0
STYLE
  5
184
330
3
100
AcDbSymbolTableRecord
100
AcDbTextStyleTableRecord
  2
文字スタイル126
 70
     0
 40
0.0
 41
1.0
 50
0.0
 71
     0
 42
0.2
  3

  4

1001
ACAD
1000
MS PGothic
1071
      256
  0
STYLE
  5
1A5
330
3
100
AcDbSymbolTableRecord
100
AcDbTextStyleTableRecord
  2
文字スタイル133
 70
     0
 40
0.0
 41
1.0
 50
0.0
 71
     0
 42
0.2
  3
ISOCP.shx
  4

  0
ENDTAB
  0
TABLE
  2
VIEW
  5
6
330
0
100
AcDbSymbolTable
 70
     0
  0
ENDTAB
  0
TABLE
  2
UCS
  5
7
330
0
100
AcDbSymbolTable
 70
     0
  0
ENDTAB
  0
TABLE
  2
APPID
  5
9
330
0
100
AcDbSymbolTable
 70
     2
  0
APPID
  5
56
330
9
100
AcDbSymbolTableRecord
100
AcDbRegAppTableRecord
  2
ACAD
 70
     0
  0
APPID
  5
5E
330
9
100
AcDbSymbolTableRecord
100
AcDbRegAppTableRecord
  2
AcadAnnotative
 70
     0
  0
ENDTAB
  0
TABLE
  2
DIMSTYLE
  5
A
330
0
100
AcDbSymbolTable
 70
    11
100
AcDbDimStyleTable
 71
     0
  0
DIMSTYLE
105
58
330
A
100
AcDbSymbolTableRecord
100
AcDbDimStyleTableRecord
  2
Standard
 70
     0
340
55
  0
DIMSTYLE
105
59
330
A
100
AcDbSymbolTableRecord
100
AcDbDimStyleTableRecord
  2
Annotative
 70
     0
340
55
1001
AcadAnnotative
1000
AnnotativeData
1002
{
1070
     1
1070
     1
1002
}
  0
DIMSTYLE
105
D3
330
A
100
AcDbSymbolTableRecord
100
AcDbDimStyleTableRecord
  2
Default - Method 1b (JIS)
 70
     0
 41
2.5
 42
0.0
 43
5.999999999999999
 44
3.174999999999999
 45
0.00000001
 46
10.0
 73
     0
 77
     1
 78
     8
 79
     2
140
2.5
143
0.03937
146
1.799999952316284
147
0.8
171
     3
172
     1
176
   256
177
   256
178
   256
271
     2
272
     2
274
     3
284
     8
286
     8
340
D1
371
    -1
372
    -1
  0
DIMSTYLE
105
D4
330
A
100
AcDbSymbolTableRecord
100
AcDbDimStyleTableRecord
  2
Default - Method 1b (JIS)$7
 70
     0
 41
2.5
 42
0.0
 43
5.999999999999999
 44
3.174999999999999
 45
0.00000001
 46
10.0
 73
     0
 77
     1
 78
     8
 79
     2
140
2.5
143
0.03937
146
1.799999952316284
147
0.8
171
     3
172
     1
176
   256
177
   256
178
   256
271
     2
272
     2
274
     3
284
     8
286
     8
340
D1
371
    -1
372
    -1
  0
DIMSTYLE
105
D5
330
A
100
AcDbSymbolTableRecord
100
AcDbDimStyleTableRecord
  2
Default - Method 2 (JIS)
 70
     0
 41
2.5
 42
0.0
 43
5.999999999999999
 44
3.174999999999999
 45
0.00000001
 46
10.0
 77
     1
 78
     8
 79
     2
140
2.5
143
0.03937
146
1.799999952316284
147
0.8
171
     3
172
     1
176
   256
177
   256
178
   256
271
     2
272
     2
274
     3
284
     8
286
     8
340
D1
371
    -1
372
    -1
  0
DIMSTYLE
105
D6
330
A
100
AcDbSymbolTableRecord
100
AcDbDimStyleTableRecord
  2
Default - Method 2 (JIS)$7
 70
     0
 41
2.5
 42
0.0
 43
5.999999999999999
 44
3.174999999999999
 45
0.00000001
 46
10.0
 77
     1
 78
     8
 79
     2
140
2.5
143
0.03937
146
1.799999952316284
147
0.8
171
     3
172
     1
176
   256
177
   256
178
   256
271
     2
272
     2
274
     3
284
     8
286
     8
340
D1
371
    -1
372
    -1
  0
DIMSTYLE
105
D7
330
A
100
AcDbSymbolTableRecord
100
AcDbDimStyleTableRecord
  2
Default (JIS)
 70
     0
 41
2.5
 42
0.0
 43
5.999999999999999
 44
1.0
 45
0.00000001
 46
10.0
 73
     0
 74
     0
 77
     1
 78
     8
 79
     2
140
2.5
143
0.03937
147
0.8
171
     3
172
     1
176
   256
177
   256
178
   256
271
     2
272
     2
274
     3
340
D1
371
    -1
372
    -1
  0
DIMSTYLE
105
D8
330
A
100
AcDbSymbolTableRecord
100
AcDbDimStyleTableRecord
  2
Default (JIS)$7
 70
     0
 41
2.5
 42
0.0
 43
5.999999999999999
 44
1.0
 45
0.00000001
 46
10.0
 73
     0
 74
     0
 77
     1
 78
     8
 79
     2
140
2.5
143
0.03937
147
0.8
171
     3
172
     1
176
   256
177
   256
178
   256
271
     2
272
     2
274
     3
340
D1
371
    -1
372
    -1
  0
DIMSTYLE
105
D9
330
A
100
AcDbSymbolTableRecord
100
AcDbDimStyleTableRecord
  2
Alternate (ISO)
 70
     0
 41
2.5
340
55
  0
DIMSTYLE
105
E5
330
A
100
AcDbSymbolTableRecord
100
AcDbDimStyleTableRecord
  2
Datum (ISO)
 70
     0
 41
2.5
340
55
  0
DIMSTYLE
105
F4
330
A
100
AcDbSymbolTableRecord
100
AcDbDimStyleTableRecord
  2
Large (ISO)
 70
     0
 41
5.0
340
55
  0
ENDTAB
  0
TABLE
  2
BLOCK_RECORD
  5
1
330
0
100
AcDbSymbolTable
 70
    25
  0
BLOCK_RECORD
  5
70
330
1
100
AcDbSymbolTableRecord
100
AcDbBlockTableRecord
  2
*Model_Space
340
73
 70
     0
280
     1
281
     0
  0
BLOCK_RECORD
  5
6C
330
1
100
AcDbSymbolTableRecord
100
AcDbBlockTableRecord
  2
*Paper_Space
340
6F
 70
     0
280
     1
281
     0
  0
BLOCK_RECORD
  5
74
330
1
100
AcDbSymbolTableRecord
100
AcDbBlockTableRecord
  2
*Paper_Space0
340
77
 70
     0
280
     1
281
     0
  0
BLOCK_RECORD
  5
DA
330
1
100
AcDbSymbolTableRecord
100
AcDbBlockTableRecord
  2
DatumFilled45
340
0
 70
     0
280
     1
281
     0
  0
BLOCK_RECORD
  5
E6
330
1
100
AcDbSymbolTableRecord
100
AcDbBlockTableRecord
  2
Filled-1
340
0
 70
     0
280
     1
281
     0
  0
BLOCK_RECORD
  5
F5
330
1
100
AcDbSymbolTableRecord
100
AcDbBlockTableRecord
  2
許容差
340
0
 70
     0
280
     1
281
     0
  0
BLOCK_RECORD
  5
164
330
1
100
AcDbSymbolTableRecord
100
AcDbBlockTableRecord
  2
バルブ仕様表
340
0
 70
     0
280
     1
281
     0
  0
BLOCK_RECORD
  5
17C
330
1
100
AcDbSymbolTableRecord
100
AcDbBlockTableRecord
  2
バルブ開閉R1
340
0
 70
     0
280
     1
281
     0
  0
BLOCK_RECORD
  5
187
330
1
100
AcDbSymbolTableRecord
100
AcDbBlockTableRecord
  2
バルブ開閉R2
340
0
 70
     0
280
     1
281
     0
  0
BLOCK_RECORD
  5
191
330
1
100
AcDbSymbolTableRecord
100
AcDbBlockTableRecord
  2
ｴｰｽﾎﾞｰﾙｿｹｯﾄ・本体注釈①
340
0
 70
     0
280
     1
281
     0
  0
BLOCK_RECORD
  5
195
330
1
100
AcDbSymbolTableRecord
100
AcDbBlockTableRecord
  2
バルブ仕様書①
340
0
 70
     0
280
     1
281
     0
  0
BLOCK_RECORD
  5
1A7
330
1
100
AcDbSymbolTableRecord
100
AcDbBlockTableRecord
  2
ストッパー加工注釈
340
0
 70
     0
280
     1
281
     0
  0
BLOCK_RECORD
  5
1AB
330
1
100
AcDbSymbolTableRecord
100
AcDbBlockTableRecord
  2
三方弁説明A
340
0
 70
     0
280
     1
281
     0
  0
BLOCK_RECORD
  5
1AF
330
1
100
AcDbSymbolTableRecord
100
AcDbBlockTableRecord
  2
三方弁説明B
340
0
 70
     0
280
     1
281
     0
  0
BLOCK_RECORD
  5
1B3
330
1
100
AcDbSymbolTableRecord
100
AcDbBlockTableRecord
  2
三方弁説明C
340
0
 70
     0
280
     1
281
     0
  0
BLOCK_RECORD
  5
1B7
330
1
100
AcDbSymbolTableRecord
100
AcDbBlockTableRecord
  2
三方弁流れ方向
340
0
 70
     0
280
     1
281
     0
  0
BLOCK_RECORD
  5
1C2
330
1
100
AcDbSymbolTableRecord
100
AcDbBlockTableRecord
  2
四面シート流れ方向
340
0
 70
     0
280
     1
281
     0
  0
BLOCK_RECORD
  5
1CD
330
1
100
AcDbSymbolTableRecord
100
AcDbBlockTableRecord
  2
継手使用条件
340
0
 70
     0
280
     1
281
     0
  0
BLOCK_RECORD
  5
1DE
330
1
100
AcDbSymbolTableRecord
100
AcDbBlockTableRecord
  2
3方弁流れ方向B
340
0
 70
     0
280
     1
281
     0
  0
BLOCK_RECORD
  5
1E8
330
1
100
AcDbSymbolTableRecord
100
AcDbBlockTableRecord
  2
3方弁流れ方向A
340
0
 70
     0
280
     1
281
     0
  0
BLOCK_RECORD
  5
1EF
330
1
100
AcDbSymbolTableRecord
100
AcDbBlockTableRecord
  2
バルブ仕様表Ver1.01
340
0
 70
     0
280
     1
281
     0
  0
BLOCK_RECORD
  5
208
330
1
100
AcDbSymbolTableRecord
100
AcDbBlockTableRecord
  2
バルブ仕様表Ver1.00
340
0
 70
     0
280
     1
281
     0
  0
BLOCK_RECORD
  5
21E
330
1
100
AcDbSymbolTableRecord
100
AcDbBlockTableRecord
  2
3方弁T説明A
340
0
 70
     0
280
     1
281
     0
  0
BLOCK_RECORD
  5
222
330
1
100
AcDbSymbolTableRecord
100
AcDbBlockTableRecord
  2
3方弁T説明B
340
0
 70
     0
280
     1
281
     0
  0
BLOCK_RECORD
  5
226
330
1
100
AcDbSymbolTableRecord
100
AcDbBlockTableRecord
  2
バルブ仕様表Ver1.02
340
0
 70
     0
280
     1
281
     0
  0
BLOCK_RECORD
  5
23F
330
1
100
AcDbSymbolTableRecord
100
AcDbBlockTableRecord
  2
バルブ仕様表Ver1.03
340
0
 70
     0
280
     1
281
     0
  0
BLOCK_RECORD
  5
253
330
1
100
AcDbSymbolTableRecord
100
AcDbBlockTableRecord
  2
バルブ検査スペック表Ver1.00
340
0
 70
     0
280
     1
281
     0
  0
ENDTAB
  0
ENDSEC
  0
SECTION
  2
BLOCKS
  0
BLOCK
  5
71
330
70
100
AcDbEntity
  8
0
100
AcDbBlockBegin
  2
*Model_Space
 70
     0
 10
0.0
 20
0.0
 30
0.0
  3
*Model_Space
  1

  0
ENDBLK
  5
72
330
70
100
AcDbEntity
  8
0
100
AcDbBlockEnd
  0
BLOCK
  5
6D
330
6C
100
AcDbEntity
 67
     1
  8
0
100
AcDbBlockBegin
  2
*Paper_Space
 70
     0
 10
0.0
 20
0.0
 30
0.0
  3
*Paper_Space
  1

  0
ENDBLK
  5
6E
330
6C
100
AcDbEntity
 67
     1
  8
0
100
AcDbBlockEnd
  0
BLOCK
  5
75
330
74
100
AcDbEntity
 67
     1
  8
0
100
AcDbBlockBegin
  2
*Paper_Space0
 70
     0
 10
0.0
 20
0.0
 30
0.0
  3
*Paper_Space0
  1

  0
ENDBLK
  5
76
330
74
100
AcDbEntity
 67
     1
  8
0
100
AcDbBlockEnd
  0
BLOCK
  5
DB
330
DA
100
AcDbEntity
  8
0
100
AcDbBlockBegin
  2
DatumFilled45
 70
     0
 10
0.0
 20
0.0
 30
0.0
  3
DatumFilled45
  1

  0
POLYLINE
  5
DD
330
DA
100
AcDbEntity
  8
0
 62
     0
100
AcDb2dPolyline
 66
     1
 10
0.0
 20
0.0
 30
0.0
 70
   128
  0
VERTEX
  5
DE
330
DD
100
AcDbEntity
  8
0
 62
     0
100
AcDbVertex
100
AcDb2dVertex
 10
0.0
 20
1.0
 30
0.0
  0
VERTEX
  5
DF
330
DD
100
AcDbEntity
  8
0
 62
     0
100
AcDbVertex
100
AcDb2dVertex
 10
0.0
 20
-1.0
 30
0.0
  0
VERTEX
  5
E1
330
DD
100
AcDbEntity
  8
0
 62
     0
100
AcDbVertex
100
AcDb2dVertex
 10
-1.0
 20
0.0
 30
0.0
  0
VERTEX
  5
E2
330
DD
100
AcDbEntity
  8
0
 62
     0
100
AcDbVertex
100
AcDb2dVertex
 10
0.0
 20
1.0
 30
0.0
  0
SEQEND
  5
E0
330
DD
100
AcDbEntity
  8
0
 62
     0
  0
SOLID
  5
E4
330
DA
100
AcDbEntity
  8
0
 62
     0
100
AcDbTrace
 10
0.0
 20
1.0
 30
0.0
 11
0.0
 21
-1.0
 31
0.0
 12
-1.0
 22
0.0
 32
0.0
 13
0.0
 23
1.0
 33
0.0
  0
ENDBLK
  5
DC
330
DA
100
AcDbEntity
  8
0
100
AcDbBlockEnd
  0
BLOCK
  5
E7
330
E6
100
AcDbEntity
  8
0
100
AcDbBlockBegin
  2
Filled-1
 70
     0
 10
0.0
 20
0.0
 30
0.0
  3
Filled-1
  1

  0
LINE
  5
E9
330
E6
100
AcDbEntity
  8
0
 62
     0
100
AcDbLine
 10
-1.0
 20
0.0
 30
0.0
 11
0.0
 21
0.0
 31
0.0
  0
POLYLINE
  5
EA
330
E6
100
AcDbEntity
  8
0
 62
     0
100
AcDb2dPolyline
 66
     1
 10
0.0
 20
0.0
 30
0.0
 70
   128
  0
VERTEX
  5
EB
330
EA
100
AcDbEntity
  8
0
 62
     0
100
AcDbVertex
100
AcDb2dVertex
 10
-1.0
 20
-0.1
 30
0.0
  0
VERTEX
  5
EC
330
EA
100
AcDbEntity
  8
0
 62
     0
100
AcDbVertex
100
AcDb2dVertex
 10
0.0
 20
0.0
 30
0.0
  0
VERTEX
  5
EE
330
EA
100
AcDbEntity
  8
0
 62
     0
100
AcDbVertex
100
AcDb2dVertex
 10
-1.0
 20
0.1
 30
0.0
  0
VERTEX
  5
EF
330
EA
100
AcDbEntity
  8
0
 62
     0
100
AcDbVertex
100
AcDb2dVertex
 10
-1.0
 20
-0.1
 30
0.0
  0
SEQEND
  5
ED
330
EA
100
AcDbEntity
  8
0
 62
     0
  0
SOLID
  5
F0
330
E6
100
AcDbEntity
  8
0
 62
     0
100
AcDbTrace
 10
-1.0
 20
-0.1
 30
0.0
 11
0.0
 21
0.0
 31
0.0
 12
-1.0
 22
0.1
 32
0.0
 13
-1.0
 23
-0.1
 33
0.0
  0
LINE
  5
F1
330
E6
100
AcDbEntity
  8
0
 62
     0
100
AcDbLine
 10
-1.0
 20
-0.1
 30
0.0
 11
0.0
 21
0.0
 31
0.0
  0
LINE
  5
F2
330
E6
100
AcDbEntity
  8
0
 62
     0
100
AcDbLine
 10
0.0
 20
0.0
 30
0.0
 11
-1.0
 21
0.1
 31
0.0
  0
LINE
  5
F3
330
E6
100
AcDbEntity
  8
0
 62
     0
100
AcDbLine
 10
-1.0
 20
0.1
 30
0.0
 11
-1.0
 21
-0.1
 31
0.0
  0
ENDBLK
  5
E8
330
E6
100
AcDbEntity
  8
0
100
AcDbBlockEnd
  0
BLOCK
  5
F6
330
F5
100
AcDbEntity
  8
0
100
AcDbBlockBegin
  2
許容差
 70
     0
 10
0.0
 20
0.0
 30
0.0
  3
許容差
  1

  0
LINE
  5
F8
330
F5
100
AcDbEntity
  8
1
  6
Continuous
370
    25
100
AcDbLine
 10
-87.18828935074567
 20
-40.27362616302236
 30
0.0
 11
0.0
 21
-40.27362616302236
 31
0.0
  0
LINE
  5
F9
330
F5
100
AcDbEntity
  8
1
  6
Continuous
 62
     7
370
    25
100
AcDbLine
 10
0.0
 20
-40.27362616302236
 30
0.0
 11
0.0
 21
0.0
 31
0.0
  0
LINE
  5
FA
330
F5
100
AcDbEntity
  8
1
  6
Continuous
 62
     7
370
    25
100
AcDbLine
 10
0.0
 20
0.0
 30
0.0
 11
-87.18828935074567
 21
0.0
 31
0.0
  0
LINE
  5
FB
330
F5
100
AcDbEntity
  8
1
  6
Continuous
 62
     7
370
    25
100
AcDbLine
 10
-87.18828935074567
 20
0.0
 30
0.0
 11
-87.18828935074567
 21
-40.27362616302236
 31
0.0
  0
LINE
  5
FC
330
F5
100
AcDbEntity
  8
6
  6
Continuous
 62
     7
370
    25
100
AcDbLine
 10
0.0
 20
-34.36737616302109
 30
0.0
 11
-87.188289350748
 21
-34.36737616302173
 31
0.0
  0
LINE
  5
FD
330
F5
100
AcDbEntity
  8
6
  6
Continuous
 62
     7
370
    25
100
AcDbLine
 10
0.0
 20
-28.46112616301621
 30
0.0
 11
-87.18828935074567
 21
-28.46112616301621
 31
0.0
  0
LINE
  5
FE
330
F5
100
AcDbEntity
  8
6
  6
Continuous
 62
     7
370
    25
100
AcDbLine
 10
0.0
 20
-22.55487616303334
 30
0.0
 11
-87.188289350748
 21
-22.5548761630354
 31
0.0
  0
LINE
  5
FF
330
F5
100
AcDbEntity
  8
6
  6
Continuous
 62
     7
370
    25
100
AcDbLine
 10
0.0
 20
-16.64862616303333
 30
0.0
 11
-87.18828935074567
 21
-16.64862616303333
 31
0.0
  0
LINE
  5
100
330
F5
100
AcDbEntity
  8
6
  6
Continuous
 62
     7
370
    25
100
AcDbLine
 10
-7.789884297288729
 20
-40.27362616302236
 30
0.0
 11
-7.789884297287912
 21
-9.221014698894691
 31
0.0
  0
LINE
  5
101
330
F5
100
AcDbEntity
  8
6
  6
Continuous
 62
     7
370
    25
100
AcDbLine
 10
-23.36965289186176
 20
-40.27362616302315
 30
0.0
 11
-23.36965289186091
 21
-9.22101469889542
 31
0.0
  0
LINE
  5
102
330
F5
100
AcDbEntity
  8
6
  6
Continuous
 62
     7
370
    25
100
AcDbLine
 10
-15.57976859457532
 20
-40.27362616302315
 30
0.0
 11
-15.57976859457442
 21
-9.22101469889542
 31
0.0
  0
LINE
  5
103
330
F5
100
AcDbEntity
  8
6
  6
Continuous
 62
     7
370
    25
100
AcDbLine
 10
-31.15953718914881
 20
-40.27362616302106
 30
0.0
 11
-31.15953718914817
 21
-9.221014698893306
 31
0.0
  0
LINE
  5
104
330
F5
100
AcDbEntity
  8
6
  6
Continuous
 62
     7
370
    25
100
AcDbLine
 10
-38.94942148643455
 20
-40.27362616302315
 30
0.0
 11
-38.94942148643377
 21
-9.22101469889542
 31
0.0
  0
LINE
  5
105
330
F5
100
AcDbEntity
  8
6
  6
Continuous
 62
     7
370
    25
100
AcDbLine
 10
-46.73930578372088
 20
-40.27362616302315
 30
0.0
 11
-46.73930578372014
 21
-9.22101469889542
 31
0.0
  0
LINE
  5
106
330
F5
100
AcDbEntity
  8
6
  6
Continuous
 62
     7
370
    25
100
AcDbLine
 10
-54.5291900810065
 20
-40.27362616302106
 30
0.0
 11
-54.52919008100586
 21
-9.221014698894691
 31
0.0
  0
LINE
  5
107
330
F5
100
AcDbEntity
  8
1
  6
Continuous
 62
     7
370
    25
100
AcDbLine
 10
-62.31907437829285
 20
-40.27362616302106
 30
0.0
 11
-62.3190743782921
 21
-5.262505590147483
 31
0.0
  0
LINE
  5
108
330
F5
100
AcDbEntity
  8
1
  6
Continuous
 62
     7
370
    25
100
AcDbLine
 10
0.0
 20
-9.221014698894691
 30
0.0
 11
-87.18828935074567
 21
-9.221014698894691
 31
0.0
  0
LINE
  5
109
330
F5
100
AcDbEntity
  8
6
  6
Continuous
 62
     7
370
    25
100
AcDbLine
 10
-76.87829547361957
 20
-40.27362616302106
 30
0.0
 11
-76.87829547361886
 21
-9.221014698894691
 31
0.0
  0
LINE
  5
10A
330
F5
100
AcDbEntity
  8
1
  6
Continuous
 62
     7
370
    25
100
AcDbLine
 10
-87.18828935074567
 20
-5.262505590147483
 30
0.0
 11
0.0
 21
-5.262505590147483
 31
0.0
  0
MTEXT
  5
10B
330
F5
100
AcDbEntity
  8
6
 62
     7
100
AcDbMText
 10
-62.11789757491978
 20
-21.24761288259551
 30
0.0
 40
2.109375
 41
0.0
 46
0.0
 71
     7
 72
     1
  1
\fAIGDT|b0|i0;\W0.80;\H2.1094;`\FISOCP|b0|i0;\W0.80;\H2.1094;0.05
 73
     2
 44
1.0
  0
MTEXT
  5
10D
330
F5
100
AcDbEntity
  8
6
 62
     7
100
AcDbMText
 10
-61.49287397180579
 20
-27.13374965268386
 30
0.0
 40
2.109375
 41
0.0
 46
0.0
 71
     7
 72
     1
  1
\fAIGDT|b0|i0;\H2.1094;`\FISOCP|b0|i0;\H2.1094;0.1
 73
     2
 44
1.0
  0
MTEXT
  5
10E
330
F5
100
AcDbEntity
  8
6
 62
     7
100
AcDbMText
 10
-61.49287397180579
 20
-33.03999965268382
 30
0.0
 40
2.109375
 41
0.0
 46
0.0
 71
     7
 72
     1
  1
\fAIGDT|b0|i0;\H2.1094;`\FISOCP|b0|i0;\H2.1094;0.2
 73
     2
 44
1.0
  0
TEXT
  5
110
330
F5
100
AcDbEntity
  8
6
 62
     7
100
AcDbText
 10
-61.76672847134454
 20
-40.64149180248552
 30
0.0
 40
8.4375
  1
-
  7
文字スタイル256
100
AcDbText
  0
MTEXT
  5
113
330
F5
100
AcDbEntity
  8
6
 62
     7
100
AcDbMText
 10
-53.7029896745193
 20
-38.94624965268383
 30
0.0
 40
2.109375
 41
0.0
 46
0.0
 71
     7
 72
     1
  1
\fAIGDT|b0|i0;\H2.1094;`\FISOCP|b0|i0;\H2.1094;0.5
 73
     2
 44
1.0
  0
MTEXT
  5
114
330
F5
100
AcDbEntity
  8
6
 62
     7
100
AcDbMText
 10
-53.7029896745193
 20
-33.03999965268382
 30
0.0
 40
2.109375
 41
0.0
 46
0.0
 71
     7
 72
     1
  1
\fAIGDT|b0|i0;\H2.1094;`\FISOCP|b0|i0;\H2.1094;0.3
 73
     2
 44
1.0
  0
MTEXT
  5
115
330
F5
100
AcDbEntity
  8
6
 62
     7
100
AcDbMText
 10
-53.7029896745193
 20
-27.13374965268386
 30
0.0
 40
2.109375
 41
0.0
 46
0.0
 71
     7
 72
     1
  1
\fAIGDT|b0|i0;\H2.1094;`\FISOCP|b0|i0;\H2.1094;0.1
 73
     2
 44
1.0
  0
MTEXT
  5
116
330
F5
100
AcDbEntity
  8
6
 62
     7
100
AcDbMText
 10
-53.7029896745193
 20
-21.2274996526839
 30
0.0
 40
2.109375
 41
0.0
 46
0.0
 71
     7
 72
     1
  1
\fAIGDT|b0|i0;\W0.80;\H2.1094;`\FISOCP|b0|i0;\W0.80;\H2.1094;0.05
 73
     2
 44
1.0
  0
MTEXT
  5
117
330
F5
100
AcDbEntity
  8
6
 62
     7
100
AcDbMText
 10
-45.91310537723275
 20
-21.2274996526839
 30
0.0
 40
2.109375
 41
0.0
 46
0.0
 71
     7
 72
     1
  1
\fAIGDT|b0|i0;\H2.1094;`\FISOCP|b0|i0;\H2.1094;0.1
 73
     2
 44
1.0
  0
MTEXT
  5
118
330
F5
100
AcDbEntity
  8
6
 62
     7
100
AcDbMText
 10
-45.91310537723275
 20
-27.13374965268386
 30
0.0
 40
2.109375
 41
0.0
 46
0.0
 71
     7
 72
     1
  1
\fAIGDT|b0|i0;\H2.1094;`\FISOCP|b0|i0;\H2.1094;0.2
 73
     2
 44
1.0
  0
MTEXT
  5
119
330
F5
100
AcDbEntity
  8
6
 62
     7
100
AcDbMText
 10
-45.91310537723275
 20
-33.03999965268382
 30
0.0
 40
2.109375
 41
0.0
 46
0.0
 71
     7
 72
     1
  1
\fAIGDT|b0|i0;\H2.1094;`\FISOCP|b0|i0;\H2.1094;0.5
 73
     2
 44
1.0
  0
MTEXT
  5
11A
330
F5
100
AcDbEntity
  8
6
 62
     7
100
AcDbMText
 10
-44.55367674643222
 20
-38.9663628838324
 30
0.0
 40
2.109375
 41
0.0
 46
0.0
 71
     7
 72
     1
  1
\fAIGDT|b0|i0;\H2.1094;`\FISOCP|b0|i0;\H2.1094;1
 73
     2
 44
1.0
  0
MTEXT
  5
11B
330
F5
100
AcDbEntity
  8
6
 62
     7
100
AcDbMText
 10
-38.12322107994645
 20
-21.2274996526839
 30
0.0
 40
2.109375
 41
0.0
 46
0.0
 71
     7
 72
     1
  1
\fAIGDT|b0|i0;\W0.80;\H2.1094;`\FISOCP|b0|i0;\W0.80;\H2.1094;0.15
 73
     2
 44
1.0
  0
MTEXT
  5
11C
330
F5
100
AcDbEntity
  8
6
 62
     7
100
AcDbMText
 10
-38.12322107994645
 20
-27.13374965268386
 30
0.0
 40
2.109375
 41
0.0
 46
0.0
 71
     7
 72
     1
  1
\fAIGDT|b0|i0;\H2.1094;`\FISOCP|b0|i0;\H2.1094;0.3
 73
     2
 44
1.0
  0
MTEXT
  5
11D
330
F5
100
AcDbEntity
  8
6
 62
     7
100
AcDbMText
 10
-38.12322107994645
 20
-33.03999965268382
 30
0.0
 40
2.109375
 41
0.0
 46
0.0
 71
     7
 72
     1
  1
\fAIGDT|b0|i0;\H2.1094;`\FISOCP|b0|i0;\H2.1094;0.8
 73
     2
 44
1.0
  0
MTEXT
  5
11E
330
F5
100
AcDbEntity
  8
6
 62
     7
100
AcDbMText
 10
-38.12322107994645
 20
-38.94624965268383
 30
0.0
 40
2.109375
 41
0.0
 46
0.0
 71
     7
 72
     1
  1
\fAIGDT|b0|i0;\H2.1094;`\FISOCP|b0|i0;\H2.1094;1.5
 73
     2
 44
1.0
  0
MTEXT
  5
11F
330
F5
100
AcDbEntity
  8
6
 62
     7
100
AcDbMText
 10
-30.33333678265995
 20
-21.2274996526839
 30
0.0
 40
2.109375
 41
0.0
 46
0.0
 71
     7
 72
     1
  1
\fAIGDT|b0|i0;\H2.1094;`\FISOCP|b0|i0;\H2.1094;0.2
 73
     2
 44
1.0
  0
MTEXT
  5
120
330
F5
100
AcDbEntity
  8
6
 62
     7
100
AcDbMText
 10
-30.33333678265995
 20
-27.13374965268386
 30
0.0
 40
2.109375
 41
0.0
 46
0.0
 71
     7
 72
     1
  1
\fAIGDT|b0|i0;\H2.1094;`\FISOCP|b0|i0;\H2.1094;0.5
 73
     2
 44
1.0
  0
MTEXT
  5
121
330
F5
100
AcDbEntity
  8
6
 62
     7
100
AcDbMText
 10
-30.33333678265995
 20
-33.03999965268382
 30
0.0
 40
2.109375
 41
0.0
 46
0.0
 71
     7
 72
     1
  1
\fAIGDT|b0|i0;\H2.1094;`\FISOCP|b0|i0;\H2.1094;1.2
 73
     2
 44
1.0
  0
MTEXT
  5
122
330
F5
100
AcDbEntity
  8
6
 62
     7
100
AcDbMText
 10
-30.33333678265995
 20
-38.94624965268383
 30
0.0
 40
2.109375
 41
0.0
 46
0.0
 71
     7
 72
     1
  1
\fAIGDT|b0|i0;\H2.1094;`\FISOCP|b0|i0;\H2.1094;2.5
 73
     2
 44
1.0
  0
MTEXT
  5
123
330
F5
100
AcDbEntity
  8
6
 62
     7
100
AcDbMText
 10
-22.54345248537348
 20
-21.2274996526839
 30
0.0
 40
2.109375
 41
0.0
 46
0.0
 71
     7
 72
     1
  1
\fAIGDT|b0|i0;\H2.1094;`\FISOCP|b0|i0;\H2.1094;0.3
 73
     2
 44
1.0
  0
MTEXT
  5
124
330
F5
100
AcDbEntity
  8
6
 62
     7
100
AcDbMText
 10
-22.54345248537348
 20
-27.13374965268386
 30
0.0
 40
2.109375
 41
0.0
 46
0.0
 71
     7
 72
     1
  1
\fAIGDT|b0|i0;\H2.1094;`\FISOCP|b0|i0;\H2.1094;0.8
 73
     2
 44
1.0
  0
MTEXT
  5
125
330
F5
100
AcDbEntity
  8
6
 62
     7
100
AcDbMText
 10
-21.20342476280962
 20
-33.03999965268382
 30
0.0
 40
2.109375
 41
0.0
 46
0.0
 71
     7
 72
     1
  1
\fAIGDT|b0|i0;\H2.1094;`\FISOCP|b0|i0;\H2.1094;2
 73
     2
 44
1.0
  0
MTEXT
  5
126
330
F5
100
AcDbEntity
  8
6
 62
     7
100
AcDbMText
 10
-21.20342476280962
 20
-38.9663628838324
 30
0.0
 40
2.109375
 41
0.0
 46
0.0
 71
     7
 72
     1
  1
\fAIGDT|b0|i0;\H2.1094;`\FISOCP|b0|i0;\H2.1094;4
 73
     2
 44
1.0
  0
MTEXT
  5
127
330
F5
100
AcDbEntity
  8
6
 62
     7
100
AcDbMText
 10
-14.75356818808691
 20
-21.2274996526839
 30
0.0
 40
2.109375
 41
0.0
 46
0.0
 71
     7
 72
     1
  1
\fAIGDT|b0|i0;\H2.1094;`\FISOCP|b0|i0;\H2.1094;0.5
 73
     2
 44
1.0
  0
MTEXT
  5
128
330
F5
100
AcDbEntity
  8
6
 62
     7
100
AcDbMText
 10
-14.75356818808691
 20
-27.13374965268386
 30
0.0
 40
2.109375
 41
0.0
 46
0.0
 71
     7
 72
     1
  1
\fAIGDT|b0|i0;\H2.1094;`\FISOCP|b0|i0;\H2.1094;1.2
 73
     2
 44
1.0
  0
MTEXT
  5
129
330
F5
100
AcDbEntity
  8
6
 62
     7
100
AcDbMText
 10
-13.41354046552313
 20
-33.03999965268382
 30
0.0
 40
2.109375
 41
0.0
 46
0.0
 71
     7
 72
     1
  1
\fAIGDT|b0|i0;\H2.1094;`\FISOCP|b0|i0;\H2.1094;3
 73
     2
 44
1.0
  0
MTEXT
  5
12A
330
F5
100
AcDbEntity
  8
6
 62
     7
100
AcDbMText
 10
-13.41354046552313
 20
-38.94624965268383
 30
0.0
 40
2.109375
 41
0.0
 46
0.0
 71
     7
 72
     1
  1
\fAIGDT|b0|i0;\H2.1094;`\FISOCP|b0|i0;\H2.1094;6
 73
     2
 44
1.0
  0
TEXT
  5
12B
330
F5
100
AcDbEntity
  8
6
 62
     7
100
AcDbText
 10
-7.37401789839847
 20
-22.98458349519333
 30
0.0
 40
8.4375
  1
-
 41
1.415104593090738
  7
文字スタイル256
 72
     5
 11
-0.807048146086764
 21
-22.98458349519333
 31
0.0
100
AcDbText
  0
MTEXT
  5
12C
330
F5
100
AcDbEntity
  8
6
 62
     7
100
AcDbMText
 10
-4.352844741777559
 20
-27.13374965268386
 30
0.0
 40
2.109375
 41
0.0
 46
0.0
 71
     8
 72
     1
  1
\fAIGDT|b0|i0;\H2.1094;`\FISOCP|b0|i0;\H2.1094;2
 73
     2
 44
1.0
  0
MTEXT
  5
12D
330
F5
100
AcDbEntity
  8
6
 62
     7
100
AcDbMText
 10
-5.960878402140821
 20
-33.06011288383239
 30
0.0
 40
2.109375
 41
0.0
 46
0.0
 71
     7
 72
     1
  1
\fAIGDT|b0|i0;\H2.1094;`\FISOCP|b0|i0;\H2.1094;4
 73
     2
 44
1.0
  0
MTEXT
  5
12E
330
F5
100
AcDbEntity
  8
6
 62
     7
100
AcDbMText
 10
-5.96087807440206
 20
-38.94624965268383
 30
0.0
 40
2.109375
 41
0.0
 46
0.0
 71
     7
 72
     1
  1
\fAIGDT|b0|i0;\H2.1094;`\FISOCP|b0|i0;\H2.1094;8
 73
     2
 44
1.0
  0
TEXT
  5
130
330
F5
100
AcDbEntity
  8
6
 62
     7
100
AcDbText
 10
-3.595124508215477
 20
-14.88806400803152
 30
0.0
 40
2.109375
  1
4000
 41
0.5
  7
文字スタイル251
100
AcDbText
  0
TEXT
  5
131
330
F5
100
AcDbEntity
  8
6
 62
     7
100
AcDbText
 10
-11.44662920747791
 20
-14.88806400803152
 30
0.0
 40
2.109375
  1
2000
 41
0.5
  7
文字スタイル251
100
AcDbText
  0
TEXT
  5
132
330
F5
100
AcDbEntity
  8
6
 62
     7
100
AcDbText
 10
-19.29813390674054
 20
-14.88806400803152
 30
0.0
 40
2.109375
  1
1000
 41
0.5
  7
文字スタイル251
100
AcDbText
  0
TEXT
  5
133
330
F5
100
AcDbEntity
  8
6
 62
     7
100
AcDbText
 10
-26.53623967507091
 20
-14.88806400803152
 30
0.0
 40
2.109375
  1
400
 41
0.5
  7
文字スタイル251
100
AcDbText
  0
TEXT
  5
135
330
F5
100
AcDbEntity
  8
6
 62
     7
100
AcDbText
 10
-34.63310407106565
 20
-14.88806400803152
 30
0.0
 40
2.109375
  1
120
 41
0.7999999523162842
  7
文字スタイル253
100
AcDbText
  0
TEXT
  5
137
330
F5
100
AcDbEntity
  8
6
 62
     7
100
AcDbText
 10
-42.1165692252298
 20
-14.88806400803152
 30
0.0
 40
2.109375
  1
30
 41
1.244508099809732
  7
文字スタイル249
 72
     5
 11
-38.83308434907395
 21
-14.88806400803152
 31
0.0
100
AcDbText
  0
TEXT
  5
138
330
F5
100
AcDbEntity
  8
6
 62
     7
100
AcDbText
 10
-48.74127637352597
 20
-14.88806400803152
 30
0.0
 40
2.109375
  1
6
 41
1.298030936669573
  7
文字スタイル249
 72
     5
 11
-47.09953393544804
 21
-14.88806400803152
 31
0.0
100
AcDbText
  0
TEXT
  5
139
330
F5
100
AcDbEntity
  8
6
 62
     7
100
AcDbText
 10
-56.54256384627529
 20
-14.88806400803152
 30
0.0
 40
2.109375
  1
3
 41
1.315994963644173
  7
文字スタイル249
 72
     5
 11
-54.90082140819736
 21
-14.88806400803152
 31
0.0
100
AcDbText
  0
TEXT
  5
13A
330
F5
100
AcDbEntity
  8
6
 62
     7
100
AcDbText
 10
-48.86395622189199
 20
-11.95584194107624
 30
0.0
 40
2.109375
  1
3
 41
1.315994963644173
  7
文字スタイル249
 72
     5
 11
-47.22221378381407
 21
-11.95584194107624
 31
0.0
100
AcDbText
  0
TEXT
  5
13B
330
F5
100
AcDbEntity
  8
6
 62
     7
100
AcDbText
 10
-41.25781090846356
 20
-11.95584194107624
 30
0.0
 40
2.109375
  1
6
 41
1.298030936669573
  7
文字スタイル249
 72
     5
 11
-39.61606847038563
 21
-11.95584194107624
 31
0.0
100
AcDbText
  0
TEXT
  5
13C
330
F5
100
AcDbEntity
  8
6
 62
     7
100
AcDbText
 10
-34.01970514013321
 20
-11.95584194107624
 30
0.0
 40
2.109375
  1
30
 41
0.7999999523162842
  7
文字スタイル253
100
AcDbText
  0
TEXT
  5
13D
330
F5
100
AcDbEntity
  8
6
 62
     7
100
AcDbText
 10
-26.53623967507091
 20
-11.95584194107624
 30
0.0
 40
2.109375
  1
120
 41
0.5
  7
文字スタイル251
100
AcDbText
  0
TEXT
  5
13E
330
F5
100
AcDbEntity
  8
6
 62
     7
100
AcDbText
 10
-19.05277452090665
 20
-11.95584194107624
 30
0.0
 40
2.109375
  1
400
 41
0.5
  7
文字スタイル251
100
AcDbText
  0
TEXT
  5
13F
330
F5
100
AcDbEntity
  8
6
 62
     7
100
AcDbText
 10
-11.44662920747791
 20
-11.95584194107624
 30
0.0
 40
2.109375
  1
1000
 41
0.5
  7
文字スタイル251
100
AcDbText
  0
TEXT
  5
140
330
F5
100
AcDbEntity
  8
6
 62
     7
100
AcDbText
 10
-3.71780435658163
 20
-11.95584194107624
 30
0.0
 40
2.109375
  1
2000
 41
0.5
  7
文字スタイル251
100
AcDbText
  0
TEXT
  5
141
330
F5
100
AcDbEntity
  8
6
 62
     7
100
AcDbText
 10
-57.08350015535465
 20
-11.95584194107464
 30
0.0
 40
2.109375
  1
0.5
 41
0.5
  7
文字スタイル251
100
AcDbText
  0
TEXT
  5
143
330
F5
100
AcDbEntity
  8
6
 62
     7
100
AcDbText
 10
-84.93456841761432
 20
-14.88806400803152
 30
0.0
 40
2.109375
  1
指示
  7
文字スタイル241
 72
     1
 11
-82.03329241218231
 21
-14.88806400803152
 31
0.0
100
AcDbText
  0
TEXT
  5
144
330
F5
100
AcDbEntity
  8
6
 62
     7
100
AcDbText
 10
-72.16845574523475
 20
-20.55206879468738
 30
0.0
 40
2.109375
  1
精級
  7
文字スタイル241
 72
     1
 11
-69.26717973980274
 21
-20.79431400803156
 31
0.0
100
AcDbText
 73
     1
  0
TEXT
  5
145
330
F5
100
AcDbEntity
  8
6
 62
     7
100
AcDbText
 10
-72.16845574523475
 20
-26.45831879468734
 30
0.0
 40
2.109375
  1
中級
  7
文字スタイル241
 72
     1
 11
-69.26717973980274
 21
-26.70056400803151
 31
0.0
100
AcDbText
 73
     1
  0
TEXT
  5
146
330
F5
100
AcDbEntity
  8
6
 62
     7
100
AcDbText
 10
-72.16845574523475
 20
-32.36456879468751
 30
0.0
 40
2.109375
  1
粗級
  7
文字スタイル241
 72
     1
 11
-69.26717973980274
 21
-32.60681400803168
 31
0.0
100
AcDbText
 73
     1
  0
TEXT
  5
147
330
F5
100
AcDbEntity
  8
6
 62
     7
100
AcDbText
 10
-82.47298349838191
 20
-37.88025150803154
 30
0.0
 40
2.109375
  1
v
  7
文字スタイル249
 72
     1
 11
-81.7347022483819
 21
-38.51306400803153
 31
0.0
100
AcDbText
 73
     1
  0
TEXT
  5
148
330
F5
100
AcDbEntity
  8
6
 62
     7
100
AcDbText
 10
-73.61909374795075
 20
-38.761853630522
 30
0.0
 40
2.109375
  1
極粗級
  7
文字スタイル241
 72
     1
 11
-69.26717973980274
 21
-39.00409884386617
 31
0.0
100
AcDbText
 73
     1
  0
TEXT
  5
149
330
F5
100
AcDbEntity
  8
6
 62
     7
100
AcDbText
 10
-82.32928898505743
 20
-31.97400150803169
 30
0.0
 40
2.109375
  1
c
  7
文字スタイル249
 72
     1
 11
-81.7347022483819
 21
-32.60681400803168
 31
0.0
100
AcDbText
 73
     1
  0
TEXT
  5
14A
330
F5
100
AcDbEntity
  8
6
 62
     7
100
AcDbText
 10
-82.72214676170639
 20
-26.06775150803152
 30
0.0
 40
2.109375
  1
m
  7
文字スタイル249
 72
     1
 11
-81.7347022483819
 21
-26.70056400803151
 31
0.0
100
AcDbText
 73
     1
  0
TEXT
  5
14B
330
F5
100
AcDbEntity
  8
6
 62
     7
100
AcDbText
 10
-82.36751474838191
 20
-20.16150150803156
 30
0.0
 40
2.109375
  1
f
  7
文字スタイル249
 72
     1
 11
-81.7347022483819
 21
-20.79431400803156
 31
0.0
100
AcDbText
 73
     1
  0
TEXT
  5
14C
330
F5
100
AcDbEntity
  8
6
 62
     7
100
AcDbText
 10
-72.49996093138751
 20
-14.88806400803152
 30
0.0
 40
2.109375
  1
説明
  7
文字スタイル241
 72
     1
 11
-69.5986849259555
 21
-14.88806400803152
 31
0.0
100
AcDbText
  0
TEXT
  5
14E
330
F5
100
AcDbEntity
  8
6
 62
     7
100
AcDbText
 10
-62.12610387576098
 20
-11.95584194107624
 30
0.0
 40
2.109375
  1
以上
 41
0.7031300067901612
  7
文字スタイル245
100
AcDbText
  0
TEXT
  5
14F
330
F5
100
AcDbEntity
  8
6
 62
     7
100
AcDbText
 10
-62.12610387576098
 20
-14.88806400803152
 30
0.0
 40
2.109375
  1
以下
 41
0.7031300067901612
  7
文字スタイル245
100
AcDbText
  0
TEXT
  5
150
330
F5
100
AcDbEntity
  8
6
 62
     7
100
AcDbText
 10
-54.33621957847453
 20
-11.95584194107624
 30
0.0
 40
2.109375
  1
以上
 41
0.7031300067901612
  7
文字スタイル245
100
AcDbText
  0
TEXT
  5
151
330
F5
100
AcDbEntity
  8
6
 62
     7
100
AcDbText
 10
-54.33621957847453
 20
-14.88806400803152
 30
0.0
 40
2.109375
  1
以下
 41
0.7031300067901612
  7
文字スタイル245
100
AcDbText
  0
TEXT
  5
152
330
F5
100
AcDbEntity
  8
6
 62
     7
100
AcDbText
 10
-46.54633528118875
 20
-11.95584194107624
 30
0.0
 40
2.109375
  1
以上
 41
0.7031300067901612
  7
文字スタイル245
100
AcDbText
  0
TEXT
  5
153
330
F5
100
AcDbEntity
  8
6
 62
     7
100
AcDbText
 10
-46.54633528118875
 20
-14.88806400803152
 30
0.0
 40
2.109375
  1
以下
 41
0.7031300067901612
  7
文字スタイル245
100
AcDbText
  0
TEXT
  5
154
330
F5
100
AcDbEntity
  8
6
 62
     7
100
AcDbText
 10
-38.7564509839024
 20
-11.95584194107624
 30
0.0
 40
2.109375
  1
以上
 41
0.7031300067901612
  7
文字スタイル245
100
AcDbText
  0
TEXT
  5
155
330
F5
100
AcDbEntity
  8
6
 62
     7
100
AcDbText
 10
-38.7564509839024
 20
-14.88806400803152
 30
0.0
 40
2.109375
  1
以下
 41
0.7031300067901612
  7
文字スタイル245
100
AcDbText
  0
TEXT
  5
156
330
F5
100
AcDbEntity
  8
6
 62
     7
100
AcDbText
 10
-30.96656668661675
 20
-11.95584194107624
 30
0.0
 40
2.109375
  1
以上
 41
0.7031300067901612
  7
文字スタイル245
100
AcDbText
  0
TEXT
  5
157
330
F5
100
AcDbEntity
  8
6
 62
     7
100
AcDbText
 10
-30.96656668661675
 20
-14.88806400803152
 30
0.0
 40
2.109375
  1
以下
 41
0.7031300067901612
  7
文字スタイル245
100
AcDbText
  0
TEXT
  5
158
330
F5
100
AcDbEntity
  8
6
 62
     7
100
AcDbText
 10
-23.17668238932956
 20
-11.95584194107624
 30
0.0
 40
2.109375
  1
以上
 41
0.7031300067901612
  7
文字スタイル245
100
AcDbText
  0
TEXT
  5
159
330
F5
100
AcDbEntity
  8
6
 62
     7
100
AcDbText
 10
-23.17668238932956
 20
-14.88806400803152
 30
0.0
 40
2.109375
  1
以下
 41
0.7031300067901612
  7
文字スタイル245
100
AcDbText
  0
TEXT
  5
15A
330
F5
100
AcDbEntity
  8
6
 62
     7
100
AcDbText
 10
-15.38679809204307
 20
-11.95584194107624
 30
0.0
 40
2.109375
  1
以上
 41
0.7031300067901612
  7
文字スタイル245
100
AcDbText
  0
TEXT
  5
15B
330
F5
100
AcDbEntity
  8
6
 62
     7
100
AcDbText
 10
-15.38679809204307
 20
-14.88806400803152
 30
0.0
 40
2.109375
  1
以下
 41
0.7031300067901612
  7
文字スタイル245
100
AcDbText
  0
TEXT
  5
15C
330
F5
100
AcDbEntity
  8
6
 62
     7
100
AcDbText
 10
-7.596913794756652
 20
-11.95584194107624
 30
0.0
 40
2.109375
  1
以上
 41
0.7031300067901612
  7
文字スタイル245
100
AcDbText
  0
TEXT
  5
15D
330
F5
100
AcDbEntity
  8
6
 62
     7
100
AcDbText
 10
-7.596913794756652
 20
-14.88806400803152
 30
0.0
 40
2.109375
  1
以下
 41
0.7031300067901612
  7
文字スタイル245
100
AcDbText
  0
MTEXT
  5
15E
330
F5
100
AcDbEntity
  8
Symbol (ISO)
100
AcDbMText
 10
-76.72978375124351
 20
-1.182014131982498
 30
0.0
 40
2.569797039031982
 41
0.0
 46
0.0
 71
     1
 72
     1
  1
\fTahoma|b0|i0;\H2.5698;面取り部分を除く長さ寸法に対する許容差
  7
Note Text (JIS)
 73
     1
 44
1.5
  0
TEXT
  5
161
330
F5
100
AcDbEntity
  8
Symbol (ISO)
 62
     7
100
AcDbText
 10
-80.94567807158481
 20
-8.227290992408082
 30
0.0
 40
2.569797039031982
  1
公差等級
 41
0.6139427911072393
  7
文字スタイル240
 72
     5
 11
-72.26563317119287
 21
-8.227290992408082
 31
0.0
100
AcDbText
  0
TEXT
  5
163
330
F5
100
AcDbEntity
  8
Symbol (ISO)
 62
     7
100
AcDbText
 10
-48.87900392619775
 20
-8.205279709664843
 30
0.0
 40
2.569797039031982
  1
基準寸法の区分
 41
0.5867438596279257
  7
文字スタイル247
 72
     5
 11
-34.74262768532212
 21
-8.205279709664843
 31
0.0
100
AcDbText
  0
ENDBLK
  5
F7
330
F5
100
AcDbEntity
  8
0
100
AcDbBlockEnd
  0
BLOCK
  5
165
330
164
100
AcDbEntity
  8
0
100
AcDbBlockBegin
  2
バルブ仕様表
 70
     0
 10
0.0
 20
0.0
 30
0.0
  3
バルブ仕様表
  1

  0
LINE
  5
167
330
164
100
AcDbEntity
  8
AM_6
 62
     7
100
AcDbLine
 10
-109.9999999999999
 20
27.99999999999997
 30
0.0
 11
0.0
 21
27.99999999999997
 31
0.0
  0
LINE
  5
168
330
164
100
AcDbEntity
  8
AM_6
 62
     7
100
AcDbLine
 10
-109.9999999999999
 20
13.99999999999998
 30
0.0
 11
0.0
 21
13.99999999999998
 31
0.0
  0
LINE
  5
169
330
164
100
AcDbEntity
  8
AM_6
 62
     7
100
AcDbLine
 10
-109.9999999999999
 20
20.99999999999994
 30
0.0
 11
0.0
 21
20.99999999999994
 31
0.0
  0
LINE
  5
16A
330
164
100
AcDbEntity
  8
AM_6
 62
     7
100
AcDbLine
 10
-109.9999999999999
 20
0.0
 30
0.0
 11
0.0
 21
0.0
 31
0.0
  0
LINE
  5
16B
330
164
100
AcDbEntity
  8
AM_6
 62
     7
100
AcDbLine
 10
-109.9999999999999
 20
6.999999999999957
 30
0.0
 11
0.0
 21
6.999999999999957
 31
0.0
  0
LINE
  5
16C
330
164
100
AcDbEntity
  8
AM_6
100
AcDbLine
 10
-109.9999999999999
 20
13.99999999999998
 30
0.0
 11
0.0
 21
13.99999999999998
 31
0.0
  0
LINE
  5
16D
330
164
100
AcDbEntity
  8
AM_6
 62
     7
100
AcDbLine
 10
-79.99999999999997
 20
0.0
 30
0.0
 11
-79.99999999999997
 21
13.99999999999998
 31
0.0
  0
LINE
  5
16E
330
164
100
AcDbEntity
  8
AM_6
 62
     7
100
AcDbLine
 10
-79.99999999999983
 20
27.99999999999997
 30
0.0
 11
-79.99999999999997
 21
13.99999999999998
 31
0.0
  0
LINE
  5
16F
330
164
100
AcDbEntity
  8
AM_6
 62
     7
100
AcDbLine
 10
-109.9999999999999
 20
0.0
 30
0.0
 11
-109.9999999999999
 21
13.99999999999998
 31
0.0
  0
LINE
  5
170
330
164
100
AcDbEntity
  8
AM_6
 62
     7
100
AcDbLine
 10
-109.9999999999999
 20
27.99999999999997
 30
0.0
 11
-109.9999999999999
 21
13.99999999999998
 31
0.0
  0
LINE
  5
171
330
164
100
AcDbEntity
  8
AM_6
 62
     7
100
AcDbLine
 10
0.0
 20
27.99999999999997
 30
0.0
 11
0.0
 21
0.0
 31
0.0
  0
TEXT
  5
173
330
164
100
AcDbEntity
  8
AM_6
 62
     7
100
AcDbText
 10
-102.9390916948839
 20
1.453793852345341
 30
0.0
 40
3.000000119209289
  1
気密試験
  7
文字スタイル124
100
AcDbText
  0
TEXT
  5
175
330
164
100
AcDbEntity
  8
AM_6
 62
     7
100
AcDbText
 10
-102.9390916948839
 20
8.45379385234537
 30
0.0
 40
3.000000119209289
  1
耐圧試験
  7
文字スタイル124
100
AcDbText
  0
TEXT
  5
176
330
164
100
AcDbEntity
  8
AM_6
 62
     7
100
AcDbText
 10
-102.9390916948839
 20
15.45379385234532
 30
0.0
 40
3.000000119209289
  1
使用温度
  7
文字スタイル124
100
AcDbText
  0
TEXT
  5
177
330
164
100
AcDbEntity
  8
AM_6
 62
     7
100
AcDbText
 10
-102.9390916948839
 20
22.45379385234536
 30
0.0
 40
3.000000119209289
  1
使用圧力
  7
文字スタイル124
100
AcDbText
  0
TEXT
  5
178
330
164
100
AcDbEntity
  8
AM_6
 62
     7
100
AcDbText
 10
-65.4524935694148
 20
8.45379385234537
 30
0.0
 40
3.000000119209289
  1
1.96MPa
  7
文字スタイル124
100
AcDbText
  0
TEXT
  5
179
330
164
100
AcDbEntity
  8
AM_6
 62
     7
100
AcDbText
 10
-65.4524935694148
 20
1.453793852345341
 30
0.0
 40
3.000000119209289
  1
0.6MPa
  7
文字スタイル124
100
AcDbText
  0
TEXT
  5
17A
330
164
100
AcDbEntity
  8
AM_6
 62
     7
100
AcDbText
 10
-65.4524935694148
 20
22.45379385234536
 30
0.0
 40
3.000000119209289
  1
MAX　0.98MPa
  7
文字スタイル124
100
AcDbText
  0
TEXT
  5
17B
330
164
100
AcDbEntity
  8
AM_6
 62
     7
100
AcDbText
 10
-65.4524935694148
 20
15.45379385234532
 30
0.0
 40
3.000000119209289
  1
-10℃～+80℃（凍結無き事）
  7
文字スタイル124
100
AcDbText
  0
ENDBLK
  5
166
330
164
100
AcDbEntity
  8
0
100
AcDbBlockEnd
  0
BLOCK
  5
17D
330
17C
100
AcDbEntity
  8
0
100
AcDbBlockBegin
  2
バルブ開閉R1
 70
     0
 10
0.0
 20
0.0
 30
0.0
  3
バルブ開閉R1
  1

  0
ARC
  5
17F
330
17C
100
AcDbEntity
  8
AM_6
 62
     7
100
AcDbCircle
 10
0.0
 20
0.0
 30
0.0
 40
31.60554310523806
100
AcDbArc
 50
202.1518571539441
 51
242.8481428460544
  0
LINE
  5
180
330
17C
100
AcDbEntity
  8
AM_6
 62
     7
100
AcDbLine
 10
-14.42320326968786
 20
-28.12261656422434
 30
0.0
 11
-17.42320326968794
 21
-28.1226165642243
 31
0.0
  0
LINE
  5
181
330
17C
100
AcDbEntity
  8
AM_6
 62
     7
100
AcDbLine
 10
-14.42320326968786
 20
-28.12261656422434
 30
0.0
 11
-16.54452361324786
 21
-26.00129622066477
 31
0.0
  0
LINE
  5
182
330
17C
100
AcDbEntity
  8
AM_6
 62
     7
100
AcDbLine
 10
-29.2726665115174
 20
-11.91727109210029
 30
0.0
 11
-29.27266651151751
 21
-14.91727109210037
 31
0.0
  0
LINE
  5
183
330
17C
100
AcDbEntity
  8
AM_6
 62
     7
100
AcDbLine
 10
-29.2726665115174
 20
-11.91727109210029
 30
0.0
 11
-27.15134616795764
 21
-14.03859143566025
 31
0.0
  0
TEXT
  5
185
330
17C
100
AcDbEntity
  8
AM_6
 62
     7
100
AcDbText
 10
-17.36386249880858
 20
-32.47891202478124
 30
0.0
 40
2.000000029802322
  1
閉
  7
文字スタイル126
100
AcDbText
  0
TEXT
  5
186
330
17C
100
AcDbEntity
  8
AM_6
 62
     7
100
AcDbText
 10
-34.27398386649212
 20
-14.95725625921762
 30
0.0
 40
2.000000029802322
  1
開
  7
文字スタイル126
100
AcDbText
  0
ENDBLK
  5
17E
330
17C
100
AcDbEntity
  8
0
100
AcDbBlockEnd
  0
BLOCK
  5
188
330
187
100
AcDbEntity
  8
0
100
AcDbBlockBegin
  2
バルブ開閉R2
 70
     0
 10
0.0
 20
0.0
 30
0.0
  3
バルブ開閉R2
  1

  0
ARC
  5
18A
330
187
100
AcDbEntity
  8
AM_6
 62
     7
100
AcDbCircle
 10
0.0
 20
0.0
 30
0.0
 40
31.60554310523806
100
AcDbArc
 50
112.1518571539441
 51
152.8481428460544
  0
LINE
  5
18B
330
187
100
AcDbEntity
  8
AM_6
 62
     7
100
AcDbLine
 10
-28.12261656422434
 20
14.42320326968785
 30
0.0
 11
-28.12261656422432
 21
17.42320326968792
 31
0.0
  0
LINE
  5
18C
330
187
100
AcDbEntity
  8
AM_6
 62
     7
100
AcDbLine
 10
-28.12261656422434
 20
14.42320326968785
 30
0.0
 11
-26.00129622066479
 21
16.54452361324784
 31
0.0
  0
LINE
  5
18D
330
187
100
AcDbEntity
  8
AM_6
 62
     7
100
AcDbLine
 10
-11.91727109210028
 20
29.27266651151738
 30
0.0
 11
-14.91727109210039
 21
29.27266651151745
 31
0.0
  0
LINE
  5
18E
330
187
100
AcDbEntity
  8
AM_6
 62
     7
100
AcDbLine
 10
-11.91727109210028
 20
29.27266651151738
 30
0.0
 11
-14.03859143566027
 21
27.1513461679576
 31
0.0
  0
TEXT
  5
18F
330
187
100
AcDbEntity
  8
AM_6
 62
     7
100
AcDbText
 10
-15.08194606405059
 20
31.4147512872629
 30
0.0
 40
2.000000029802322
  1
閉
  7
文字スタイル126
100
AcDbText
  0
TEXT
  5
190
330
187
100
AcDbEntity
  8
AM_6
 62
     7
100
AcDbText
 10
-34.27398386649212
 20
14.82775972083301
 30
0.0
 40
2.000000029802322
  1
開
  7
文字スタイル126
100
AcDbText
  0
ENDBLK
  5
189
330
187
100
AcDbEntity
  8
0
100
AcDbBlockEnd
  0
BLOCK
  5
192
330
191
100
AcDbEntity
  8
0
100
AcDbBlockBegin
  2
ｴｰｽﾎﾞｰﾙｿｹｯﾄ・本体注釈①
 70
     0
 10
0.0
 20
0.0
 30
0.0
  3
ｴｰｽﾎﾞｰﾙｿｹｯﾄ・本体注釈①
  1

  0
MTEXT
  5
194
330
191
100
AcDbEntity
  8
Symbol (ISO)
100
AcDbMText
 10
-28.3552622795105
 20
3.352206237614154
 30
0.0
 40
2.5
 41
0.0
 46
0.0
 71
     1
 72
     1
  1
※本体仮組時に　本体（φ6ｽﾄﾚｰﾄ）\P・ｿｹｯﾄの隙間を0.5～0.6㎜とする事。
  7
Note Text (JIS)
 73
     2
 44
1.058181881904602
  0
ENDBLK
  5
193
330
191
100
AcDbEntity
  8
0
100
AcDbBlockEnd
  0
BLOCK
  5
196
330
195
100
AcDbEntity
  8
0
100
AcDbBlockBegin
  2
バルブ仕様書①
 70
     0
 10
0.0
 20
0.0
 30
0.0
  3
バルブ仕様書①
  1

  0
LINE
  5
198
330
195
100
AcDbEntity
  8
AM_6
 62
     7
100
AcDbLine
 10
-109.9999999999998
 20
27.99999999999997
 30
0.0
 11
0.0
 21
27.99999999999997
 31
0.0
  0
LINE
  5
199
330
195
100
AcDbEntity
  8
AM_6
 62
     7
100
AcDbLine
 10
-109.9999999999998
 20
13.99999999999998
 30
0.0
 11
0.0
 21
13.99999999999998
 31
0.0
  0
LINE
  5
19A
330
195
100
AcDbEntity
  8
AM_6
 62
     7
100
AcDbLine
 10
-109.9999999999998
 20
20.99999999999994
 30
0.0
 11
0.0
 21
20.99999999999994
 31
0.0
  0
LINE
  5
19B
330
195
100
AcDbEntity
  8
AM_6
 62
     7
100
AcDbLine
 10
-109.9999999999998
 20
0.0
 30
0.0
 11
0.0
 21
0.0
 31
0.0
  0
LINE
  5
19C
330
195
100
AcDbEntity
  8
AM_6
 62
     7
100
AcDbLine
 10
-109.9999999999998
 20
6.999999999999957
 30
0.0
 11
0.0
 21
6.999999999999957
 31
0.0
  0
LINE
  5
19D
330
195
100
AcDbEntity
  8
AM_6
 62
     7
100
AcDbLine
 10
-109.9999999999998
 20
13.99999999999998
 30
0.0
 11
0.0
 21
13.99999999999998
 31
0.0
  0
LINE
  5
19E
330
195
100
AcDbEntity
  8
AM_6
 62
     7
100
AcDbLine
 10
-79.99999999999987
 20
0.0
 30
0.0
 11
-79.99999999999987
 21
13.99999999999998
 31
0.0
  0
LINE
  5
19F
330
195
100
AcDbEntity
  8
AM_6
 62
     7
100
AcDbLine
 10
-79.99999999999973
 20
27.99999999999997
 30
0.0
 11
-79.99999999999987
 21
13.99999999999998
 31
0.0
  0
LINE
  5
1A0
330
195
100
AcDbEntity
  8
AM_6
 62
     7
100
AcDbLine
 10
-109.9999999999998
 20
0.0
 30
0.0
 11
-109.9999999999998
 21
13.99999999999998
 31
0.0
  0
LINE
  5
1A1
330
195
100
AcDbEntity
  8
AM_6
 62
     7
100
AcDbLine
 10
-109.9999999999998
 20
27.99999999999997
 30
0.0
 11
-109.9999999999998
 21
13.99999999999998
 31
0.0
  0
LINE
  5
1A2
330
195
100
AcDbEntity
  8
AM_6
 62
     7
100
AcDbLine
 10
0.0
 20
27.99999999999997
 30
0.0
 11
0.0
 21
0.0
 31
0.0
  0
TEXT
  5
1A3
330
195
100
AcDbEntity
  8
AM_6
 62
     7
100
AcDbText
 10
-109.5569312552745
 20
1.35119169264982
 30
0.0
 40
3.000000119209289
  1
気密・耐圧試験
  7
文字スタイル124
100
AcDbText
  0
TEXT
  5
1A4
330
195
100
AcDbEntity
  8
AM_6
 62
     7
100
AcDbText
 10
-65.4524935694147
 20
1.453793852345341
 30
0.0
 40
3.000000119209289
  1
空圧 0.59Mpa 全数
  7
文字スタイル124
100
AcDbText
  0
TEXT
  5
1A6
330
195
100
AcDbEntity
  8
AM_6
100
AcDbText
 10
-32.65625957956304
 20
3.592593427809589
 30
0.0
 40
1.000000014901161
  1
2
  7
文字スタイル133
100
AcDbText
  0
ENDBLK
  5
197
330
195
100
AcDbEntity
  8
0
100
AcDbBlockEnd
  0
BLOCK
  5
1A8
330
1A7
100
AcDbEntity
  8
0
100
AcDbBlockBegin
  2
ストッパー加工注釈
 70
     0
 10
0.0
 20
0.0
 30
0.0
  3
ストッパー加工注釈
  1

  0
MTEXT
  5
1AA
330
1A7
100
AcDbEntity
  8
Symbol (ISO)
100
AcDbMText
 10
-19.48830366134647
 20
3.352206274867057
 30
0.0
 40
2.5
 41
0.0
 46
0.0
 71
     1
 72
     1
  1
※ハンドル開閉治具にて\P角度を確認する事。
  7
Note Text (JIS)
 73
     2
 44
1.058181881904602
  0
ENDBLK
  5
1A9
330
1A7
100
AcDbEntity
  8
0
100
AcDbBlockEnd
  0
BLOCK
  5
1AC
330
1AB
100
AcDbEntity
  8
0
100
AcDbBlockBegin
  2
三方弁説明A
 70
     0
 10
0.0
 20
0.0
 30
0.0
  3
三方弁説明A
  1

  0
MTEXT
  5
1AE
330
1AB
100
AcDbEntity
  8
Symbol (ISO)
100
AcDbMText
 10
-26.24561548233032
 20
4.643620708957314
 30
0.0
 40
1.500000059604644
 41
0.0
 46
0.0
 71
     1
 72
     1
  1
\fＭＳ Ｐゴシック|b0|i0;\H1.5000;※ハンドル位置Aの時、ポートEの圧力がポートF及び\P　ポートGより高い場合、ポートEからポートF及びポートG\P　に漏れが発生する場合が御座います。\P※流路切り替え途中は、流体が混流致します。
  7
Note Text (JIS)
 73
     2
 44
1.058181881904602
  0
ENDBLK
  5
1AD
330
1AB
100
AcDbEntity
  8
0
100
AcDbBlockEnd
  0
BLOCK
  5
1B0
330
1AF
100
AcDbEntity
  8
0
100
AcDbBlockBegin
  2
三方弁説明B
 70
     0
 10
0.0
 20
0.0
 30
0.0
  3
三方弁説明B
  1

  0
MTEXT
  5
1B2
330
1AF
100
AcDbEntity
  8
Symbol (ISO)
100
AcDbMText
 10
-26.10087871551514
 20
4.643620708957314
 30
0.0
 40
1.500000059604644
 41
0.0
 46
0.0
 71
     1
 72
     1
  1
\fＭＳ Ｐゴシック|b0|i0;\H1.5000;※ハンドル位置Bの時、ポートGの圧力がポートE及び\P　ポートFより高い場合、ポートGからポートE及びポートF\P　に漏れが発生する場合が御座います。\P※流路切り替え途中は、流体が混流致します。
  7
Note Text (JIS)
 73
     2
 44
1.058181881904602
  0
ENDBLK
  5
1B1
330
1AF
100
AcDbEntity
  8
0
100
AcDbBlockEnd
  0
BLOCK
  5
1B4
330
1B3
100
AcDbEntity
  8
0
100
AcDbBlockBegin
  2
三方弁説明C
 70
     0
 10
0.0
 20
0.0
 30
0.0
  3
三方弁説明C
  1

  0
MTEXT
  5
1B6
330
1B3
100
AcDbEntity
  8
Symbol (ISO)
100
AcDbMText
 10
-26.24561548233032
 20
8.611802766099572
 30
0.0
 40
1.500000059604644
 41
0.0
 46
0.0
 71
     1
 72
     1
  1
\fＭＳ Ｐゴシック|b0|i0;\H1.5000;※流路F→Gの時、ポートEの圧力がポートF及び\P　ポートGより高い場合、ポートEからポートF及びポートG\P　に漏れが発生する場合が御座います。\P　また、流路F→Eの時、ポートGの圧力がポートF及び\P　ポートEより高い場合、ポートGからポートF及びポートE\P　に漏れが発生する場合が御座います。 \P※流路切り替え途中は、流体が混流致します。
  7
Note Text (JIS)
 73
     2
 44
1.058181881904602
  0
ENDBLK
  5
1B5
330
1B3
100
AcDbEntity
  8
0
100
AcDbBlockEnd
  0
BLOCK
  5
1B8
330
1B7
100
AcDbEntity
  8
0
100
AcDbBlockBegin
  2
三方弁流れ方向
 70
     0
 10
0.0
 20
0.0
 30
0.0
  3
三方弁流れ方向
  1

  0
LINE
  5
1BA
330
1B7
100
AcDbEntity
  8
Sketch Geometry (ISO)
100
AcDbLine
 10
22.49999999999995
 20
8.625000000000042
 30
0.0
 11
22.49999999999995
 21
-6.37500000000001
 31
0.0
  0
LINE
  5
1BB
330
1B7
100
AcDbEntity
  8
Sketch Geometry (ISO)
100
AcDbLine
 10
22.49999999999995
 20
-6.37500000000001
 30
0.0
 11
37.50000000000016
 21
-6.37500000000001
 31
0.0
  0
LINE
  5
1BC
330
1B7
100
AcDbEntity
  8
Sketch Geometry (ISO)
100
AcDbLine
 10
37.50000000000016
 20
-6.37500000000001
 30
0.0
 11
33.60288568297005
 21
-8.625000000000042
 31
0.0
  0
LINE
  5
1BD
330
1B7
100
AcDbEntity
  8
Sketch Geometry (ISO)
100
AcDbLine
 10
37.50000000000016
 20
-6.37500000000001
 30
0.0
 11
33.60288568297017
 21
-4.124999999999996
 31
0.0
  0
LINE
  5
1BE
330
1B7
100
AcDbEntity
  8
Sketch Geometry (ISO)
100
AcDbLine
 10
-22.50000000000011
 20
8.625000000000042
 30
0.0
 11
-22.50000000000005
 21
-6.374999999999957
 31
0.0
  0
LINE
  5
1BF
330
1B7
100
AcDbEntity
  8
Sketch Geometry (ISO)
100
AcDbLine
 10
-22.50000000000005
 20
-6.374999999999957
 30
0.0
 11
-37.50000000000015
 21
-6.37500000000001
 31
0.0
  0
LINE
  5
1C0
330
1B7
100
AcDbEntity
  8
Sketch Geometry (ISO)
100
AcDbLine
 10
-37.50000000000015
 20
-6.37500000000001
 30
0.0
 11
-33.60288568297016
 21
-8.625000000000007
 31
0.0
  0
LINE
  5
1C1
330
1B7
100
AcDbEntity
  8
Sketch Geometry (ISO)
100
AcDbLine
 10
-37.50000000000015
 20
-6.37500000000001
 30
0.0
 11
-33.60288568297016
 21
-4.124999999999996
 31
0.0
  0
ENDBLK
  5
1B9
330
1B7
100
AcDbEntity
  8
0
100
AcDbBlockEnd
  0
BLOCK
  5
1C3
330
1C2
100
AcDbEntity
  8
0
100
AcDbBlockBegin
  2
四面シート流れ方向
 70
     0
 10
0.0
 20
0.0
 30
0.0
  3
四面シート流れ方向
  1

  0
LINE
  5
1C5
330
1C2
100
AcDbEntity
  8
Sketch Geometry (ISO)
100
AcDbLine
 10
15.0
 20
5.75000000000001
 30
0.0
 11
15.0
 21
-4.249999999999989
 31
0.0
  0
LINE
  5
1C6
330
1C2
100
AcDbEntity
  8
Sketch Geometry (ISO)
100
AcDbLine
 10
15.0
 20
-4.249999999999989
 30
0.0
 11
25.0
 21
-4.249999999999989
 31
0.0
  0
LINE
  5
1C7
330
1C2
100
AcDbEntity
  8
Sketch Geometry (ISO)
100
AcDbLine
 10
25.0
 20
-4.249999999999989
 30
0.0
 11
22.40192378864668
 21
-5.75000000000001
 31
0.0
  0
LINE
  5
1C8
330
1C2
100
AcDbEntity
  8
Sketch Geometry (ISO)
100
AcDbLine
 10
25.0
 20
-4.249999999999989
 30
0.0
 11
22.4019237886467
 21
-2.749999999999985
 31
0.0
  0
LINE
  5
1C9
330
1C2
100
AcDbEntity
  8
Sketch Geometry (ISO)
100
AcDbLine
 10
-15.0
 20
5.75000000000001
 30
0.0
 11
-15.0
 21
-4.249999999999989
 31
0.0
  0
LINE
  5
1CA
330
1C2
100
AcDbEntity
  8
Sketch Geometry (ISO)
100
AcDbLine
 10
-15.0
 20
-4.249999999999989
 30
0.0
 11
-25.0
 21
-4.249999999999989
 31
0.0
  0
LINE
  5
1CB
330
1C2
100
AcDbEntity
  8
Sketch Geometry (ISO)
100
AcDbLine
 10
-25.0
 20
-4.249999999999989
 30
0.0
 11
-22.40192378864668
 21
-5.749999999999992
 31
0.0
  0
LINE
  5
1CC
330
1C2
100
AcDbEntity
  8
Sketch Geometry (ISO)
100
AcDbLine
 10
-25.0
 20
-4.249999999999989
 30
0.0
 11
-22.40192378864668
 21
-2.749999999999985
 31
0.0
  0
ENDBLK
  5
1C4
330
1C2
100
AcDbEntity
  8
0
100
AcDbBlockEnd
  0
BLOCK
  5
1CE
330
1CD
100
AcDbEntity
  8
0
100
AcDbBlockBegin
  2
継手使用条件
 70
     0
 10
0.0
 20
0.0
 30
0.0
  3
継手使用条件
  1

  0
LINE
  5
1D0
330
1CD
100
AcDbEntity
  8
AM_6
 62
     7
100
AcDbLine
 10
-109.9999999999998
 20
13.99999999999995
 30
0.0
 11
0.0
 21
13.99999999999995
 31
0.0
  0
LINE
  5
1D1
330
1CD
100
AcDbEntity
  8
AM_6
 62
     7
100
AcDbLine
 10
-109.9999999999998
 20
20.99999999999989
 30
0.0
 11
0.0
 21
20.99999999999989
 31
0.0
  0
LINE
  5
1D2
330
1CD
100
AcDbEntity
  8
AM_6
 62
     7
100
AcDbLine
 10
-109.9999999999998
 20
0.0
 30
0.0
 11
0.0
 21
0.0
 31
0.0
  0
LINE
  5
1D3
330
1CD
100
AcDbEntity
  8
AM_6
 62
     7
100
AcDbLine
 10
-109.9999999999998
 20
6.999999999999921
 30
0.0
 11
0.0
 21
6.999999999999921
 31
0.0
  0
LINE
  5
1D4
330
1CD
100
AcDbEntity
  8
AM_6
100
AcDbLine
 10
-109.9999999999998
 20
13.99999999999995
 30
0.0
 11
0.0
 21
13.99999999999995
 31
0.0
  0
LINE
  5
1D5
330
1CD
100
AcDbEntity
  8
AM_6
 62
     7
100
AcDbLine
 10
-79.99999999999985
 20
0.0
 30
0.0
 11
-79.99999999999985
 21
13.99999999999995
 31
0.0
  0
LINE
  5
1D6
330
1CD
100
AcDbEntity
  8
AM_6
 62
     7
100
AcDbLine
 10
-109.9999999999998
 20
0.0
 30
0.0
 11
-109.9999999999998
 21
13.99999999999995
 31
0.0
  0
LINE
  5
1D7
330
1CD
100
AcDbEntity
  8
AM_6
 62
     7
100
AcDbLine
 10
-109.9999999999998
 20
20.99999999999989
 30
0.0
 11
-109.9999999999998
 21
13.99999999999995
 31
0.0
  0
LINE
  5
1D8
330
1CD
100
AcDbEntity
  8
AM_6
 62
     7
100
AcDbLine
 10
0.0
 20
20.99999999999989
 30
0.0
 11
0.0
 21
0.0
 31
0.0
  0
TEXT
  5
1D9
330
1CD
100
AcDbEntity
  8
AM_6
 62
     7
100
AcDbText
 10
-99.10699134973953
 20
1.859174919306223
 30
0.0
 40
3.000000119209289
  1
温度
  7
文字スタイル124
100
AcDbText
  0
TEXT
  5
1DA
330
1CD
100
AcDbEntity
  8
AM_6
 62
     7
100
AcDbText
 10
-74.08820779690536
 20
1.889208046622279
 30
0.0
 40
3.000000119209289
  1
-50℃から+150℃（凍結箇所は除く）
  7
文字スタイル124
100
AcDbText
  0
TEXT
  5
1DB
330
1CD
100
AcDbEntity
  8
AM_6
 62
     7
100
AcDbText
 10
-98.91833575398269
 20
9.087025220515805
 30
0.0
 40
3.000000119209289
  1
圧力
  7
文字スタイル124
100
AcDbText
  0
TEXT
  5
1DC
330
1CD
100
AcDbEntity
  8
AM_6
 62
     7
100
AcDbText
 10
-73.95759548546608
 20
9.2041538485811
 30
0.0
 40
3.000000119209289
  1
6.90㎫（70kｇｆ/㎠）以下
  7
文字スタイル124
100
AcDbText
  0
TEXT
  5
1DD
330
1CD
100
AcDbEntity
  8
AM_6
 62
     7
100
AcDbText
 10
-67.51047275306056
 20
16.18426392533615
 30
0.0
 40
3.000000119209289
  1
使　用　条　件
  7
文字スタイル124
100
AcDbText
  0
ENDBLK
  5
1CF
330
1CD
100
AcDbEntity
  8
0
100
AcDbBlockEnd
  0
BLOCK
  5
1DF
330
1DE
100
AcDbEntity
  8
0
100
AcDbBlockBegin
  2
3方弁流れ方向B
 70
     0
 10
0.0
 20
0.0
 30
0.0
  3
3方弁流れ方向B
  1

  0
LINE
  5
1E1
330
1DE
100
AcDbEntity
  8
Sketch Geometry (ISO)
100
AcDbLine
 10
0.0
 20
8.625000000000024
 30
0.0
 11
0.0
 21
-6.374999999999975
 31
0.0
  0
LINE
  5
1E2
330
1DE
100
AcDbEntity
  8
Sketch Geometry (ISO)
100
AcDbLine
 10
0.0
 20
-6.374999999999975
 30
0.0
 11
-15.00000000000004
 21
-6.375000000000028
 31
0.0
  0
LINE
  5
1E3
330
1DE
100
AcDbEntity
  8
Sketch Geometry (ISO)
100
AcDbLine
 10
-15.00000000000004
 20
-6.375000000000028
 30
0.0
 11
-11.10288568297005
 21
-8.625000000000024
 31
0.0
  0
LINE
  5
1E4
330
1DE
100
AcDbEntity
  8
Sketch Geometry (ISO)
100
AcDbLine
 10
-15.00000000000004
 20
-6.375000000000028
 30
0.0
 11
-11.10288568297005
 21
-4.125000000000014
 31
0.0
  0
LINE
  5
1E5
330
1DE
100
AcDbEntity
  8
Sketch Geometry (ISO)
100
AcDbLine
 10
15.00000000000005
 20
-6.375000000000028
 30
0.0
 11
11.10288568297006
 21
-4.125000000000014
 31
0.0
  0
LINE
  5
1E6
330
1DE
100
AcDbEntity
  8
Sketch Geometry (ISO)
100
AcDbLine
 10
15.00000000000005
 20
-6.375000000000028
 30
0.0
 11
11.10288568297006
 21
-8.625000000000024
 31
0.0
  0
LINE
  5
1E7
330
1DE
100
AcDbEntity
  8
Sketch Geometry (ISO)
100
AcDbLine
 10
0.0
 20
-6.374999999999975
 30
0.0
 11
15.00000000000005
 21
-6.375000000000028
 31
0.0
  0
ENDBLK
  5
1E0
330
1DE
100
AcDbEntity
  8
0
100
AcDbBlockEnd
  0
BLOCK
  5
1E9
330
1E8
100
AcDbEntity
  8
0
100
AcDbBlockBegin
  2
3方弁流れ方向A
 70
     0
 10
0.0
 20
0.0
 30
0.0
  3
3方弁流れ方向A
  1

  0
LINE
  5
1EB
330
1E8
100
AcDbEntity
  8
Sketch Geometry (ISO)
100
AcDbLine
 10
-7.500000000000106
 20
8.625000000000042
 30
0.0
 11
-7.500000000000106
 21
-6.37500000000001
 31
0.0
  0
LINE
  5
1EC
330
1E8
100
AcDbEntity
  8
Sketch Geometry (ISO)
100
AcDbLine
 10
-7.500000000000106
 20
-6.37500000000001
 30
0.0
 11
7.500000000000106
 21
-6.37500000000001
 31
0.0
  0
LINE
  5
1ED
330
1E8
100
AcDbEntity
  8
Sketch Geometry (ISO)
100
AcDbLine
 10
7.500000000000106
 20
-6.37500000000001
 30
0.0
 11
3.602885682969994
 21
-8.625000000000042
 31
0.0
  0
LINE
  5
1EE
330
1E8
100
AcDbEntity
  8
Sketch Geometry (ISO)
100
AcDbLine
 10
7.500000000000106
 20
-6.37500000000001
 30
0.0
 11
3.602885682970118
 21
-4.124999999999996
 31
0.0
  0
ENDBLK
  5
1EA
330
1E8
100
AcDbEntity
  8
0
100
AcDbBlockEnd
  0
BLOCK
  5
1F0
330
1EF
100
AcDbEntity
  8
0
100
AcDbBlockBegin
  2
バルブ仕様表Ver1.01
 70
     0
 10
0.0
 20
0.0
 30
0.0
  3
バルブ仕様表Ver1.01
  1

  0
LINE
  5
1F2
330
1EF
100
AcDbEntity
  8
AM_6
 62
     7
100
AcDbLine
 10
-109.9999999999999
 20
34.99999999999989
 30
0.0
 11
0.0
 21
34.99999999999989
 31
0.0
  0
LINE
  5
1F3
330
1EF
100
AcDbEntity
  8
AM_6
 62
     7
100
AcDbLine
 10
-109.9999999999999
 20
20.99999999999991
 30
0.0
 11
0.0
 21
20.99999999999991
 31
0.0
  0
LINE
  5
1F4
330
1EF
100
AcDbEntity
  8
AM_6
 62
     7
100
AcDbLine
 10
-109.9999999999999
 20
27.99999999999986
 30
0.0
 11
0.0
 21
27.99999999999986
 31
0.0
  0
LINE
  5
1F5
330
1EF
100
AcDbEntity
  8
AM_6
 62
     7
100
AcDbLine
 10
-109.9999999999999
 20
6.999999999999921
 30
0.0
 11
0.0
 21
6.999999999999921
 31
0.0
  0
LINE
  5
1F6
330
1EF
100
AcDbEntity
  8
AM_6
 62
     7
100
AcDbLine
 10
-109.9999999999999
 20
13.99999999999988
 30
0.0
 11
0.0
 21
13.99999999999988
 31
0.0
  0
LINE
  5
1F7
330
1EF
100
AcDbEntity
  8
AM_6
100
AcDbLine
 10
-109.9999999999999
 20
20.99999999999991
 30
0.0
 11
0.0
 21
20.99999999999991
 31
0.0
  0
LINE
  5
1F8
330
1EF
100
AcDbEntity
  8
AM_6
 62
     7
100
AcDbLine
 10
-79.99999999999997
 20
6.999999999999921
 30
0.0
 11
-79.99999999999997
 21
20.99999999999991
 31
0.0
  0
LINE
  5
1F9
330
1EF
100
AcDbEntity
  8
AM_6
 62
     7
100
AcDbLine
 10
-79.99999999999983
 20
34.99999999999989
 30
0.0
 11
-79.99999999999997
 21
20.99999999999991
 31
0.0
  0
LINE
  5
1FA
330
1EF
100
AcDbEntity
  8
AM_6
 62
     7
100
AcDbLine
 10
-110.0
 20
0.0
 30
0.0
 11
-109.9999999999999
 21
20.99999999999991
 31
0.0
  0
LINE
  5
1FB
330
1EF
100
AcDbEntity
  8
AM_6
 62
     7
100
AcDbLine
 10
-109.9999999999999
 20
34.99999999999989
 30
0.0
 11
-109.9999999999999
 21
20.99999999999991
 31
0.0
  0
LINE
  5
1FC
330
1EF
100
AcDbEntity
  8
AM_6
 62
     7
100
AcDbLine
 10
0.0
 20
34.99999999999989
 30
0.0
 11
0.0
 21
0.0
 31
0.0
  0
LINE
  5
1FD
330
1EF
100
AcDbEntity
  8
AM_6
 62
     7
100
AcDbLine
 10
-110.0
 20
0.0
 30
0.0
 11
0.0
 21
0.0
 31
0.0
  0
TEXT
  5
1FE
330
1EF
100
AcDbEntity
  8
AM_6
 62
     7
100
AcDbText
 10
-108.8278821838788
 20
8.85644618371888
 30
0.0
 40
3.000000119209289
  1
弁座漏れ検査
  7
文字スタイル124
100
AcDbText
  0
TEXT
  5
1FF
330
1EF
100
AcDbEntity
  8
AM_6
 62
     7
100
AcDbText
 10
-108.7272190985969
 20
15.85644618371891
 30
0.0
 40
3.000000119209289
  1
弁箱耐圧検査
  7
文字スタイル124
100
AcDbText
  0
TEXT
  5
200
330
1EF
100
AcDbEntity
  8
AM_6
 62
     7
100
AcDbText
 10
-102.9390916948839
 20
22.45379385234525
 30
0.0
 40
3.000000119209289
  1
使用温度
  7
文字スタイル124
100
AcDbText
  0
TEXT
  5
201
330
1EF
100
AcDbEntity
  8
AM_6
 62
     7
100
AcDbText
 10
-102.9390916948839
 20
29.45379385234528
 30
0.0
 40
3.000000119209289
  1
使用圧力
  7
文字スタイル124
100
AcDbText
  0
MTEXT
  5
202
330
1EF
100
AcDbEntity
  8
AM_6
 62
     7
100
AcDbMText
 10
-75.82079135345705
 20
15.08911641185708
 30
0.0
 40
3.000000119209289
 41
0.0
 46
0.0
 71
     7
 72
     1
  1
\fＭＳ Ｐゴシック|b0|i0;\H3.0000;水圧：1.5MPa\fＭＳ Ｐゴシック|b0|i0;\H1.5000;（代表試験）\fＭＳ Ｐゴシック|b0|i0;\H3.0000;/空圧：0.6MPa
 73
     2
 44
1.0
  0
TEXT
  5
203
330
1EF
100
AcDbEntity
  8
AM_6
 62
     7
100
AcDbText
 10
-65.4524935694148
 20
8.453793852345263
 30
0.0
 40
3.000000119209289
  1
空圧：0.6MPa
  7
文字スタイル124
100
AcDbText
  0
TEXT
  5
204
330
1EF
100
AcDbEntity
  8
AM_6
 62
     7
100
AcDbText
 10
-65.4524935694148
 20
29.45379385234528
 30
0.0
 40
3.000000119209289
  1
MAX　0.98MPa
  7
文字スタイル124
100
AcDbText
  0
TEXT
  5
205
330
1EF
100
AcDbEntity
  8
AM_6
 62
     7
100
AcDbText
 10
-65.4524935694148
 20
22.45379385234525
 30
0.0
 40
3.000000119209289
  1
-10℃～+80℃（凍結無き事）
  7
文字スタイル124
100
AcDbText
  0
MTEXT
  5
206
330
1EF
100
AcDbEntity
  8
Symbol (ISO)
100
AcDbMText
 10
-105.2372422780888
 20
2.865575525594454
 30
0.0
 40
1.500000059604644
 41
0.0
 46
0.0
 71
     1
 72
     1
  1
\fＭＳ Ｐゴシック|b0|i0;\H1.5000;※使用圧力や使用温度等は、諸条件に寄って変動が生じます。
  7
Note Text (JIS)
 73
     1
 44
1.5
  0
MTEXT
  5
207
330
1EF
100
AcDbEntity
  8
Symbol (ISO)
100
AcDbMText
 10
-105.236758833615
 20
5.953692813091322
 30
0.0
 40
1.500000059604644
 41
0.0
 46
0.0
 71
     1
 72
     1
  1
\fＭＳ Ｐゴシック|b0|i0;\H1.5000;※バルブ構成材質に影響のない環境下で（流体を含む）ご使用下さい。
  7
Note Text (JIS)
 73
     1
 44
1.5
  0
ENDBLK
  5
1F1
330
1EF
100
AcDbEntity
  8
0
100
AcDbBlockEnd
  0
BLOCK
  5
209
330
208
100
AcDbEntity
  8
0
100
AcDbBlockBegin
  2
バルブ仕様表Ver1.00
 70
     0
 10
0.0
 20
0.0
 30
0.0
  3
バルブ仕様表Ver1.00
  1

  0
LINE
  5
20B
330
208
100
AcDbEntity
  8
AM_6
 62
     7
100
AcDbLine
 10
-109.9999999999999
 20
27.99999999999997
 30
0.0
 11
0.0
 21
27.99999999999997
 31
0.0
  0
LINE
  5
20C
330
208
100
AcDbEntity
  8
AM_6
 62
     7
100
AcDbLine
 10
-109.9999999999999
 20
13.99999999999998
 30
0.0
 11
0.0
 21
13.99999999999998
 31
0.0
  0
LINE
  5
20D
330
208
100
AcDbEntity
  8
AM_6
 62
     7
100
AcDbLine
 10
-109.9999999999999
 20
20.99999999999994
 30
0.0
 11
0.0
 21
20.99999999999994
 31
0.0
  0
LINE
  5
20E
330
208
100
AcDbEntity
  8
AM_6
 62
     7
100
AcDbLine
 10
-109.9999999999999
 20
0.0
 30
0.0
 11
0.0
 21
0.0
 31
0.0
  0
LINE
  5
20F
330
208
100
AcDbEntity
  8
AM_6
 62
     7
100
AcDbLine
 10
-109.9999999999999
 20
6.999999999999957
 30
0.0
 11
0.0
 21
6.999999999999957
 31
0.0
  0
LINE
  5
210
330
208
100
AcDbEntity
  8
AM_6
100
AcDbLine
 10
-109.9999999999999
 20
13.99999999999998
 30
0.0
 11
0.0
 21
13.99999999999998
 31
0.0
  0
LINE
  5
211
330
208
100
AcDbEntity
  8
AM_6
 62
     7
100
AcDbLine
 10
-79.99999999999997
 20
0.0
 30
0.0
 11
-79.99999999999997
 21
13.99999999999998
 31
0.0
  0
LINE
  5
212
330
208
100
AcDbEntity
  8
AM_6
 62
     7
100
AcDbLine
 10
-79.99999999999983
 20
27.99999999999997
 30
0.0
 11
-79.99999999999997
 21
13.99999999999998
 31
0.0
  0
LINE
  5
213
330
208
100
AcDbEntity
  8
AM_6
 62
     7
100
AcDbLine
 10
-109.9999999999999
 20
0.0
 30
0.0
 11
-109.9999999999999
 21
13.99999999999998
 31
0.0
  0
LINE
  5
214
330
208
100
AcDbEntity
  8
AM_6
 62
     7
100
AcDbLine
 10
-109.9999999999999
 20
27.99999999999997
 30
0.0
 11
-109.9999999999999
 21
13.99999999999998
 31
0.0
  0
LINE
  5
215
330
208
100
AcDbEntity
  8
AM_6
 62
     7
100
AcDbLine
 10
0.0
 20
27.99999999999997
 30
0.0
 11
0.0
 21
0.0
 31
0.0
  0
TEXT
  5
216
330
208
100
AcDbEntity
  8
AM_6
 62
     7
100
AcDbText
 10
-102.9390916948839
 20
1.453793852345341
 30
0.0
 40
3.000000119209289
  1
気密試験
  7
文字スタイル124
100
AcDbText
  0
TEXT
  5
217
330
208
100
AcDbEntity
  8
AM_6
 62
     7
100
AcDbText
 10
-102.9390916948839
 20
8.45379385234537
 30
0.0
 40
3.000000119209289
  1
耐圧試験
  7
文字スタイル124
100
AcDbText
  0
TEXT
  5
218
330
208
100
AcDbEntity
  8
AM_6
 62
     7
100
AcDbText
 10
-102.9390916948839
 20
15.45379385234532
 30
0.0
 40
3.000000119209289
  1
使用温度
  7
文字スタイル124
100
AcDbText
  0
TEXT
  5
219
330
208
100
AcDbEntity
  8
AM_6
 62
     7
100
AcDbText
 10
-102.9390916948839
 20
22.45379385234536
 30
0.0
 40
3.000000119209289
  1
使用圧力
  7
文字スタイル124
100
AcDbText
  0
TEXT
  5
21A
330
208
100
AcDbEntity
  8
AM_6
 62
     7
100
AcDbText
 10
-65.4524935694148
 20
8.45379385234537
 30
0.0
 40
3.000000119209289
  1
1.96MPa
  7
文字スタイル124
100
AcDbText
  0
TEXT
  5
21B
330
208
100
AcDbEntity
  8
AM_6
 62
     7
100
AcDbText
 10
-65.4524935694148
 20
1.453793852345341
 30
0.0
 40
3.000000119209289
  1
0.6MPa
  7
文字スタイル124
100
AcDbText
  0
TEXT
  5
21C
330
208
100
AcDbEntity
  8
AM_6
 62
     7
100
AcDbText
 10
-65.4524935694148
 20
22.45379385234536
 30
0.0
 40
3.000000119209289
  1
MAX　0.98MPa
  7
文字スタイル124
100
AcDbText
  0
TEXT
  5
21D
330
208
100
AcDbEntity
  8
AM_6
 62
     7
100
AcDbText
 10
-65.4524935694148
 20
15.45379385234532
 30
0.0
 40
3.000000119209289
  1
-10℃～+80℃（凍結無き事）
  7
文字スタイル124
100
AcDbText
  0
ENDBLK
  5
20A
330
208
100
AcDbEntity
  8
0
100
AcDbBlockEnd
  0
BLOCK
  5
21F
330
21E
100
AcDbEntity
  8
0
100
AcDbBlockBegin
  2
3方弁T説明A
 70
     0
 10
0.0
 20
0.0
 30
0.0
  3
3方弁T説明A
  1

  0
MTEXT
  5
221
330
21E
100
AcDbEntity
  8
Symbol (ISO)
100
AcDbMText
 10
-26.64529323577881
 20
6.057205647230148
 30
0.0
 40
1.522842645645141
 41
0.0
 46
0.0
 71
     1
 72
     1
  1
\fＭＳ Ｐゴシック|b0|i0;\H1.5228;※ポートFとGが流路に成ります。\P※ハンドル位置Aの時、ポートEの圧力がポートF及び\P　ポートGより高い場合、ポートEからポートF及びポートG\P　に漏れが発生する場合が御座います。\P※流路切り替え途中は、流体が混流致します。
  7
Note Text (JIS)
 73
     2
 44
1.058181881904602
  0
ENDBLK
  5
220
330
21E
100
AcDbEntity
  8
0
100
AcDbBlockEnd
  0
BLOCK
  5
223
330
222
100
AcDbEntity
  8
0
100
AcDbBlockBegin
  2
3方弁T説明B
 70
     0
 10
0.0
 20
0.0
 30
0.0
  3
3方弁T説明B
  1

  0
MTEXT
  5
225
330
222
100
AcDbEntity
  8
Symbol (ISO)
100
AcDbMText
 10
-23.96473407745361
 20
2.019689232110977
 30
0.0
 40
1.522842645645141
 41
0.0
 46
0.0
 71
     1
 72
     1
  1
\fＭＳ Ｐゴシック|b0|i0;\H1.5228;※ポートEとFとGそれぞれの方向に開いています。\P※流路切り替え途中は、流体が混流致します。
  7
Note Text (JIS)
 73
     2
 44
1.058181881904602
  0
ENDBLK
  5
224
330
222
100
AcDbEntity
  8
0
100
AcDbBlockEnd
  0
BLOCK
  5
227
330
226
100
AcDbEntity
  8
0
100
AcDbBlockBegin
  2
バルブ仕様表Ver1.02
 70
     0
 10
0.0
 20
0.0
 30
0.0
  3
バルブ仕様表Ver1.02
  1

  0
LINE
  5
229
330
226
100
AcDbEntity
  8
AM_6
 62
     7
100
AcDbLine
 10
-109.9999999999999
 20
34.99999999999989
 30
0.0
 11
0.0
 21
34.99999999999989
 31
0.0
  0
LINE
  5
22A
330
226
100
AcDbEntity
  8
AM_6
 62
     7
100
AcDbLine
 10
-109.9999999999999
 20
20.99999999999991
 30
0.0
 11
0.0
 21
20.99999999999991
 31
0.0
  0
LINE
  5
22B
330
226
100
AcDbEntity
  8
AM_6
 62
     7
100
AcDbLine
 10
-109.9999999999999
 20
27.99999999999986
 30
0.0
 11
0.0
 21
27.99999999999986
 31
0.0
  0
LINE
  5
22C
330
226
100
AcDbEntity
  8
AM_6
 62
     7
100
AcDbLine
 10
-109.9999999999999
 20
6.999999999999921
 30
0.0
 11
0.0
 21
6.999999999999921
 31
0.0
  0
LINE
  5
22D
330
226
100
AcDbEntity
  8
AM_6
 62
     7
100
AcDbLine
 10
-109.9999999999999
 20
13.99999999999988
 30
0.0
 11
0.0
 21
13.99999999999988
 31
0.0
  0
LINE
  5
22E
330
226
100
AcDbEntity
  8
AM_6
100
AcDbLine
 10
-109.9999999999999
 20
20.99999999999991
 30
0.0
 11
0.0
 21
20.99999999999991
 31
0.0
  0
LINE
  5
22F
330
226
100
AcDbEntity
  8
AM_6
 62
     7
100
AcDbLine
 10
-79.99999999999997
 20
6.999999999999921
 30
0.0
 11
-79.99999999999997
 21
20.99999999999991
 31
0.0
  0
LINE
  5
230
330
226
100
AcDbEntity
  8
AM_6
 62
     7
100
AcDbLine
 10
-79.99999999999983
 20
34.99999999999989
 30
0.0
 11
-79.99999999999997
 21
20.99999999999991
 31
0.0
  0
LINE
  5
231
330
226
100
AcDbEntity
  8
AM_6
 62
     7
100
AcDbLine
 10
-110.0
 20
0.0
 30
0.0
 11
-109.9999999999999
 21
20.99999999999991
 31
0.0
  0
LINE
  5
232
330
226
100
AcDbEntity
  8
AM_6
 62
     7
100
AcDbLine
 10
-109.9999999999999
 20
34.99999999999989
 30
0.0
 11
-109.9999999999999
 21
20.99999999999991
 31
0.0
  0
LINE
  5
233
330
226
100
AcDbEntity
  8
AM_6
 62
     7
100
AcDbLine
 10
0.0
 20
34.99999999999989
 30
0.0
 11
0.0
 21
0.0
 31
0.0
  0
LINE
  5
234
330
226
100
AcDbEntity
  8
AM_6
 62
     7
100
AcDbLine
 10
-110.0
 20
0.0
 30
0.0
 11
0.0
 21
0.0
 31
0.0
  0
TEXT
  5
235
330
226
100
AcDbEntity
  8
AM_6
 62
     7
100
AcDbText
 10
-108.8278821838788
 20
8.85644618371888
 30
0.0
 40
3.000000119209289
  1
弁座漏れ検査
  7
文字スタイル124
100
AcDbText
  0
TEXT
  5
236
330
226
100
AcDbEntity
  8
AM_6
 62
     7
100
AcDbText
 10
-108.7272190985969
 20
15.85644618371891
 30
0.0
 40
3.000000119209289
  1
弁箱耐圧検査
  7
文字スタイル124
100
AcDbText
  0
TEXT
  5
237
330
226
100
AcDbEntity
  8
AM_6
 62
     7
100
AcDbText
 10
-102.9390916948839
 20
22.45379385234525
 30
0.0
 40
3.000000119209289
  1
使用温度
  7
文字スタイル124
100
AcDbText
  0
TEXT
  5
238
330
226
100
AcDbEntity
  8
AM_6
 62
     7
100
AcDbText
 10
-102.9390916948839
 20
29.45379385234528
 30
0.0
 40
3.000000119209289
  1
使用圧力
  7
文字スタイル124
100
AcDbText
  0
MTEXT
  5
239
330
226
100
AcDbEntity
  8
AM_6
 62
     7
100
AcDbMText
 10
-65.28809090537734
 20
14.98483224954363
 30
0.0
 40
3.000000119209289
 41
0.0
 46
0.0
 71
     7
 72
     1
  1
\fＭＳ Ｐゴシック|b0|i0;\H3.0000;水圧：1.5MPa\fＭＳ Ｐゴシック|b0|i0;\H1.5000;（代表試験）
 73
     2
 44
1.0
  0
TEXT
  5
23A
330
226
100
AcDbEntity
  8
AM_6
 62
     7
100
AcDbText
 10
-65.4524935694148
 20
8.453793852345263
 30
0.0
 40
3.000000119209289
  1
空圧：0.6MPa
  7
文字スタイル124
100
AcDbText
  0
TEXT
  5
23B
330
226
100
AcDbEntity
  8
AM_6
 62
     7
100
AcDbText
 10
-65.4524935694148
 20
29.45379385234528
 30
0.0
 40
3.000000119209289
  1
MAX　0.98MPa
  7
文字スタイル124
100
AcDbText
  0
TEXT
  5
23C
330
226
100
AcDbEntity
  8
AM_6
 62
     7
100
AcDbText
 10
-65.4524935694148
 20
22.45379385234525
 30
0.0
 40
3.000000119209289
  1
-10℃～+80℃（凍結無き事）
  7
文字スタイル124
100
AcDbText
  0
MTEXT
  5
23D
330
226
100
AcDbEntity
  8
Symbol (ISO)
100
AcDbMText
 10
-105.2372422780888
 20
2.865575525594454
 30
0.0
 40
1.500000059604644
 41
0.0
 46
0.0
 71
     1
 72
     1
  1
\fＭＳ Ｐゴシック|b0|i0;\H1.5000;※使用圧力や使用温度等は、諸条件に寄って変動が生じます。
  7
Note Text (JIS)
 73
     1
 44
1.5
  0
MTEXT
  5
23E
330
226
100
AcDbEntity
  8
Symbol (ISO)
100
AcDbMText
 10
-105.236758833615
 20
5.953692813091322
 30
0.0
 40
1.500000059604644
 41
0.0
 46
0.0
 71
     1
 72
     1
  1
\fＭＳ Ｐゴシック|b0|i0;\H1.5000;※バルブ構成材質に影響のない環境下で（流体を含む）ご使用下さい。
  7
Note Text (JIS)
 73
     1
 44
1.5
  0
ENDBLK
  5
228
330
226
100
AcDbEntity
  8
0
100
AcDbBlockEnd
  0
BLOCK
  5
240
330
23F
100
AcDbEntity
  8
0
100
AcDbBlockBegin
  2
バルブ仕様表Ver1.03
 70
     0
 10
0.0
 20
0.0
 30
0.0
  3
バルブ仕様表Ver1.03
  1

  0
LINE
  5
242
330
23F
100
AcDbEntity
  8
AM_6
 62
     7
100
AcDbLine
 10
-110.0
 20
20.99999999999991
 30
0.0
 11
0.0
 21
20.99999999999991
 31
0.0
  0
LINE
  5
243
330
23F
100
AcDbEntity
  8
AM_6
 62
     7
100
AcDbLine
 10
-110.0
 20
6.999999999999921
 30
0.0
 11
0.0
 21
6.999999999999921
 31
0.0
  0
LINE
  5
244
330
23F
100
AcDbEntity
  8
AM_6
 62
     7
100
AcDbLine
 10
-110.0
 20
13.99999999999988
 30
0.0
 11
0.0
 21
13.99999999999988
 31
0.0
  0
LINE
  5
245
330
23F
100
AcDbEntity
  8
AM_6
 62
     7
100
AcDbLine
 10
-110.0
 20
6.999999999999921
 30
0.0
 11
0.0
 21
6.999999999999921
 31
0.0
  0
LINE
  5
246
330
23F
100
AcDbEntity
  8
AM_6
100
AcDbLine
 10
-110.0
 20
6.999999999999921
 30
0.0
 11
0.0
 21
6.999999999999921
 31
0.0
  0
LINE
  5
247
330
23F
100
AcDbEntity
  8
AM_6
 62
     7
100
AcDbLine
 10
-79.99999999999992
 20
20.99999999999991
 30
0.0
 11
-80.00000000000007
 21
6.999999999999921
 31
0.0
  0
LINE
  5
248
330
23F
100
AcDbEntity
  8
AM_6
 62
     7
100
AcDbLine
 10
-110.0000000000001
 20
0.0
 30
0.0
 11
-110.0
 21
6.999999999999921
 31
0.0
  0
LINE
  5
249
330
23F
100
AcDbEntity
  8
AM_6
 62
     7
100
AcDbLine
 10
-110.0
 20
20.99999999999991
 30
0.0
 11
-110.0
 21
6.999999999999921
 31
0.0
  0
LINE
  5
24A
330
23F
100
AcDbEntity
  8
AM_6
 62
     7
100
AcDbLine
 10
-110.0000000000001
 20
0.0
 30
0.0
 11
0.0
 21
0.0
 31
0.0
  0
LINE
  5
24B
330
23F
100
AcDbEntity
  8
Sketch Geometry (ISO)
 62
     7
100
AcDbLine
 10
0.0
 20
20.99999999999991
 30
0.0
 11
0.0
 21
6.999999999999921
 31
0.0
  0
LINE
  5
24C
330
23F
100
AcDbEntity
  8
Sketch Geometry (ISO)
 62
     7
100
AcDbLine
 10
0.0
 20
6.999999999999921
 30
0.0
 11
0.0
 21
0.0
 31
0.0
  0
TEXT
  5
24D
330
23F
100
AcDbEntity
  8
AM_6
 62
     7
100
AcDbText
 10
-102.9390916948841
 20
8.453793852345263
 30
0.0
 40
3.000000119209289
  1
使用温度
  7
文字スタイル124
100
AcDbText
  0
TEXT
  5
24E
330
23F
100
AcDbEntity
  8
AM_6
 62
     7
100
AcDbText
 10
-102.9390916948841
 20
15.45379385234529
 30
0.0
 40
3.000000119209289
  1
使用圧力
  7
文字スタイル124
100
AcDbText
  0
TEXT
  5
24F
330
23F
100
AcDbEntity
  8
AM_6
 62
     7
100
AcDbText
 10
-65.45249356941488
 20
15.45379385234529
 30
0.0
 40
3.000000119209289
  1
MAX　0.98MPa
  7
文字スタイル124
100
AcDbText
  0
TEXT
  5
250
330
23F
100
AcDbEntity
  8
AM_6
 62
     7
100
AcDbText
 10
-65.45249356941488
 20
8.453793852345263
 30
0.0
 40
3.000000119209289
  1
-10℃～+80℃（凍結無き事）
  7
文字スタイル124
100
AcDbText
  0
MTEXT
  5
251
330
23F
100
AcDbEntity
  8
Symbol (ISO)
100
AcDbMText
 10
-105.2372422780889
 20
2.865575525594454
 30
0.0
 40
1.500000059604644
 41
0.0
 46
0.0
 71
     1
 72
     1
  1
\fＭＳ Ｐゴシック|b0|i0;\H1.5000;※使用圧力や使用温度等は、諸条件に寄って変動が生じます。
  7
Note Text (JIS)
 73
     1
 44
1.5
  0
MTEXT
  5
252
330
23F
100
AcDbEntity
  8
Symbol (ISO)
100
AcDbMText
 10
-105.236758833615
 20
5.953692813091322
 30
0.0
 40
1.500000059604644
 41
0.0
 46
0.0
 71
     1
 72
     1
  1
\fＭＳ Ｐゴシック|b0|i0;\H1.5000;※バルブ構成材質に影響のない環境下で（流体を含む）ご使用下さい。
  7
Note Text (JIS)
 73
     1
 44
1.5
  0
ENDBLK
  5
241
330
23F
100
AcDbEntity
  8
0
100
AcDbBlockEnd
  0
BLOCK
  5
254
330
253
100
AcDbEntity
  8
0
100
AcDbBlockBegin
  2
バルブ検査スペック表Ver1.00
 70
     0
 10
0.0
 20
0.0
 30
0.0
  3
バルブ検査スペック表Ver1.00
  1

  0
LINE
  5
256
330
253
100
AcDbEntity
  8
AM_6
 62
     7
100
AcDbLine
 10
-109.9999999999999
 20
34.99999999999989
 30
0.0
 11
0.0
 21
34.99999999999989
 31
0.0
  0
LINE
  5
257
330
253
100
AcDbEntity
  8
AM_6
 62
     7
100
AcDbLine
 10
-109.9999999999999
 20
20.99999999999991
 30
0.0
 11
0.0
 21
20.99999999999991
 31
0.0
  0
LINE
  5
258
330
253
100
AcDbEntity
  8
AM_6
 62
     7
100
AcDbLine
 10
-109.9999999999999
 20
27.99999999999986
 30
0.0
 11
0.0
 21
27.99999999999986
 31
0.0
  0
LINE
  5
259
330
253
100
AcDbEntity
  8
AM_6
 62
     7
100
AcDbLine
 10
-109.9999999999999
 20
6.999999999999921
 30
0.0
 11
0.0
 21
6.999999999999921
 31
0.0
  0
LINE
  5
25A
330
253
100
AcDbEntity
  8
AM_6
 62
     7
100
AcDbLine
 10
-109.9999999999999
 20
13.99999999999988
 30
0.0
 11
0.0
 21
13.99999999999988
 31
0.0
  0
LINE
  5
25B
330
253
100
AcDbEntity
  8
AM_6
 62
     7
100
AcDbLine
 10
-109.9999999999999
 20
20.99999999999991
 30
0.0
 11
0.0
 21
20.99999999999991
 31
0.0
  0
LINE
  5
25C
330
253
100
AcDbEntity
  8
AM_6
 62
     7
100
AcDbLine
 10
-79.99999999999997
 20
6.999999999999921
 30
0.0
 11
-79.99999999999997
 21
20.99999999999991
 31
0.0
  0
LINE
  5
25D
330
253
100
AcDbEntity
  8
AM_6
 62
     7
100
AcDbLine
 10
-79.99999999999983
 20
34.99999999999989
 30
0.0
 11
-79.99999999999997
 21
20.99999999999991
 31
0.0
  0
LINE
  5
25E
330
253
100
AcDbEntity
  8
AM_6
 62
     7
100
AcDbLine
 10
-110.0
 20
0.0
 30
0.0
 11
-109.9999999999999
 21
20.99999999999991
 31
0.0
  0
LINE
  5
25F
330
253
100
AcDbEntity
  8
AM_6
 62
     7
100
AcDbLine
 10
-109.9999999999999
 20
34.99999999999989
 30
0.0
 11
-109.9999999999999
 21
20.99999999999991
 31
0.0
  0
LINE
  5
260
330
253
100
AcDbEntity
  8
AM_6
 62
     7
100
AcDbLine
 10
0.0
 20
34.99999999999989
 30
0.0
 11
0.0
 21
0.0
 31
0.0
  0
LINE
  5
261
330
253
100
AcDbEntity
  8
AM_6
 62
     7
100
AcDbLine
 10
-110.0
 20
0.0
 30
0.0
 11
0.0
 21
0.0
 31
0.0
  0
TEXT
  5
262
330
253
100
AcDbEntity
  8
AM_6
 62
     7
100
AcDbText
 10
-108.8278821838788
 20
8.85644618371888
 30
0.0
 40
3.000000119209289
  1
弁座漏れ検査
  7
文字スタイル124
100
AcDbText
  0
TEXT
  5
263
330
253
100
AcDbEntity
  8
AM_6
 62
     7
100
AcDbText
 10
-108.7272190985969
 20
15.85644618371891
 30
0.0
 40
3.000000119209289
  1
弁箱耐圧検査
  7
文字スタイル124
100
AcDbText
  0
TEXT
  5
264
330
253
100
AcDbEntity
  8
AM_6
 62
     7
100
AcDbText
 10
-102.9390916948839
 20
22.45379385234525
 30
0.0
 40
3.000000119209289
  1
使用温度
  7
文字スタイル124
100
AcDbText
  0
TEXT
  5
265
330
253
100
AcDbEntity
  8
AM_6
 62
     7
100
AcDbText
 10
-102.9390916948839
 20
29.45379385234528
 30
0.0
 40
3.000000119209289
  1
使用圧力
  7
文字スタイル124
100
AcDbText
  0
TEXT
  5
266
330
253
100
AcDbEntity
  8
AM_6
 62
     7
100
AcDbText
 10
-65.28809090537734
 20
15.65149893856205
 30
0.0
 40
3.000000119209289
  1
水圧：1.5MPa(代表試験)
  7
文字スタイル124
100
AcDbText
  0
MTEXT
  5
267
330
253
100
AcDbEntity
  8
AM_6
 62
     7
100
AcDbMText
 10
-65.4524935694148
 20
8.28280523798476
 30
0.0
 40
3.000000119209289
 41
0.0
 46
0.0
 71
     7
 72
     1
  1
\fＭＳ Ｐゴシック|b0|i0;\H3.0000;空圧：0.6MPa\fTahoma|b0|i0;\H3.0000;(全数試験)
 73
     2
 44
1.0
  0
TEXT
  5
268
330
253
100
AcDbEntity
  8
AM_6
 62
     7
100
AcDbText
 10
-65.4524935694148
 20
29.45379385234528
 30
0.0
 40
3.000000119209289
  1
MAX　0.98MPa
  7
文字スタイル124
100
AcDbText
  0
TEXT
  5
269
330
253
100
AcDbEntity
  8
AM_6
 62
     7
100
AcDbText
 10
-65.4524935694148
 20
22.45379385234525
 30
0.0
 40
3.000000119209289
  1
-10℃～+80℃（凍結無き事）
  7
文字スタイル124
100
AcDbText
  0
MTEXT
  5
26A
330
253
100
AcDbEntity
  8
Symbol (ISO)
100
AcDbMText
 10
-105.2372422780888
 20
2.865575525594454
 30
0.0
 40
1.500000059604644
 41
0.0
 46
0.0
 71
     1
 72
     1
  1
\fＭＳ Ｐゴシック|b0|i0;\H1.5000;※使用圧力や使用温度等は、諸条件に寄って変動が生じます。
  7
Note Text (JIS)
 73
     1
 44
1.5
  0
MTEXT
  5
26B
330
253
100
AcDbEntity
  8
Symbol (ISO)
100
AcDbMText
 10
-105.236758833615
 20
5.953692813091322
 30
0.0
 40
1.500000059604644
 41
0.0
 46
0.0
 71
     1
 72
     1
  1
\fＭＳ Ｐゴシック|b0|i0;\H1.5000;※バルブ構成材質に影響のない環境下で（流体を含む）ご使用下さい。
  7
Note Text (JIS)
 73
     1
 44
1.5
  0
ENDBLK
  5
255
330
253
100
AcDbEntity
  8
0
100
AcDbBlockEnd
  0
ENDSEC
  0
SECTION
  2
ENTITIES
  0
LINE
  5
26C
330
70
100
AcDbEntity
  8
Visible (ISO)
100
AcDbLine
 10
138.2398350305367
 20
75.71069878409161
 30
0.0
 11
138.2398350305367
 21
62.11069878409161
 31
0.0
  0
LINE
  5
26D
330
70
100
AcDbEntity
  8
Visible (ISO)
100
AcDbLine
 10
137.7928010093947
 20
61.6091179354983
 30
0.0
 11
137.7928010093947
 21
76.21227963268492
 31
0.0
  0
LINE
  5
26E
330
70
100
AcDbEntity
  8
Visible (ISO)
100
AcDbLine
 10
138.2398350305367
 20
62.11069878409162
 30
0.0
 11
137.7928010093947
 21
61.60911793549829
 31
0.0
  0
LINE
  5
26F
330
70
100
AcDbEntity
  8
Visible (ISO)
100
AcDbLine
 10
138.2398350305367
 20
75.71069878409161
 30
0.0
 11
137.7928010093947
 21
76.21227963268492
 31
0.0
  0
LINE
  5
270
330
70
100
AcDbEntity
  8
Visible (ISO)
100
AcDbLine
 10
131.7398350305367
 20
76.91069878409161
 30
0.0
 11
131.7398350305367
 21
60.91069878409161
 31
0.0
  0
LINE
  5
271
330
70
100
AcDbEntity
  8
Visible (ISO)
100
AcDbLine
 10
113.7398350305366
 20
76.91069878409161
 30
0.0
 11
113.7398350305366
 21
60.91069878409161
 31
0.0
  0
LINE
  5
272
330
70
100
AcDbEntity
  8
Visible (ISO)
100
AcDbLine
 10
118.2398350305366
 20
76.91069878409161
 30
0.0
 11
118.2398350305366
 21
60.91069878409161
 31
0.0
  0
LINE
  5
273
330
70
100
AcDbEntity
  8
Visible (ISO)
100
AcDbLine
 10
122.7398350305367
 20
76.91069878409161
 30
0.0
 11
122.7398350305367
 21
60.91069878409161
 31
0.0
  0
LINE
  5
274
330
70
100
AcDbEntity
  8
Visible (ISO)
100
AcDbLine
 10
127.2398350305366
 20
76.91069878409161
 30
0.0
 11
127.2398350305366
 21
60.91069878409161
 31
0.0
  0
LINE
  5
275
330
70
100
AcDbEntity
  8
Visible (ISO)
100
AcDbLine
 10
137.7928010093947
 20
61.60911793549829
 30
0.0
 11
131.7398350305367
 21
60.91069878409161
 31
0.0
  0
LINE
  5
276
330
70
100
AcDbEntity
  8
Visible (ISO)
100
AcDbLine
 10
137.7928010093947
 20
76.21227963268492
 30
0.0
 11
131.7398350305367
 21
76.91069878409161
 31
0.0
  0
LINE
  5
277
330
70
100
AcDbEntity
  8
Visible (ISO)
100
AcDbLine
 10
113.7398350305366
 20
60.91069878409161
 30
0.0
 11
109.2398350305367
 21
60.91069878409161
 31
0.0
  0
LINE
  5
278
330
70
100
AcDbEntity
  8
Visible (ISO)
100
AcDbLine
 10
113.7398350305366
 20
76.91069878409161
 30
0.0
 11
109.2398350305367
 21
76.91069878409161
 31
0.0
  0
LINE
  5
279
330
70
100
AcDbEntity
  8
Visible (ISO)
100
AcDbLine
 10
118.2398350305366
 20
61.6606987840916
 30
0.0
 11
113.7398350305366
 21
60.91069878409161
 31
0.0
  0
LINE
  5
27A
330
70
100
AcDbEntity
  8
Visible (ISO)
100
AcDbLine
 10
118.2398350305366
 20
76.16069878409162
 30
0.0
 11
113.7398350305366
 21
76.91069878409161
 31
0.0
  0
LINE
  5
27B
330
70
100
AcDbEntity
  8
Visible (ISO)
100
AcDbLine
 10
122.7398350305367
 20
61.6606987840916
 30
0.0
 11
118.2398350305366
 21
60.91069878409161
 31
0.0
  0
LINE
  5
27C
330
70
100
AcDbEntity
  8
Visible (ISO)
100
AcDbLine
 10
122.7398350305367
 20
76.16069878409162
 30
0.0
 11
118.2398350305366
 21
76.91069878409161
 31
0.0
  0
LINE
  5
27D
330
70
100
AcDbEntity
  8
Visible (ISO)
100
AcDbLine
 10
127.2398350305366
 20
61.6606987840916
 30
0.0
 11
122.7398350305367
 21
60.91069878409161
 31
0.0
  0
LINE
  5
27E
330
70
100
AcDbEntity
  8
Visible (ISO)
100
AcDbLine
 10
127.2398350305366
 20
76.16069878409162
 30
0.0
 11
122.7398350305367
 21
76.91069878409161
 31
0.0
  0
LINE
  5
27F
330
70
100
AcDbEntity
  8
Visible (ISO)
100
AcDbLine
 10
131.7398350305367
 20
61.6606987840916
 30
0.0
 11
127.2398350305366
 21
60.91069878409161
 31
0.0
  0
LINE
  5
280
330
70
100
AcDbEntity
  8
Visible (ISO)
100
AcDbLine
 10
131.7398350305367
 20
76.16069878409162
 30
0.0
 11
127.2398350305366
 21
76.91069878409161
 31
0.0
  0
LINE
  5
281
330
70
100
AcDbEntity
  8
Visible (ISO)
100
AcDbLine
 10
109.2398350305367
 20
79.41069878409161
 30
0.0
 11
109.2398350305367
 21
58.41069878409161
 31
0.0
  0
LINE
  5
282
330
70
100
AcDbEntity
  8
Visible (ISO)
100
AcDbLine
 10
108.7398350305367
 20
57.9106987840916
 30
0.0
 11
108.7398350305367
 21
79.91069878409162
 31
0.0
  0
LINE
  5
283
330
70
100
AcDbEntity
  8
Visible (ISO)
100
AcDbLine
 10
109.2398350305367
 20
58.41069878409161
 30
0.0
 11
108.7398350305367
 21
57.9106987840916
 31
0.0
  0
LINE
  5
284
330
70
100
AcDbEntity
  8
Visible (ISO)
100
AcDbLine
 10
109.2398350305367
 20
79.41069878409161
 30
0.0
 11
108.7398350305367
 21
79.91069878409162
 31
0.0
  0
LINE
  5
285
330
70
100
AcDbEntity
  8
Visible (ISO)
100
AcDbLine
 10
98.98983503053669
 20
99.91069878409163
 30
0.0
 11
81.48983503053669
 21
99.91069878409163
 31
0.0
  0
LINE
  5
286
330
70
100
AcDbEntity
  8
Visible (ISO)
100
AcDbLine
 10
79.82867194081624
 20
97.03347991303772
 30
0.0
 11
100.6509981202571
 21
97.03347991303772
 31
0.0
  0
LINE
  5
287
330
70
100
AcDbEntity
  8
Visible (ISO)
100
AcDbLine
 10
98.98983503053669
 20
99.91069878409163
 30
0.0
 11
100.6509981202571
 21
97.03347991303772
 31
0.0
  0
LINE
  5
288
330
70
100
AcDbEntity
  8
Visible (ISO)
100
AcDbLine
 10
81.48983503053669
 20
99.91069878409163
 30
0.0
 11
79.82867194081624
 21
97.03347991303772
 31
0.0
  0
LINE
  5
289
330
70
100
AcDbEntity
  8
Visible (ISO)
100
AcDbLine
 10
79.46560948185314
 20
85.41548122621804
 30
0.0
 11
101.0140605792202
 21
85.41548122621804
 31
0.0
  0
ARC
  5
28A
330
70
100
AcDbEntity
  8
Visible (ISO)
100
AcDbCircle
 10
80.98983503053666
 20
86.71036982248427
 30
0.0
 40
2.0
100
AcDbArc
 50
220.3491888996897
 51
251.790043135717
  0
ARC
  5
28B
330
70
100
AcDbEntity
  8
Visible (ISO)
100
AcDbCircle
 10
99.48983503053668
 20
86.71036982248427
 30
0.0
 40
2.0
100
AcDbArc
 50
288.2099568642829
 51
319.6508111003105
  0
ARC
  5
28C
330
70
100
AcDbEntity
  8
Visible (ISO)
100
AcDbCircle
 10
79.73983503053666
 20
82.9106987840916
 30
0.0
 40
2.0
100
AcDbArc
 50
0.0
 51
71.790043135717
  0
ARC
  5
28D
330
70
100
AcDbEntity
  8
Visible (ISO)
100
AcDbCircle
 10
100.7398350305366
 20
82.9106987840916
 30
0.0
 40
2.0
100
AcDbArc
 50
108.209956864283
 51
180.0
  0
SPLINE
  5
28E
330
70
100
AcDbEntity
  8
Visible (ISO)
100
AcDbSpline
210
0.0
220
0.0
230
1.0
 70
     8
 71
     3
 72
     8
 73
     4
 74
     0
 42
0.000000001
 43
0.0000000001
 40
0.2261382334101639
 40
0.2261382334101639
 40
0.2261382334101639
 40
0.2261382334101639
 40
0.226180887810148
 40
0.226180887810148
 40
0.226180887810148
 40
0.226180887810148
 10
89.48983503053668
 20
81.91069878409161
 30
0.0
 10
89.48983503053668
 20
81.91084096542489
 30
0.0
 10
89.48983507096773
 20
81.91098316098383
 30
0.0
 10
89.48983515185412
 20
81.91112537071887
 30
0.0
  0
SPLINE
  5
28F
330
70
100
AcDbEntity
  8
Visible (ISO)
100
AcDbSpline
210
0.0
220
0.0
230
1.0
 70
     8
 71
     3
 72
    22
 73
    18
 74
     0
 42
0.000000001
 43
0.0000000001
 40
0.0
 40
0.0
 40
0.0
 40
0.0
 40
0.0282673082753602
 40
0.0282673082753602
 40
0.0565346165507204
 40
0.0565346165507204
 40
0.0848018666279012
 40
0.0848018666279012
 40
0.113069116705082
 40
0.113069116705082
 40
0.1413363667822629
 40
0.1413363667822629
 40
0.1696036168594437
 40
0.1696036168594437
 40
0.1978709251348038
 40
0.1978709251348038
 40
0.2261382334101639
 40
0.2261382334101639
 40
0.2261382334101639
 40
0.2261382334101639
 10
90.98983503053666
 20
81.91069878409161
 30
0.0
 10
90.98983503053666
 20
81.81647442317373
 30
0.0
 10
90.97099423191194
 20
81.71600316179526
 30
0.0
 10
90.89443877700404
 20
81.53123323355705
 30
0.0
 10
90.83672680284855
 20
81.44693038462367
 30
0.0
 10
90.70360356704521
 20
81.31380714882032
 30
0.0
 10
90.61930065772651
 20
81.25609506813091
 30
0.0
 10
90.43453052863146
 20
81.17953953250992
 30
0.0
 10
90.3340591974606
 20
81.16069878409161
 30
0.0
 10
90.14561086361274
 20
81.16069878409161
 30
0.0
 10
90.04513953244188
 20
81.17953953250992
 30
0.0
 10
89.86036940334683
 20
81.25609506813091
 30
0.0
 10
89.77606649402813
 20
81.31380714882032
 30
0.0
 10
89.64294325822478
 20
81.44693038462367
 30
0.0
 10
89.5852312840693
 20
81.53123323355705
 30
0.0
 10
89.50867582916144
 20
81.71600316179526
 30
0.0
 10
89.48983503053668
 20
81.81647442317373
 30
0.0
 10
89.48983503053668
 20
81.91069878409161
 30
0.0
  0
SPLINE
  5
290
330
70
100
AcDbEntity
  8
Visible (ISO)
100
AcDbSpline
210
0.0
220
0.0
230
1.0
 70
     8
 71
     3
 72
    22
 73
    18
 74
     0
 42
0.000000001
 43
0.0000000001
 40
0.226180887810148
 40
0.226180887810148
 40
0.226180887810148
 40
0.226180887810148
 40
0.254405541685524
 40
0.254405541685524
 40
0.2826728499608841
 40
0.2826728499608841
 40
0.3109401000380649
 40
0.3109401000380649
 40
0.3392073501152458
 40
0.3392073501152458
 40
0.3674746001924266
 40
0.3674746001924266
 40
0.3957418502696074
 40
0.3957418502696074
 40
0.4240091585449676
 40
0.4240091585449676
 40
0.4522764668203278
 40
0.4522764668203278
 40
0.4522764668203278
 40
0.4522764668203278
 10
89.48983515185412
 20
81.91112537071887
 30
0.0
 10
89.48988867481848
 20
82.005226343918
 30
0.0
 10
89.50873358894108
 20
82.10553381213447
 30
0.0
 10
89.5852312840693
 20
82.29016433462616
 30
0.0
 10
89.64294325822478
 20
82.37446718355954
 30
0.0
 10
89.77606649402813
 20
82.50759041936291
 30
0.0
 10
89.86036940334683
 20
82.5653025000523
 30
0.0
 10
90.04513953244188
 20
82.64185803567329
 30
0.0
 10
90.14561086361274
 20
82.66069878409162
 30
0.0
 10
90.3340591974606
 20
82.66069878409162
 30
0.0
 10
90.43453052863146
 20
82.64185803567329
 30
0.0
 10
90.61930065772651
 20
82.5653025000523
 30
0.0
 10
90.70360356704521
 20
82.50759041936291
 30
0.0
 10
90.83672680284855
 20
82.37446718355954
 30
0.0
 10
90.89443877700404
 20
82.29016433462616
 30
0.0
 10
90.97099423191194
 20
82.10539440638795
 30
0.0
 10
90.98983503053666
 20
82.00492314500948
 30
0.0
 10
90.98983503053666
 20
81.91069878409161
 30
0.0
  0
ARC
  5
291
330
70
100
AcDbEntity
  8
Visible (ISO)
100
AcDbCircle
 10
96.73983503053669
 20
79.41069878409161
 30
0.0
 40
0.4999999999999993
100
AcDbArc
 50
0.0
 51
90.0
  0
SPLINE
  5
292
330
70
100
AcDbEntity
  8
Visible (ISO)
100
AcDbSpline
210
0.0
220
0.0
230
1.0
 70
    24
 71
     3
 72
    10
 73
     6
 74
     0
 42
0.000000001
 43
0.0000000001
 40
0.0
 40
0.0
 40
0.0
 40
0.0
 40
0.0680541815358975
 40
0.0680541815358975
 40
0.1337651372691162
 40
0.1337651372691162
 40
0.1337651372691162
 40
0.1337651372691162
 10
97.23983503053666
 20
79.41069878409161
 30
0.0
 10
97.23983503053666
 20
79.41069878409161
 30
0.0
 10
97.23983503053666
 20
79.44743504474828
 30
0.0
 10
97.23983503053666
 20
79.58648812184771
 30
0.0
 10
97.23983503053666
 20
79.68852224199006
 30
0.0
 10
97.23983503053666
 20
79.83074198078286
 30
0.0
  0
LINE
  5
293
330
70
100
AcDbEntity
  8
Visible (ISO)
100
AcDbLine
 10
96.73983503053669
 20
79.91069878409162
 30
0.0
 11
83.73983503053667
 21
79.91069878409162
 31
0.0
  0
LINE
  5
294
330
70
100
AcDbEntity
  8
Visible (ISO)
100
AcDbLine
 10
101.2398350305366
 20
59.9106987840916
 30
0.0
 11
101.2398350305366
 21
64.22028302426818
 31
0.0
  0
LINE
  5
295
330
70
100
AcDbEntity
  8
Visible (ISO)
100
AcDbLine
 10
83.23983503053666
 20
79.41069878409161
 30
0.0
 11
83.23983503053668
 21
62.4106987840916
 31
0.0
  0
ARC
  5
296
330
70
100
AcDbEntity
  8
Visible (ISO)
100
AcDbCircle
 10
86.23983503053667
 20
62.4106987840916
 30
0.0
 40
3.0
100
AcDbArc
 50
180.0
 51
270.0
  0
LINE
  5
297
330
70
100
AcDbEntity
  8
Visible (ISO)
100
AcDbLine
 10
86.23983503053667
 20
59.41069878409161
 30
0.0
 11
100.7398350305366
 21
59.41069878409161
 31
0.0
  0
LINE
  5
298
330
70
100
AcDbEntity
  8
Visible (ISO)
100
AcDbLine
 10
101.2398350305366
 20
73.60111454391504
 30
0.0
 11
101.2398350305366
 21
77.91069878409162
 31
0.0
  0
LINE
  5
299
330
70
100
AcDbEntity
  8
Visible (ISO)
100
AcDbLine
 10
100.7398350305366
 20
78.41069878409161
 30
0.0
 11
98.23983503053668
 21
78.41069878409161
 31
0.0
  0
ARC
  5
29A
330
70
100
AcDbEntity
  8
Visible (ISO)
100
AcDbCircle
 10
98.23983503053668
 20
79.41069878409161
 30
0.0
 40
0.9999999999999985
100
AcDbArc
 50
180.0
 51
270.0
  0
SPLINE
  5
29B
330
70
100
AcDbEntity
  8
Visible (ISO)
100
AcDbSpline
210
0.0
220
0.0
230
1.0
 70
    24
 71
     3
 72
    14
 73
    10
 74
     0
 42
0.000000001
 43
0.0000000001
 40
0.0
 40
0.0
 40
0.0
 40
0.0
 40
0.0447917178800835
 40
0.0447917178800835
 40
0.0953414205653971
 40
0.0953414205653971
 40
0.1342258072464076
 40
0.1342258072464076
 40
0.1585285489220391
 40
0.1585285489220391
 40
0.1585285489220391
 40
0.1585285489220391
 10
100.7398350305366
 20
59.41069878409161
 30
0.0
 10
100.7398350305173
 20
59.41069878409161
 30
0.0
 10
100.7527337571508
 20
59.41069878409161
 30
0.0
 10
100.8059050224669
 20
59.41069878409161
 30
0.0
 10
100.8494035377028
 20
59.41069878409161
 30
0.0
 10
100.9560050936372
 20
59.41069878409161
 30
0.0
 10
101.0122292703536
 20
59.41069878409161
 30
0.0
 10
101.124418142187
 20
59.41069878409161
 30
0.0
 10
101.1724378644676
 20
59.41069878409161
 30
0.0
 10
101.2263552172852
 20
59.41069878409161
 30
0.0
  0
ARC
  5
29C
330
70
100
AcDbEntity
  8
Visible (ISO)
100
AcDbCircle
 10
100.7398350305366
 20
59.91069878409162
 30
0.0
 40
0.4999999999999983
100
AcDbArc
 50
270.0
 51
0.0
  0
SPLINE
  5
29D
330
70
100
AcDbEntity
  8
Visible (ISO)
100
AcDbSpline
210
0.0
220
0.0
230
1.0
 70
    24
 71
     3
 72
    14
 73
    10
 74
     0
 42
0.000000001
 43
0.0000000001
 40
0.0
 40
0.0
 40
0.0
 40
0.0
 40
0.0252757681119348
 40
0.0252757681119348
 40
0.0657169970910306
 40
0.0657169970910306
 40
0.118290594763855
 40
0.118290594763855
 40
0.133723269754539
 40
0.133723269754539
 40
0.133723269754539
 40
0.133723269754539
 10
83.23983503053666
 20
79.83074198078284
 30
0.0
 10
83.23983503053666
 20
79.77603705222785
 30
0.0
 10
83.23983503053666
 20
79.72746637067801
 30
0.0
 10
83.23983503053666
 20
79.61548101575688
 30
0.0
 10
83.23983503053666
 20
79.56101856865517
 30
0.0
 10
83.23983503053666
 20
79.46358629905472
 30
0.0
 10
83.23983503053666
 20
79.42919001254392
 30
0.0
 10
83.23983503053666
 20
79.41259783546981
 30
0.0
 10
83.23983503053666
 20
79.41069878408623
 30
0.0
 10
83.23983503053666
 20
79.41069878409161
 30
0.0
  0
ARC
  5
29E
330
70
100
AcDbEntity
  8
Visible (ISO)
100
AcDbCircle
 10
83.73983503053667
 20
79.41069878409161
 30
0.0
 40
0.5000000000000038
100
AcDbArc
 50
90.0
 51
180.0
  0
LINE
  5
29F
330
70
100
AcDbEntity
  8
Visible (ISO)
100
AcDbLine
 10
96.47649414188553
 20
64.04616638451854
 30
0.0
 11
97.00317591960029
 21
64.04616638451854
 31
0.0
  0
ELLIPSE
  5
2A0
330
70
100
AcDbEntity
  8
Visible (ISO)
100
AcDbEllipse
 10
97.00317591960029
 20
64.11626080950965
 30
0.0
 11
0.0735384669002201
 21
0.0000000000000141
 31
0.0
210
0.0
220
0.0
230
1.0
 40
0.9531667975375226
 41
4.712388980384506
 42
6.626209245739197
  0
LINE
  5
2A1
330
70
100
AcDbEntity
  8
Visible (ISO)
100
AcDbLine
 10
97.07243017604071
 20
64.13983611573797
 30
0.0
 11
96.8090892886844
 21
64.84265793260087
 31
0.0
  0
LINE
  5
2A2
330
70
100
AcDbEntity
  8
Visible (ISO)
100
AcDbLine
 10
97.25232430009576
 20
67.09931216682452
 30
0.0
 11
98.3446745695914
 21
64.04514894287581
 31
0.0
  0
ELLIPSE
  5
2A3
330
70
100
AcDbEntity
  8
Visible (ISO)
100
AcDbEllipse
 10
98.90151383474401
 20
64.22609009029923
 30
0.0
 11
-0.5883077352015958
 21
-0.0000000000001603
 31
0.0
210
0.0
220
0.0
230
1.0
 40
0.9531667975379653
 41
0.3285531705510577
 42
2.110876526947131
  0
LINE
  5
2A4
330
70
100
AcDbEntity
  8
Visible (ISO)
100
AcDbLine
 10
99.2040244833347
 20
63.7451484392729
 30
0.0
 11
99.24014290514419
 21
63.7657886845541
 31
0.0
  0
LINE
  5
2A5
330
70
100
AcDbEntity
  8
Visible (ISO)
100
AcDbLine
 10
99.24014290514419
 20
63.7657886845541
 30
0.0
 11
98.5496327768557
 21
62.44944602925794
 31
0.0
  0
ELLIPSE
  5
2A6
330
70
100
AcDbEntity
  8
Visible (ISO)
100
AcDbEllipse
 10
98.48385797247571
 20
62.48079320908272
 30
0.0
 11
0.0735384669001912
 21
0.0000000000000315
 31
0.0
210
0.0
220
0.0
230
1.0
 40
0.9531667975395034
 41
3.962594650552526
 42
5.819537698179072
  0
ELLIPSE
  5
2A7
330
70
100
AcDbEntity
  8
Visible (ISO)
100
AcDbEllipse
 10
96.73983503053669
 20
60.69565286994358
 30
0.0
 11
2.485600181227439
 21
-0.000000000000134
 31
0.0
210
0.0
220
0.0
230
1.0
 40
0.9531667975375935
 41
0.8210019969645312
 42
2.320590656625361
  0
ELLIPSE
  5
2A8
330
70
100
AcDbEntity
  8
Visible (ISO)
100
AcDbEllipse
 10
96.47649414188551
 20
64.11626080950965
 30
0.0
 11
-0.0735384669002224
 21
0.0000000000000012
 31
0.0
210
0.0
220
0.0
230
1.0
 40
0.9531667975374928
 41
5.940161364897998
 42
7.853981633974497
  0
LINE
  5
2A9
330
70
100
AcDbEntity
  8
Visible (ISO)
100
AcDbLine
 10
96.67058077589565
 20
64.84265793260087
 30
0.0
 11
96.40723988553718
 21
64.13983611598365
 31
0.0
  0
ELLIPSE
  5
2AA
330
70
100
AcDbEntity
  8
Visible (ISO)
100
AcDbEllipse
 10
96.73983503229003
 20
64.81908262624971
 30
0.0
 11
0.0735384669002193
 21
0.0000000000000001
 31
0.0
210
0.0
220
0.0
230
1.0
 40
0.9531667975375066
 41
0.3430239404206459
 42
2.798568713169143
  0
ELLIPSE
  5
2AB
330
70
100
AcDbEntity
  8
Visible (ISO)
100
AcDbEllipse
 10
94.99581208859778
 20
62.48079320908272
 30
0.0
 11
0.0735384669002225
 21
0.0000000000000087
 31
0.0
210
0.0
220
0.0
230
1.0
 40
0.9531667975378145
 41
3.605240262590453
 42
5.462183310215065
  0
LINE
  5
2AC
330
70
100
AcDbEntity
  8
Visible (ISO)
100
AcDbLine
 10
94.93003728421776
 20
62.44944602925794
 30
0.0
 11
94.23952715592921
 21
63.7657886845541
 31
0.0
  0
LINE
  5
2AD
330
70
100
AcDbEntity
  8
Visible (ISO)
100
AcDbLine
 10
94.23952715592921
 20
63.7657886845541
 30
0.0
 11
94.28425691635883
 21
63.74117340056997
 31
0.0
  0
ELLIPSE
  5
2AE
330
70
100
AcDbEntity
  8
Visible (ISO)
100
AcDbEllipse
 10
94.57841078395972
 20
64.22680182221765
 30
0.0
 11
-0.5883077352007231
 21
0.0000000000000135
 31
0.0
210
0.0
220
0.0
230
1.0
 40
0.9531667975398436
 41
1.047197551195576
 42
2.813039483039123
  0
LINE
  5
2AF
330
70
100
AcDbEntity
  8
Visible (ISO)
100
AcDbLine
 10
95.13525004911159
 20
64.04586067479449
 30
0.0
 11
96.22734576097762
 21
67.0993121668244
 31
0.0
  0
ELLIPSE
  5
2B0
330
70
100
AcDbEntity
  8
Visible (ISO)
100
AcDbEllipse
 10
96.73983503053669
 20
66.87184789197246
 30
0.0
 11
0.5653269642954526
 21
0.0000000000012229
 31
0.0
210
0.0
220
0.0
230
1.0
 40
0.9531667975376002
 41
0.4357918987533074
 42
2.705800754832232
  0
ARC
  5
2B1
330
70
100
AcDbEntity
  8
Visible (ISO)
100
AcDbCircle
 10
100.7398350305366
 20
77.91069878409162
 30
0.0
 40
0.5000000000000005
100
AcDbArc
 50
0.0
 51
90.0
  0
LINE
  5
2B2
330
70
100
AcDbEntity
  8
Visible (ISO)
100
AcDbLine
 10
99.73983503053666
 20
79.91069878409162
 30
0.0
 11
108.7398350305367
 21
79.91069878409162
 31
0.0
  0
LINE
  5
2B3
330
70
100
AcDbEntity
  8
Visible (ISO)
100
AcDbLine
 10
84.73983503053666
 20
57.9106987840916
 30
0.0
 11
108.7398350305367
 21
57.9106987840916
 31
0.0
  0
LINE
  5
2B4
330
70
100
AcDbEntity
  8
Visible (ISO)
100
AcDbLine
 10
100.6509981202571
 20
97.03347991303772
 30
0.0
 11
101.0140605792202
 21
85.41548122621804
 31
0.0
  0
LINE
  5
2B5
330
70
100
AcDbEntity
  8
Visible (ISO)
100
AcDbLine
 10
79.82867194081624
 20
97.03347991303772
 30
0.0
 11
79.46560948185312
 21
85.41548122621804
 31
0.0
  0
LINE
  5
2B6
330
70
100
AcDbEntity
  8
Visible (ISO)
100
AcDbLine
 10
81.73983503053667
 20
60.91069878409161
 30
0.0
 11
81.73983503053667
 21
82.9106987840916
 31
0.0
  0
LINE
  5
2B7
330
70
100
AcDbEntity
  8
Visible (ISO)
100
AcDbLine
 10
98.73983503053667
 20
80.91069878409161
 30
0.0
 11
98.73983503053667
 21
82.9106987840916
 31
0.0
  0
ARC
  5
2B8
330
70
100
AcDbEntity
  8
Visible (ISO)
100
AcDbCircle
 10
99.73983503053666
 20
80.91069878409161
 30
0.0
 40
1.0
100
AcDbArc
 50
180.0
 51
270.0
  0
ARC
  5
2B9
330
70
100
AcDbEntity
  8
Visible (ISO)
100
AcDbCircle
 10
84.73983503053666
 20
60.91069878409161
 30
0.0
 40
3.0
100
AcDbArc
 50
180.0
 51
270.0
  0
LINE
  5
2BA
330
70
100
AcDbEntity
  8
Visible Narrow (ISO)
100
AcDbLine
 10
81.05776584417155
 20
99.16233300092223
 30
0.0
 11
80.62817672621202
 21
85.41548122621804
 31
0.0
  0
LINE
  5
2BB
330
70
100
AcDbEntity
  8
Visible Narrow (ISO)
100
AcDbLine
 10
99.85149333486134
 20
85.41548122621804
 30
0.0
 11
99.42190421690183
 21
99.16233300092223
 31
0.0
  0
LINE
  5
2BC
330
70
100
AcDbEntity
  8
Visible (ISO)
100
AcDbLine
 10
79.46560948185314
 20
85.41548122621804
 30
0.0
 11
101.0140605792202
 21
85.41548122621804
 31
0.0
  0
CIRCLE
  5
2BD
330
70
100
AcDbEntity
  8
Visible (ISO)
100
AcDbCircle
 10
166.3602698342441
 20
68.91069878409161
 30
0.0
 40
5.500000000000001
  0
CIRCLE
  5
2BE
330
70
100
AcDbEntity
  8
Visible (ISO)
100
AcDbCircle
 10
166.3602698342442
 20
68.91069878409161
 30
0.0
 40
5.600000000000001
  0
CIRCLE
  5
2BF
330
70
100
AcDbEntity
  8
Visible (ISO)
100
AcDbCircle
 10
166.3602698342442
 20
68.91069878409161
 30
0.0
 40
6.800000000000001
  0
CIRCLE
  5
2C0
330
70
100
AcDbEntity
  8
Visible (ISO)
100
AcDbCircle
 10
166.360269834244
 20
68.91069878409161
 30
0.0
 40
7.301580848593312
  0
SPLINE
  5
2C1
330
70
100
AcDbEntity
  8
Visible (ISO)
100
AcDbSpline
210
0.0
220
0.0
230
1.0
 70
     8
 71
     3
 72
    18
 73
    14
 74
     0
 42
0.000000001
 43
0.0000000001
 40
1.950451046356949
 40
1.950451046356949
 40
1.950451046356949
 40
1.950451046356949
 40
2.175132706191781
 40
2.175132706191781
 40
2.347856885250503
 40
2.347856885250503
 40
2.520581064309225
 40
2.520581064309225
 40
2.693305243367947
 40
2.693305243367947
 40
2.866029422426669
 40
2.866029422426669
 40
3.090711082261501
 40
3.090711082261501
 40
3.090711082261501
 40
3.090711082261501
 10
161.027238579154
 20
67.56579074545602
 30
0.0
 10
161.6418153900011
 20
67.23714538361341
 30
0.0
 10
162.2670166032421
 20
66.9269475786937
 30
0.0
 10
163.4228026693715
 20
66.43141212619759
 30
0.0
 10
163.9926150077412
 20
66.21217678584581
 30
0.0
 10
165.1726153849959
 20
65.8697878455814
 30
0.0
 10
165.7845225707001
 20
65.75150517415218
 30
0.0
 10
166.9360170977583
 20
65.75150517415218
 30
0.0
 10
167.5479242834625
 20
65.8697878455814
 30
0.0
 10
168.7279246607174
 20
66.21217678584581
 30
0.0
 10
169.2977369990871
 20
66.43141212619759
 30
0.0
 10
170.4535230652168
 20
66.9269475786937
 30
0.0
 10
171.0787242784579
 20
67.23714538361341
 30
0.0
 10
171.6933010893052
 20
67.56579074545602
 30
0.0
  0
LINE
  5
2C2
330
70
100
AcDbEntity
  8
Visible (ISO)
100
AcDbLine
 10
171.7685967474251
 20
67.9106987840916
 30
0.0
 11
160.9519429210332
 21
67.9106987840916
 31
0.0
  0
CIRCLE
  5
2C3
330
70
100
AcDbEntity
  8
Visible (ISO)
100
AcDbCircle
 10
166.3602698342423
 20
68.91069878409161
 30
0.0
 40
8.000000000000003
  0
CIRCLE
  5
2C4
330
70
100
AcDbEntity
  8
Visible (ISO)
100
AcDbCircle
 10
166.3602698342356
 20
68.91069878409161
 30
0.0
 40
10.5
  0
CIRCLE
  5
2C5
330
70
100
AcDbEntity
  8
Visible (ISO)
100
AcDbCircle
 10
166.3602698342354
 20
68.91069878409161
 30
0.0
 40
11.0
  0
LINE
  5
2C6
330
70
100
AcDbEntity
  8
Visible (ISO)
100
AcDbLine
 10
175.1102698342299
 20
99.91069878409163
 30
0.0
 11
157.6102698342299
 21
99.91069878409163
 31
0.0
  0
LINE
  5
2C7
330
70
100
AcDbEntity
  8
Visible (ISO)
100
AcDbLine
 10
155.9491067445095
 20
97.03347991303772
 30
0.0
 11
176.7714329239504
 21
97.03347991303772
 31
0.0
  0
LINE
  5
2C8
330
70
100
AcDbEntity
  8
Visible (ISO)
100
AcDbLine
 10
175.1102698342299
 20
99.91069878409163
 30
0.0
 11
176.7714329239504
 21
97.03347991303772
 31
0.0
  0
LINE
  5
2C9
330
70
100
AcDbEntity
  8
Visible (ISO)
100
AcDbLine
 10
157.6102698342299
 20
99.91069878409163
 30
0.0
 11
155.9491067445095
 21
97.03347991303772
 31
0.0
  0
LINE
  5
2CA
330
70
100
AcDbEntity
  8
Visible (ISO)
100
AcDbLine
 10
155.5860442855464
 20
85.41548122621804
 30
0.0
 11
177.1344953829134
 21
85.41548122621804
 31
0.0
  0
ARC
  5
2CB
330
70
100
AcDbEntity
  8
Visible (ISO)
100
AcDbCircle
 10
157.1102698342299
 20
86.71036982248427
 30
0.0
 40
2.0
100
AcDbArc
 50
220.3491888996895
 51
251.790043135717
  0
ARC
  5
2CC
330
70
100
AcDbEntity
  8
Visible (ISO)
100
AcDbCircle
 10
175.6102698342299
 20
86.71036982248427
 30
0.0
 40
2.0
100
AcDbArc
 50
288.209956864284
 51
319.6508111003105
  0
ARC
  5
2CD
330
70
100
AcDbEntity
  8
Visible (ISO)
100
AcDbCircle
 10
155.8602698342299
 20
82.9106987840916
 30
0.0
 40
2.0
100
AcDbArc
 50
0.0
 51
71.790043135717
  0
ARC
  5
2CE
330
70
100
AcDbEntity
  8
Visible (ISO)
100
AcDbCircle
 10
176.8602698342299
 20
82.9106987840916
 30
0.0
 40
2.0
100
AcDbArc
 50
108.209956864283
 51
180.0
  0
SPLINE
  5
2CF
330
70
100
AcDbEntity
  8
Visible (ISO)
100
AcDbSpline
210
0.0
220
0.0
230
1.0
 70
     8
 71
     3
 72
    14
 73
    10
 74
     0
 42
0.000000001
 43
0.0000000001
 40
0.0
 40
0.0
 40
0.0
 40
0.0
 40
0.0282673082753602
 40
0.0282673082753602
 40
0.0565346165507204
 40
0.0565346165507204
 40
0.0848018666279012
 40
0.0848018666279012
 40
0.113069116705082
 40
0.113069116705082
 40
0.113069116705082
 40
0.113069116705082
 10
157.8934227232921
 20
81.91069878409161
 30
0.0
 10
157.8934227232921
 20
81.81647442317375
 30
0.0
 10
157.8916878271826
 20
81.71600316179526
 30
0.0
 10
157.8854265366827
 20
81.53123323355705
 30
0.0
 10
157.8809910922475
 20
81.44693038462367
 30
0.0
 10
157.8726690838224
 20
81.31380714882032
 30
0.0
 10
157.8682411846696
 20
81.25609506813091
 30
0.0
 10
157.8619971620889
 20
81.17953953250992
 30
0.0
 10
157.8602698342299
 20
81.16069878409161
 30
0.0
 10
157.8602698342299
 20
81.16069878409161
 30
0.0
  0
SPLINE
  5
2D0
330
70
100
AcDbEntity
  8
Visible (ISO)
100
AcDbSpline
210
0.0
220
0.0
230
1.0
 70
     8
 71
     3
 72
    14
 73
    10
 74
     0
 42
0.000000001
 43
0.0000000001
 40
0.3392073501152458
 40
0.3392073501152458
 40
0.3392073501217643
 40
0.3392073501217643
 40
0.3674746001924266
 40
0.3674746001924266
 40
0.3957418502696074
 40
0.3957418502696074
 40
0.4240091585449676
 40
0.4240091585449676
 40
0.4522764668203278
 40
0.4522764668203278
 40
0.4522764668203278
 40
0.4522764668203278
 10
157.8602698342299
 20
82.66069878409162
 30
0.0
 10
157.8602698342307
 20
82.66069878408291
 30
0.0
 10
157.8619971620896
 20
82.64185803566448
 30
0.0
 10
157.8682411846696
 20
82.5653025000523
 30
0.0
 10
157.8726690838224
 20
82.50759041936291
 30
0.0
 10
157.8809910922475
 20
82.37446718355954
 30
0.0
 10
157.8854265366827
 20
82.29016433462616
 30
0.0
 10
157.8916878271826
 20
82.10539440638795
 30
0.0
 10
157.8934227232921
 20
82.00492314500948
 30
0.0
 10
157.8934227232921
 20
81.91069878409161
 30
0.0
  0
ARC
  5
2D1
330
70
100
AcDbEntity
  8
Visible (ISO)
100
AcDbCircle
 10
158.0602698342299
 20
81.61895635358719
 30
0.0
 40
0.5000000000000002
100
AcDbArc
 50
180.0
 51
246.4218215217984
  0
ARC
  5
2D2
330
70
100
AcDbEntity
  8
Visible (ISO)
100
AcDbCircle
 10
158.0602698342299
 20
82.20244121459602
 30
0.0
 40
0.5000000000000002
100
AcDbArc
 50
113.5781784782016
 51
180.0
  0
ARC
  5
2D3
330
70
100
AcDbEntity
  8
Visible (ISO)
100
AcDbCircle
 10
155.8602698342318
 20
79.41069878409161
 30
0.0
 40
0.4999999999999984
100
AcDbArc
 50
90.0
 51
180.0
  0
LINE
  5
2D4
330
70
100
AcDbEntity
  8
Visible (ISO)
100
AcDbLine
 10
160.1353200352375
 20
79.91069878409162
 30
0.0
 11
155.8602698342318
 21
79.91069878409162
 31
0.0
  0
ARC
  5
2D5
330
70
100
AcDbEntity
  8
Visible (ISO)
100
AcDbCircle
 10
176.8602698342318
 20
79.41069878409161
 30
0.0
 40
0.5000000000000006
100
AcDbArc
 50
0.0
 51
90.0
  0
LINE
  5
2D6
330
70
100
AcDbEntity
  8
Visible (ISO)
100
AcDbLine
 10
176.8602698342318
 20
79.91069878409162
 30
0.0
 11
172.5852196332262
 21
79.91069878409162
 31
0.0
  0
ARC
  5
2D7
330
70
100
AcDbEntity
  8
Visible (ISO)
100
AcDbCircle
 10
176.860269834233
 20
59.9106987840916
 30
0.0
 40
0.4999999999999973
100
AcDbArc
 50
270.0
 51
0.0
  0
LINE
  5
2D8
330
70
100
AcDbEntity
  8
Visible (ISO)
100
AcDbLine
 10
173.5191803658712
 20
59.41069878409161
 30
0.0
 11
176.860269834233
 21
59.41069878409161
 31
0.0
  0
SPLINE
  5
2D9
330
70
100
AcDbEntity
  8
Visible (ISO)
100
AcDbSpline
210
0.0
220
0.0
230
1.0
 70
    24
 71
     3
 72
    10
 73
     6
 74
     0
 42
0.000000001
 43
0.0000000001
 40
0.0
 40
0.0
 40
0.0
 40
0.0
 40
0.0810445305720919
 40
0.0810445305720919
 40
0.1584591647184332
 40
0.1584591647184332
 40
0.1584591647184332
 40
0.1584591647184332
 10
172.0391781800334
 20
59.41069878409161
 30
0.0
 10
172.2407992307302
 20
59.41069878409161
 30
0.0
 10
172.4939156340601
 20
59.41069878409161
 30
0.0
 10
173.0002188076073
 20
59.41069878409161
 30
0.0
 10
173.2611315853834
 20
59.41069878409161
 30
0.0
 10
173.5191803658712
 20
59.41069878409161
 30
0.0
  0
SPLINE
  5
2DA
330
70
100
AcDbEntity
  8
Visible (ISO)
100
AcDbSpline
210
0.0
220
0.0
230
1.0
 70
     8
 71
     3
 72
    10
 73
     6
 74
     0
 42
0.000000001
 43
0.0000000001
 40
0.0
 40
0.0
 40
0.0
 40
0.0
 40
0.0357202618732733
 40
0.0357202618732733
 40
0.071936552242033
 40
0.071936552242033
 40
0.071936552242033
 40
0.071936552242033
 10
171.7937606935163
 20
59.34632506679014
 30
0.0
 10
171.8296043249686
 20
59.36651823484073
 30
0.0
 10
171.868302012306
 20
59.3824930827449
 30
0.0
 10
171.9505402484528
 20
59.40464398299906
 30
0.0
 10
171.9941290788483
 20
59.41069878409161
 30
0.0
 10
172.0391781800334
 20
59.41069878409161
 30
0.0
  0
SPLINE
  5
2DB
330
70
100
AcDbEntity
  8
Visible (ISO)
100
AcDbSpline
210
0.0
220
0.0
230
1.0
 70
     8
 71
     3
 72
    15
 73
    11
 74
     0
 42
0.000000001
 43
0.0000000001
 40
0.0
 40
0.0
 40
0.0
 40
0.0
 40
0.0181081451844091
 40
0.0181081451844091
 40
0.0362162903688181
 40
0.0362162903688181
 40
0.0362162903688181
 40
0.0543244355532271
 40
0.0543244355532271
 40
0.0719365522420576
 40
0.0719365522420576
 40
0.0719365522420576
 40
0.0719365522420576
 10
160.6813614884329
 20
59.41069878409161
 30
0.0
 10
160.7038860390255
 20
59.41069878409161
 30
0.0
 10
160.7260449451822
 20
59.40917936373385
 30
0.0
 10
160.7694521567726
 20
59.40336452649614
 30
0.0
 10
160.7907007446318
 20
59.39906807332215
 30
0.0
 10
160.8114020692497
 20
59.39349216364527
 30
0.0
 10
160.8321033938676
 20
59.38791625396838
 30
0.0
 10
160.8522573910942
 20
59.38106015171051
 30
0.0
 10
160.8907439569455
 20
59.36520967494612
 30
0.0
 10
160.9091062853619
 20
59.35628130104617
 30
0.0
 10
160.9267789854052
 20
59.34632506090231
 30
0.0
  0
SPLINE
  5
2DC
330
70
100
AcDbEntity
  8
Visible (ISO)
100
AcDbSpline
210
0.0
220
0.0
230
1.0
 70
    24
 71
     3
 72
    14
 73
    10
 74
     0
 42
0.000000001
 43
0.0000000001
 40
0.0
 40
0.0
 40
0.0
 40
0.0
 40
0.0447917178800835
 40
0.0447917178800835
 40
0.0953414205653971
 40
0.0953414205653971
 40
0.1342258072464076
 40
0.1342258072464076
 40
0.1585285489220391
 40
0.1585285489220391
 40
0.1585285489220391
 40
0.1585285489220391
 10
159.2013593022616
 20
59.41069878409161
 30
0.0
 10
159.3506650285285
 20
59.41069878409161
 30
0.0
 10
159.5005810517952
 20
59.41069878409161
 30
0.0
 10
159.8144566519146
 20
59.41069878409161
 30
0.0
 10
159.9785112297064
 20
59.41069878409161
 30
0.0
 10
160.2575971443853
 20
59.41069878409161
 30
0.0
 10
160.3753552376207
 20
59.41069878409161
 30
0.0
 10
160.5549835521505
 20
59.41069878409161
 30
0.0
 10
160.6209015872296
 20
59.41069878409161
 30
0.0
 10
160.6813614884329
 20
59.41069878409161
 30
0.0
  0
LINE
  5
2DD
330
70
100
AcDbEntity
  8
Visible (ISO)
100
AcDbLine
 10
155.860269834233
 20
59.41069878409161
 30
0.0
 11
159.2013593022616
 21
59.41069878409161
 31
0.0
  0
ARC
  5
2DE
330
70
100
AcDbEntity
  8
Visible (ISO)
100
AcDbCircle
 10
155.860269834233
 20
59.9106987840916
 30
0.0
 40
0.4999999999999961
100
AcDbArc
 50
180.0
 51
270.0000000000021
  0
LINE
  5
2DF
330
70
100
AcDbEntity
  8
Visible (ISO)
100
AcDbLine
 10
177.360269834233
 20
59.9106987840916
 30
0.0
 11
177.360269834233
 21
65.63197952194061
 31
0.0
  0
SPLINE
  5
2E0
330
70
100
AcDbEntity
  8
Visible (ISO)
100
AcDbSpline
210
0.0
220
0.0
230
1.0
 70
    24
 71
     3
 72
    10
 73
     6
 74
     0
 42
0.000000001
 43
0.0000000001
 40
0.6492267439867656
 40
0.6492267439867656
 40
0.6492267439867656
 40
0.6492267439867656
 40
0.8150592711272029
 40
0.8150592711272029
 40
0.9808917982676403
 40
0.9808917982676403
 40
0.9808917982676403
 40
0.9808917982676403
 10
177.360269834233
 20
65.63197952194061
 30
0.0
 10
177.360269834233
 20
66.18475461240874
 30
0.0
 10
177.360269834233
 20
66.73334570177842
 30
0.0
 10
177.3602698342331
 20
67.82617648704338
 30
0.0
 10
177.3602698342332
 20
68.3706328658303
 30
0.0
 10
177.3602698342332
 20
68.91069878409161
 30
0.0
  0
LINE
  5
2E1
330
70
100
AcDbEntity
  8
Visible (ISO)
100
AcDbLine
 10
177.3602698342323
 20
77.91069878409162
 30
0.0
 11
177.3602698342318
 21
79.41069878409162
 31
0.0
  0
LINE
  5
2E2
330
70
100
AcDbEntity
  8
Visible (ISO)
100
AcDbLine
 10
177.360269834233
 20
72.18941804624262
 30
0.0
 11
177.360269834233
 21
77.91069878409162
 31
0.0
  0
SPLINE
  5
2E3
330
70
100
AcDbEntity
  8
Visible (ISO)
100
AcDbSpline
210
0.0
220
0.0
230
1.0
 70
    24
 71
     3
 72
    10
 73
     6
 74
     0
 42
0.000000001
 43
0.0000000001
 40
-0.0012682560246368
 40
-0.0012682560246368
 40
-0.0012682560246368
 40
-0.0012682560246368
 40
0.1645642712327394
 40
0.1645642712327394
 40
0.3303967984901155
 40
0.3303967984901155
 40
0.3303967984901155
 40
0.3303967984901155
 10
177.3602698342332
 20
68.91069878409161
 30
0.0
 10
177.3602698342332
 20
69.45076470273374
 30
0.0
 10
177.3602698342331
 20
69.99522107960176
 30
0.0
 10
177.360269834233
 20
71.08805186563103
 30
0.0
 10
177.360269834233
 20
71.6366429553847
 30
0.0
 10
177.360269834233
 20
72.18941804624262
 30
0.0
  0
LINE
  5
2E4
330
70
100
AcDbEntity
  8
Visible (ISO)
100
AcDbLine
 10
155.3602698342331
 20
65.63197952194061
 30
0.0
 11
155.3602698342331
 21
59.9106987840916
 31
0.0
  0
SPLINE
  5
2E5
330
70
100
AcDbEntity
  8
Visible (ISO)
100
AcDbSpline
210
0.0
220
0.0
230
1.0
 70
    24
 71
     3
 72
    10
 73
     6
 74
     0
 42
0.000000001
 43
0.0000000001
 40
0.6492267439867663
 40
0.6492267439867663
 40
0.6492267439867663
 40
0.6492267439867663
 40
0.815059271153493
 40
0.815059271153493
 40
0.9808917983202197
 40
0.9808917983202197
 40
0.9808917983202197
 40
0.9808917983202197
 10
155.3602698342331
 20
72.18941804624262
 30
0.0
 10
155.3602698342331
 20
71.63664295568685
 30
0.0
 10
155.3602698342331
 20
71.08805186623084
 30
0.0
 10
155.3602698342331
 20
69.99522108079407
 30
0.0
 10
155.3602698342331
 20
69.45076470243852
 30
0.0
 10
155.3602698342332
 20
68.91069878409161
 30
0.0
  0
LINE
  5
2E6
330
70
100
AcDbEntity
  8
Visible (ISO)
100
AcDbLine
 10
155.3602698342331
 20
77.91069878409162
 30
0.0
 11
155.3602698342331
 21
72.18941804624262
 31
0.0
  0
LINE
  5
2E7
330
70
100
AcDbEntity
  8
Visible (ISO)
100
AcDbLine
 10
155.3602698342318
 20
79.41069878409162
 30
0.0
 11
155.3602698342323
 21
77.91069878409162
 31
0.0
  0
SPLINE
  5
2E8
330
70
100
AcDbEntity
  8
Visible (ISO)
100
AcDbSpline
210
0.0
220
0.0
230
1.0
 70
    24
 71
     3
 72
    10
 73
     6
 74
     0
 42
0.000000001
 43
0.0000000001
 40
-0.0012682559720492
 40
-0.0012682559720492
 40
-0.0012682559720492
 40
-0.0012682559720492
 40
0.1645642712590329
 40
0.1645642712590329
 40
0.3303967984901149
 40
0.3303967984901149
 40
0.3303967984901149
 40
0.3303967984901149
 10
155.3602698342332
 20
68.91069878409161
 30
0.0
 10
155.3602698342331
 20
68.37063286553513
 30
0.0
 10
155.3602698342331
 20
67.82617648823562
 30
0.0
 10
155.3602698342331
 20
66.73334570237821
 30
0.0
 10
155.3602698342331
 20
66.18475461271088
 30
0.0
 10
155.3602698342331
 20
65.63197952194061
 30
0.0
  0
ARC
  5
2E9
330
70
100
AcDbEntity
  8
Visible (ISO)
100
AcDbCircle
 10
172.0391781800333
 20
78.91069878409161
 30
0.0
 40
0.4999999999999995
100
AcDbArc
 50
240.4081542060502
 51
270.0
  0
ARC
  5
2EA
330
70
100
AcDbEntity
  8
Visible (ISO)
100
AcDbCircle
 10
160.6813614884327
 20
78.91069878409162
 30
0.0
 40
0.5000000000000084
100
AcDbArc
 50
270.0
 51
299.5918457939493
  0
ARC
  5
2EB
330
70
100
AcDbEntity
  8
Visible (ISO)
100
AcDbCircle
 10
175.3602698342299
 20
80.4106987840916
 30
0.0
 40
0.5000000000000002
100
AcDbArc
 50
180.0
 51
270.0
  0
ARC
  5
2EC
330
70
100
AcDbEntity
  8
Visible (ISO)
100
AcDbCircle
 10
157.3602698342299
 20
80.4106987840916
 30
0.0
 40
0.5000000000000002
100
AcDbArc
 50
270.0
 51
0.0
  0
LINE
  5
2ED
330
70
100
AcDbEntity
  8
Visible (ISO)
100
AcDbLine
 10
176.860269834233
 20
78.41069878409161
 30
0.0
 11
172.0391781800333
 21
78.41069878409161
 31
0.0
  0
LINE
  5
2EE
330
70
100
AcDbEntity
  8
Visible (ISO)
100
AcDbLine
 10
160.6813614884327
 20
78.41069878409161
 30
0.0
 11
155.860269834233
 21
78.41069878409161
 31
0.0
  0
ARC
  5
2EF
330
70
100
AcDbEntity
  8
Visible (ISO)
100
AcDbCircle
 10
155.860269834233
 20
77.91069878409162
 30
0.0
 40
0.4999999999999973
100
AcDbArc
 50
90.0
 51
180.0
  0
ARC
  5
2F0
330
70
100
AcDbEntity
  8
Visible (ISO)
100
AcDbCircle
 10
176.860269834233
 20
77.91069878409162
 30
0.0
 40
0.4999999999999961
100
AcDbArc
 50
0.0
 51
90.0
  0
LINE
  5
2F1
330
70
100
AcDbEntity
  8
Visible (ISO)
100
AcDbLine
 10
176.7714329239504
 20
97.03347991303772
 30
0.0
 11
177.1344953829134
 21
85.41548122621804
 31
0.0
  0
LINE
  5
2F2
330
70
100
AcDbEntity
  8
Visible (ISO)
100
AcDbLine
 10
155.9491067445095
 20
97.03347991303772
 30
0.0
 11
155.5860442855464
 21
85.41548122621804
 31
0.0
  0
LINE
  5
2F3
330
70
100
AcDbEntity
  8
Visible (ISO)
100
AcDbLine
 10
157.5602698342299
 20
81.61895635358719
 30
0.0
 11
157.5602698342299
 21
82.20244121459602
 31
0.0
  0
LINE
  5
2F4
330
70
100
AcDbEntity
  8
Visible (ISO)
100
AcDbLine
 10
157.8602698342299
 20
80.4106987840916
 30
0.0
 11
157.8602698342299
 21
81.16069878409161
 31
0.0
  0
LINE
  5
2F5
330
70
100
AcDbEntity
  8
Visible (ISO)
100
AcDbLine
 10
157.8602698342299
 20
82.66069878409162
 30
0.0
 11
157.8602698342299
 21
82.9106987840916
 31
0.0
  0
LINE
  5
2F6
330
70
100
AcDbEntity
  8
Visible (ISO)
100
AcDbLine
 10
174.8602698342299
 20
80.4106987840916
 30
0.0
 11
174.8602698342299
 21
82.9106987840916
 31
0.0
  0
LINE
  5
2F7
330
70
100
AcDbEntity
  8
Visible Narrow (ISO)
100
AcDbLine
 10
157.1782006478648
 20
99.16233300092224
 30
0.0
 11
156.7486115299052
 21
85.41548122621804
 31
0.0
  0
LINE
  5
2F8
330
70
100
AcDbEntity
  8
Visible Narrow (ISO)
100
AcDbLine
 10
175.9719281385546
 20
85.41548122621804
 30
0.0
 11
175.5423390205951
 21
99.16233300092224
 31
0.0
  0
LINE
  5
2F9
330
70
100
AcDbEntity
  8
Visible (ISO)
100
AcDbLine
 10
155.5860442855464
 20
85.41548122621804
 30
0.0
 11
177.1344953829134
 21
85.41548122621804
 31
0.0
  0
SPLINE
  5
2FA
330
70
100
AcDbEntity
  8
Visible (ISO)
100
AcDbSpline
210
0.0
220
0.0
230
1.0
 70
     8
 71
     3
 72
    10
 73
     6
 74
     0
 42
0.000000001
 43
0.0000000001
 40
3.787846991967902
 40
3.787846991967902
 40
3.787846991967902
 40
3.787846991967902
 40
3.887283198403658
 40
3.887283198403658
 40
4.144412147143328
 40
4.144412147143328
 40
4.144412147143328
 40
4.144412147143328
 10
89.239835030552
 20
125.2540236191371
 30
0.0
 10
89.57462884845634
 20
125.2650093136821
 30
0.0
 10
89.90838100909948
 20
125.2711382432426
 30
0.0
 10
91.0969315263509
 20
125.2711382432426
 30
0.0
 10
91.96852644336958
 20
125.2252062567678
 30
0.0
 10
92.83791124190532
 20
125.1787279610168
 30
0.0
  0
SPLINE
  5
2FB
330
70
100
AcDbEntity
  8
Visible (ISO)
100
AcDbSpline
210
0.0
220
0.0
230
1.0
 70
     8
 71
     3
 72
    11
 73
     7
 74
     0
 42
0.000000001
 43
0.0000000001
 40
-0.2571289255655694
 40
-0.2571289255655694
 40
-0.2571289255655694
 40
-0.2571289255655694
 40
0.0
 40
0.0
 40
0.0
 40
0.099436206435757
 40
0.099436206435757
 40
0.099436206435757
 40
0.099436206435757
 10
92.83791124190532
 20
135.9953817874088
 30
0.0
 10
91.968526516431
 20
135.9489034955636
 30
0.0
 10
91.09693144910389
 20
135.9029715051827
 30
0.0
 10
90.239835030552
 20
135.9029715051827
 30
0.0
 10
89.90838100909948
 20
135.9029715051827
 30
0.0
 10
89.57462884845634
 20
135.9091004347432
 30
0.0
 10
89.239835030552
 20
135.9200861292883
 30
0.0
  0
LINE
  5
2FC
330
70
100
AcDbEntity
  8
Visible (ISO)
100
AcDbLine
 10
89.239835030552
 20
125.2540236191371
 30
0.0
 11
89.239835030552
 21
135.9200861292883
 31
0.0
  0
SPLINE
  5
2FD
330
70
100
AcDbEntity
  8
Visible (ISO)
100
AcDbSpline
210
0.0
220
0.0
230
1.0
 70
     8
 71
     3
 72
    18
 73
    14
 74
     0
 42
0.000000001
 43
0.0000000001
 40
1.950451046356949
 40
1.950451046356949
 40
1.950451046356949
 40
1.950451046356949
 40
2.175132706191781
 40
2.175132706191781
 40
2.347856885250503
 40
2.347856885250503
 40
2.520581064309225
 40
2.520581064309225
 40
2.693305243367947
 40
2.693305243367947
 40
2.866029422426669
 40
2.866029422426669
 40
3.090711082261501
 40
3.090711082261501
 40
3.090711082261501
 40
3.090711082261501
 10
89.239835030552
 20
125.2540236191371
 30
0.0
 10
88.93005756370866
 20
125.8686004299842
 30
0.0
 10
88.64484477282255
 20
126.4938016432251
 30
0.0
 10
88.22843568702525
 20
127.6495877093545
 30
0.0
 10
88.06266362834561
 20
128.2194000477242
 30
0.0
 10
87.86418611404959
 20
129.3994004249789
 30
0.0
 10
87.83333665399654
 20
130.0113076106831
 30
0.0
 10
87.83333665399654
 20
131.1628021377412
 30
0.0
 10
87.86418611404959
 20
131.7747093234455
 30
0.0
 10
88.06266362834563
 20
132.9547097007004
 30
0.0
 10
88.22843568702525
 20
133.5245220390701
 30
0.0
 10
88.64484477282255
 20
134.6803081051999
 30
0.0
 10
88.93005756370866
 20
135.305509318441
 30
0.0
 10
89.239835030552
 20
135.9200861292883
 30
0.0
  0
LINE
  5
2FE
330
70
100
AcDbEntity
  8
Visible (ISO)
100
AcDbLine
 10
138.239835030552
 20
137.3870548742131
 30
0.0
 11
138.239835030552
 21
123.7870548742131
 31
0.0
  0
LINE
  5
2FF
330
70
100
AcDbEntity
  8
Visible (ISO)
100
AcDbLine
 10
137.79280100941
 20
123.2854740256198
 30
0.0
 11
137.79280100941
 21
137.8886357228064
 31
0.0
  0
LINE
  5
300
330
70
100
AcDbEntity
  8
Visible (ISO)
100
AcDbLine
 10
138.239835030552
 20
123.7870548742131
 30
0.0
 11
137.79280100941
 21
123.2854740256198
 31
0.0
  0
LINE
  5
301
330
70
100
AcDbEntity
  8
Visible (ISO)
100
AcDbLine
 10
138.239835030552
 20
137.3870548742131
 30
0.0
 11
137.79280100941
 21
137.8886357228064
 31
0.0
  0
LINE
  5
302
330
70
100
AcDbEntity
  8
Visible (ISO)
100
AcDbLine
 10
131.739835030552
 20
138.5870548742131
 30
0.0
 11
131.739835030552
 21
122.5870548742131
 31
0.0
  0
LINE
  5
303
330
70
100
AcDbEntity
  8
Visible (ISO)
100
AcDbLine
 10
113.739835030552
 20
138.5870548742131
 30
0.0
 11
113.739835030552
 21
122.5870548742131
 31
0.0
  0
LINE
  5
304
330
70
100
AcDbEntity
  8
Visible (ISO)
100
AcDbLine
 10
118.239835030552
 20
138.5870548742131
 30
0.0
 11
118.239835030552
 21
122.5870548742131
 31
0.0
  0
LINE
  5
305
330
70
100
AcDbEntity
  8
Visible (ISO)
100
AcDbLine
 10
122.739835030552
 20
138.5870548742131
 30
0.0
 11
122.739835030552
 21
122.5870548742131
 31
0.0
  0
LINE
  5
306
330
70
100
AcDbEntity
  8
Visible (ISO)
100
AcDbLine
 10
127.239835030552
 20
138.5870548742131
 30
0.0
 11
127.239835030552
 21
122.5870548742131
 31
0.0
  0
LINE
  5
307
330
70
100
AcDbEntity
  8
Visible (ISO)
100
AcDbLine
 10
137.79280100941
 20
123.2854740256198
 30
0.0
 11
131.739835030552
 21
122.5870548742131
 31
0.0
  0
LINE
  5
308
330
70
100
AcDbEntity
  8
Visible (ISO)
100
AcDbLine
 10
137.79280100941
 20
137.8886357228064
 30
0.0
 11
131.739835030552
 21
138.5870548742131
 31
0.0
  0
LINE
  5
309
330
70
100
AcDbEntity
  8
Visible (ISO)
100
AcDbLine
 10
113.739835030552
 20
122.5870548742131
 30
0.0
 11
109.239835030552
 21
122.5870548742131
 31
0.0
  0
LINE
  5
30A
330
70
100
AcDbEntity
  8
Visible (ISO)
100
AcDbLine
 10
113.739835030552
 20
138.5870548742131
 30
0.0
 11
109.239835030552
 21
138.5870548742131
 31
0.0
  0
LINE
  5
30B
330
70
100
AcDbEntity
  8
Visible (ISO)
100
AcDbLine
 10
118.239835030552
 20
123.3370548742131
 30
0.0
 11
113.739835030552
 21
122.5870548742131
 31
0.0
  0
LINE
  5
30C
330
70
100
AcDbEntity
  8
Visible (ISO)
100
AcDbLine
 10
118.239835030552
 20
137.8370548742131
 30
0.0
 11
113.739835030552
 21
138.5870548742131
 31
0.0
  0
LINE
  5
30D
330
70
100
AcDbEntity
  8
Visible (ISO)
100
AcDbLine
 10
122.739835030552
 20
123.3370548742131
 30
0.0
 11
118.239835030552
 21
122.5870548742131
 31
0.0
  0
LINE
  5
30E
330
70
100
AcDbEntity
  8
Visible (ISO)
100
AcDbLine
 10
122.739835030552
 20
137.8370548742131
 30
0.0
 11
118.239835030552
 21
138.5870548742131
 31
0.0
  0
LINE
  5
30F
330
70
100
AcDbEntity
  8
Visible (ISO)
100
AcDbLine
 10
127.239835030552
 20
123.3370548742131
 30
0.0
 11
122.739835030552
 21
122.5870548742131
 31
0.0
  0
LINE
  5
310
330
70
100
AcDbEntity
  8
Visible (ISO)
100
AcDbLine
 10
127.239835030552
 20
137.8370548742131
 30
0.0
 11
122.739835030552
 21
138.5870548742131
 31
0.0
  0
LINE
  5
311
330
70
100
AcDbEntity
  8
Visible (ISO)
100
AcDbLine
 10
131.739835030552
 20
123.3370548742131
 30
0.0
 11
127.239835030552
 21
122.5870548742131
 31
0.0
  0
LINE
  5
312
330
70
100
AcDbEntity
  8
Visible (ISO)
100
AcDbLine
 10
131.739835030552
 20
137.8370548742131
 30
0.0
 11
127.239835030552
 21
138.5870548742131
 31
0.0
  0
LINE
  5
313
330
70
100
AcDbEntity
  8
Visible (ISO)
100
AcDbLine
 10
109.239835030552
 20
141.0870548742131
 30
0.0
 11
109.239835030552
 21
120.0870548742131
 31
0.0
  0
LINE
  5
314
330
70
100
AcDbEntity
  8
Visible (ISO)
100
AcDbLine
 10
108.739835030552
 20
119.5870548742131
 30
0.0
 11
108.739835030552
 21
141.5870548742131
 31
0.0
  0
LINE
  5
315
330
70
100
AcDbEntity
  8
Visible (ISO)
100
AcDbLine
 10
109.239835030552
 20
120.0870548742131
 30
0.0
 11
108.739835030552
 21
119.5870548742131
 31
0.0
  0
LINE
  5
316
330
70
100
AcDbEntity
  8
Visible (ISO)
100
AcDbLine
 10
109.239835030552
 20
141.0870548742131
 30
0.0
 11
108.739835030552
 21
141.5870548742131
 31
0.0
  0
CIRCLE
  5
317
330
70
100
AcDbEntity
  8
Visible (ISO)
100
AcDbCircle
 10
90.239835030552
 20
130.5870548742221
 30
0.0
 40
6.0
  0
CIRCLE
  5
318
330
70
100
AcDbEntity
  8
Visible (ISO)
100
AcDbCircle
 10
90.239835030552
 20
130.5870548742223
 30
0.0
 40
6.500000000000001
  0
CIRCLE
  5
319
330
70
100
AcDbEntity
  8
Visible (ISO)
100
AcDbCircle
 10
90.239835030552
 20
130.5870548742223
 30
0.0
 40
8.75
  0
CIRCLE
  5
31A
330
70
100
AcDbEntity
  8
Visible (ISO)
100
AcDbCircle
 10
90.239835030552
 20
130.5870548742215
 30
0.0
 40
10.41116308972043
  0
CIRCLE
  5
31B
330
70
100
AcDbEntity
  8
Visible (ISO)
100
AcDbCircle
 10
90.239835030552
 20
130.587054874218
 30
0.0
 40
10.77422554868355
  0
LINE
  5
31C
330
70
100
AcDbEntity
  8
Visible (ISO)
100
AcDbLine
 10
83.739835030552
 20
119.5870548742162
 30
0.0
 11
96.739835030552
 21
119.5870548742162
 31
0.0
  0
SPLINE
  5
31D
330
70
100
AcDbEntity
  8
Visible (ISO)
100
AcDbSpline
210
0.0
220
0.0
230
1.0
 70
    24
 71
     3
 72
    10
 73
     6
 74
     0
 42
0.000000001
 43
0.0000000001
 40
0.6492267439867663
 40
0.6492267439867663
 40
0.6492267439867663
 40
0.6492267439867663
 40
0.815059271153493
 40
0.815059271153493
 40
0.9808917983202197
 40
0.9808917983202197
 40
0.9808917983202197
 40
0.9808917983202197
 10
100.739835030552
 20
119.5870548742141
 30
0.0
 10
100.739835030552
 20
119.5870548742139
 30
0.0
 10
100.8135153786166
 20
119.5870548742137
 30
0.0
 10
101.0026594665083
 20
119.5870548742134
 30
0.0
 10
101.1219829852618
 20
119.5870548742133
 30
0.0
 10
101.239835030552
 20
119.5870548742131
 30
0.0
  0
LINE
  5
31E
330
70
100
AcDbEntity
  8
Visible (ISO)
100
AcDbLine
 10
98.23983503055201
 20
119.5870548742158
 30
0.0
 11
100.739835030552
 21
119.5870548742158
 31
0.0
  0
LINE
  5
31F
330
70
100
AcDbEntity
  8
Visible (ISO)
100
AcDbLine
 10
96.739835030552
 20
119.5870548742162
 30
0.0
 11
98.23983503055202
 21
119.5870548742158
 31
0.0
  0
LINE
  5
320
330
70
100
AcDbEntity
  8
Visible (ISO)
100
AcDbLine
 10
96.739835030552
 20
141.5870548742162
 30
0.0
 11
83.739835030552
 21
141.5870548742162
 31
0.0
  0
LINE
  5
321
330
70
100
AcDbEntity
  8
Visible (ISO)
100
AcDbLine
 10
98.23983503055202
 20
141.5870548742158
 30
0.0
 11
96.739835030552
 21
141.5870548742162
 31
0.0
  0
LINE
  5
322
330
70
100
AcDbEntity
  8
Visible (ISO)
100
AcDbLine
 10
100.739835030552
 20
141.5870548742157
 30
0.0
 11
98.23983503055201
 21
141.5870548742157
 31
0.0
  0
SPLINE
  5
323
330
70
100
AcDbEntity
  8
Visible (ISO)
100
AcDbSpline
210
0.0
220
0.0
230
1.0
 70
    24
 71
     3
 72
    10
 73
     6
 74
     0
 42
0.000000001
 43
0.0000000001
 40
-0.0012682560246368
 40
-0.0012682560246368
 40
-0.0012682560246368
 40
-0.0012682560246368
 40
0.1645642712327394
 40
0.1645642712327394
 40
0.3303967984901155
 40
0.3303967984901155
 40
0.3303967984901155
 40
0.3303967984901155
 10
101.239835030552
 20
141.5870548742131
 30
0.0
 10
101.1219829851977
 20
141.5870548742132
 30
0.0
 10
101.0026594667429
 20
141.5870548742134
 30
0.0
 10
100.8135153786922
 20
141.5870548742137
 30
0.0
 10
100.739835030552
 20
141.5870548742139
 30
0.0
 10
100.739835030552
 20
141.5870548742141
 30
0.0
  0
ARC
  5
324
330
70
100
AcDbEntity
  8
Visible (ISO)
100
AcDbCircle
 10
83.739835030552
 20
141.0870548742162
 30
0.0
 40
0.4999999999999983
100
AcDbArc
 50
90.0
 51
180.0
  0
LINE
  5
325
330
70
100
AcDbEntity
  8
Visible (ISO)
100
AcDbLine
 10
83.23983503055201
 20
141.0870548742162
 30
0.0
 11
83.23983503055201
 21
138.7775332591401
 31
0.0
  0
LINE
  5
326
330
70
100
AcDbEntity
  8
Visible (ISO)
100
AcDbLine
 10
83.23983503055201
 20
122.3965764892923
 30
0.0
 11
83.23983503055201
 21
120.0870548742162
 31
0.0
  0
ARC
  5
327
330
70
100
AcDbEntity
  8
Visible (ISO)
100
AcDbCircle
 10
83.739835030552
 20
120.0870548742162
 30
0.0
 40
0.4999999999999983
100
AcDbArc
 50
180.0
 51
270.0
  0
LINE
  5
328
330
70
100
AcDbEntity
  8
Visible (ISO)
100
AcDbLine
 10
101.239835030552
 20
137.7459654058539
 30
0.0
 11
101.239835030552
 21
141.0870548742158
 31
0.0
  0
LINE
  5
329
330
70
100
AcDbEntity
  8
Visible (ISO)
100
AcDbLine
 10
101.239835030552
 20
120.0870548742158
 30
0.0
 11
101.239835030552
 21
123.4281443432391
 31
0.0
  0
ARC
  5
32A
330
70
100
AcDbEntity
  8
Visible (ISO)
100
AcDbCircle
 10
100.739835030552
 20
120.0870548742158
 30
0.0
 40
0.4999999999999983
100
AcDbArc
 50
270.0
 51
0.0
  0
ARC
  5
32B
330
70
100
AcDbEntity
  8
Visible (ISO)
100
AcDbCircle
 10
100.739835030552
 20
141.0870548742158
 30
0.0
 40
0.5000000000000005
100
AcDbArc
 50
0.0
 51
90.0
  0
LINE
  5
32C
330
70
100
AcDbEntity
  8
Visible (ISO)
100
AcDbLine
 10
101.239835030552
 20
141.5870548742131
 30
0.0
 11
108.739835030552
 21
141.5870548742131
 31
0.0
  0
LINE
  5
32D
330
70
100
AcDbEntity
  8
Visible (ISO)
100
AcDbLine
 10
101.239835030552
 20
119.5870548742131
 30
0.0
 11
108.739835030552
 21
119.5870548742131
 31
0.0
  0
CIRCLE
  5
32E
330
70
100
AcDbEntity
  8
Visible Narrow (ISO)
100
AcDbCircle
 10
90.239835030552
 20
130.5870548742221
 30
0.0
 40
9.182069186365142
  0
MTEXT
  5
32F
330
70
100
AcDbEntity
  8
Symbol (ISO)
100
AcDbMText
 10
116.1995021576028
 20
96.13319691966513
 30
0.0
 40
2.5
 41
16.46198868751526
 46
0.0
 71
     1
 72
     1
  1
{HA-1416R}
  7
Note Text (JIS)
 73
     1
 44
1.5
  0
ENDSEC
  0
SECTION
  2
OBJECTS
  0
DICTIONARY
  5
C
330
0
100
AcDbDictionary
281
     1
  3
ACAD_CIP_PREVIOUS_PRODUCT_INFO
350
330
  3
ACAD_COLOR
350
63
  3
ACAD_DETAILVIEWSTYLE
350
6A
  3
ACAD_GROUP
350
D
  3
ACAD_LAYOUT
350
62
  3
ACAD_MATERIAL
350
10
  3
ACAD_MLEADERSTYLE
350
66
  3
ACAD_MLINESTYLE
350
5F
  3
ACAD_PLOTSETTINGS
350
61
  3
ACAD_PLOTSTYLENAME
350
E
  3
ACAD_SCALELIST
350
42
  3
ACAD_SECTIONVIEWSTYLE
350
68
  3
ACAD_TABLESTYLE
350
64
  3
ACAD_VISUALSTYLE
350
29
  3
ACDB_RECOMPOSE_DATA
350
33A
  3
AcDbVariableDictionary
350
331
  0
XRECORD
  5
330
102
{ACAD_REACTORS
330
C
102
}
330
C
100
AcDbXrecord
280
     1
300
INVNTOR
300
2015
300
PDSP_F_S
  0
DICTIONARY
  5
63
102
{ACAD_REACTORS
330
C
102
}
330
C
100
AcDbDictionary
281
     1
  0
DICTIONARY
  5
6A
102
{ACAD_REACTORS
330
C
102
}
330
C
100
AcDbDictionary
281
     1
  3
Imperial24
350
6B
  0
DICTIONARY
  5
D
102
{ACAD_REACTORS
330
C
102
}
330
C
100
AcDbDictionary
281
     1
  0
DICTIONARY
  5
62
102
{ACAD_REACTORS
330
C
102
}
330
C
100
AcDbDictionary
281
     1
  3
Model
350
73
  3
レイアウト1
350
6F
  3
レイアウト2
350
77
  0
DICTIONARY
  5
10
102
{ACAD_REACTORS
330
C
102
}
330
C
100
AcDbDictionary
281
     1
  3
ByBlock
350
19
  3
ByLayer
350
11
  3
Global
350
21
  0
DICTIONARY
  5
66
102
{ACAD_REACTORS
330
C
102
}
330
C
100
AcDbDictionary
281
     1
  3
Standard
350
67
  0
DICTIONARY
  5
5F
102
{ACAD_REACTORS
330
C
102
}
330
C
100
AcDbDictionary
281
     1
  3
Standard
350
60
  0
DICTIONARY
  5
61
102
{ACAD_REACTORS
330
C
102
}
330
C
100
AcDbDictionary
281
     1
  0
ACDBDICTIONARYWDFLT
  5
E
102
{ACAD_REACTORS
330
C
102
}
330
C
100
AcDbDictionary
281
     1
  3
Normal
350
F
100
AcDbDictionaryWithDefault
340
F
  0
DICTIONARY
  5
42
102
{ACAD_REACTORS
330
C
102
}
330
C
100
AcDbDictionary
281
     1
  3
A0
350
43
  3
A1
350
44
  3
A2
350
45
  3
A3
350
46
  3
A4
350
47
  3
A5
350
48
  3
A6
350
49
  3
A7
350
4A
  3
A8
350
4B
  3
A9
350
4C
  3
B0
350
4D
  3
B1
350
4E
  3
B2
350
4F
  3
B3
350
50
  3
B4
350
51
  3
B5
350
52
  3
B6
350
53
  0
DICTIONARY
  5
68
102
{ACAD_REACTORS
330
C
102
}
330
C
100
AcDbDictionary
281
     1
  3
Imperial24
350
69
  0
DICTIONARY
  5
64
102
{ACAD_REACTORS
330
C
102
}
330
C
100
AcDbDictionary
281
     1
  3
Standard
350
65
  0
DICTIONARY
  5
29
102
{ACAD_REACTORS
330
C
102
}
330
C
100
AcDbDictionary
281
     1
  3
2dWireframe
350
2F
  3
Basic
350
2E
  3
Brighten
350
35
  3
ColorChange
350
39
  3
Conceptual
350
32
  3
Dim
350
34
  3
EdgeColorOff
350
41
  3
Facepattern
350
38
  3
Flat
350
2A
  3
FlatWithEdges
350
2B
  3
Gouraud
350
2C
  3
GouraudWithEdges
350
2D
  3
Hidden
350
31
  3
JitterOff
350
3F
  3
Linepattern
350
37
  3
OverhangOff
350
40
  3
Realistic
350
33
  3
Shaded
350
3E
  3
Shaded with edges
350
3D
  3
Shades of Gray
350
3A
  3
Sketchy
350
3B
  3
Thicken
350
36
  3
Wireframe
350
30
  3
X-Ray
350
3C
  0
XRECORD
  5
33A
102
{ACAD_REACTORS
330
C
102
}
330
C
100
AcDbXrecord
280
     1
 90
        1
330
65
  0
DICTIONARY
  5
331
102
{ACAD_REACTORS
330
C
102
}
330
C
100
AcDbDictionary
281
     1
  3
CANNOSCALE
350
336
  3
CMLEADERSTYLE
350
333
  3
CTABLESTYLE
350
332
  3
CVIEWDETAILSTYLE
350
334
  3
CVIEWSECTIONSTYLE
350
335
  0
ACDBDETAILVIEWSTYLE
  5
6B
102
{ACAD_XDICTIONARY
360
36F
102
}
102
{ACAD_REACTORS
330
6A
102
}
330
6A
100
AcDbModelDocViewStyle
 70
     0
  3
Imperial24
290
     0
100
AcDbDetailViewStyle
 70
     0
 71
     0
 90
        3
 71
     1
340
55
 62
   256
 40
0.24
340
0
 62
   256
 40
0.24
300

 40
0.36
280
     3
 71
     2
340
5D
 90
       25
 62
   256
 71
     3
340
55
 62
   256
 40
0.24
 90
        1
 40
0.75
 90
        1
300
%<\AcVar ViewType \f "%tc1">% %<\AcVar ViewDetailId>%\PSCALE %<\AcVar ViewScale \f "%sn">%
 71
     4
340
5D
 90
       25
 62
   256
340
5D
 90
       25
 62
   256
280
     0
  0
LAYOUT
  5
73
102
{ACAD_REACTORS
330
62
102
}
330
62
100
AcDbPlotSettings
  1

  2

  4

  6

 40
0.0
 41
0.0
 42
0.0
 43
0.0
 44
0.0
 45
0.0
 46
0.0
 47
0.0
 48
0.0
 49
0.0
140
0.0
141
0.0
142
1.0
143
1.0
 70
  1712
 72
     0
 73
     0
 74
     0
  7

 75
     0
147
1.0
 76
     0
 77
     2
 78
   300
148
0.0
149
0.0
100
AcDbLayout
  1
Model
 70
     1
 71
     0
 10
0.0
 20
0.0
 11
12.0
 21
9.0
 12
0.0
 22
0.0
 32
0.0
 14
0.0
 24
0.0
 34
0.0
 15
0.0
 25
0.0
 35
0.0
146
0.0
 13
0.0
 23
0.0
 33
0.0
 16
1.0
 26
0.0
 36
0.0
 17
0.0
 27
1.0
 37
0.0
 76
     0
330
70
  0
LAYOUT
  5
6F
102
{ACAD_REACTORS
330
62
102
}
330
62
100
AcDbPlotSettings
  1

  2

  4

  6

 40
0.0
 41
0.0
 42
0.0
 43
0.0
 44
0.0
 45
0.0
 46
0.0
 47
0.0
 48
0.0
 49
0.0
140
0.0
141
0.0
142
1.0
143
1.0
 70
   688
 72
     0
 73
     0
 74
     5
  7

 75
    16
147
1.0
 76
     0
 77
     2
 78
   300
148
0.0
149
0.0
100
AcDbLayout
  1
レイアウト1
 70
     1
 71
     1
 10
0.0
 20
0.0
 11
12.0
 21
9.0
 12
0.0
 22
0.0
 32
0.0
 14
0.0
 24
0.0
 34
0.0
 15
0.0
 25
0.0
 35
0.0
146
0.0
 13
0.0
 23
0.0
 33
0.0
 16
1.0
 26
0.0
 36
0.0
 17
0.0
 27
1.0
 37
0.0
 76
     0
330
6C
  0
LAYOUT
  5
77
102
{ACAD_REACTORS
330
62
102
}
330
62
100
AcDbPlotSettings
  1

  2

  4

  6

 40
0.0
 41
0.0
 42
0.0
 43
0.0
 44
0.0
 45
0.0
 46
0.0
 47
0.0
 48
0.0
 49
0.0
140
0.0
141
0.0
142
1.0
143
1.0
 70
   688
 72
     0
 73
     0
 74
     5
  7

 75
    16
147
1.0
 76
     0
 77
     2
 78
   300
148
0.0
149
0.0
100
AcDbLayout
  1
レイアウト2
 70
     1
 71
     2
 10
0.0
 20
0.0
 11
12.0
 21
9.0
 12
0.0
 22
0.0
 32
0.0
 14
0.0
 24
0.0
 34
0.0
 15
0.0
 25
0.0
 35
0.0
146
0.0
 13
0.0
 23
0.0
 33
0.0
 16
1.0
 26
0.0
 36
0.0
 17
0.0
 27
1.0
 37
0.0
 76
     0
330
74
  0
MATERIAL
  5
19
102
{ACAD_XDICTIONARY
360
1A
102
}
102
{ACAD_REACTORS
330
10
102
}
330
10
100
AcDbMaterial
  1
ByBlock
 72
     0
 43
0.0208333333333333
 43
0.0
 43
0.0
 43
0.0
 43
0.0
 43
0.0208333333333333
 43
0.0
 43
0.0
 43
0.0
 43
0.0
 43
1.0
 43
0.0
 43
0.0
 43
0.0
 43
0.0
 43
1.0
 77
     0
 47
0.0208333333333333
 47
0.0
 47
0.0
 47
0.0
 47
0.0
 47
0.0208333333333333
 47
0.0
 47
0.0
 47
0.0
 47
0.0
 47
1.0
 47
0.0
 47
0.0
 47
0.0
 47
0.0
 47
1.0
171
     0
 49
0.0208333333333333
 49
0.0
 49
0.0
 49
0.0
 49
0.0
 49
0.0208333333333333
 49
0.0
 49
0.0
 49
0.0
 49
0.0
 49
1.0
 49
0.0
 49
0.0
 49
0.0
 49
0.0
 49
1.0
175
     0
142
0.0208333333333333
142
0.0
142
0.0
142
0.0
142
0.0
142
0.0208333333333333
142
0.0
142
0.0
142
0.0
142
0.0
142
1.0
142
0.0
142
0.0
142
0.0
142
0.0
142
1.0
179
     0
144
0.0208333333333333
144
0.0
144
0.0
144
0.0
144
0.0
144
0.0208333333333333
144
0.0
144
0.0
144
0.0
144
0.0
144
1.0
144
0.0
144
0.0
144
0.0
144
0.0
144
1.0
147
0.0208333333333333
147
0.0
147
0.0
147
0.0
147
0.0
147
0.0208333333333333
147
0.0
147
0.0
147
0.0
147
0.0
147
1.0
147
0.0
147
0.0
147
0.0
147
0.0
147
1.0
  0
MATERIAL
  5
11
102
{ACAD_XDICTIONARY
360
12
102
}
102
{ACAD_REACTORS
330
10
102
}
330
10
100
AcDbMaterial
  1
ByLayer
 72
     0
 43
0.0208333333333333
 43
0.0
 43
0.0
 43
0.0
 43
0.0
 43
0.0208333333333333
 43
0.0
 43
0.0
 43
0.0
 43
0.0
 43
1.0
 43
0.0
 43
0.0
 43
0.0
 43
0.0
 43
1.0
 77
     0
 47
0.0208333333333333
 47
0.0
 47
0.0
 47
0.0
 47
0.0
 47
0.0208333333333333
 47
0.0
 47
0.0
 47
0.0
 47
0.0
 47
1.0
 47
0.0
 47
0.0
 47
0.0
 47
0.0
 47
1.0
171
     0
 49
0.0208333333333333
 49
0.0
 49
0.0
 49
0.0
 49
0.0
 49
0.0208333333333333
 49
0.0
 49
0.0
 49
0.0
 49
0.0
 49
1.0
 49
0.0
 49
0.0
 49
0.0
 49
0.0
 49
1.0
175
     0
142
0.0208333333333333
142
0.0
142
0.0
142
0.0
142
0.0
142
0.0208333333333333
142
0.0
142
0.0
142
0.0
142
0.0
142
1.0
142
0.0
142
0.0
142
0.0
142
0.0
142
1.0
179
     0
144
0.0208333333333333
144
0.0
144
0.0
144
0.0
144
0.0
144
0.0208333333333333
144
0.0
144
0.0
144
0.0
144
0.0
144
1.0
144
0.0
144
0.0
144
0.0
144
0.0
144
1.0
147
0.0208333333333333
147
0.0
147
0.0
147
0.0
147
0.0
147
0.0208333333333333
147
0.0
147
0.0
147
0.0
147
0.0
147
1.0
147
0.0
147
0.0
147
0.0
147
0.0
147
1.0
  0
MATERIAL
  5
21
102
{ACAD_XDICTIONARY
360
22
102
}
102
{ACAD_REACTORS
330
10
102
}
330
10
100
AcDbMaterial
  1
Global
 72
     0
 43
0.0208333333333333
 43
0.0
 43
0.0
 43
0.0
 43
0.0
 43
0.0208333333333333
 43
0.0
 43
0.0
 43
0.0
 43
0.0
 43
1.0
 43
0.0
 43
0.0
 43
0.0
 43
0.0
 43
1.0
 77
     0
 47
0.0208333333333333
 47
0.0
 47
0.0
 47
0.0
 47
0.0
 47
0.0208333333333333
 47
0.0
 47
0.0
 47
0.0
 47
0.0
 47
1.0
 47
0.0
 47
0.0
 47
0.0
 47
0.0
 47
1.0
171
     0
 49
0.0208333333333333
 49
0.0
 49
0.0
 49
0.0
 49
0.0
 49
0.0208333333333333
 49
0.0
 49
0.0
 49
0.0
 49
0.0
 49
1.0
 49
0.0
 49
0.0
 49
0.0
 49
0.0
 49
1.0
175
     0
142
0.0208333333333333
142
0.0
142
0.0
142
0.0
142
0.0
142
0.0208333333333333
142
0.0
142
0.0
142
0.0
142
0.0
142
1.0
142
0.0
142
0.0
142
0.0
142
0.0
142
1.0
179
     0
144
0.0208333333333333
144
0.0
144
0.0
144
0.0
144
0.0
144
0.0208333333333333
144
0.0
144
0.0
144
0.0
144
0.0
144
1.0
144
0.0
144
0.0
144
0.0
144
0.0
144
1.0
147
0.0208333333333333
147
0.0
147
0.0
147
0.0
147
0.0
147
0.0208333333333333
147
0.0
147
0.0
147
0.0
147
0.0
147
1.0
147
0.0
147
0.0
147
0.0
147
0.0
147
1.0
  0
MLEADERSTYLE
  5
67
102
{ACAD_XDICTIONARY
360
36B
102
}
102
{ACAD_REACTORS
330
66
102
}
330
66
100
AcDbMLeaderStyle
179
     2
170
     2
171
     1
172
     0
 90
        2
 40
0.0
 41
0.0
173
     1
 91
-1056964608
340
5B
 92
       -2
290
     1
 42
0.09
291
     1
 43
0.36
  3
Standard
 44
0.18
300

342
55
174
     1
178
     6
175
     1
176
     0
 93
-1056964608
 45
0.18
292
     0
297
     0
 46
0.18
 94
-1056964608
 47
1.0
 49
1.0
140
1.0
293
     1
141
0.0
294
     1
177
     0
142
1.0
295
     0
296
     0
143
0.125
271
     0
272
     9
273
     9
  0
MLINESTYLE
  5
60
102
{ACAD_REACTORS
330
5F
102
}
330
5F
100
AcDbMlineStyle
  2
STANDARD
 70
     0
  3

 62
   256
 51
90.0
 52
90.0
 71
     2
 49
0.5
 62
   256
  6
BYLAYER
 49
-0.5
 62
   256
  6
BYLAYER
  0
ACDBPLACEHOLDER
  5
F
102
{ACAD_REACTORS
330
E
102
}
330
E
  0
SCALE
  5
43
102
{ACAD_REACTORS
330
42
102
}
330
42
100
AcDbScale
 70
     0
300
1:1
140
1.0
141
1.0
290
     1
  0
SCALE
  5
44
102
{ACAD_REACTORS
330
42
102
}
330
42
100
AcDbScale
 70
     0
300
1/128" = 1'-0"
140
0.0078125
141
12.0
290
     0
  0
SCALE
  5
45
102
{ACAD_REACTORS
330
42
102
}
330
42
100
AcDbScale
 70
     0
300
1/64" = 1'-0"
140
0.015625
141
12.0
290
     0
  0
SCALE
  5
46
102
{ACAD_REACTORS
330
42
102
}
330
42
100
AcDbScale
 70
     0
300
1/32" = 1'-0"
140
0.03125
141
12.0
290
     0
  0
SCALE
  5
47
102
{ACAD_REACTORS
330
42
102
}
330
42
100
AcDbScale
 70
     0
300
1/16" = 1'-0"
140
0.0625
141
12.0
290
     0
  0
SCALE
  5
48
102
{ACAD_REACTORS
330
42
102
}
330
42
100
AcDbScale
 70
     0
300
3/32" = 1'-0"
140
0.09375
141
12.0
290
     0
  0
SCALE
  5
49
102
{ACAD_REACTORS
330
42
102
}
330
42
100
AcDbScale
 70
     0
300
1/8" = 1'-0"
140
0.125
141
12.0
290
     0
  0
SCALE
  5
4A
102
{ACAD_REACTORS
330
42
102
}
330
42
100
AcDbScale
 70
     0
300
3/16" = 1'-0"
140
0.1875
141
12.0
290
     0
  0
SCALE
  5
4B
102
{ACAD_REACTORS
330
42
102
}
330
42
100
AcDbScale
 70
     0
300
1/4" = 1'-0"
140
0.25
141
12.0
290
     0
  0
SCALE
  5
4C
102
{ACAD_REACTORS
330
42
102
}
330
42
100
AcDbScale
 70
     0
300
3/8" = 1'-0"
140
0.375
141
12.0
290
     0
  0
SCALE
  5
4D
102
{ACAD_REACTORS
330
42
102
}
330
42
100
AcDbScale
 70
     0
300
1/2" = 1'-0"
140
0.5
141
12.0
290
     0
  0
SCALE
  5
4E
102
{ACAD_REACTORS
330
42
102
}
330
42
100
AcDbScale
 70
     0
300
3/4" = 1'-0"
140
0.75
141
12.0
290
     0
  0
SCALE
  5
4F
102
{ACAD_REACTORS
330
42
102
}
330
42
100
AcDbScale
 70
     0
300
1" = 1'-0"
140
1.0
141
12.0
290
     0
  0
SCALE
  5
50
102
{ACAD_REACTORS
330
42
102
}
330
42
100
AcDbScale
 70
     0
300
1-1/2" = 1'-0"
140
1.5
141
12.0
290
     0
  0
SCALE
  5
51
102
{ACAD_REACTORS
330
42
102
}
330
42
100
AcDbScale
 70
     0
300
3" = 1'-0"
140
3.0
141
12.0
290
     0
  0
SCALE
  5
52
102
{ACAD_REACTORS
330
42
102
}
330
42
100
AcDbScale
 70
     0
300
6" = 1'-0"
140
6.0
141
12.0
290
     0
  0
SCALE
  5
53
102
{ACAD_REACTORS
330
42
102
}
330
42
100
AcDbScale
 70
     0
300
1'-0" = 1'-0"
140
12.0
141
12.0
290
     0
  0
ACDBSECTIONVIEWSTYLE
  5
69
102
{ACAD_XDICTIONARY
360
36D
102
}
102
{ACAD_REACTORS
330
68
102
}
330
68
100
AcDbModelDocViewStyle
 70
     0
  3
Imperial24
290
     0
100
AcDbSectionViewStyle
 70
     0
 71
     0
 90
       78
 71
     1
340
55
 62
   256
 40
0.24
340
0
340
0
 62
   256
 40
0.24
300
I, O, Q, S, X, Z
 40
0.48
 90
        3
 40
0.18
 90
        1
 71
     2
340
5D
 90
       25
 62
   256
340
5D
 90
       50
 62
   256
 40
0.24
 40
0.0
 40
0.24
 71
     3
340
55
 62
   256
 40
0.24
 90
        1
 40
0.75
 90
        1
300
%<\AcVar ViewType \f "%tc1">% %<\AcVar ViewSectionStartId>%-%<\AcVar ViewSectionEndId>%\PSCALE %<\AcVar ViewScale \f "%sn">%
 71
     4
 62
   256
 62
   257
300
ANSI31
 40
1.0
 90
        0
290
     0
290
     0
 90
        6
 40
0.0
 40
1.570796326794896
 40
0.2617993877991494
 40
1.308996938995747
 40
-0.2617993877991494
 40
1.832595714594046
  0
TABLESTYLE
  5
65
102
{ACAD_XDICTIONARY
360
337
102
}
102
{ACAD_REACTORS
330
64
102
}
330
64
100
AcDbTableStyle
280
     0
  3
Standard
 70
     0
 71
     0
 40
0.06
 41
0.06
280
     0
281
     0
  7
Standard
140
0.18
170
     2
 62
     0
 63
     7
283
     0
 90
      512
 91
        0
  1

274
    -2
284
     1
 64
     0
275
    -2
285
     1
 65
     0
276
    -2
286
     1
 66
     0
277
    -2
287
     1
 67
     0
278
    -2
288
     1
 68
     0
279
    -2
289
     1
 69
     0
  7
Standard
140
0.25
170
     5
 62
     0
 63
     7
283
     0
 90
      512
 91
        0
  1

274
    -2
284
     1
 64
     0
275
    -2
285
     1
 65
     0
276
    -2
286
     1
 66
     0
277
    -2
287
     1
 67
     0
278
    -2
288
     1
 68
     0
279
    -2
289
     1
 69
     0
  7
Standard
140
0.18
170
     5
 62
     0
 63
     7
283
     0
 90
      512
 91
        0
  1

274
    -2
284
     1
 64
     0
275
    -2
285
     1
 65
     0
276
    -2
286
     1
 66
     0
277
    -2
287
     1
 67
     0
278
    -2
288
     1
 68
     0
279
    -2
289
     1
 69
     0
  0
VISUALSTYLE
  5
2F
102
{ACAD_XDICTIONARY
360
345
102
}
102
{ACAD_REACTORS
330
29
102
}
330
29
100
AcDbVisualStyle
  2
2dWireframe
 70
     4
177
     2
291
     0
 71
     0
176
     1
 72
     2
176
     1
 73
     0
176
     1
 90
        0
176
     1
 40
0.6
176
     1
 41
30.0
176
     1
 63
     7
421
 16777215
176
     1
 74
     1
176
     1
 91
        4
176
     1
 64
     7
176
     1
 65
   257
176
     1
 75
     1
176
     1
175
     1
176
     1
 42
1.0
176
     1
 92
        0
176
     1
 66
   257
176
     1
 43
1.0
176
     1
 76
     1
176
     1
 77
     6
176
     1
 78
     2
176
     1
 67
     7
176
     1
 79
     5
176
     1
170
     0
176
     1
171
     0
176
     1
290
     0
176
     1
 93
        1
176
     1
 44
0.0
176
     1
173
     0
176
     1
1001
ACAD
1000
AcDbSavedByObjectVersion
1070
     0
  0
VISUALSTYLE
  5
2E
102
{ACAD_XDICTIONARY
360
343
102
}
102
{ACAD_REACTORS
330
29
102
}
330
29
100
AcDbVisualStyle
  2
Basic
 70
     7
177
     2
291
     1
 71
     1
176
     1
 72
     0
176
     1
 73
     1
176
     1
 90
        0
176
     1
 40
0.6
176
     1
 41
30.0
176
     1
 63
     7
421
 16777215
176
     1
 74
     0
176
     1
 91
        4
176
     1
 64
     7
176
     1
 65
   257
176
     1
 75
     1
176
     1
175
     1
176
     1
 42
1.0
176
     1
 92
        8
176
     1
 66
     7
176
     1
 43
1.0
176
     1
 76
     1
176
     1
 77
     6
176
     1
 78
     2
176
     1
 67
     7
176
     1
 79
     5
176
     1
170
     0
176
     1
171
     0
176
     1
290
     0
176
     1
 93
        1
176
     1
 44
0.0
176
     1
173
     0
176
     1
1001
ACAD
1000
AcDbSavedByObjectVersion
1070
     0
  0
VISUALSTYLE
  5
35
102
{ACAD_XDICTIONARY
360
351
102
}
102
{ACAD_REACTORS
330
29
102
}
330
29
100
AcDbVisualStyle
  2
Brighten
 70
    12
177
     2
291
     1
 71
     2
176
     1
 72
     2
176
     1
 73
     0
176
     1
 90
        0
176
     1
 40
0.6
176
     1
 41
30.0
176
     1
 63
     7
421
 16777215
176
     1
 74
     1
176
     1
 91
        4
176
     1
 64
     7
176
     1
 65
   257
176
     1
 75
     1
176
     1
175
     1
176
     1
 42
1.0
176
     1
 92
        8
176
     1
 66
     7
176
     1
 43
1.0
176
     1
 76
     1
176
     1
 77
     6
176
     1
 78
     2
176
     1
 67
     7
176
     1
 79
     5
176
     1
170
     0
176
     1
171
     0
176
     1
290
     0
176
     1
 93
        1
176
     1
 44
50.0
176
     1
173
     0
176
     1
1001
ACAD
1000
AcDbSavedByObjectVersion
1070
     0
  0
VISUALSTYLE
  5
39
102
{ACAD_XDICTIONARY
360
359
102
}
102
{ACAD_REACTORS
330
29
102
}
330
29
100
AcDbVisualStyle
  2
ColorChange
 70
    16
177
     2
291
     1
 71
     2
176
     1
 72
     2
176
     1
 73
     3
176
     1
 90
        0
176
     1
 40
0.6
176
     1
 41
30.0
176
     1
 63
     8
421
  8421504
176
     1
 74
     1
176
     1
 91
        4
176
     1
 64
     7
176
     1
 65
   257
176
     1
 75
     1
176
     1
175
     1
176
     1
 42
1.0
176
     1
 92
        8
176
     1
 66
     8
424
  8421504
176
     1
 43
1.0
176
     1
 76
     1
176
     1
 77
     6
176
     1
 78
     2
176
     1
 67
     7
176
     1
 79
     5
176
     1
170
     0
176
     1
171
     0
176
     1
290
     0
176
     1
 93
        1
176
     1
 44
0.0
176
     1
173
     0
176
     1
1001
ACAD
1000
AcDbSavedByObjectVersion
1070
     0
  0
VISUALSTYLE
  5
32
102
{ACAD_XDICTIONARY
360
34B
102
}
102
{ACAD_REACTORS
330
29
102
}
330
29
100
AcDbVisualStyle
  2
Conceptual
 70
     9
177
     2
291
     0
 71
     3
176
     1
 72
     2
176
     1
 73
     0
176
     1
 90
        0
176
     1
 40
0.6
176
     1
 41
30.0
176
     1
 63
     7
421
 16777215
176
     1
 74
     2
176
     1
 91
        2
176
     1
 64
     7
176
     1
 65
   257
176
     1
 75
     1
176
     1
175
     1
176
     1
 42
179.0
176
     1
 92
        8
176
     1
 66
     7
176
     1
 43
1.0
176
     1
 76
     1
176
     1
 77
     6
176
     1
 78
     2
176
     1
 67
     7
176
     1
 79
     3
176
     1
170
     0
176
     1
171
     0
176
     1
290
     0
176
     1
 93
        1
176
     1
 44
0.0
176
     1
173
     0
176
     1
1001
ACAD
1000
AcDbSavedByObjectVersion
1070
     0
  0
VISUALSTYLE
  5
34
102
{ACAD_XDICTIONARY
360
34F
102
}
102
{ACAD_REACTORS
330
29
102
}
330
29
100
AcDbVisualStyle
  2
Dim
 70
    11
177
     2
291
     1
 71
     2
176
     1
 72
     2
176
     1
 73
     0
176
     1
 90
        0
176
     1
 40
0.6
176
     1
 41
30.0
176
     1
 63
     7
421
 16777215
176
     1
 74
     1
176
     1
 91
        4
176
     1
 64
     7
176
     1
 65
   257
176
     1
 75
     1
176
     1
175
     1
176
     1
 42
1.0
176
     1
 92
        8
176
     1
 66
     7
176
     1
 43
1.0
176
     1
 76
     1
176
     1
 77
     6
176
     1
 78
     2
176
     1
 67
     7
176
     1
 79
     5
176
     1
170
     0
176
     1
171
     0
176
     1
290
     0
176
     1
 93
        1
176
     1
 44
-50.0
176
     1
173
     0
176
     1
1001
ACAD
1000
AcDbSavedByObjectVersion
1070
     0
  0
VISUALSTYLE
  5
41
102
{ACAD_XDICTIONARY
360
369
102
}
102
{ACAD_REACTORS
330
29
102
}
330
29
100
AcDbVisualStyle
  2
EdgeColorOff
 70
    22
177
     2
291
     1
 71
     2
176
     0
 72
     2
176
     0
 73
     0
176
     0
 90
        0
176
     0
 40
0.6
176
     0
 41
30.0
176
     0
 63
     7
421
 16777215
176
     0
 74
     1
176
     0
 91
        4
176
     0
 64
     7
176
     0
 65
   257
176
     0
 75
     1
176
     0
175
     1
176
     0
 42
1.0
176
     0
 92
        8
176
     2
 66
     7
176
     0
 43
1.0
176
     0
 76
     1
176
     0
 77
     6
176
     0
 78
     2
176
     0
 67
     7
176
     0
 79
     5
176
     0
170
     0
176
     0
171
     0
176
     0
290
     0
176
     0
 93
        1
176
     0
 44
0.0
176
     0
173
     0
176
     0
1001
ACAD
1000
AcDbSavedByObjectVersion
1070
     0
  0
VISUALSTYLE
  5
38
102
{ACAD_XDICTIONARY
360
357
102
}
102
{ACAD_REACTORS
330
29
102
}
330
29
100
AcDbVisualStyle
  2
Facepattern
 70
    15
177
     2
291
     1
 71
     2
176
     1
 72
     2
176
     1
 73
     0
176
     1
 90
        0
176
     1
 40
0.6
176
     1
 41
30.0
176
     1
 63
     7
421
 16777215
176
     1
 74
     1
176
     1
 91
        4
176
     1
 64
     7
176
     1
 65
   257
176
     1
 75
     1
176
     1
175
     1
176
     1
 42
1.0
176
     1
 92
        8
176
     1
 66
     7
176
     1
 43
1.0
176
     1
 76
     1
176
     1
 77
     6
176
     1
 78
     2
176
     1
 67
     7
176
     1
 79
     5
176
     1
170
     0
176
     1
171
     0
176
     1
290
     0
176
     1
 93
        1
176
     1
 44
0.0
176
     1
173
     0
176
     1
1001
ACAD
1000
AcDbSavedByObjectVersion
1070
     0
  0
VISUALSTYLE
  5
2A
102
{ACAD_XDICTIONARY
360
33B
102
}
102
{ACAD_REACTORS
330
29
102
}
330
29
100
AcDbVisualStyle
  2
Flat
 70
     0
177
     2
291
     1
 71
     2
176
     1
 72
     1
176
     1
 73
     1
176
     1
 90
        2
176
     1
 40
0.6
176
     1
 41
30.0
176
     1
 63
     7
421
 16777215
176
     1
 74
     0
176
     1
 91
        0
176
     1
 64
     7
176
     1
 65
   257
176
     1
 75
     1
176
     1
175
     1
176
     1
 42
1.0
176
     1
 92
        8
176
     1
 66
     7
176
     1
 43
1.0
176
     1
 76
     1
176
     1
 77
     6
176
     1
 78
     2
176
     1
 67
     7
176
     1
 79
     5
176
     1
170
     0
176
     1
171
     0
176
     1
290
     0
176
     1
 93
       13
176
     1
 44
0.0
176
     1
173
     0
176
     1
1001
ACAD
1000
AcDbSavedByObjectVersion
1070
     0
  0
VISUALSTYLE
  5
2B
102
{ACAD_XDICTIONARY
360
33D
102
}
102
{ACAD_REACTORS
330
29
102
}
330
29
100
AcDbVisualStyle
  2
FlatWithEdges
 70
     1
177
     2
291
     1
 71
     2
176
     1
 72
     1
176
     1
 73
     1
176
     1
 90
        2
176
     1
 40
0.6
176
     1
 41
30.0
176
     1
 63
     7
421
 16777215
176
     1
 74
     1
176
     1
 91
        0
176
     1
 64
     7
176
     1
 65
   257
176
     1
 75
     1
176
     1
175
     1
176
     1
 42
1.0
176
     1
 92
        0
176
     1
 66
   257
176
     1
 43
1.0
176
     1
 76
     1
176
     1
 77
     6
176
     1
 78
     2
176
     1
 67
     7
176
     1
 79
     5
176
     1
170
     0
176
     1
171
     0
176
     1
290
     0
176
     1
 93
       13
176
     1
 44
0.0
176
     1
173
     0
176
     1
1001
ACAD
1000
AcDbSavedByObjectVersion
1070
     0
  0
VISUALSTYLE
  5
2C
102
{ACAD_XDICTIONARY
360
33F
102
}
102
{ACAD_REACTORS
330
29
102
}
330
29
100
AcDbVisualStyle
  2
Gouraud
 70
     2
177
     2
291
     1
 71
     2
176
     1
 72
     2
176
     1
 73
     1
176
     1
 90
        2
176
     1
 40
0.6
176
     1
 41
30.0
176
     1
 63
     7
421
 16777215
176
     1
 74
     0
176
     1
 91
        0
176
     1
 64
     7
176
     1
 65
   257
176
     1
 75
     1
176
     1
175
     1
176
     1
 42
1.0
176
     1
 92
        0
176
     1
 66
     7
176
     1
 43
1.0
176
     1
 76
     1
176
     1
 77
     6
176
     1
 78
     2
176
     1
 67
     7
176
     1
 79
     5
176
     1
170
     0
176
     1
171
     0
176
     1
290
     0
176
     1
 93
       13
176
     1
 44
0.0
176
     1
173
     0
176
     1
1001
ACAD
1000
AcDbSavedByObjectVersion
1070
     0
  0
VISUALSTYLE
  5
2D
102
{ACAD_XDICTIONARY
360
341
102
}
102
{ACAD_REACTORS
330
29
102
}
330
29
100
AcDbVisualStyle
  2
GouraudWithEdges
 70
     3
177
     2
291
     1
 71
     2
176
     1
 72
     2
176
     1
 73
     1
176
     1
 90
        2
176
     1
 40
0.6
176
     1
 41
30.0
176
     1
 63
     7
421
 16777215
176
     1
 74
     1
176
     1
 91
        0
176
     1
 64
     7
176
     1
 65
   257
176
     1
 75
     1
176
     1
175
     1
176
     1
 42
1.0
176
     1
 92
        0
176
     1
 66
   257
176
     1
 43
1.0
176
     1
 76
     1
176
     1
 77
     6
176
     1
 78
     2
176
     1
 67
     7
176
     1
 79
     5
176
     1
170
     0
176
     1
171
     0
176
     1
290
     0
176
     1
 93
       13
176
     1
 44
0.0
176
     1
173
     0
176
     1
1001
ACAD
1000
AcDbSavedByObjectVersion
1070
     0
  0
VISUALSTYLE
  5
31
102
{ACAD_XDICTIONARY
360
349
102
}
102
{ACAD_REACTORS
330
29
102
}
330
29
100
AcDbVisualStyle
  2
Hidden
 70
     6
177
     2
291
     0
 71
     1
176
     1
 72
     2
176
     1
 73
     2
176
     1
 90
        0
176
     1
 40
0.6
176
     1
 41
30.0
176
     1
 63
     7
421
 16777215
176
     1
 74
     2
176
     1
 91
        2
176
     1
 64
     7
176
     1
 65
   257
176
     1
 75
     2
176
     1
175
     1
176
     1
 42
40.0
176
     1
 92
        0
176
     1
 66
   257
176
     1
 43
1.0
176
     1
 76
     1
176
     1
 77
     6
176
     1
 78
     2
176
     1
 67
     7
176
     1
 79
     3
176
     1
170
     0
176
     1
171
     0
176
     1
290
     0
176
     1
 93
        1
176
     1
 44
0.0
176
     1
173
     0
176
     1
1001
ACAD
1000
AcDbSavedByObjectVersion
1070
     0
  0
VISUALSTYLE
  5
3F
102
{ACAD_XDICTIONARY
360
365
102
}
102
{ACAD_REACTORS
330
29
102
}
330
29
100
AcDbVisualStyle
  2
JitterOff
 70
    20
177
     2
291
     1
 71
     2
176
     0
 72
     2
176
     0
 73
     0
176
     0
 90
        0
176
     0
 40
0.6
176
     0
 41
30.0
176
     0
 63
     7
421
 16777215
176
     0
 74
     1
176
     0
 91
        4
176
     0
 64
     7
176
     0
 65
   257
176
     0
 75
     1
176
     0
175
     1
176
     0
 42
1.0
176
     0
 92
       10
176
     2
 66
     7
176
     0
 43
1.0
176
     0
 76
     1
176
     0
 77
     6
176
     0
 78
     2
176
     0
 67
     7
176
     0
 79
     5
176
     0
170
     0
176
     0
171
     0
176
     0
290
     0
176
     0
 93
        1
176
     0
 44
0.0
176
     0
173
     0
176
     0
1001
ACAD
1000
AcDbSavedByObjectVersion
1070
     0
  0
VISUALSTYLE
  5
37
102
{ACAD_XDICTIONARY
360
355
102
}
102
{ACAD_REACTORS
330
29
102
}
330
29
100
AcDbVisualStyle
  2
Linepattern
 70
    14
177
     2
291
     1
 71
     2
176
     1
 72
     2
176
     1
 73
     0
176
     1
 90
        0
176
     1
 40
0.6
176
     1
 41
30.0
176
     1
 63
     7
421
 16777215
176
     1
 74
     1
176
     1
 91
        4
176
     1
 64
     7
176
     1
 65
   257
176
     1
 75
     7
176
     1
175
     7
176
     1
 42
1.0
176
     1
 92
        8
176
     1
 66
     7
176
     1
 43
1.0
176
     1
 76
     1
176
     1
 77
     6
176
     1
 78
     2
176
     1
 67
     7
176
     1
 79
     5
176
     1
170
     0
176
     1
171
     0
176
     1
290
     0
176
     1
 93
        1
176
     1
 44
0.0
176
     1
173
     0
176
     1
1001
ACAD
1000
AcDbSavedByObjectVersion
1070
     0
  0
VISUALSTYLE
  5
40
102
{ACAD_XDICTIONARY
360
367
102
}
102
{ACAD_REACTORS
330
29
102
}
330
29
100
AcDbVisualStyle
  2
OverhangOff
 70
    21
177
     2
291
     1
 71
     2
176
     0
 72
     2
176
     0
 73
     0
176
     0
 90
        0
176
     0
 40
0.6
176
     0
 41
30.0
176
     0
 63
     7
421
 16777215
176
     0
 74
     1
176
     0
 91
        4
176
     0
 64
     7
176
     0
 65
   257
176
     0
 75
     1
176
     0
175
     1
176
     0
 42
1.0
176
     0
 92
        9
176
     2
 66
     7
176
     0
 43
1.0
176
     0
 76
     1
176
     0
 77
     6
176
     0
 78
     2
176
     0
 67
     7
176
     0
 79
     5
176
     0
170
     0
176
     0
171
     0
176
     0
290
     0
176
     0
 93
        1
176
     0
 44
0.0
176
     0
173
     0
176
     0
1001
ACAD
1000
AcDbSavedByObjectVersion
1070
     0
  0
VISUALSTYLE
  5
33
102
{ACAD_XDICTIONARY
360
34D
102
}
102
{ACAD_REACTORS
330
29
102
}
330
29
100
AcDbVisualStyle
  2
Realistic
 70
     8
177
     2
291
     0
 71
     2
176
     1
 72
     3
176
     1
 73
     0
176
     1
 90
        2
176
     1
 40
0.6
176
     1
 41
30.0
176
     1
 63
     7
421
 16777215
176
     1
 74
     0
176
     1
 91
        0
176
     1
 64
     7
176
     1
 65
   257
176
     1
 75
     1
176
     1
175
     1
176
     1
 42
1.0
176
     1
 92
        8
176
     1
 66
   257
176
     1
 43
1.0
176
     1
 76
     1
176
     1
 77
     6
176
     1
 78
     2
176
     1
 67
     7
176
     1
 79
     3
176
     1
170
     0
176
     1
171
     0
176
     1
290
     0
176
     1
 93
       13
176
     1
 44
0.0
176
     1
173
     0
176
     1
1001
ACAD
1000
AcDbSavedByObjectVersion
1070
     0
  0
VISUALSTYLE
  5
3E
102
{ACAD_XDICTIONARY
360
363
102
}
102
{ACAD_REACTORS
330
29
102
}
330
29
100
AcDbVisualStyle
  2
Shaded
 70
    27
177
     2
291
     0
 71
     2
176
     1
 72
     2
176
     1
 73
     1
176
     1
 90
        2
176
     1
 40
0.6
176
     1
 41
30.0
176
     1
 63
     7
421
 16777215
176
     1
 74
     0
176
     1
 91
        4
176
     1
 64
     7
176
     1
 65
   257
176
     1
 75
     1
176
     1
175
     1
176
     1
 42
1.0
176
     1
 92
        8
176
     1
 66
   257
176
     1
 43
1.0
176
     1
 76
     1
176
     1
 77
     6
176
     1
 78
     2
176
     1
 67
     8
425
  7895160
176
     1
 79
     3
176
     1
170
     0
176
     1
171
     0
176
     1
290
     0
176
     1
 93
        5
176
     1
 44
0.0
176
     1
173
     0
176
     1
1001
ACAD
1000
AcDbSavedByObjectVersion
1070
     0
  0
VISUALSTYLE
  5
3D
102
{ACAD_XDICTIONARY
360
361
102
}
102
{ACAD_REACTORS
330
29
102
}
330
29
100
AcDbVisualStyle
  2
Shaded with edges
 70
    26
177
     2
291
     0
 71
     2
176
     1
 72
     2
176
     1
 73
     1
176
     1
 90
        2
176
     1
 40
0.6
176
     1
 41
30.0
176
     1
 63
     7
421
 16777215
176
     1
 74
     1
176
     1
 91
       10
176
     1
 64
     7
176
     1
 65
   257
176
     1
 75
     2
176
     1
175
     1
176
     1
 42
1.0
176
     1
 92
        8
176
     1
 66
   257
176
     1
 43
1.0
176
     1
 76
     1
176
     1
 77
     6
176
     1
 78
     2
176
     1
 67
     7
176
     1
 79
     3
176
     1
170
     0
176
     1
171
     0
176
     1
290
     0
176
     1
 93
        5
176
     1
 44
0.0
176
     1
173
     0
176
     1
1001
ACAD
1000
AcDbSavedByObjectVersion
1070
     0
  0
VISUALSTYLE
  5
3A
102
{ACAD_XDICTIONARY
360
35B
102
}
102
{ACAD_REACTORS
330
29
102
}
330
29
100
AcDbVisualStyle
  2
Shades of Gray
 70
    23
177
     2
291
     0
 71
     2
176
     1
 72
     2
176
     1
 73
     3
176
     1
 90
        0
176
     1
 40
0.6
176
     1
 41
30.0
176
     1
 63
     7
421
 16777215
176
     1
 74
     2
176
     1
 91
        2
176
     1
 64
     7
176
     1
 65
     7
176
     1
 75
     1
176
     1
175
     1
176
     1
 42
40.0
176
     1
 92
        8
176
     1
 66
     7
176
     1
 43
1.0
176
     1
 76
     1
176
     1
 77
     6
176
     1
 78
     2
176
     1
 67
     7
176
     1
 79
     3
176
     1
170
     0
176
     1
171
     0
176
     1
290
     0
176
     1
 93
        1
176
     1
 44
0.0
176
     1
173
     0
176
     1
1001
ACAD
1000
AcDbSavedByObjectVersion
1070
     0
  0
VISUALSTYLE
  5
3B
102
{ACAD_XDICTIONARY
360
35D
102
}
102
{ACAD_REACTORS
330
29
102
}
330
29
100
AcDbVisualStyle
  2
Sketchy
 70
    24
177
     2
291
     0
 71
     1
176
     1
 72
     2
176
     1
 73
     2
176
     1
 90
        0
176
     1
 40
0.6
176
     1
 41
30.0
176
     1
 63
     7
421
 16777215
176
     1
 74
     2
176
     1
 91
        2
176
     1
 64
     7
176
     1
 65
     7
176
     1
 75
     1
176
     1
175
     1
176
     1
 42
40.0
176
     1
 92
       11
176
     1
 66
     7
176
     1
 43
1.0
176
     1
 76
     1
176
     1
 77
     6
176
     1
 78
     2
176
     1
 67
     7
176
     1
 79
     6
176
     1
170
     0
176
     1
171
     0
176
     1
290
     0
176
     1
 93
        1
176
     1
 44
0.0
176
     1
173
     0
176
     1
1001
ACAD
1000
AcDbSavedByObjectVersion
1070
     0
  0
VISUALSTYLE
  5
36
102
{ACAD_XDICTIONARY
360
353
102
}
102
{ACAD_REACTORS
330
29
102
}
330
29
100
AcDbVisualStyle
  2
Thicken
 70
    13
177
     2
291
     1
 71
     2
176
     1
 72
     2
176
     1
 73
     0
176
     1
 90
        0
176
     1
 40
0.6
176
     1
 41
30.0
176
     1
 63
     7
421
 16777215
176
     1
 74
     1
176
     1
 91
        4
176
     1
 64
     7
176
     1
 65
   257
176
     1
 75
     1
176
     1
175
     1
176
     1
 42
1.0
176
     1
 92
       12
176
     1
 66
     7
176
     1
 43
1.0
176
     1
 76
     1
176
     1
 77
     6
176
     1
 78
     2
176
     1
 67
     7
176
     1
 79
     5
176
     1
170
     0
176
     1
171
     0
176
     1
290
     0
176
     1
 93
        1
176
     1
 44
0.0
176
     1
173
     0
176
     1
1001
ACAD
1000
AcDbSavedByObjectVersion
1070
     0
  0
VISUALSTYLE
  5
30
102
{ACAD_XDICTIONARY
360
347
102
}
102
{ACAD_REACTORS
330
29
102
}
330
29
100
AcDbVisualStyle
  2
Wireframe
 70
     5
177
     2
291
     0
 71
     0
176
     1
 72
     2
176
     1
 73
     0
176
     1
 90
        0
176
     1
 40
0.6
176
     1
 41
30.0
176
     1
 63
     7
421
 16777215
176
     1
 74
     1
176
     1
 91
        4
176
     1
 64
     7
176
     1
 65
   257
176
     1
 75
     1
176
     1
175
     1
176
     1
 42
1.0
176
     1
 92
        0
176
     1
 66
   257
176
     1
 43
1.0
176
     1
 76
     1
176
     1
 77
     6
176
     1
 78
     2
176
     1
 67
     7
176
     1
 79
     3
176
     1
170
     0
176
     1
171
     0
176
     1
290
     0
176
     1
 93
        1
176
     1
 44
0.0
176
     1
173
     0
176
     1
1001
ACAD
1000
AcDbSavedByObjectVersion
1070
     0
  0
VISUALSTYLE
  5
3C
102
{ACAD_XDICTIONARY
360
35F
102
}
102
{ACAD_REACTORS
330
29
102
}
330
29
100
AcDbVisualStyle
  2
X-Ray
 70
    25
177
     2
291
     0
 71
     2
176
     1
 72
     2
176
     1
 73
     1
176
     1
 90
        1
176
     1
 40
0.5
176
     1
 41
30.0
176
     1
 63
     7
421
 16777215
176
     1
 74
     1
176
     1
 91
        0
176
     1
 64
     7
176
     1
 65
   257
176
     1
 75
     1
176
     1
175
     1
176
     1
 42
1.0
176
     1
 92
        8
176
     1
 66
     7
176
     1
 43
1.0
176
     1
 76
     1
176
     1
 77
     6
176
     1
 78
     2
176
     1
 67
     7
176
     1
 79
     3
176
     1
170
     0
176
     1
171
     0
176
     1
290
     0
176
     1
 93
       13
176
     1
 44
0.0
176
     1
173
     0
176
     1
1001
ACAD
1000
AcDbSavedByObjectVersion
1070
     0
  0
DICTIONARYVAR
  5
336
102
{ACAD_REACTORS
330
331
102
}
330
331
100
DictionaryVariables
280
     0
  1
1:1
  0
DICTIONARYVAR
  5
333
102
{ACAD_REACTORS
330
331
102
}
330
331
100
DictionaryVariables
280
     0
  1
STANDARD
  0
DICTIONARYVAR
  5
332
102
{ACAD_REACTORS
330
331
102
}
330
331
100
DictionaryVariables
280
     0
  1
STANDARD
  0
DICTIONARYVAR
  5
334
102
{ACAD_REACTORS
330
331
102
}
330
331
100
DictionaryVariables
280
     0
  1
Imperial24
  0
DICTIONARYVAR
  5
335
102
{ACAD_REACTORS
330
331
102
}
330
331
100
DictionaryVariables
280
     0
  1
Imperial24
  0
DICTIONARY
  5
36F
330
6B
100
AcDbDictionary
280
     1
281
     1
  3
ACAD_XREC_ROUNDTRIP
360
370
  0
DICTIONARY
  5
1A
330
19
100
AcDbDictionary
280
     1
281
     1
  3
BUMPTILE
360
1C
  3
DIFFUSETILE
360
1B
  3
OPACITYTILE
360
1F
  3
REFLECTIONTILE
360
1E
  3
REFRACTIONTILE
360
20
  3
SPECULARTILE
360
1D
  0
DICTIONARY
  5
12
330
11
100
AcDbDictionary
280
     1
281
     1
  3
BUMPTILE
360
14
  3
DIFFUSETILE
360
13
  3
FBXASSET
360
E3
  3
OPACITYTILE
360
17
  3
REFLECTIONTILE
360
16
  3
REFRACTIONTILE
360
18
  3
SPECULARTILE
360
15
  0
DICTIONARY
  5
22
330
21
100
AcDbDictionary
280
     1
281
     1
  3
BUMPTILE
360
24
  3
DIFFUSETILE
360
23
  3
OPACITYTILE
360
27
  3
REFLECTIONTILE
360
26
  3
REFRACTIONTILE
360
28
  3
SPECULARTILE
360
25
  0
DICTIONARY
  5
36B
330
67
100
AcDbDictionary
280
     1
281
     1
  3
ACAD_XREC_ROUNDTRIP
360
36C
  0
DICTIONARY
  5
36D
330
69
100
AcDbDictionary
280
     1
281
     1
  3
ACAD_XREC_ROUNDTRIP
360
36E
  0
DICTIONARY
  5
337
330
65
100
AcDbDictionary
280
     1
281
     1
  3
ACAD_ROUNDTRIP_2008_TABLESTYLE_CELLSTYLEMAP
360
338
  0
DICTIONARY
  5
345
330
2F
100
AcDbDictionary
280
     1
281
     1
  3
ACAD_XREC_ROUNDTRIP
360
346
  0
DICTIONARY
  5
343
330
2E
100
AcDbDictionary
280
     1
281
     1
  3
ACAD_XREC_ROUNDTRIP
360
344
  0
DICTIONARY
  5
351
330
35
100
AcDbDictionary
280
     1
281
     1
  3
ACAD_XREC_ROUNDTRIP
360
352
  0
DICTIONARY
  5
359
330
39
100
AcDbDictionary
280
     1
281
     1
  3
ACAD_XREC_ROUNDTRIP
360
35A
  0
DICTIONARY
  5
34B
330
32
100
AcDbDictionary
280
     1
281
     1
  3
ACAD_XREC_ROUNDTRIP
360
34C
  0
DICTIONARY
  5
34F
330
34
100
AcDbDictionary
280
     1
281
     1
  3
ACAD_XREC_ROUNDTRIP
360
350
  0
DICTIONARY
  5
369
330
41
100
AcDbDictionary
280
     1
281
     1
  3
ACAD_XREC_ROUNDTRIP
360
36A
  0
DICTIONARY
  5
357
330
38
100
AcDbDictionary
280
     1
281
     1
  3
ACAD_XREC_ROUNDTRIP
360
358
  0
DICTIONARY
  5
33B
330
2A
100
AcDbDictionary
280
     1
281
     1
  3
ACAD_XREC_ROUNDTRIP
360
33C
  0
DICTIONARY
  5
33D
330
2B
100
AcDbDictionary
280
     1
281
     1
  3
ACAD_XREC_ROUNDTRIP
360
33E
  0
DICTIONARY
  5
33F
330
2C
100
AcDbDictionary
280
     1
281
     1
  3
ACAD_XREC_ROUNDTRIP
360
340
  0
DICTIONARY
  5
341
330
2D
100
AcDbDictionary
280
     1
281
     1
  3
ACAD_XREC_ROUNDTRIP
360
342
  0
DICTIONARY
  5
349
330
31
100
AcDbDictionary
280
     1
281
     1
  3
ACAD_XREC_ROUNDTRIP
360
34A
  0
DICTIONARY
  5
365
330
3F
100
AcDbDictionary
280
     1
281
     1
  3
ACAD_XREC_ROUNDTRIP
360
366
  0
DICTIONARY
  5
355
330
37
100
AcDbDictionary
280
     1
281
     1
  3
ACAD_XREC_ROUNDTRIP
360
356
  0
DICTIONARY
  5
367
330
40
100
AcDbDictionary
280
     1
281
     1
  3
ACAD_XREC_ROUNDTRIP
360
368
  0
DICTIONARY
  5
34D
330
33
100
AcDbDictionary
280
     1
281
     1
  3
ACAD_XREC_ROUNDTRIP
360
34E
  0
DICTIONARY
  5
363
330
3E
100
AcDbDictionary
280
     1
281
     1
  3
ACAD_XREC_ROUNDTRIP
360
364
  0
DICTIONARY
  5
361
330
3D
100
AcDbDictionary
280
     1
281
     1
  3
ACAD_XREC_ROUNDTRIP
360
362
  0
DICTIONARY
  5
35B
330
3A
100
AcDbDictionary
280
     1
281
     1
  3
ACAD_XREC_ROUNDTRIP
360
35C
  0
DICTIONARY
  5
35D
330
3B
100
AcDbDictionary
280
     1
281
     1
  3
ACAD_XREC_ROUNDTRIP
360
35E
  0
DICTIONARY
  5
353
330
36
100
AcDbDictionary
280
     1
281
     1
  3
ACAD_XREC_ROUNDTRIP
360
354
  0
DICTIONARY
  5
347
330
30
100
AcDbDictionary
280
     1
281
     1
  3
ACAD_XREC_ROUNDTRIP
360
348
  0
DICTIONARY
  5
35F
330
3C
100
AcDbDictionary
280
     1
281
     1
  3
ACAD_XREC_ROUNDTRIP
360
360
  0
XRECORD
  5
370
102
{ACAD_REACTORS
330
36F
102
}
330
36F
100
AcDbXrecord
280
     1
102
DISPLAYNAME
  1
Imperial24
102
FLAGS
 90
        0
  0
XRECORD
  5
1C
102
{ACAD_REACTORS
330
1A
102
}
330
1A
100
AcDbXrecord
280
     1
270
     1
271
     1
  0
XRECORD
  5
1B
102
{ACAD_REACTORS
330
1A
102
}
330
1A
100
AcDbXrecord
280
     1
270
     1
271
     1
  0
XRECORD
  5
1F
102
{ACAD_REACTORS
330
1A
102
}
330
1A
100
AcDbXrecord
280
     1
270
     1
271
     1
  0
XRECORD
  5
1E
102
{ACAD_REACTORS
330
1A
102
}
330
1A
100
AcDbXrecord
280
     1
270
     1
271
     1
  0
XRECORD
  5
20
102
{ACAD_REACTORS
330
1A
102
}
330
1A
100
AcDbXrecord
280
     1
270
     1
271
     1
  0
XRECORD
  5
1D
102
{ACAD_REACTORS
330
1A
102
}
330
1A
100
AcDbXrecord
280
     1
270
     1
271
     1
  0
XRECORD
  5
14
102
{ACAD_REACTORS
330
12
102
}
330
12
100
AcDbXrecord
280
     1
270
     1
271
     1
  0
XRECORD
  5
13
102
{ACAD_REACTORS
330
12
102
}
330
12
100
AcDbXrecord
280
     1
270
     1
271
     1
  0
XRECORD
  5
E3
102
{ACAD_REACTORS
330
12
102
}
330
12
100
AcDbXrecord
280
     1
 70
     1
 90
1959938040
 71
     1
  1
49598CFA-441F-470F-8E7D-BD39D5FE8309
311
504B03041400060808004B7ADC4CD4246FCCD9000000200100004F00000042394135303931432D463633332D344333332D383135342D3735333339303243413342452F4173736574446174612F446566696E6974696F6E4974657261746F7250726F706572746965732E62696E454EBB4EC4301034348882823FE0078C1D6C
311
931881505EA681063A1AB484E52E92933BC58EE03A4AFE1AD6BA20569ADDD9F77C33C67E1623CA0E085FE44F28DEE18853DF3D756B1C801D51A5DADDC30EA74497E621D19436F80EB38F69EDA10F1D7A0F236EE670FA3F7A3640A47BE0CFD3D231E1AF10D285D5FE5B12F0B1D7F44994C1DBF6EA1642C078232A5B1A69B39A
311
BB4BA5B8AEC91599D13C374A59795197AA6AC52386CD3C751884B6C616B52BB9D699E33A978E176DDEF0AA51B631AE2D94B422AEE7E17584DE0B2916092FDB71A59EAF45EC07FC05504B03041400060808004B7ADC4C0A6F0962EC000000300200004500000042394135303931432D463633332D344333332D383135342D37
311
35333339303243413342452F4173736574446174612F496E7374616E636550726F706572746965732E62696EEB606060F80F0540260323103700495E20ED9E9A975A94991C9C9C919A9BA8021430B134B5B4707673D435313174D335313770D3B5703577D1757231B674317573B53036B0644768046931363471713532B5D4
311
35353131D635313332D475727372D13534373670367376B67474B5042A03DBCBA019D37FE8ABC6157B20CD04146B0062181F4C03F940F0C11EA29A8141C08141002C0426541C106CAC2CA046088033B02A030AC2157C6006F21A8018AAF50194E6010A610250382264E08660284CD9E98021862280A91564B406929A0FF62C
311
401E28B6F88038B83CB1243943D7A928312F25350524432B0000504B03041400060808004B7ADC4C88E57597CD3F0000904100006B00000042394135303931432D463633332D344333332D383135342D3735333339303243413342452F5265736F75726365732F34393539384346412D343431462D343730462D384537442D
311
4244333944354645383330392F7468756D626E61696C2F302F67656E657269635F706E67355B773CD4FF1FBF73E71C0E67EF7576C9DEF3EC995D46C6A1EC5046649CBDF79E192942562825CE965D8A868C2842C8DE9FDFD1F7E7F138F7078FCF6B3F5FCFD7EBFDFEC41B196891913091804020321D6D7513FC77D8C5070EC3
311
FFEE51B21F068154CC75D455CC028A3EA68992803810109FDDE5D5CEC5521B28A1B422BF80741695D5B529DA1C2D058AD2388BDA9F476F7C2CADC939304173DBF48A452BF8A700C0C70C3D121C1AA15A5270C22E2B9E28763651F7DA0D12CE11077B2ECD0D560B5E3DE2368B1E65C5E1C87384A4CC5F2D9FB8BE39E9B77C75
311
3783A37998F5CEF1B4FEE553463245C9712270880DF339E0B882A6BA713D865F6F384C842D440934EF264F4A304F8DE4EEFA1E2BF5E2D91F5ADD9613D6E31DDB33ED31DB1D7916CAF091286EA3D31B9CFECB78BB0060245B943C4C040119FF780A74DD308BA9D028678674EB5504ECF284EE814DAED07440BAF649BE4B55DA
311
2890F4D73E2D489A59EE54FDB0A85B59F2F52C4858A02705C4815A792B0C4A996A2023ECB195073E115E3E3647F64243A8338F2000BCB58DA5692C7E7C3D413F963FEDF3CF00FBB0F831A9D51360FECA43819F527B89FA260EB63C5DA676830AA3626A3693B23F1A17A0DFFCE3EE164E31B5365EDF0C89EF64D8E38AB0BA9A
311
1117D7C3A0EC44F44F4023095E80BA610DE336D0F99593A88BFC5306E72DF98F7FD132ED95878DF2964EA7E43071359FD83B2BDF9C6B5BDF768F0F3C0FC351199526F53D9460A34511F75D1B63E488178569472C91A94497807A3FD4A390C6558F26D416365C3656DE6E769DA9D8FC73774E1709812842DD8EF96AED1960F7
311
9D21B395CDDFE6F92CB4EB962A4668C76990E2EF29798C8941D67DA50F4A5F947872460F1F6FDB794E8A29FD7AC0C0D6E0714339CE258FB17AE8535221E3464A10F29A0BE5EEECEFC5675926A89F49EB14E5711894F6586DB5754EB4D5DA9C6437EBA57DB97A24F8B8A8DB295FFD73266CF57E82694DF5166DDF93573AFE9C
311
9C5EB05F8FEF8E89E0A8917B0B3724DB7BEBB53252581EFC3E38166BA131A3A5B42FE2AD00A769BBFA4458D2DE7822F8C4F63D0B8E21B285AE13325F3410A435C648C9D91FDEB109E73CEDA7BC796961AF79175E1A3CE4C5E8B0D009B0C9E29EFD98BC8E97554E3D8D838424E270F7685226E5AC268E021EDE3522D583E8F2
311
0C0BDE2959EF5BBFEEDAB32FE9A3ED0E39F211A86AA9DEBFC68182EDED132AB8BB794442D2D7EA9F4D8BFF52BC4D55BB165124EE90A42D101E67BBBB292FFB4F66DE5BF2300E44546757DA7CEF8932BFC9F92A0707953491A55C5A5ACEDABD9FA1AEA01BAC3DC5A24E22E7C47213493996EFBC369D086ED9397C9BA6C7F985
311
5C7BD5E15BFC8C53DB3D2A4C5901A57ACD2FBDF4D1676E95338B2C2BCE65FDA4C64F5FEFDC7D9CA5AA1FCF11E193F2FDABF0F4916BF13FB916A224380E6462A9815F2300DC49CC4DF8D055CEF76462F4B7A7ACA7365C2707891370BC1D0AA6203C44CCAB47084FEC057F27FFCD57F89B8B9852459798A675C66BD7CE572CAF
311
71FF7E6D7ECF7BF62CAB7B3F1107DCD04DC55A3F9961700286141C94A4F771FEB2BCDA2DDEE0CB0BAE402FF1DB0100F8E475DFFFC074DDB4498AB7D186A7654DDB1CB680D703D47CEB4E72F8CB13D86A4AA68116E26387B93FD6738779B34FEDB8E517EDF2BAF28D9BE93A1D3A164320E07D42E514725C29515FF361754213
311
EDE06B079A2E99EB1CA82A02019EADEEB87B9AF005BD04BBCECB14AACD6B24EFBE482194A97DD32400685FF1FEF1544D1B14EFB1E7F08E6D2CD2AF52DE757F35F5E62332EE88EA26417AD5C3E0E319D68F25414E6D672BD4522B278C57D18F0113921C71D96527E091F00CEB15AE23D24667369BD3CEFA10C7549D930890BA
311
4366F4EBC55F01F746109F98ABCDD5A3EE06619C6AD78AB33E48E4C9BD21BF7478B385EC05C4F8987E2C1BFA0A60EBEDAA0AE0B015C2720ECE180FB6F2DEFBEB822D96338C9B63822183BBF52FB664A7AE57003AABCE512BF77E7E31BDA2E739AC4C131657DDFE5225E900FB56CC01CDE808FA4A9C9DA16AC679656BB64796
311
283D89812B8F91136AE18EE5EBBAF47A73BE3C153EB5D4CD491B4BFB4FE690A4CF9ABA08C0D8AA64220C438C96EA6CA80B58FE5761E697B3A292EB9FBDA502FA863E49FE694ADDFFF9D62C520BDD1A22014147A0903A05B9B729F54272EF83931FEEC057BFF8C8055C279EAC5C0011804828734024F6CFA319C9CC6867C727
311
184465CD9BB7ED386AFFD96B294A85E3802FAE47244602D8273615952B98C4F23F7EAE4463D9D638EEE374A20959E0FE519C4CFB0FBFE5DD80C2AA3F9DB961D1BDE57E67C9BB47B77FDD74EE3094F5DBBE3EBC1FBDB7393F5116263009E2EFE1AF9A221B2AE234C902BF70E9F280ED23E73908361565964333A3F01D0B006A
311
F32FB21AA1316744B489D5A198E85299241735BE559675130955C902A8ED761FC0DBE337A9F91919AF5CE32AF902ADF9AB2615E00E8A94586BA1A90839B61832FF1BFB76D2EFADE6DB1BA04CCAD3DA649E7E2A0219F592E22F2AD54847EEA8E42271011E9074F8F3DD9FBA6CDF88FFC9FC7E811AD1CA8F4557CE4AFC7BBEDC
311
F0114A48689F20A584520C74DA8127124B767E2FB91A6B186246727BE63C9445BAE02088D58B8EFDC0F1072407CD9B89A13F6303B4A928F593AD489B58E6869325790ADC406036C591729FE14021F94B7796BB11848D463536A092A26F077F94639F7CEEE2A724C66EC885F4A24F8B8A0AC321F8FD149BA529460FAA34E466
311
3C02D41FDF80BCA222D42F0ABFF8490F4FA74C673807C2051D8E467B47B616072860069A9A303ABA9B319D58404461401B0A0F9BE5E1E151C14BC33B32ABE03DDE91708DFAEB15E7C0D593C86BB7D7EC17BE56E57975F077BFD5525F3A1A361D584A75E08CF29FC7B44B2B3085014F3A5A14517377C3F6B8F37E59514C3B12
311
F8AACDEDDA4DFC49BE5710101534CD6FB6DE15B50F11A09472AABA727F0C49D9CB906B158030065F48EB3625E010CEC1D511D0053474B11E6A4F01C0D6EF1BED3A944FDEC70E0DDCDC756C86545910E0DAE3BE3AA9A404574C2995CD5CAF9549226BC94B4F4F0F5F9086F418F6B32346464610D8BC7391D3C3A3CCF04CFC1F
311
B2A3A3170E369511868F14EEA4E5E438CC73DB1F3248AA94B6B2FF33B222FF3D1E7BF146CAD229770158063BCE4F5391964DF62F7E52A7BE0EEA829C9E13C4C147D6F93FE59E111DAB5E4594D6F3CD1AD375EE039930EFE5AF2BB2D41C83C7DABD8C659BAFBE8FAB392CA634F3D15C1D945DB4588D2B0824A4EC928AAC5655
311
57CA2F0DAA588CA5BE30B3A8004F7BF005E96CBF891D7F18112A3619FDF530DC8AA64954258E1811789B5189B49B4EB53F5F89F7D37523894F3EB57B373763C91E502F52CC99EB7BDDF933FC324C4FFC2561DFFA7339FAFDD0A4BFBE6D3A8FF9ED1FC49898139864602458968913181918F719CCF5A68B2EE9C1FF050E34E6
311
3107003B8120FA982C21B30A874E4F5E4B38D5A8290C4B8D9BE48A0BE31EA995BDC37AC6DE90BA17D259DEF53605D55922FEB1855D915B659FBEB350EE0DFB2F9F766E1C84CC8964B75D08667445EAB966015F63A18A9E0A325C1B3DC628C0D3CB60F767FA93CC65F25458BD23C3B312716E5F40E5858AC06EBA9AB14F95DB
311
99147B832069201541D09A0D856E12C629CF32683760EE855537D1901988D5EBC156676C7DD51D7207CF3267AF1D76C2AD867315E44618015313A98B19941C696FED3461CAA9B5415F918556D7802EDACEFD6B2E45853A9735DFC9DBF7E440F9319F8B6805A973BCCDC76C069A9144E51F187EDCC12FC31B5DEAAF0A761371
311
99B106EC84ADA6B6EE697D4E6A96E007417F4E880E8B1E89B4BCE9D81EF611E2ED8F0C1A6C25F620FAFAAB656A7C42D464880E8AFAB0E0FC8EA38CA9A8AEEAEE3E4648BA4680270A89743CDD3E6C6CBF34B7B640EFA285ABC7EA0A1E28F3CC963D114A80123EE66D0AF7D5380EB41909B605AB4765B709B808590458157E69
311
BA1378FEC4B48CAF6A730E3BE3C5EF2DD1A5EAF94B1DDE50CEB55DDFD7EE9A16747FA4B223359FB1FCC69E1194892BABB93A1D5C4E807AC0EA2E30180811E77A2291F6E7F7FAA5E0F60215BC6024E48DE436C511F0628B8CA189982D4D83CCA17D305A7E923C37941CFDFDCD93ACAF735EF5F0E61BBD3E6C41A59B242790D3
311
A3BAC7064DCD89AA2E37214EC839820949D5CAA31E240D2948E48F690298974A96BA9A8432BC90F5071D6537C9666EA4564796B7AFFFA548077BEEA75F63083435074BA182F3699557397F71548383FDA8CA34D99B981E72835ECDA5DDDC151315173D05A21F651AAF8524E88209E2E7A737ED1045800CE3390050BCFB8BE5
311
88DF111617874C62575039CA588EEFDEFEFE319B739DE2EDC147092A262611E159650E787917885EF08F1F51B8F2D8A71D60B58B190FEF9541A1BE94BC19FEA50784DA1419FE4B0FB51B8D36B5FF8E1286FD8AF42B91E59A5F1CC4D60174E764045FD8C57B18209B217F89A62252BD20BE0E63E12B8E8F029FE19E0E8D0870
311
F58721A557082250D5424F7909369376E41666C0EE77CD87CB283F661D5FB6D0DA023CB67320A20DC7BE661E9E1BFE5463085C557DA1FF9BE835733766C3D139F2CF9E2208873AD0EB4814DE9E6BF2CAF81614D4D43906ED1C05A3265CABBFE192770FC2F64F940CB6B17B5F166F133C9AEEAD2641807C3E69515171DD74C4
311
A85311513D6EC9530B3B601B6BA3EBFF3B5C3D2F7D69765141E345F75433953D013ADDF8F6AA7DC3F4A7563FE5C7D367937E2900D7EAD0F9FC9A4A1A9B5BDF1FEF08532660C01C5D6DE22199AA774383E306DAB87E301ABB7D213887F9869D4942D0D71E94B27EDF216A318BD488D45DF84529EF575AF3C3938C0AAA0215B0
311
1994153E2054A0B894DA5C784980633AAD48576957CF4AEAEAFADC7C587368551C73DBE1E57C58AC713303A8BFC258BD04B51724459FF9E24C03A81E0E0679CEB9B348C0DC998FEB9C6D6EFA77D247CC8F92D3848599ED89A23218D0636465AD1CEEB7DC140D7426F83491C4E8E8281C2FB35240918FFECE880CA2A42D70E8
311
B20B34DF5221C7DB0CF90ECCB9C745B37A47E9B716FF7A97B7A252C1F3814DC7B1E1A7F72B8751D524EF7CAE45B0C73B3BE7D08ED39781B380DDFC9AA4A4749C9493DB5BAD07A6EA6C092FBD0E85DB004DF06B8C9D3089C5320187E4CE1846158C7EA7DDAE8AD9AFFF21AA3A1026BB06A259845E8232DEE62811A4DA9CEAB3
311
A4887320B76E2AE5615EAB7BDF738CBDD01F1E64064BC13D9EC53576751CA8CACD58B3CEB0E6CA585BD089B2A59B9FC101403387AADBDBE70586B93D64BF3AD4453EF9C3B6A93817E8346991798601344F79A83C51F3D50F7BF2683A3605F51A72449489E0EE6169C749C60B1035651103AEE24D24E51A759C840DD3FC6504
311
DA6FE107510E447B43461C79D22970B75DE5E1BD3007D1AFC619A4A4A69B5626AF5E9B8374E20677F77E2F8E73DF868E8BEC7EBA7B6A75EEF7205E1AB9486CB642741D6E03FF13FCCEDB1C4AC129886268B01CDF4B124AF797CF784F3C6DEC97A17D4B558070A0F1C04DA4FF9BDBF34159AEFE958479824B3F58EBD1E19088
311
A2AFDE501B6F2052368A3FD0E650A179EFAB1561E1D27527077136E652676C3670F42DCB3352F48F6BC86D2C3B0051727E41A0A4DC6CE2BE9D47F5CAA2935A3C0539AF080665997194ABECD723B08129CC5B6B21D2E7D54CD4D12610E7E9FB8306771A89576C7A982002775ED44F3F744CF21EEBB27A631671D921938AAEE3
311
EB0D19CD1E083727F607823E817BF599DCED5394E37EEBC2E88782E638920CA641EF74D4CDFCDEF06F4278ECB18E31E7E9876F2D783C8BF429C75395F57E98C2B495A3DA077EB3AC3C158608B6B57FE3EA48484D9A480096FCEE0DE880950E7E5A5714131C5C41AAA29FD19AE81AC145FA1B9E85C7169A5AB837B213493DF7
311
E9AA4B5FBF9CDEB36EBD21EF1181B7CF7366AB2A951D01E37AF4EB835D1BE8C117CFBE7625D2EBCDB0B20C5A4B45CED0BCDE3EE8DA9DA78C2E21DEAAFFD1197E463C33CC6A80FB785669B856EFF7A8CCCA2841B5A5369173320B1170C368B2748D81062EA0296E5E2D95D7667A4A46D98A6FF475C76AAB0A8C8D45E226FAFC
311
9FE0133EA9F60111F99CA81ACE03A1D14C89E8B0D69079C91464FA1D99E651D0EAF606F345C42A8A1AA9BA391031582B96D5B4176A77AADB01F12FD298A75DEEBB2C82F0B8650E880722F8DDD90C56A7A058E5FDEF1AC93545BA27367C76F5D8F9690CB6F8DAE141EDD7971F0FB548A2AE435F224D6E5954CA155512F73320
311
29D5A1230854B79F258EC5FFDB09F5F6343A8EB193229B7F7E79B3E48F8E183860B38C8269D1B53738FF1E0BACF6AADA6D4869E9DE708E79B5DADCC09B1BC76F649731CFAF59A83FD8BAE4C749D66FA87A3810D4D62FFE826FA400C0F325D2BC0F3CA35F5847B82A2ACC7961745C823E4D863D54460AF792CE6F79B5C7A33B
311
25C3AEA6CDE15A919B6367D781E9D44F61BF828672594A3E1D9EDD6DF179A81F27EAC05B936575D73E05C209DDD2115CFB705DF9BBF3C911589B3640735E9E618FC9C36A7326C82B2205E244C55D56FDB9D5DC93CE958D4BF8174D2B3DA54CB3C09F2C2A6DFF73D23B2197355761AD421EC581284A7EF8DE2CE3497C0C804D
311
49B41DFD6A7360844E5BEFFB495CFCDB97A4595911CDBA623274CE852B5E278AF0BEB1770E9D37CD977B2766A7DED0E94B840E1E95E8C77DE5CB6354AF7871427C28ADBEEF7BA0A28E19DE9ACD75F379FE373EAE6DDDAE3834692F9C2B03B4FCA8FCA9ABE8EEEBEBB725B88A7C90941E850682CA04061A7DF0CE82ED49BFAF
311
FD42C309818FAE14755CAAE78B0F73243ECCCAD7DF58FCB9CDFAE7A4D3E6671A613639130D056C8383C8F4FCF4808C331E544DD26E4755D09EA05253B3049A1E32587CC25D72E073E2CD96D04A71BBCB0038FEC3F53D254199C3CDC67CD66640269431860225392B2CB3ECD0B4498AAE78BA1994246AE1EE78F2EDFB79F6C6
311
CB6B5E279C4D373FBC21CB2698C9ACBBEB6A4BB6B39E16AB0E421CCBFC7654D81ED86022F9BB522146F9F4772E2D0E4FA70120C95A85A417BF5078B232F4754363EB1750B2AC2148EB46B1EA72AD9B4D23ADCBC589D70106C3EC2ABEEED84DFE28E718C6C83502C28E9FDD3B09DA0A6F6F7B72B706A31C9E2A331EE70DA56A
311
083D2177BFD63C55B11D8D949FAFCF90B23A1E24B9B5018B9A17E99F2890EC302F330FE7936E2C23F0D237EC8916F5166AB84B62A21BB0B950146962D754F92CC2C8877BED8FC7B7B25726DD19545392570B3A2C66B58F027BEF412E552D12A588C4A3CC5C3193FCB3485EFFF700D0B9EEC077754A33DC1FB9E25AF814628F
311
91DDFECB667D3F7690803F38D13F8AE39353523BB08FC6760144AFA2CE28236F65EDBB3D5F59A57D612B99E3D7E5F8A851666BF9B5A6658EFC96EEB37A378ABB0EB3FDDF1303AF32C41BD1C8560745D7BD81066B0D6313359CF488563D3BA3F8E2185D1FAA3EBA1397C9D0E3DD232180A4DCADB6AF25DB3AC3CC26589C8239
311
E66E81547BC7E2F328F9884764CA37EB5DBE390DFC03A5246B456A7C3684C4377D0EEF9A350680FA9A077E8B2957B489E09AB1AD41316944C2254B5984830F691C93CAA767EECF976FA5647538830B5E63236A6F0365C1E0F3E327F24FE35EDDBD7360B0F7374837409F7A6311BECC12B7026D4FA1AE204FA3F5FE904B1F42
311
0C7A9044AE58E403E7C4848E7DA25DC9EDAC79DD756FAA26B9EA83ACE8A214A2612A22AFA19DAE7DBAC5F8CDE1292A485F98DAC731A29FE01A3966E96BCB9FB5A4C8830E1B9AF0C54B87FBE221A097036E5D28D1F869F810C06A9BB0AC0612F69AEBAF893C6E7AD59460208BAB3A6B09CA4F6BDDAB8CF0D1F84B7248749839
311
5A70DCD754796E271099A567A55CF242BBED64696378BB6CF25EF0FCDB589F3A82F1116D010A9AB9FA4358809EE0C973A2B4229BAA876A70B03AB49CBA7FBE71DB1832FFD32F9BF2C8E98075CACAFB36921235D0F552B6A67E94E094097A5D7DF681B40623DA535ADA7A9AD8E9A62407D7C9A5AE51D62A17A83A23728DE86B
311
B56115804D3F2675F2C6B87541A0FC497BF0CA86420F558C9859EBE9FAD62747E323E3AADC03FDCDDFE7407B09DA90B44E3185723C5381EAEF589765E2F7A099BA46695BAD60CEF3491B8A171F5F56444F7CE9455312C3498C74173AEA0214EC029833B34B650CBB5A5508D5091665309642791708ECF27CF11DB3D797D6CF
311
E474453BD4BFADB768094B2147814D81C7CBAF8228DCAF5564B5891F5EF6A860EB2E323CB82AB868D8EA048880D63B0DE5341F1B3D53297B928A11E15F25E5148990F710747C3509ED14909C552EBE3973246FCE55D00564D8310BC3EBC5085D08D806799B77D6C57FDF5E55837F9E934F09C03C729271B64F12D0A9F9E938
311
107CAF7BF1EC8CF1BB9B42363D33070F4CACB425E605DDB0A34A12BB936DE286B9887A4E2E558F0886498BFF49C311D96C277CF6A9FC0D75AD0ECC5226D7E0E3572012E56D7FDE4410CEC7A6D0F997F225A2055B8B92E3956E875AE4993CB3D4C9063AF98FD45E1BAB165640A43439A2C9181A7C355B297C0A0CCFFAE19B6F
311
A3C2BA238A885FBC98B8F6DAF4B94B97304878DF4D8BFF6A4AEDF79E90ED4E68F00CD7299F4E0D83E35601AF0CBEF18C1E870E74758FA91F5131075004DB3CFCF09AE1DABC11957FD9808C92E8A678CE9DBE40DDA0E0D1D505AAFBCBA208232BFB6FB3704E8985E61ADE53DE74152F5C7DE74B1DEDCD37DC3E8FB30D7EBA8B
311
9EFFC3606BF90B8D438279CB7709FC7C00D327F41817EEA71CD9E49FE9C8C9A81C70915D9F0F15958EC5AA4C3BBFAF46986B90F188BDB24B89DE3C6F29EC3E6F66D84856EE96A35E657CA41B41EFD8DBFA16AD6E91439EA92B40B21C053249F51AE50EB0B24C770FFAF40DF12C8436366819C48E36547D4E7B72FE2BBF1082
311
8583057814A668BDF183F6B2E58DFB151103E56303E63D00F39C27C4661605DB644D19175D02E3F0241E8FC3458D17AAAADB117CE9EEA690D0DB01E634878C04C2C9310B69FCAB831151E3AD293BEF6E46B0ABCECB50F5939B39C613D41E81FAE8D34CAE3C4566B761D37185FE864AC32FCB71AEF39DAA5BAB88609BB980CD
311
2F07A8F941653B529567726E2B2A58D079DD57E1E5E31426CF184A04D7B03B985F276D47406AF276FE32E3328BA866EB1FD39BEF57863A317634AA5FE467409B3873F5069EF0D71AF00AD189D17BA1974ECDB2D623E9E14086386A6AAB5807825C37B015BFE892AFD154920EC437EB945D958E18622E1E0FE2FA06557CE4BB
311
9BBD05A2D40E774DA2B65473791E314B7D6C886820B2FCFE4AA272B3B8B15E7344A145E8AF919B5454D89D36D413E87211186BF6F645E5EC94DCCE8E1C799022E4EC9BC86D7A0F2AFB1FC4B2CE48F84B3F49ECE65BAD24CADCC07EFF39AB06BE9E6B27A059938EA7208838455383DDBCFCD967DDE4650EF92A14FF933C975D
311
B20BD7FEEBC4487576485963D757D16340D9599FEB362F775F38CA4185A86F74B629C81B133644A3B18FD056E997E0734F9BE26D11C0AAFC669E2AC9FC41D281F8B2E1C35AE27BCE05F3DA295488096688719D974DF1B5D182DB7792288697F8763CFB43562C1CDEE11C4AABD5C22B6E33F6F389CFC3477C5919DC0D533F8A
311
7A1846B7ADB60ABDC26C43D0CFC8910B7C15EE22675BD02702ED39DB77A87A192CA7A543E6205B979B9F5A6B512A3CA799E198B2D5797C0AF8D1D872CA455D4D431A7879D4DD76110B5FF7F4176B54477A9EB5E4A5D11214FDA585F0382751D8E2582BA5D2075053298FEB8F1537304E32CB22C2E2B693DC0A760B1DFCA751
311
BDC445AFDCBB12820ED85F6D5298933C7EF1211E9E057684056CDA3FEF3BB6052355E162DF27C59E965A8DDB7F9437EB72CDDA3A090DE65A5B2F50326247B7EC67B73ACC7047FC9B353D6EE990F772207C6EC52B39DC2F3C0754821DAB559F7C1809C7D0DD5B0499D0442E0A6E391B3D5DB46D11E731E6794EC77523FBDAA2
311
42ED67F9FA1FB684255671F63C9BCFE6E7E896D51001A6113EF2298BA494E0B0980D1FA5B9D60796554C02256B1E0345FB7C6186B6A19D2DCA270416262845FA4F42DB5D9B0A0B6F07FCA2E56C242522E001E0CEB734AF310FC8BFB57E38E03AACE93B3326A2197891E68452B26A6307FDABFEE0223D3C03C3C73D2D5BC054
311
C8311F12004CAE488E5C29287F8156A2CAA4AD0D7BE6B97264E4139F437CE73ADF52E5134C52B819777C18B323A5924E4F67AFD13B1CDC3A61793A79FAF5C0CEB718E441071E797C6DCCB9EFCF7E4A1E9F3DF3C2F9C9E8294E9586868788C972857FB0556D7A26941A7EEB9B580AD78EC40B85DC906B4120A563CA3B87797E
311
D612D3B035962BB75F6515A393F4CB057F564CDF54F2E5A024514E6A1F901DB80C7E70B1FC05E356A7E72FABF4775B3E3FB8F70A2A8E7B6A94542BB304157978CCC999E707A29CC795E67A59CC546A5D47B368954CA7B6E75EC9E1F6FC73CE3B4F71F8CB1A6B15923D61EAAEB14626AAA9D04A26EB9C66CD1BE86CA31A5D87
311
03DE04CD1EBCE4F5CCB62F93909AD11E55799A781A956ED27D3E738F4538CB04ADABC7DAEF20BC35BA6A90BCC1DC61BA05F20D8832FFB9BC9B15E2DB838A0AFBB7E0C82A562127E0446894F427794C3037186F622BF24DE1B00AA10A23BFA47B2A180D6DA5AD6F7326FEB8C100C2D7142EB2A0B2A9D1008A09BA343D70E054
311
AB69E2A7EDB783CBD92537FAF4A44D1296AC2792729104B3276C276C951D0CF3CF3F1E6B017720A7B8505A5FF9589365979678C36F1BAF759EAF57C60F1FF5FE9DCF5F8E764FF25A2D06CF25117A8FED51884C13B2B750DB0E4F5E3D64124FCF11F0AD8F1CC3B3DA4B38ED22BF1CB2585EE6BFEBBA63FBFD44F9537B9B37BD
311
D6B358720F98A8125AED4349CCFEB0E135F19E208A04CA7E2B10711185D72E381F448036EF57C9F874E54A971CA37A639E986AC0226DC5AA00D5B14FEA9192234B3DE617814FC221C92F33F1D392F297731B567FD98FD91D989379AF567A65B8ADF177591DB90FBEA99BF4ED11B16E50A0AB1DBF1156D034BBE04D69D08F93
311
9D8E92BF525A1DDAFF80ECBC95D8F45D3FDD289FD23F7D8B452F8EBB34EC082DEEE68E18EDDF072060FAD2AB1504DD4879BF67099FC58F6E9DEFBF645D16334A3E9A127C6F1AF6132CF287E433B43A0EE93812B4AA0B194E03EE3FF91EF9C6ED0074A2F6EB18A96A7C9890B1FCDA1F2095E944DB911ED54C60DF16FB74C8CE
311
9BDC7C54C4F14078CF73C2FFF1F1BBCCD7CF64F71407EA1683DBC410D226627F66E509060D5C0AFD611DE681D509DB8DD12FB1265B03C6F5C55FF4C30BD94187FF692B4F152982502F193098A789526A038AB529A52BC0DC4FB6285CBAC10A8B8DB75DCD9BDABBB221E27D1F8DA9F5EE5926A1C8AA9BA9BC09239C6A7F1291
311
4EA3B59EFF7AAEC3FFCCE56F1C5C2980AD072793527565E774F4631DB178CEEC691B1F367BEA0CF2907E1D6B854D527065979DDEF002D8B2ACEA7CE21AE297737EDE1D45B31233B73FEA35BCFDD0B09721FDBAF6432681F2FD10C3E9EFB246FD6E854B344ACC9D8A0EEF876A7314B49B6A499FC650B099D650DBFEC7638ADF
311
D245E2B7839DA5AC5F7D5623FC0ECEEC8653FC9B2BDD1AD4D00A566FBA7186DD3C9CD26512551637498CADB950FEC71ADB9A5524285DE328B8EC7EC75D2345AEC6A27C42AF6D9B92155315C80DBFCABBB7DA0FAE425C4FB896B15C9BFAC4FE67DF5A23D30C93DA4D8F36FB15D100050DA6062E22AEC5F4DAC4F6FEEF97AE05
311
DE63C6D38F9E068A20BC5E3B6BCD75320C5090924E7F93640A7735B1A43451C2D91EE62C6238B797349E59890AF3A520DF4A87095F3ABEC2E61F0593416CE46CDCBE0E00E2523FCCD04408588B5B6C9DB6459C786CE378770B54F51DA3A5E1DF2A3349BEAAC234A6CF8993B598B3B25B4B113E353A4D750FA7534749430F3E
311
BF2512E7EA3FD43C6AB9A1F765A58463B306721A15D224FAFE8C6F5E3432D57EE697DA0DD5A9D4866A8BCCAAA9DFF1F06047851408FEC060471D0E3EB86BFAF46E4B5E60311DC3E3CEA147C75CF971BE74689507154FF2D2E92F15CDB2B9182B11459FD8ACAC5A85F174BC94A7F4EE4C4F5CAFA7C02E37BF0BC77B7DCD0C04
311
7BC316F562A01A441AFA7931CC84A28CB9F4AA367EB515778F29BFE61195FA671F4352E5E46E3A64773F1F76EE5EB36D7BCE9BCEAD837A4D77F8DB8C92AEEF6711920D7C7D0F76B0FD0EB7AB83724CD35BCA7D36DDDF5FBB7FF6F04A91F3E2BB3B8F1A43CD659639507FF6331C5F697BCC782AE57D757A27D97F1AB9E0AEDB
311
43F92F1B2AACDF5FEC8ADBAF9F814E2027003BA2F9E144B1938A7A04050AE5D953B82C45619165C813A10E76DD6906B3C16438064D14CDA713AEC420034613E1AC7241904A49FBF87409AFB1FCB9B72FE7933A87D8FBEDACECE4EDCF6A4FE9FB94D5DEB74FAB7CFEAE17EE965DF980DCCA2D04134994F9A2E94D2265DA4FE6
311
AA7B7AC15FACAC2B5ABBCD7DFF542C5314FDAB2E1B9D8B65220B8E2B638BE008E8DCA22678C820C5053664D15E89F2D735B51A84955E81A443545E9FF787BE0FA700A76D136C27DA179A7C6E8939E01BE756E19CB292798063D8B97F44E8A27BCF3A614FEB8BE974A718E86F7EC99B53CA35FA24F61F2B07266684623A3D4C
311
F073E511F3A10A8FDAFAF0078C577F4DF9D339FE7862E5FA47CF4344209E5BF76D783B1B48E152AD281B15FCB934DCDA49CEC5706B1EE8B460F435324A5CAD154725E21AB8044B75A557A79F6C807B9340AA3D92503E866F4274412926C8C504E4D5EF8C0E68DD0B028781A6B4054F11CF18941F101C57CCC796773ABC8DED
311
9CD91FE5788806C05E548895354AEAC96546D55B0E94A59F148D061F42AA398D822CDECA4CDE79E13469BDCC44FDC990F366BA5978C15F97ED80CBFD73B0CD9B8B83A4F6845BDFBFAF034019473FB9A63BD55D3A4A7284757071574029A4D016DCCBE95DD679EF3C4880BF169422F8C89B68A988D2B13793CAED4F74DE7486
311
C72DC94DF46B8E93D8E02EFCB1FF9B3BA10C8AE7F653DF94F4AF466CDDCEF5776687F7C4C14B63E4EED1719DC2EC482D7DBCC7AE518CDE3D5FF86D39000EC3673C0044E1D308BF05F74D1B5F033A7D1BE7F74BC55BBE3E4A20F920946CA0271EB17BD2B80E5660ACB8A29A79F5E4BBA49D4D945B6EEF4A7EFEAA65E5555BBB
311
57A7E15D2F83C69F30BBB978D2B39F1F26FC097424D39BB33CA3D87ABF64E307938B685BAD44F71556A30B7E712CA4FE600613C3E554B69ADE949A7CFE214DF1FFF05CB82151EC6FC31950239F94CF7AD39DC473F6EA356E5EC2C4EFA04383CEFE985A127484366FBEE3C0EC4FEA363E4F6632AE781392FD45D67B63FB8DF7
311
0E82734F431FD3443172A0E30A83D60982D55FA6A2CF86DBA8382502ACC6CDEF3B907982EED1160E14863FA242F9757347E1544275CCDCF71ECD5F8621CBEA326B8BA884AD7F825781923E66971F04010D574C541D8427A438A37EEF8AF88240EED7362C953F5A81DE2D56109CDE2524EA0F5D2F87308C0C47BD97AD605878
311
AB8589E17CA83930CB5E0DCCD75853D68B1AB136594926DE426C367428E9334AFAFF90ECE221BB5DC9E5BB53D2CDEF954EAA9CD814F0E5725F1965DD458E5F8487683AD86B9D0076BE3EE91EB1CECC5331A67A3F79D8B27587C12EC2A6A70474749F27B4C0BBAFB94B34189E88DC18964BE4121B9137FD516C7755356E50D6
311
714E31ACD222621EBBCD1CFF81D87479056A9DA0E0B8EA19D24CF937DA89F78E8650CCBDC110AAB6C4E46DCBFD0446BA9E2060E81F314AC2031E88135E5476AC0160EF5C0DD2EEF1B8B5CB2D198BE9A554A9093B5F7D7E4B5407DDFCA1D9C152FD97F55BFFFDFE802954DFEC8995B983E28AC92F1971E28F531DC407A1280E
311
B125F64A72E617EFB27DFBCEDCDA2D6F2BDADA36873EE46B9BE1782998C63DA7182BC383FB6FD15DA472B175D7E8B4FC88F38D6E07FEAA3FA3CBB8F6B449ECF14D2175E5C5CCA3A42ABF24CA6C9395AF74535F4DDB38CB84F56614B0FD32D7E19CA5CF988DB4449C40E23DF2B16772594554579094450F56F253CD25EA7F77
311
366FB1CFE79696C428BB64D5A41E986189427E5E4D7E2DAE3D5BB4972B3DC44EAABDDDD63A2264ECFA5C786EB0EE1FDC5BE34FA0F08376869FD1E61EA06CAE15191135445EE8F0394161C3266A596AA035572BB0C8876180D8B9C77D307DF9DCDF7365ABDA6F3A2366436457A4DFC1F259666569A9E4A79C817BDD5610E520
311
0FCE894A358EC72858D50EF67545DA81C6FACE3D457BAF70367E1E6BDD9A952FB4F56247F58F523B97E640246051A72F79BE42FFA0B3187F63097F91C48B868586F714B0EBD5A00A8412C1236E1298F60C72BE6C96B82B404CADAA304AE9F303176B14BA53FBC2D5E86377E35542019E24D97B96A49B2C0E5006E7795954DE
311
AF5DA58958839043C6C70BD3B1B33B6DC5C31316D8A6923F142E26F6711A2258AF977DDF1F970ECC4F1F2B434B96D81BEB6E89BF3BBB3C7C8CC80505070723D6D7D7D3C8CA27CA164A26024FED94B12A86031867241DA53D929636DA600F050BC40CE48B8BA03D69224720DEE2ED2127390BDF5E6EA64527BBD4C4C63FA76B
311
B801FEEC0E61218EC98A8A86CD8313781617877E66692839B9468CF4DB8E50A73986E558E309C0D6F676F921BE02F1185454DC75B111572FF9D27D85EA14C05AD7271225B391C4275659CA4A43759D0BA44639BE4C30A84DB7F67A41399FB95CBF923B1B1672ABC807C1590557FB18D811983FA97F5E609516D62281D38B12
311
81F68FC75528C35E4CD7DF0F7DBB5E5DD69C414EBEA2F4A5B241B996BA77AE6C772E367408C633EA3E438B68563EA8BE7667F3A4C4FDEEA52ABD78A2820F443B7914A15F180018D231E64519C56A12F6CA7C8DAE18F06F6B769DBF92329EF6A5D18FBCE600F36BD8E8198DE5CDAA96181F3A756EBA5501CEE58F497EA4F418
311
A2B82565B9BCC611713C0B708CCA1F398B78C5F7D03B3437CC18F13061F55C7BEDADD5ACB1DB0E36D3CE47FF6EA1A563A57E9649EA5D14D1A50EAA457463381C073777EF1600607BAF6428A7DDC079D47A204EF1E1F1F0589FB054D45E02CE623B3823C317C601E589E22B1E88B448524B86A82828E32345EC18AE17214B42
311
F8C41C6D428016D9BA31DDCB47572561E5A402E5BA4FCE55F78AF7268524AA04130F3A20BA5D1E9F9948EA48FC8F5314FDB35E21898198060034ACE5E3E2BBCA34092518F275190AF65F45867FF0900AA4B81F25427414C372BF51DC29AA855C5428EE1EEDD6B849AD60F6E73475C2D2523F8A2772C840A478DED18A8C5C91
311
B085F255DC4F54EA7AA8947354FD17ECF8FB3B4A0DE7B483CAF3A1165EE05BBA413E5C1FEF3DE1D6B8F2F3F3251C17D9FCAB48A9AAF63AC773A0E413BBC46A9ADF84A566FC920E4D8C52C9769EE3301CADEEEDD92B312E02E2A7E35B7F1E7D203FE5A7D75578B06E99D0E46FFADB8FDA17ED8880390DA29094202D6F645F76
311
F6F96409CDA05495A96E84B04A00D1A6C6C81D7F3DE9376E828CCF144EE50E364ACCE7237EA0BFB5607ED1AC3CFE73794E5B61739D14DF1743441B1AC98F00ECEDE9E7301FA29755FBEFA68C91EF2B314CF510537EF1ABFC9A762496280B546F5EDAAF8A5B387D469FC9A878A92828C88608453ACEC6094DCA54111E7AD5B2
311
663DFE2DD151B7F123B9F4FEF8EE36AB125FD7AD52A59B1B765B3E3F73E3F73DEA93875004D2AFFE3CDE9493B87A9904DD052028949041A91DC0E1BA47BA714343FD5B25E0A6A09503AFC17C790058A836A324FE31D7893512E28230332F153181C1E018E1124EBE1BA262AA428A518237D1EA7275E48C5C561BD19ED6912E
311
DD8367DA0F31E40EEAE9683DA9257525AEA7B632B97119E17145A90231768A4F3B9120FF32E8319B015E3CBE26F1A754177D8185345817C096B0CE443A955D13AC15E1FB5DEEA0239EC32A3C92241A237B0B02FFCB4F93CF2B02570C8D192E2F2A68CEEB42F12E6F8CEEFF46C251E22B4341C56FB08CCE550E7A9D6F4D6564
311
B9EA52A83D5BF2C6E03FA19D2775E15A8A7ACF30A13C259EE7F5EF2AC3BA354F1500E1A07FC63FB4686E2F12EC69719F9ECF5FE3F35598DF2CE944008CE78F0911BA5BE5D0A34E0098FF038669C26030BA9B300303039852A8F6F496341737CA7E0D2E3AAA36DE0A70AA7D9CA0D54D9AD84B18A44C9E625475E1C97B93BEBB
311
38DCE7D227E67A2D00F531436136355F243D1FC0D712C5765754FA22FCFFAE97919161F46D6E61ACB37D83777B385889770B50765B127768443A5C4D3A4E35A3151111F146B7CA116F918A049F1C272F2CD7976C69A0068773451659A97E0F4A08FE604C3FF6CE7385DB19F4D3ABC8A0D80DA8A42096AC377DB49382B36E27
311
0B6FA7570188B4B7D1DDDDA82ACA487CCA5D38BD3BD039ADBAFA4ACFF27809239B722081E2EB9F145320553D183F28471C388BC8814E5045676767AB58A8E72D1CED2CA731379515D2E533E4CF0B39DFC625F97AC4836831A4DE330E87A8126FA17EBE583D614E71E22A8DBF2825599743E0640037303E8E1B1E8EA4E1ABFA
311
4F62907B5E4E0E5DCFDAB417C36C6848A2B8D15F1E505434C0707E16B1CFC2A1C36A42BBF55734F8F4301DDC2A5110CEE8C0747F69519265012A2174BF4E955ECD4FDE095A3ABC70536B7AD0B9D7892F81287D667C108703C9B66A221E9A0929D030008F77FF6F5D2108EF5706FC87A3069B976F7C9FC3239D13D283CDEA83
311
597461079FEEE049B0F392889898B7D87D31F8D60ED7B56B91823A8E4EDDB36C6172ECEE42BD42B12CD67994FA0F0DFAE9389356F4CD4425A4B8AA55CBF7ECD585C6A2C2316791E43D5C06841ADBB226A87FD61515FFBB0167B74E56BD7F3E90A57A97FEDCBDF483A0D6699A8C0849CAEB4947FAA90D8E332D9DEBD9F4738C
311
37DA0CAF9CF3DAA68BCB67C420459C7A64498D6E848E5CADE92BB6901F607AA331104A67F7CD650EE169B1DAE94D2C31C2F993632259B6957E246EFE4C5481107B07118607700040E5812A2A2A38DA0076875258C753F60E0F2662C748EDD5F3F3686B8FC3BD6FE631ECCAA1E8B1C1E565AD117E54893E79F4672E32F9E46B
311
2A183DFDCF3EECB4D4D077DBEA0DA254D256045109670050129E9B9B1A9E4A11344D61497A992778095151510C4BB7EF2009B63AA4360635312E4CF668B7E0D3D85A8688E2BD83B569439892ADB63461930D428E0DE42E4AC57CE48DA5CC1449530D8BD3D6A0F08DF20C8E8F570F2CFFFCEA286E30969B4654D498A58D9DA7
311
82E19FE3F002181838925592C4A1EF0B332D88B61A92C644547BED490D3A42CFFAB70E36D961F694F6307F72FF15A1C79D5B1B5CEFD353D9E2B52566DEC8F8F09CB3E8359C0F68EBBB7898243E34E12A015B2685AB303C04D3A9E00671FF3DFF0A184E4A2ABEB2B666AF5B3A209C73D8EF29DCDB069C9F391EEE9DD0F74C7B
311
CDE16F8F02E3B8816122BBEB50665775B600549D8BB33A54A6BF940C028118BC6878C79958D6784F9DEAA6E26748386FFAF8D0D0101E2847B6563F5D8DC1D78F787BE00E2C941AE12148D4A81599FE8F68D4DA5CDED75530ADE138240300EE13B0FC13A1687FED6774662C05A2B7DFB186732F0D7A93545D8B0A6390AE5054
311
D9CB582DA846D7A061B3358B45E2B52DDE63E114397EDB7E09233A579155D795BE76102CF277F4DF8B188C4F2879BEAE3C08347124BF9ED23B128259FE107D31E34A652F090B30B39E0D9AF917B76A2806135621A8A60681F16AF216514BBD02711585B5B1AE823F4B2D0369EA5B6BCB863072727FFC871CA6C9AB79A814D9
311
89057E9470A3D238BC87CBB4A0EA49AFE2B86F22E499793CAA9047080450166BDC357524561E258C77CB697F1ABB32562CF87C3B7AA12F911EF19FB3E5C02222E887D08202A60A17151F5E053A86B437771088B4FEE14D652C43E8D939995D34545E12E2FF93D4E366EAD25F10CB7DED141563C3D0C447AF06078A91135FD4
311
B9611583CB4BF3BD167F2399CEAB0E0100F8FFC305F00F1711717173138B4B48C83022295DE657EFEDD97F238ECA80F528AFB4F8D67AD4E2594B9A3AA86D7487EFC313BA95745C186F0CDD84CC12DC9CB0424B42203D351FD9C0A3AF10CC7F388E0329279087386421F194F4A29464C1DEF7EF8BE515E4A199DCD5B9093425
311
98D8FE6A231F71336248D5CEC5454455C7BE383B3BC7B260FED27F703FDC39A170F3827239102F59D4DEE7FEF82EAA1A5E4BA94DCC4CC44E7E2EDE20F24244E4454369D2E87C3F823F193FD4FD27E1C23984B01898D15ABC20711A8A558054951A6AE280096BA36CBA439603B7B0B4C45F248C14B2383B4B5CD8ECECE4FF85
311
9AD4A6CA2326D020EF090F4041D28DB66E5256B56232CC52829DE8060BAE6BBF37D4B7469B822454FE93210A3E8D15E69FFCF01123222611C51C4FD0A041A0CFA2471CF6BE38D2B20FA4C3525B5B8B586759475CF80ADFE67A284AC24651E52B8E683D24C2622642F27E7C3C22783BCF63648BC398BD6CD0D9C97E7E7E3EAC
311
B6126DB7A6C1FD9F1031302EE67ED96F22B77C7CA0239BB324207559B105E4693EB26EC46182A92C9C0DBD24F29B31C5C5AC1F84300E0E17CEEAC15F5736FA4A98971E2F1423BFCD68D4BBD5F86E74B40A369F39507C88FCDB35D2DD8DEBEA4AF999E23CF2816D204200DF6E611781B9884C1AC8888B4DE397320472959434
311
323A5A36B22A8E1F721A270DF3BD65E4A31C11FF048AFB0D8B7B6881423793963A23CFCE935FC189ED36FAE35C46DA3574C979E4394BE52084F3081837BE033396D2EBD80F1F691B273F660D2B32FA27A33B1DE4ADA5F0FA4651511102DFA410DDA86E065272CA314D5249DF91B06BB92807B28EFD54F08F7B525252782CD2
311
76DD02E6B0319B13DF87B1F6361AD6B28FC0D711CF445429B9E5A433CD493051C49A9E03DDB1B147D880253514A5DED88009018620EE229101C041950E2D8AA8E1F5F5438E0C0C0C60EEDEE9E3E0C051948C69F84BB7B2A48A1F3C8EB9E6864687F4F4F6F6E2FA87608ADAF9C5E117B7C1A737E710769DA1D15ECE6A84502A
311
A855398712D5FB51BE92E4EF824969CE18278798AC303C2C7980DD2500ADF8FB1E6D6C2FAAFF9987178923334A244758BAA01A9A1B70FA5097D01E1CC2A58DAD0EC94CE6430AA9B0C10D75E3C6BAC670EFBADEE1607739CE0FC18A2587E3EC3058562014C64219C69BC269082D5C2F4A659278D585755912176D78A1B64171
311
9C2A394CED495A1AC5D583FD2F5EDD93308EA7EAE8A6DD396598BDBD3D4CFED62D18A5BDFDE0DD5C80D1A89BA62697B131AE7CE9A6594138582F1B37D68F1749AC7CB67A70695D48A4A056AC1FBD4E82358CEAE38F54B95A9016F9000F9879C0D9D131768635CA798895F27D6F1614F11F2838A83611AA51C9A3DDB539D429
311
79C29F10465655C17BEC3E2760B80DCBF609198C7B171A531905F3EC218D696025975E986C6B4C666666787271F202805577DD5A3EF0CAFAF91B62DC4B2DB4217A7606282F31D8DDBC290593BAA93EA6353AFA9939B877978481E15CFC9F2755CDC00C538F63A4BA3E80AE009B73CA0185687D339A507D165B74290D6EE46D
311
5C58148F020C3668ABE9EF2F7549170DC80DB41FFC1D678FF19AEB10C7133832B104B80F691B3138F97A92D26E551F1F110400D45AC71A9B9AC41A1A1B1DAEED0B0810638EFFB511D46B121C6FEA0F38CD00E03CFFEB9713FE1F9C263E4DDEC160D0497FA9A132BA608584057FB15380825DE6C7FC3C667EE947D488A09898
311
D8E939C4953BF4EC9836344D2CC6B2971B2A21A572B06096F4982D2CC7232D46E8EA69DC83722E267754D777F97F96D5DA74E1E75178084D0E70F12AD33E5F71EF2AFA599B2BEBF60A5BE475F444F240CBFE8143C334E7ED9150FEEFEF7EB020C4DBED388DD1D6A167A76F3CBF119B578AE8CFA7736ACAFA4440A1C4718563
311
8A0D2F3EB5BDDEFDA958FB13CE4AA4923D5BF840392D45544329525749734866684BF7F8D9D54D892E19BCA9F829A0F8BFCBEEA6CFDFC61D74EA1A645ED7A1FF241739F15694BD835B66FEC5677E40FE69BD3F91AE402F036537218A401CB0828604AD189E575015C6F3F6BBC8AC79CF6C70653847254B31551EFCBEB5978B
311
9DB85D58D0FA41A9DFE9C624834AA04949D24B5AE6D299E072D152D12097920F14AA92C31C3B97E28B6C2E6E9C23D63043ECBBC0A60FDF5BD0C33C127EA8A3308B8B6AFFEB28B4455BF6E7AF4FC6222728357EB8E46E85053E6A8843AB23295BF838ABDA94658FEF3F832F147046B4ACD6F7D48E8FCC9618582961C898D1C7
311
A253C91BFECBDA6BA18A1FCF70755DCCEE2222F41B76D23CA98D0CB3D95F0CF66D57FFF65E2A90F5DF40FC3187621E981BD0BC1D992787212688976B94A8F0C6EF646624B570B78E068826F87CE27041A95C9A4871FF65CC17FCB1639629AD6A9517000D63AC231F3D741CB8430777E7ECF80CE7A3F73C0F162F7E56AA71F4
311
DA80A33CD6ACEE78E2C11FAC03DAFCE929B106F8F6B3ED2DC71FF994BD9CEF4E9A94896EF1B6E2B7B4978168BCF0847A3D2A4F1B0500B926E634B174548E9FBAD27153FB5FC36799B1E6C7C38A94E1F9E996796D7B485E635D5287A2AE76FBD11A341DB3F8F810385BB7296391973DC6C37C452A9305AEBBE0CDB6C566DB59
311
FE60C8E94B1FD090354BF51439FFD1B48D725228FFA88C84F686F547107A7A235665A4593B7C34D748C1AC8D56DD5DA861EEFBADDECBBD65117E65851F90351AEB65F0EFCFF4BCFEF24CB7A5879699FAC437A7AF9099186CF006BB923A59E37D7A36A29FD8D2CBB914A5E9D0A8FD212FBF796AE9A67958FF1D5D8B85F78F96
311
219D4714EB919929241B6C018AAE0C02069F8D919961EC5DDFBFB7573E3AC8E08BFB7C8534BE6DE045B3CD63DBD71F7638BA2309CAE398EA3A7D8F98BBBC7AEB367EFA5CFA27A9F8F2F52FE878058E6209C026453F8E7E8A237DFC389E9590F6059B397CFD65183BBF936E86896612A5B5FEE49DAC8455D026218AFEBEC12B
311
3523A45B57B82C9C97E02ACFA1184DB18E48CF615DBF39C3CC6F0B4AE6BBEEA2E39D944E290302FA3DE33FA7E40296E2EF7BF1CD855BBECFAD0FD622BEE9746FC4FDFDE545AE6E3BC234CADF83A0FB76DFB145BF3828AE3436368AC24989454F8FF70A177672C711CAA1A76107218CF948CA01F873520E7A2B118EBB161ABA
311
D432932029628B6761590C98AB590C8C8C79798CE9F715BA696E839E9131A4BB68BE923F1747FBFF165331FFDD4D05997ACD168F12CA75348DAC04C7F509FE83898A8B421181AF492861CE81E4A2DD0A30850CFA95E05F097FF70F9E777310D584A75BA7018922E271DAB1D785671157685B7D383D3E074DDB4F1E44EF04B0
311
7BAAC75A062077C54B9752C738C9D804D402E02851F3F89605AF189738C18C021D2139EAF72513824E10DDD3047BACC8521ED7E98B257D1166903B1B08FA6F918FD7E162913FEC7D0EF4787E29C35FBA8C6E2C9C20E9AB30AE42CA2A01A090E7D010C1B5BF9CEE2A304BF3A987FB40D836979B79E18D70F257DA61E808472D
311
D85B82761825779D6B90CAEB0F23360C6F80A7D7D77545E95B3DFF0CF96A827F9B5BCECD2C9698718417EF80FEEDEE938AFF55859D0D540B7FE09435583A6F04874A0C7E8CF234DF4879722000167F5872CEC6BF3EF7E5A8CC8121E6A359227C8A29C95212F9F735BC72A887D56B8F309FC525BFB4FD767AAEC4AEFF249CFB
311
BD2DE1AB9969A6155C7D8DABC307E47324C1F916C7BCFF40ABA5644E9FFB9238D19ADADA49D9610F01ABBA57E4DFCBDCCBB2B93C8953206C91DE01B0E2651A6D6C31721915B31F7B7CBCE55466F6D70402788FA91D73BE4ADCBA99A35F17D6B83383704917D6833F0FA3CD45C926ADB8BC17999A4A0AFBCE2541F7B8CF4C2F
311
5FBA611B3E626D64407CB32C122DFF4EF8674D6EDBB86C8F7C6A16D50FA685E2CCA34F8F7D1D8265BB0042E9D7F1F666F7BE5FAA5184DF58E12122A42EF02F461B3F369AC746F96528AD208512AB56844CF75B97F352DF7995024FB02855385854F3798670D01CAC771AC3E1889EC25F61A20C1F8CAB46898817F9C47E2CDA
311
1F286BF2F358298709FE567C91133E2638C8B53975E753EA8BFD3578B5F7186B7BF084EBA3F77BAC3132A5779902EC22AF2D2E79F42D324E083386DAEE9810D1B44A5DAA54513C7A71E52A4AB9257D975B621308FE4D2141CC3DCFE946C154A3C1DFCCA7629EC69ACFA831634ADDA93C0388D2A9A2DDAFCF957C6995BCE7FB
311
B6DC4EBAE79E63EB08E9A25F52F67076F7093CA545CA3053B5BF576DEAD4E0017143C5F759F32B2D6F145B52B67B48909B7C7FCA6586EE385A2189C16932CB6DDFD9152AE317C430492A578ED27B72D85D40C7C93C097939E1B50F4D67F05334FE9DC362C30B7FF561B95259138ECFD9274C8D695C31B14D4EAA9F3D7FA8DD
311
F652F8C5DEFA23284C799B7D94416DEE81E05A866302DC70192A5368EA65E1CED8BF107A1E2D3119A71E85DC1A7B0C1E93274CE04DD0F2ABC8AC7C987FDB002B6F81757B43502EF7A0D92E416494FAEEA4C9C090CD9557AA4D532F4996A272B94355C5A0E4974EEA9627476F30809B94D8D8D860062E02204643BEC7D0438A
311
F800FC7E2B26955D595421E83C69E1A07E0E3122285835F014AD538188CF9737CE76D464A353FA55A001AB2526B84E985083693BC76FE211CA1D000679C889E3C009832C87E1AC2EDD05C302557422DF0800E316FCAC86978A371F025A6C7DAA9F333E7BD160403A1A06EA75AA9888FF01504B03041400060808004B7ADC4C
311
28BB58AF800100009E0500003D00000042394135303931432D463633332D344333332D383135342D3735333339303243413342452F536368656D61732F436F6D6D6F6E536368656D612E786D6CBD544D4FC23018BEFB2B96DE15493C78601010A34B880709DEDFB52FD0D8B54BD70DF6EFED3AC0B12E6442E2716BFB3CEFF3
311
D18E26FB440405EA8C2B1992E1C323095052C5B8DC842437EBFB673219DF8DA659866649B798C078B48AE6410122242F2A4994AC7F93815DF85C049C8564CA0A901499DD886B2EB9B1E02448F358701A9235880C49A0119892A20C89D1B9FD768815CAD268CB5E0355B40B1E47F3E37A2020464BED06AA57CE8FCC20C3C344
311
6D46761A2632A8C1283D07031EFF2AE7CCB1BFEEE916E406DFAC8E36FFD99A9D60A6944090EEDC3B670C7DC13DE86B6B2C5C240D6E503BB85ACD579D513F1B9F9A69DC9CC22AFA80C426D40AF0B21EA168559156B6276F0F726A6BFF04DCD513A87A62CAD41FB24FCB2858B3952E3D852084DA25B9303C15687973CC8E8AAE
311
11DF2836C38C6A9E765E8C1BA1BFB1DC29CDFE518C8B5A7655A4ED7E77291ABEB80DBD82EC866ADE1B8D05AF9E35CF09D7A061F38A986D9EC412B8F0F65E5D81534D9B231D1E5A8FE577A241F3A5FD01504B03041400060808004B7ADC4C2CCEBD668A040000E01200003E00000042394135303931432D463633332D344333
311
332D383135342D3735333339303243413342452F536368656D61732F47656E65726963536368656D612E786D6CD5586D6FDB380CFE7EBF42F0F7A649B70E1B90744856B4970F450FCD7A5F05459613EDE4174872DADCAF3F522F8ED3B88D2F1D06AC4050DBA2493EE4438AF2F8EB73AEC8466823CB62928C06C384888297A9
311
2C5693A4B6D9D9E7E4EBD51FE3A931C22EF85AE4EC6AFC38BF261BA626C9AD288496DC3F4FCEAFC63366845F7A10452AF41DB320C0D44EC26EAB20918735565582695670811A6A49643A49A6E9069FA4604A64B29016DC4B48552F95E4932463CA888468C1D2B250DB4962750DF7CE273069CE8363F1FF4EDB00E0A2199957
311
4AE4A2B00C353B93F3BD4777B8A61ED8F604ABFEDD79CE56A2B7BDFBDBC50996E0ADDE16FED26223C5D30956C29BDF4A55EA686E5E58B112DA45CE67F76F4FA27EFA3FB672FD7372FC388FAECDCA5209E693CAD167BADCD272F943701B3812F8A3D852008B1D2E32DB927B2F833C6EA95879925356D254582695095A3CE982
311
924720BE5774A3CB9CDCDB350427D2DF20DA1B5532EBE2D5D6288D75D4F7E4FD9890A0EF8E3D93EBB8F8BA4758158EF6FB90A6F9520281C93DE7AAC6D24607DA296BB96018123F821A7D6A5C5884050C475DA4865442732C8B95684A50165CBB3A32F25F783A4A480ED59AD7F924B968AEA50131F46303223E6A397B0E5297
311
6030DC1DCA81D7E7C1EDEEA42C19FF27635C505E2BD5198A599020DF50A2330FCB3AAF28CB0124108429553EF1B228802E2265D8F7CC2401042B155BCC7070F1E5C55F13B4A9577362CCCE46C32174E010C3C378C44841A4BDA00FE3A12006CE11EE6AEC59894D3526DDE1CD59D503ECC324017F8061B7F162162FA62EDD81
311
AE3308617770796DCBDAD2B2625C5AE8A63DE20B2C8AA5E95E76E5730823955956E33E705425A2187C185D36489A1B44D3DCEC2172F6BA2105C3546287A7194B2331768EBBE64F6E70A9930ABE0ADEA89E9E2C38523B810287AD67A54A039C1606EAFE68F8304610BB9093DBDDABC0B2AE4E290DCDA15376D7E39F72B556F0
311
B32EAB5D3D498B4C41ABADEC3A1434C422D87E8025A84BDCB2B1417ED750FAE4DA8976863974C577C7F902D3F156AD354DEA3540DE6BEAE2BEA52F7A2EB4CA43802ECE5BF2CE2EDC9347179FFB023CE412E60BE16DA0BE29B374988A553F561DC04615DD35F7D2C8979F60E5955CE93DF29DED8AFA1EE6642D53418086C03C
311
47C377910F75F7E8F5EF665F70B60FFB22AEDF897D119E8423C773E819A3C1E55E550599EE6EDCA34D0C86FD72057DF2CD46F16A470682471C164E4346D5306BF12D7D12D82CFF673D41636C347443FEB51B50D72EA171A8E4A58623A4A16E0FA2B8B10A0D23268D87C33896EE8FB73305A74BF224EDBADFA0BD674AB354D6
311
3DB7BD5D83426761C077DE767728235446A552754EB93B755891C3C4CC6CADE37CF0E912A7BB38DBA010F9DE1282EDF470CA69A9CDA482E334C4A6EA4107987980B17E72F31730EBF88BBD39E7C629F56797A3C0009C2C5AE7951D9A05A02773440F02EEB4DE396A3B6A570C72CCFBCD823B0B8ED3F1D5CEDDFED772FA7023
311
6C83FB7D86C385D570B87107535572A60A96035F8F7C6A7192F13007246BBE0521855E6AC46F3E27689CEE7D186A6FD679D98CDCAD13333E04EBE7ED6F55FF01504B03041400060808004B7ADC4C6180134D5F0100006B0300004500000042394135303931432D463633332D344333332D383135342D373533333930324341
311
3342452F536368656D61732F52656E6465724D6174657269616C536368656D612E786D6CA5934D6FC2300C86EFFB1551EEE343DBA41D1A103009551ADAD40EAE28A4A68D9426284961FCFBE5A340113B2071746D3F765EBF4DC6BFB5407BD0862B49F0B037C0082453059725C18DDD3EBFE3F1E829991803366715D474942C
311
D30FB4A782E00C64017A412D684E454CE3FE28995203B162A6EA5AC94B66997D225E109CD63B0135484BAD1B3C07E9080CA35DB3119C11BCA5C200461A68A1A438126C75E3E230D40FF81FB3F03C91D1E3A3A0AF79FE28E25BC39EC3E17E4C2A2D94A0833A51AF55BCCA7D88572FCBAC529C4140B020FC3AAFA886621DCED7
311
EAD7664CC86024E806DC297DA1BB393E4156543457A4537DB8817349A70F8ACBF09B3EEE2CB2F33E91B65D60786E4E3B39B77E3FEEEF5650424525DA657FB8B46BE6BF064646F0A0F7327C0BC1BC1B4CBBC1C419FA3CCB23500007872A2580CAAE5461865565294E4EDB4617B62FF579DF9A5B2F54E834076A597573A02091
311
2FED777F9B3F504B03041400060808004B7ADC4CC863EAC551000000570000004700000042394135303931432D463633332D344333332D383135342D3735333339303243413342452F4173736574446174612F41737365745461626C654F66436F6E74656E74732E62696E5361606030B134B5B4707673D435313174D33531
311
3770D3B5703577D1757231B674317573B53036B01402AACB4D2C492DCA4CCC492C28484D2C4ACC4B4E050A82012F90744FCD03CA26072767A4E6260200504B03041400060808004B7ADC4CF865834058000000680000004500000042394135303931432D463633332D344333332D383135342D373533333930324341334245
311
2F4173736574446174612F53747265616D56657273696F6E5461626C652E696E66558CBD0A80300C06F73E4B117FB66E451741D041DC5BF98480A492E4FDD18EAEC7DD4555D89EF28DF51A0B1BD8340C4DE7DD848B988C0ACF0649566493F2408C508DDEBB99D5129FF8F1AF8CF5B9503E20FAE5A16B5AF702504B03041400
311
060808004B7ADC4C15BC1E4637010000A20400003600000042394135303931432D463633332D344333332D383135342D3735333339303243413342452F4173736574446174612F636E782E786D6CCD94314FC3301085FF4A6489317612048A90E30AC1D209242A06B6AB7329561D3BB22F08FE3D769B0154C4D4A1EBE9BBBB
311
E727BF93ABCFD1161F18A2F1AE6335AF58814EFBDEB85DC7661ACA96152B2583F7F403638583113B96CB4CC95DF0F3B4947A1C60B6B96A8DDB2FC5FB189136B0B5F8343C7847E828B2425B88B16351BFE3081C66F23DC63DEF8180D73C60F473D0982691197199A4030261CF5453D56D59DD964DBBA96FEEEAF6AEB97E9322
311
934A6EBDB70B6FD2B2E0A7ABA6D2C7BD4C55526440C9399885CAAF61EA2F957C6B9C148954325248AE2C1DF435A50E98266B3450324F784D4865821046298EB09222BBF0CB8B471C8C33B9659DA401F9F09C0462208317E8C97F6ACFEFCDDA4502A7F1921D39D5787E1F5E0EBFE8F518CB436E2E2F2DA71AB971C319B2220E
311
E72445275F17F50D504B03041400060808004B7ADC4CFBB0BB6DE7000000600100006700000042394135303931432D463633332D344333332D383135342D3735333339303243413342452F5265736F75726365732F34393539384346412D343431462D343730462D384537442D4244333944354645383330392F7468756D62
311
6E61696C2F302F636E782E786D6C4D90C16EC4200C447F25B2D4634292AA55B422EC4FEC692F1525DE142DC108CCAAFDFB42CB614F638D9F2CCFC8F3F7E1BA07C664C9AF300D2374E80D6DD6EF2B64BEF50B74672523113F61D0797DE00AD50625F74839346BC39BCEAEBACEFA7B3377F418ADF9087E87CE389DD20AC97CE1
311
A1079D99364CF761D3AC87698898284783E500DB03DB011351336EA0E6715AFAF1BD9F97CBF4769A96D3FC7A95A2924A7E12B9C65BCF1829BCCCA3A132FAF2CF28450594CCD136AA8600F5F49C1465A964E258F237887F42817408CE1ACDA526418691FB02A13EA4F8879514356F91BF328AD66ED42F504B03041400060808
311
004B7ADC4CA233C2345D000000800000006500000042394135303931432D463633332D344333332D383135342D3735333339303243413342452F5265736F75726365732F34393539384346412D343431462D343730462D384537442D4244333944354645383330392F7468756D626E61696C2F636E782E786D6C4D8B490E80
311
201004BF42E6EE76F3C0F216234B883063108CCF170C074F95AE5473F5C4C06E932E4F28601967600677D21E9D8092EDB002539227A2FCCB80E1168D80A6417297A89C5D6963B7129A0D1E8F2EE73AA7B62BBEB8B27DE50B504B03041400060808004B7ADC4CBE89762363000000880000005B00000042394135303931432D
311
463633332D344333332D383135342D3735333339303243413342452F5265736F75726365732F34393539384346412D343431462D343730462D384537442D4244333944354645383330392F636E782E786D6C4DCC3B0E80201004D0AB90EDFD75167CCE820A4A845D83603CBE602CAC26799919AEEEE0D965E2E908050C6D0F
311
CCE04C8BC355404EB6198129C92351FAD580A10E464065907C8D948F8F166375F655BDC3FDC3B4E530A176BE7057BDC43B2A593FE403504B03041400060808004B7ADC4C6537DA6F7E000000A30000003600000042394135303931432D463633332D344333332D383135342D3735333339303243413342452F5265736F7572
311
6365732F636E782E786D6C4D8CD10AC22018465F45FE7BCB31C714D45139DF63343724A761337AFC3476D1D50787EF1C317C368FDE36BD5C0C129A130164C33DCE2EAC12F2BE6006685022C5B8FFDD008569B3122A0625D614F3F340B35DA6EC2BF52E3C0E4879C7D9CD5C30A58DC1B42706B3B1D7F8AA5BAE3B33B296F062
311
9CAB52E6D72B5BF3EA0B504B03041400060808004B7ADC4CF816141D0B010000550300003400000042394135303931432D463633332D344333332D383135342D3735333339303243413342452F536368656D61732F636E782E786D6CCD93BD4E042114855F6542623930334633D9306C616165A35676087777C90277C28FD1
311
B717568ADDC44E8BEDE0E4CBCD39072EDF7E3ADB7D408806FD42463A900EBC426DFC7E2139EDFA99745BC103623AC348E7A58385549908BE0F98D72669D8C96CAB6A8D3F36F1019D43FFA20EE024E99495312E249EAE54E6841AE2916A99241D698088392828139271D026A800328126621AC6B91FEEFB697E1DEF36E3BC99
311
6EDF38ABA4E0EF88B6F1C62708B8DE4C83C272F4C5D0C0590504CFC134AAA620E2DC1D2D7D705608C1630AA58546A6AFB590725DAD513295B2D809FC61046735EC45E447F0108CBAD6CC17F6FE2DF433780DE1A9BC5430D25E6BF6DF5CFEAD0276DA80F20DEA42886F504B03041400060808004B7ADC4CE3603EBE7A000000
311
C20000002C00000042394135303931432D463633332D344333332D383135342D3735333339303243413342452F636E782E786D6C6DCD410EC2201085E1AB90D9DBEACE05D09878023D01A1D34A8419C380F1F82DA68B9AB8FDFEC93C3D7C52546FCC12980C9CBA232824CF63A0D9402DD3E10C6AB03A3397DD192872090D34
311
06ABE7CCF5B5D18893ABB1690CF4DCF02282E5EA8A5BB96FFE536F285CB347F95BEFFE81C9ED5AFF9D5B1FB575BB00504B03041400060808004B7ADC4CEA24B9BF7E000000A300000007000000636E782E786D6C4D8CD10AC22018855F45FE7B4B73D604756C52EF319A1B92D3B0193D7E1ABBE8E67CF071CE91DD67F5E86D
311
D3CBC5A0801E08201BEE7172615190B719B7803A2D538CDB5F0D501857ABA06AD07249313F7735D979CCBE5AEFC2639783E83911D4E0DB9931DC98122DE50DBE70C60439999E0DD7B238D649C1EFAFB0DEEB2F504B03041400060808004B7ADC4CCA1DF9C9A900000073010000130000005B436F6E74656E745F5479706573
311
5D2E786D6CA590410EC2300C04BF12E5DEBA70400835E500FC800F84E0B411AD13252E2ABF27A55740421CEDDDD9B55CEFA7A117778CC979527255565220197F75D42A39B22DB652EC9BFAFC089844F65252B2630E3B80643A1C742A7D40CA8AF571D09CC7D842D0E6A65B8475556DC07862242E78CE904D7D44ABC79EC569
311
CAEBA537E3521C16DF5CA5A40EA17746733E0B6615DE7217475F386F18B9481C510F1F021CD9FF027EA0E1F5C4E609504B03041400060808004B7ADC4C3DEE336E64000000790000001B0000006175746F6465736B2D64657369676E2D7061636B6167652E786D6C35CBC10E83200C00D05F21DCA56CA76D41FC96062B1207
311
35B69A7DBE268BB7777961F8D5AF396893C2ADB70FE7ADA196782C2DF776D7A97B5933C430F15651E5469C55D70F80A4992A3ADC954792C525AE70A1E4D6AD9816CC044FEFDF01FE3FDE907802504B03041400060808004B7ADC4CACBBECB0F8000000960100003700000042394135303931432D463633332D344333332D38
311
3135342D3735333339303243413342452F4173736574446174612F636F72652E786D6C8550416EC32010FC8AB5776CC076E44498C8959317F4D41B02E2A0C46019A8FAFC42EC4AEDA9A75DCDCECCEE0E3B7FCDCFE253AFDE38DB03293114DA4AA78C9D7A88E1863A28CE9CADCE855F3428AC98750F1906CEA6D5C56587A4B3
311
41DB8C5AA7F40E0AEF7580423E53D38397773D8B52C49018FE512E423EC4A44B526E3CCE62346A971A95DCCCCDE81578832F747C3B34E88A8F14356D7B45031E2E88124AC663876B3C76ACCA62CE82997FB6CB558BA015708A4987F001D1EE9DB427D29D68FDC1AACCE4CC8735FDBC2FCDDF011FF2D5A3088255DBF48F6B5C
311
D4FFAED1D850D3DD755378E0241DF91A7056E594527945986A4E947F03504B03041400060808004B7ADC4C17844A92F30000008E0100006800000042394135303931432D463633332D344333332D383135342D3735333339303243413342452F5265736F75726365732F34393539384346412D343431462D343730462D3845
311
37442D4244333944354645383330392F7468756D626E61696C2F302F636F72652E786D6C8550CB6EC32010FC156BEFD880ED8844982895932FE8A9378489831283C5A3EAE71712576A4F3DED6A76667677F8F16B79549FDA07E3EC00A4C65069ABDC64EC3C408A57C4A03A0AEE9D8BBF685059B9E8010A0C82CFDEA5758394
311
B351DB825A37E90D9421E808957AE46680A06E7A91B54C3133C2BD5EA5BACB59D7A47EF1044FC94C9BD44CD9CD5C8DF6203A7CA6E3DBAE4317BCA7A8EBFB0B3AE1D3195142C9B867B8C523E34D110B1ECDF2B35D792DA39E40504C18C23B44D93BE90F841D68FBC19BC2143C449F7FDE9696EF4060DEBCD03F6E699DFE774B
311
C6C6966E6E2F450041F271CF81E04D4927976774B99624C537504B03041400060808004B7ADC4CCC75DDB2FA000000960100006600000042394135303931432D463633332D344333332D383135342D3735333339303243413342452F5265736F75726365732F34393539384346412D343431462D343730462D384537442D42
311
44333944354645383330392F7468756D626E61696C2F636F72652E786D6C8550CB6E833010FC15B477836D207222E32811C917F4D49B0B0EB10236F2A3EAE7D74EA8D49E7ADAD5ECCCECEEF0E3D732179FCA796D4D07A4C4502833D8519BA983186E88417114DC591B7ED1A03072511D6418049F9C8DEB060DD60465326AEC
311
A836507AAF0214C39C9A0EFC70578B2C650C89E11FE52A87879C5449CA174FF018F5B849F598DCF44D2B07A2C117DA9F770DBAE23D454DDB5ED1099F2E88124AFA3DC335EE19AFB258F0A0979FED835332A81104C58421BC4394BD91F640D881D6EFBCCA4CC17D70E9E76D69FE0E44B8C7E5C3483DF3EA35FDE31AD7F17FD7
311
A84DA8E9E6FA527810241DF91C085EE594527946986A4E547C03504B03041400060808004B7ADC4C795339D70D010000B10100005C00000042394135303931432D463633332D344333332D383135342D3735333339303243413342452F5265736F75726365732F34393539384346412D343431462D343730462D384537442D
311
4244333944354645383330392F636F72652E786D6C8590DF6E832018C55FC5708F026A8B0DD2D8A94FB0ABDD11A596B482E1CFB2C71FB42ED9AE76F591C339FCF80E3B7FAD8FEC535AA78C6E01CE11C8A49ECCACF4D282E0AF9082ECCC9935C6FFB2814C8B55B620C980B3C59AB0EDD264B4973AA9DACC72178573D2836C7A
311
C4430BDC7493ABC845F0D1E1EEF926A6BB58648EF3978FB310D4BC47D51C5F5357252DE0151A487F395470440D81555D8FB043DD000926B86F282A514F5991C29C79B5FED0272B859733E004610AD10112FA8EEB13A627527EB022393973DEC69D7768DA2EE29ABAA16F6307AB0A8FB03AA211D2E1D8C34B5F367D3D0EB444
311
0D2B5EC13FC0B0CDFF0383D2BE243BF0957080E3F8FFE70567452A308E67BB71A6B2F937504B03041400060808004B7ADC4C38E78BEDFA000000960100003700000042394135303931432D463633332D344333332D383135342D3735333339303243413342452F5265736F75726365732F636F72652E786D6C8550CB6EC230
311
10FC9568EF4E6C4390418E1155E003AA9E7AB39C855A101BF951F5F36B432AB5A79E76353B33BB3B72FF35DF9A4F0CD17A37006B2934E88C9FACBB0C90D3990868F64A06EFD32F1A344ECF38408541C94BF0F9BE40C6BB84AEA2CE4FB8803A464CD0985B690688E60367DDEA9C0A235EDBBB36577DC196B54F9E9239DB6991
311
DAA9B8D9B3C5006A4D8F7C7CD9ACC9896E3959F7FD891CE8E14838E36CDC0ABAA2A3905D152B99ECFCB3DD04D40927509C3241E88670F1C6FA1D133BBE7A975D652A1953283F2F4BEB77A05E31FA1C0C46D93DA77F5CF37DFADF355B97567C717D2A2228568E7C0C94EC6A4AA53C222CB526AABE01504B0304140006080800
311
4B7ADC4C0A67589FF7000000940100003500000042394135303931432D463633332D344333332D383135342D3735333339303243413342452F536368656D61732F636F72652E786D6C8550CB6E833010FC15B477836D207222E32815C90FB4A7DE2C70A89560233FAA7E7E6DA0527BEA6957B333B3BBC3CF5FF3B3F854CE6B
311
6B3A2025864299C18EDA4C1DC470470C8AB3E0CEDAF08B068591B3EA20C320F8E46C5C7668B0262893516347B583D27B15A0189EA9E9C00F1F6A96A58C2131FCA35CE4F090932A49B9F1048F518FBB548FC94DDFB572201A7CA5FDCBA141377CA4A869DB1BBAE0CB155142497F64B8C63DE355160B1EF4FCB37D704A063582
311
A09830840F88B237D29E083BD1FA9D579929B80F2EFDBC2FCDDF81785DEFF4BCDA667F3CE332FEEF19B50935DD3D37850741D289EB40F02A6794CA1A60AA394FF10D504B03041400060808004B7ADC4C904C85DC01010000D70100002D00000042394135303931432D463633332D344333332D383135342D37353333393032
311
43413342452F636F72652E786D6C95914D6EC3201085AF8266EF1F4C9CDA11264AACF6045D7547CDC44189C13250F5F885DA55DB5DBB01F4F8DEC09BE1C7F7E94EDE7071DA9A0E685E02413358A5CDD841F097AC0172147CB1D6FFC080183961074906C1C7C5867993066B3C9AA41AAB7013A573E8810CF778E8C00D579C64
311
2E838F84BBE5B31C6E72C49CE62B27B8D7D3977558507A5420AA923659B9CFAAE699D607DA1C2AF6C28B440A1EB4F1ACDA1EC3E91515B1B38F9140D4BC586F2315B4DA18ADE21FF545E302E2DC9EEAB2A57DF6B4672CDBF5716968BDCB1E6AC6DAB2EA4FECFC188B44B3E0CE2FB1335B91D483BFDA57E3AF646156FF4CB63A
311
1C08FA1DAA486D16BCF89C41DCD348C407504B03041400060808004B7ADC4C11A5909B07010000B201000008000000636F72652E786D6C8D50416EC32010FC0ADA3B36603B72224C94CAC90B7AEA8D1AE2A2D860018EDADF1712576A6F3D2D9A99DD19861F3FE709DDB50FC6D90E684100693B3865ECD8C11AAFB8057414DC
311
3B177FC9005939EB0E320C828FDEADCB060DCE466D336A9DD21B2843D011D030A5470761F8D0B32CE41A9322DC8A450E3739EA82164F9DE0D1CC3FAB83D7326A058211DA62B2C3AC7DA5CD81B60756BDF1322B055F57A3362BA392BBB91AED41D4E4CCFA975D8D2F64CF70DD34177C22A7336694D17EDF928AF42D2FF3B2E0
311
21FAF4E7ED48CA195190F7ECCBCB2725F8BB73D32648A1147276FA02417899893FA1D745FD23B4B1B162DBC1E746004153A007918C7383693CEA4D33B72DBE01504B010214001400060808004B7ADC4CD4246FCCD9000000200100004F000000000000000000000000000000000042394135303931432D463633332D344333
311
332D383135342D3735333339303243413342452F4173736574446174612F446566696E6974696F6E4974657261746F7250726F706572746965732E62696E504B010214001400060808004B7ADC4C0A6F0962EC0000003002000045000000000000000000000000004601000042394135303931432D463633332D344333332D
311
383135342D3735333339303243413342452F4173736574446174612F496E7374616E636550726F706572746965732E62696E504B010214001400060808004B7ADC4C88E57597CD3F0000904100006B000000000000000000000000009502000042394135303931432D463633332D344333332D383135342D37353333393032
311
43413342452F5265736F75726365732F34393539384346412D343431462D343730462D384537442D4244333944354645383330392F7468756D626E61696C2F302F67656E657269635F706E67504B010214001400060808004B7ADC4C28BB58AF800100009E0500003D00000000000000000000000000EB4200004239413530
311
3931432D463633332D344333332D383135342D3735333339303243413342452F536368656D61732F436F6D6D6F6E536368656D612E786D6C504B010214001400060808004B7ADC4C2CCEBD668A040000E01200003E00000000000000000000000000C644000042394135303931432D463633332D344333332D383135342D37
311
35333339303243413342452F536368656D61732F47656E65726963536368656D612E786D6C504B010214001400060808004B7ADC4C6180134D5F0100006B0300004500000000000000000000000000AC49000042394135303931432D463633332D344333332D383135342D3735333339303243413342452F536368656D6173
311
2F52656E6465724D6174657269616C536368656D612E786D6C504B010214001400060808004B7ADC4CC863EAC5510000005700000047000000000000000000000000006E4B000042394135303931432D463633332D344333332D383135342D3735333339303243413342452F4173736574446174612F41737365745461626C
311
654F66436F6E74656E74732E62696E504B010214001400060808004B7ADC4CF865834058000000680000004500000000000000000000000000244C000042394135303931432D463633332D344333332D383135342D3735333339303243413342452F4173736574446174612F53747265616D56657273696F6E5461626C652E
311
696E66504B010214001400060808004B7ADC4C15BC1E4637010000A20400003600000000000000000000000000DF4C000042394135303931432D463633332D344333332D383135342D3735333339303243413342452F4173736574446174612F636E782E786D6C504B010214001400060808004B7ADC4CFBB0BB6DE7000000
311
6001000067000000000000000000000000006A4E000042394135303931432D463633332D344333332D383135342D3735333339303243413342452F5265736F75726365732F34393539384346412D343431462D343730462D384537442D4244333944354645383330392F7468756D626E61696C2F302F636E782E786D6C504B
311
010214001400060808004B7ADC4CA233C2345D000000800000006500000000000000000000000000D64F000042394135303931432D463633332D344333332D383135342D3735333339303243413342452F5265736F75726365732F34393539384346412D343431462D343730462D384537442D424433394435464538333039
311
2F7468756D626E61696C2F636E782E786D6C504B010214001400060808004B7ADC4CBE89762363000000880000005B00000000000000000000000000B650000042394135303931432D463633332D344333332D383135342D3735333339303243413342452F5265736F75726365732F34393539384346412D343431462D3437
311
30462D384537442D4244333944354645383330392F636E782E786D6C504B010214001400060808004B7ADC4C6537DA6F7E000000A300000036000000000000000000000000009251000042394135303931432D463633332D344333332D383135342D3735333339303243413342452F5265736F75726365732F636E782E786D
311
6C504B010214001400060808004B7ADC4CF816141D0B0100005503000034000000000000000000000000006452000042394135303931432D463633332D344333332D383135342D3735333339303243413342452F536368656D61732F636E782E786D6C504B010214001400060808004B7ADC4CE3603EBE7A000000C2000000
311
2C00000000000000000000000000C153000042394135303931432D463633332D344333332D383135342D3735333339303243413342452F636E782E786D6C504B010214001400060808004B7ADC4CEA24B9BF7E000000A3000000070000000000000000000000000085540000636E782E786D6C504B01021400140006080800
311
4B7ADC4CCA1DF9C9A9000000730100001300000000000000000000000000285500005B436F6E74656E745F54797065735D2E786D6C504B010214001400060808004B7ADC4C3DEE336E64000000790000001B00000000000000000000000000025600006175746F6465736B2D64657369676E2D7061636B6167652E786D6C50
311
4B010214001400060808004B7ADC4CACBBECB0F80000009601000037000000000000000000000000009F56000042394135303931432D463633332D344333332D383135342D3735333339303243413342452F4173736574446174612F636F72652E786D6C504B010214001400060808004B7ADC4C17844A92F30000008E0100
311
006800000000000000000000000000EC57000042394135303931432D463633332D344333332D383135342D3735333339303243413342452F5265736F75726365732F34393539384346412D343431462D343730462D384537442D4244333944354645383330392F7468756D626E61696C2F302F636F72652E786D6C504B0102
311
14001400060808004B7ADC4CCC75DDB2FA0000009601000066000000000000000000000000006559000042394135303931432D463633332D344333332D383135342D3735333339303243413342452F5265736F75726365732F34393539384346412D343431462D343730462D384537442D4244333944354645383330392F74
311
68756D626E61696C2F636F72652E786D6C504B010214001400060808004B7ADC4C795339D70D010000B10100005C00000000000000000000000000E35A000042394135303931432D463633332D344333332D383135342D3735333339303243413342452F5265736F75726365732F34393539384346412D343431462D343730
311
462D384537442D4244333944354645383330392F636F72652E786D6C504B010214001400060808004B7ADC4C38E78BEDFA0000009601000037000000000000000000000000006A5C000042394135303931432D463633332D344333332D383135342D3735333339303243413342452F5265736F75726365732F636F72652E78
311
6D6C504B010214001400060808004B7ADC4C0A67589FF7000000940100003500000000000000000000000000B95D000042394135303931432D463633332D344333332D383135342D3735333339303243413342452F536368656D61732F636F72652E786D6C504B010214001400060808004B7ADC4C904C85DC01010000D701
311
00002D00000000000000000000000000035F000042394135303931432D463633332D344333332D383135342D3735333339303243413342452F636F72652E786D6C504B010214001400060808004B7ADC4C11A5909B07010000B201000008000000000000000000000000004F600000636F72652E786D6C504B050600000000
311
1A001A00210B00007C6100000000
310
504B03041400060808004B7ADC4C000000000000000000000000370000006662782F37303435394244372D444545382D343544322D413236432D3133413845363839464341302F617474726962757465732E62696E504B03041400060808004B7ADC4C000000000000000000000000350000006662782F3730343539424437
310
2D444545382D343544322D413236432D3133413845363839464341302F76657274696365732E62696E504B03041400060808004B7ADC4CF270F1330600000004000000360000006662782F37303435394244372D444545382D343544322D413236432D3133413845363839464341302F747269616E676C65732E62696E6366
310
60600000504B03041400060808004B7ADC4C88E57597CD3F000090410000420000006662782F37303435394244372D444545382D343544322D413236432D3133413845363839464341302F7265736F75726365732F322F305F67656E657269632E706E67355B773CD4FF1FBF73E71C0E67EF7576C9DEF3EC995D46C6A1EC50
310
46649CBDF79E192942562825CE965D8A868C2842C8DE9FDFD1F7E7F138F7078FCF6B3F5FCFD7EBFDFEC41B196891913091804020321D6D7513FC77D8C5070EC3FFEE51B21F068154CC75D455CC028A3EA68992803810109FDDE5D5CEC5521B28A1B422BF80741695D5B529DA1C2D058AD2388BDA9F476F7C2CADC939304173
310
DBF48A452BF8A700C0C70C3D121C1AA15A5270C22E2B9E28763651F7DA0D12CE11077B2ECD0D560B5E3DE2368B1E65C5E1C87384A4CC5F2D9FB8BE39E9B77C753783A37998F5CEF1B4FEE553463245C9712270880DF339E0B882A6BA713D865F6F384C842D440934EF264F4A304F8DE4EEFA1E2BF5E2D91F5ADD9613D6E31D
310
DB33ED31DB1D7916CAF091286EA3D31B9CFECB78BB0060245B943C4C040119FF780A74DD308BA9D028678674EB5504ECF284EE814DAED07440BAF649BE4B55DA2890F4D73E2D489A59EE54FDB0A85B59F2F52C4858A02705C4815A792B0C4A996A2023ECB195073E115E3E3647F64243A8338F2000BCB58DA5692C7E7C3D41
310
3F963FEDF3CF00FBB0F831A9D51360FECA43819F527B89FA260EB63C5DA676830AA3626A3693B23F1A17A0DFFCE3EE164E31B5365EDF0C89EF64D8E38AB0BA9A1117D7C3A0EC44F44F4023095E80BA610DE336D0F99593A88BFC5306E72DF98F7FD132ED95878DF2964EA7E43071359FD83B2BDF9C6B5BDF768F0F3C0FC351
310
199526F53D9460A34511F75D1B63E488178569472C91A94497807A3FD4A390C6558F26D416365C3656DE6E769DA9D8FC73774E1709812842DD8EF96AED1960F79D21B395CDDFE6F92CB4EB962A4668C76990E2EF29798C8941D67DA50F4A5F947872460F1F6FDB794E8A29FD7AC0C0D6E0714339CE258FB17AE8535221E346
310
4A10F29A0BE5EEECEFC5675926A89F49EB14E5711894F6586DB5754EB4D5DA9C6437EBA57DB97A24F8B8A8DB295FFD73266CF57E82694DF5166DDF93573AFE9C9C5EB05F8FEF8E89E0A8917B0B3724DB7BEBB53252581EFC3E38166BA131A3A5B42FE2AD00A769BBFA4458D2DE7822F8C4F63D0B8E21B285AE13325F3410A4
310
35C648C9D91FDEB109E73CEDA7BC796961AF79175E1A3CE4C5E8B0D009B0C9E29EFD98BC8E97554E3D8D838424E270F7685226E5AC268E021EDE3522D583E8F20C0BDE2959EF5BBFEEDAB32FE9A3ED0E39F211A86AA9DEBFC68182EDED132AB8BB794442D2D7EA9F4D8BFF52BC4D55BB165124EE90A42D101E67BBBB292FFB
310
4F66DE5BF2300E44546757DA7CEF8932BFC9F92A0707953491A55C5A5ACEDABD9FA1AEA01BAC3DC5A24E22E7C47213493996EFBC369D086ED9397C9BA6C7F9855C7BD5E15BFC8C53DB3D2A4C5901A57ACD2FBDF4D1676E95338B2C2BCE65FDA4C64F5FEFDC7D9CA5AA1FCF11E193F2FDABF0F4916BF13FB916A224380E6462
310
A9815F2300DC49CC4DF8D055CEF76462F4B7A7ACA7365C2707891370BC1D0AA6203C44CCAB47084FEC057F27FFCD57F89B8B9852459798A675C66BD7CE572CAF71FF7E6D7ECF7BF62CAB7B3F1107DCD04DC55A3F9961700286141C94A4F771FEB2BCDA2DDEE0CB0BAE402FF1DB0100F8E475DFFFC074DDB4498AB7D186A765
310
4DDB1CB680D703D47CEB4E72F8CB13D86A4AA68116E26387B93FD6738779B34FEDB8E517EDF2BAF28D9BE93A1D3A164320E07D42E514725C29515FF361754213EDE06B079A2E99EB1CA82A02019EADEEB87B9AF005BD04BBCECB14AACD6B24EFBE482194A97DD32400685FF1FEF1544D1B14EFB1E7F08E6D2CD2AF52DE757F
310
35F5E62332EE88EA26417AD5C3E0E319D68F25414E6D672BD4522B278C57D18F0113921C71D96527E091F00CEB15AE23D24667369BD3CEFA10C7549D930890BA4366F4EBC55F01F746109F98ABCDD5A3EE06619C6AD78AB33E48E4C9BD21BF7478B385EC05C4F8987E2C1BFA0A60EBEDAA0AE0B015C2720ECE180FB6F2DEFB
310
EB822D96338C9B63822183BBF52FB664A7AE57003AABCE512BF77E7E31BDA2E739AC4C131657DDFE5225E900FB56CC01CDE808FA4A9C9DA16AC679656BB64796283D89812B8F91136AE18EE5EBBAF47A73BE3C153EB5D4CD491B4BFB4FE690A4CF9ABA08C0D8AA64220C438C96EA6CA80B58FE5761E697B3A292EB9FBDA502
310
FA863E49FE694ADDFFF9D62C520BDD1A22014147A0903A05B9B729F54272EF83931FEEC057BFF8C8055C279EAC5C0011804828734024F6CFA319C9CC6867C727184465CD9BB7ED386AFFD96B294A85E3802FAE47244602D8273615952B98C4F23F7EAE4463D9D638EEE374A20959E0FE519C4CFB0FBFE5DD80C2AA3F9DB961
310
D1BDE57E67C9BB47B77FDD74EE3094F5DBBE3EBC1FBDB7393F5116263009E2EFE1AF9A221B2AE234C902BF70E9F280ED23E73908361565964333A3F01D0B006AF32FB21AA1316744B489D5A198E85299241735BE559675130955C902A8ED761FC0DBE337A9F91919AF5CE32AF902ADF9AB2615E00E8A94586BA1A90839B618
310
32FF1BFB76D2EFADE6DB1BA04CCAD3DA649E7E2A0219F592E22F2AD54847EEA8E42271011E9074F8F3DD9FBA6CDF88FFC9FC7E811AD1CA8F4557CE4AFC7BBEDCF0114A48689F20A584520C74DA8127124B767E2FB91A6B186246727BE63C9445BAE02088D58B8EFDC0F1072407CD9B89A13F6303B4A928F593AD489B58E686
310
9325790ADC406036C591729FE14021F94B7796BB11848D463536A092A26F077F94639F7CEEE2A724C66EC885F4A24F8B8A0AC321F8FD149BA529460FAA34E4663C02D41FDF80BCA222D42F0ABFF8490F4FA74C673807C2051D8E467B47B616072860069A9A303ABA9B319D58404461401B0A0F9BE5E1E151C14BC33B32ABE0
310
3DDE91708DFAEB15E7C0D593C86BB7D7EC17BE56E57975F077BFD5525F3A1A361D584A75E08CF29FC7B44B2B3085014F3A5A14517377C3F6B8F37E59514C3B12F8AACDEDDA4DFC49BE5710101534CD6FB6DE15B50F11A09472AABA727F0C49D9CB906B158030065F48EB3625E010CEC1D511D0053474B11E6A4F01C0D6EF1B
310
ED3A944FDEC70E0DDCDC756C86545910E0DAE3BE3AA9A404574C2995CD5CAF9549226BC94B4F4F0F5F9086F418F6B32346464610D8BC7391D3C3A3CCF04CFC1FB2A3A3170E369511868F14EEA4E5E438CC73DB1F3248AA94B6B2FF33B222FF3D1E7BF146CAD229770158063BCE4F5391964DF62F7E52A7BE0EEA829C9E13C4
310
C147D6F93FE59E111DAB5E4594D6F3CD1AD375EE039930EFE5AF2BB2D41C83C7DABD8C659BAFBE8FAB392CA634F3D15C1D945DB4588D2B0824A4EC928AAC565557CA2F0DAA588CA5BE30B3A8004F7BF005E96CBF891D7F18112A3619FDF530DC8AA64954258E1811789B5189B49B4EB53F5F89F7D37523894F3EB57B373763
310
C91E502F52CC99EB7BDDF933FC324C4FFC2561DFFA7339FAFDD0A4BFBE6D3A8FF9ED1FC49898139864602458968913181918F719CCF5A68B2EE9C1FF050E34E63107003B8120FA982C21B30A874E4F5E4B38D5A8290C4B8D9BE48A0BE31EA995BDC37AC6DE90BA17D259DEF53605D55922FEB1855D915B659FBEB350EE0DFB
310
2F9F766E1C84CC8964B75D08667445EAB966015F63A18A9E0A325C1B3DC628C0D3CB60F767FA93CC65F25458BD23C3B312716E5F40E5858AC06EBA9AB14F95DB99147B832069201541D09A0D856E12C629CF32683760EE855537D1901988D5EBC156676C7DD51D7207CF3267AF1D76C2AD867315E44618015313A98B19941C
310
696FED3461CAA9B5415F918556D7802EDACEFD6B2E45853A9735DFC9DBF7E440F9319F8B6805A973BCCDC76C069A9144E51F187EDCC12FC31B5DEAAF0A76137199B106EC84ADA6B6EE697D4E6A96E007417F4E880E8B1E89B4BCE9D81EF611E2ED8F0C1A6C25F620FAFAAB656A7C42D464880E8AFAB0E0FC8EA38CA9A8AEEA
310
EE3E4648BA4680270A89743CDD3E6C6CBF34B7B640EFA285ABC7EA0A1E28F3CC963D114A80123EE66D0AF7D5380EB41909B605AB4765B709B808590458157E69BA1378FEC4B48CAF6A730E3BE3C5EF2DD1A5EAF94B1DDE50CEB55DDFD7EE9A16747FA4B223359FB1FCC69E1194892BABB93A1D5C4E807AC0EA2E30180811E7
310
7A2291F6E7F7FAA5E0F60215BC6024E48DE436C511F0628B8CA189982D4D83CCA17D305A7E923C37941CFDFDCD93ACAF735EF5F0E61BBD3E6C41A59B242790D3A3BAC7064DCD89AA2E37214EC839820949D5CAA31E240D2948E48F690298974A96BA9A8432BC90F5071D6537C9666EA4564796B7AFFFA548077BEEA75F6308
310
3435074BA182F3699557397F71548383FDA8CA34D99B981E72835ECDA5DDDC151315173D05A21F651AAF8524E88209E2E7A737ED1045800CE3390050BCFB8BE588DF111617874C62575039CA588EEFDEFEFE319B739DE2EDC147092A262611E159650E787917885EF08F1F51B8F2D8A71D60B58B190FEF9541A1BE94BC19FE
310
A50784DA1419FE4B0FB51B8D36B5FF8E1286FD8AF42B91E59A5F1CC4D60174E764045FD8C57B18209B217F89A62252BD20BE0E63E12B8E8F029FE19E0E8D0870F58721A557082250D5424F7909369376E41666C0EE77CD87CB283F661D5FB6D0DA023CB67320A20DC7BE661E9E1BFE5463085C557DA1FF9BE835733766C3D1
310
39F2CF9E2208873AD0EB4814DE9E6BF2CAF81614D4D43906ED1C05A3265CABBFE192770FC2F64F940CB6B17B5F166F133C9AEEAD2641807C3E69515171DD74C4A85311513D6EC9530B3B601B6BA3EBFF3B5C3D2F7D69765141E345F75433953D013ADDF8F6AA7DC3F4A7563FE5C7D367937E2900D7EAD0F9FC9A4A1A9B5BDF
310
1FEF08532660C01C5D6DE22199AA774383E306DAB87E301ABB7D213887F9869D4942D0D71E94B27EDF216A318BD488D45DF84529EF575AF3C3938C0AAA0215B01994153E2054A0B894DA5C784980633AAD48576957CF4AEAEAFADC7C587368551C73DBE1E57C58AC713303A8BFC258BD04B51724459FF9E24C03A81E0E0679
310
CEB9B348C0DC998FEB9C6D6EFA77D247CC8F92D3848599ED89A23218D0636465AD1CEEB7DC140D7426F83491C4E8E8281C2FB35240918FFECE880CA2A42D70E8B20B34DF5221C7DB0CF90ECCB9C745B37A47E9B716FF7A97B7A252C1F3814DC7B1E1A7F72B8751D524EF7CAE45B0C73B3BE7D08ED39781B380DDFC9AA4A474
310
9C9493DB5BAD07A6EA6C092FBD0E85DB004DF06B8C9D3089C5320187E4CE1846158C7EA7DDAE8AD9AFFF21AA3A1026BB06A259845E8232DEE62811A4DA9CEAB3A4887320B76E2AE5615EAB7BDF738CBDD01F1E64064BC13D9EC53576751CA8CACD58B3CEB0E6CA585BD089B2A59B9FC101403387AADBDBE70586B93D64BF3A
310
D4453EF9C3B6A93817E8346991798601344F79A83C51F3D50F7BF2683A3605F51A72449489E0EE6169C749C60B1035651103AEE24D24E51A759C840DD3FC6504DA6FE107510E447B43461C79D22970B75DE5E1BD3007D1AFC619A4A4A69B5626AF5E9B8374E20677F77E2F8E73DF868E8BEC7EBA7B6A75EEF7205E1AB9486C
310
B642741D6E03FF13FCCEDB1C4AC129886268B01CDF4B124AF797CF784F3C6DEC97A17D4B558070A0F1C04DA4FF9BDBF34159AEFE958479824B3F58EBD1E19088A2AFDE501B6F2052368A3FD0E650A179EFAB1561E1D27527077136E652676C3670F42DCB3352F48F6BC86D2C3B0051727E41A0A4DC6CE2BE9D47F5CAA2935A
310
3C0539AF080665997194ABECD723B08129CC5B6B21D2E7D54CD4D12610E7E9FB8306771A89576C7A982002775ED44F3F744CF21EEBB27A631671D921938AAEE3EB0D19CD1E083727F607823E817BF599DCED5394E37EEBC2E88782E638920CA641EF74D4CDFCDEF06F4278ECB18E31E7E9876F2D783C8BF429C75395F57E98
310
C2B495A3DA077EB3AC3C158608B6B57FE3EA48484D9A480096FCEE0DE880950E7E5A5714131C5C41AAA29FD19AE81AC145FA1B9E85C7169A5AB837B213493DF7E9AA4B5FBF9CDEB36EBD21EF1181B7CF7366AB2A951D01E37AF4EB835D1BE8C117CFBE7625D2EBCDB0B20C5A4B45CED0BCDE3EE8DA9DA78C2E21DEAAFFD119
310
7E463C33CC6A80FB785669B856EFF7A8CCCA2841B5A5369173320B1170C368B2748D81062EA0296E5E2D95D7667A4A46D98A6FF475C76AAB0A8C8D45E226FAFC9FE0133EA9F60111F99CA81ACE03A1D14C89E8B0D69079C91464FA1D99E651D0EAF606F345C42A8A1AA9BA391031582B96D5B4176A77AADB01F12FD298A75D
310
EEBB2C82F0B8650E880722F8DDD90C56A7A058E5FDEF1AC93545BA27367C76F5D8F9690CB6F8DAE141EDD7971F0FB548A2AE435F224D6E5954CA155512F7332029D5A1230854B79F258EC5FFDB09F5F6343A8EB193229B7F7E79B3E48F8E183860B38C8269D1B53738FF1E0BACF6AADA6D4869E9DE708E79B5DADCC09B1BC7
310
6F649731CFAF59A83FD8BAE4C749D66FA87A3810D4D62FFE826FA400C0F325D2BC0F3CA35F5847B82A2ACC7961745C823E4D863D54460AF792CE6F79B5C7A33B25C3AEA6CDE15A919B6367D781E9D44F61BF828672594A3E1D9EDD6DF179A81F27EAC05B936575D73E05C209DDD2115CFB705DF9BBF3C911589B3640735E9E
310
618FC9C36A7326C82B2205E244C55D56FDB9D5DC93CE958D4BF8174D2B3DA54CB3C09F2C2A6DFF73D23B2197355761AD421EC581284A7EF8DE2CE3497C0C804D49B41DFD6A7360844E5BEFFB495CFCDB97A4595911CDBA623274CE852B5E278AF0BEB1770E9D37CD977B2766A7DED0E94B840E1E95E8C77DE5CB6354AF7871
310
427C28ADBEEF7BA0A28E19DE9ACD75F379FE373EAE6DDDAE3834692F9C2B03B4FCA8FCA9ABE8EEEBEBB725B88A7C90941E850682CA04061A7DF0CE82ED49BFAFFD42C309818FAE14755CAAE78B0F73243ECCCAD7DF58FCB9CDFAE7A4D3E6671A613639130D056C8383C8F4FCF4808C331E544DD26E4755D09EA05253B3049A
310
1E32587CC25D72E073E2CD96D04A71BBCB0038FEC3F53D254199C3CDC67CD66640269431860225392B2CB3ECD0B4498AAE78BA1994246AE1EE78F2EDFB79F6C6CB6B5E279C4D373FBC21CB2698C9ACBBEB6A4BB6B39E16AB0E421CCBFC7654D81ED86022F9BB522146F9F4772E2D0E4FA70120C95A85A417BF5078B232F475
310
4363EB1750B2AC2148EB46B1EA72AD9B4D23ADCBC589D70106C3EC2ABEEED84DFE28E718C6C83502C28E9FDD3B09DA0A6F6F7B72B706A31C9E2A331EE70DA56A083D2177BFD63C55B11D8D949FAFCF90B23A1E24B9B5018B9A17E99F2890EC302F330FE7936E2C23F0D237EC8916F5166AB84B62A21BB0B950146962D754F9
310
2CC2C8877BED8FC7B7B25726DD19545392570B3A2C66B58F027BEF412E552D12A588C4A3CC5C3193FCB3485EFFF700D0B9EEC077754A33DC1FB9E25AF814628F91DDFECB667D3F7690803F38D13F8AE39353523BB08FC6760144AFA2CE28236F65EDBB3D5F59A57D612B99E3D7E5F8A851666BF9B5A6658EFC96EEB37A378A
310
BB0EB3FDDF1303AF32C41BD1C8560745D7BD81066B0D6313359CF488563D3BA3F8E2185D1FAA3EBA1397C9D0E3DD232180A4DCADB6AF25DB3AC3CC26589C8239E66E81547BC7E2F328F9884764CA37EB5DBE390DFC03A5246B456A7C3684C4377D0EEF9A350680FA9A077E8B2957B489E09AB1AD41316944C2254B5984830F
310
691C93CAA767EECF976FA5647538830B5E63236A6F0365C1E0F3E327F24FE35EDDBD7360B0F7374837409F7A6311BECC12B7026D4FA1AE204FA3F5FE904B1F420C7A9044AE58E403E7C4848E7DA25DC9EDAC79DD756FAA26B9EA83ACE8A214A2612A22AFA19DAE7DBAC5F8CDE1292A485F98DAC731A29FE01A3966E96BCB9F
310
B5A4C8830E1B9AF0C54B87FBE221A097036E5D28D1F869F810C06A9BB0AC0612F69AEBAF893C6E7AD59460208BAB3A6B09CA4F6BDDAB8CF0D1F84B72487498395A70DCD754796E271099A567A55CF242BBED64696378BB6CF25EF0FCDB589F3A82F1116D010A9AB9FA4358809EE0C973A2B4229BAA876A70B03AB49CBA7FBE
310
71DB1832FFD32F9BF2C8E98075CACAFB36921235D0F552B6A67E94E094097A5D7DF681B40623DA535ADA7A9AD8E9A62407D7C9A5AE51D62A17A83A23728DE86BB56115804D3F2675F2C6B87541A0FC497BF0CA86420F558C9859EBE9FAD62747E323E3AADC03FDCDDFE7407B09DA90B44E3185723C5381EAEF589765E2F7A0
310
99BA46695BAD60CEF3491B8A171F5F56444F7CE9455312C3498C74173AEA0214EC029833B34B650CBB5A5508D5091665309642791708ECF27CF11DB3D797D6CFE474453BD4BFADB768094B2147814D81C7CBAF8228DCAF5564B5891F5EF6A860EB2E323CB82AB868D8EA048880D63B0DE5341F1B3D53297B928A11E15F25E5
310
148990F710747C3509ED14909C552EBE3973246FCE55D00564D8310BC3EBC5085D08D806799B77D6C57FDF5E55837F9E934F09C03C729271B64F12D0A9F9E938107CAF7BF1EC8CF1BB9B42363D33070F4CACB425E605DDB0A34A12BB936DE286B9887A4E2E558F0886498BFF49C311D96C277CF6A9FC0D75AD0ECC5226D7E0
310
E3572012E56D7FDE4410CEC7A6D0F997F225A2055B8B92E3956E875AE4993CB3D4C9063AF98FD45E1BAB165640A43439A2C9181A7C355B297C0A0CCFFAE19B6FA3C2BA238A885FBC98B8F6DAF4B94B97304878DF4D8BFF6A4AEDF79E90ED4E68F00CD7299F4E0D83E35601AF0CBEF18C1E870E74758FA91F5131075004DB3C
310
FCF09AE1DABC11957FD9808C92E8A678CE9DBE40DDA0E0D1D505AAFBCBA208232BFB6FB3704E8985E61ADE53DE74152F5C7DE74B1DEDCD37DC3E8FB30D7EBA8B9EFFC3606BF90B8D438279CB7709FC7C00D327F41817EEA71CD9E49FE9C8C9A81C70915D9F0F15958EC5AA4C3BBFAF46986B90F188BDB24B89DE3C6F29EC3E
310
6F66D84856EE96A35E657CA41B41EFD8DBFA16AD6E91439EA92B40B21C053249F51AE50EB0B24C770FFAF40DF12C8436366819C48E36547D4E7B72FE2BBF10828583057814A668BDF183F6B2E58DFB151103E56303E63D00F39C27C4661605DB644D19175D02E3F0241E8FC3458D17AAAADB117CE9EEA690D0DB01E634878C
310
04C2C9310B69FCAB831151E3AD293BEF6E46B0ABCECB50F5939B39C613D41E81FAE8D34CAE3C4566B761D37185FE864AC32FCB71AEF39DAA5BAB88609BB980CD2F07A8F941653B529567726E2B2A58D079DD57E1E5E31426CF184A04D7B03B985F276D47406AF276FE32E3328BA866EB1FD39BEF57863A317634AA5FE46740
310
9B3873F5069EF0D71AF00AD189D17BA1974ECDB2D623E9E14086386A6AAB5807825C37B015BFE892AFD154920EC437EB945D958E18622E1E0FE2FA06557CE4BB9BBD05A2D40E774DA2B65473791E314B7D6C886820B2FCFE4AA272B3B8B15E7344A145E8AF919B5454D89D36D413E87211186BF6F645E5EC94DCCE8E1C7990
310
22E4EC9BC86D7A0F2AFB1FC4B2CE48F84B3F49ECE65BAD24CADCC07EFF39AB06BE9E6B27A059938EA7208838455383DDBCFCD967DDE4650EF92A14FF933C975DB20BD7FEEBC4487576485963D757D16340D9599FEB362F775F38CA4185A86F74B629C81B133644A3B18FD056E997E0734F9BE26D11C0AAFC669E2AC9FC41D2
310
81F8B2E1C35AE27BCE05F3DA295488096688719D974DF1B5D182DB7792288697F8763CFB43562C1CDEE11C4AABD5C22B6E33F6F389CFC3477C5919DC0D533F8A7A1846B7ADB60ABDC26C43D0CFC8910B7C15EE22675BD02702ED39DB77A87A192CA7A543E6205B979B9F5A6B512A3CA799E198B2D5797C0AF8D1D872CA455D
310
4D431A7879D4DD76110B5FF7F4176B54477A9EB5E4A5D11214FDA585F0382751D8E2582BA5D2075053298FEB8F1537304E32CB22C2E2B693DC0A760B1DFCA751BDC445AFDCBB12820ED85F6D5298933C7EF1211E9E057684056CDA3FEF3BB6052355E162DF27C59E965A8DDB7F9437EB72CDDA3A090DE65A5B2F50326247B7
310
EC67B73ACC7047FC9B353D6EE990F772207C6EC52B39DC2F3C0754821DAB559F7C1809C7D0DD5B0499D0442E0A6E391B3D5DB46D11E731E6794EC77523FBDAA242ED67F9FA1FB684255671F63C9BCFE6E7E896D51001A6113EF2298BA494E0B0980D1FA5B9D60796554C02256B1E0345FB7C6186B6A19D2DCA270416262845
310
FA4F42DB5D9B0A0B6F07FCA2E56C242522E001E0CEB734AF310FC8BFB57E38E03AACE93B3326A2197891E68452B26A6307FDABFEE0223D3C03C3C73D2D5BC054C8311F12004CAE488E5C29287F8156A2CAA4AD0D7BE6B97264E4139F437CE73ADF52E5134C52B819777C18B323A5924E4F67AFD13B1CDC3A61793A79FAF5C0
310
CEB718E441071E797C6DCCB9EFCF7E4A1E9F3DF3C2F9C9E8294E9586868788C972857FB0556D7A26941A7EEB9B580AD78EC40B85DC906B4120A563CA3B87797ED612D3B035962BB75F6515A393F4CB057F564CDF54F2E5A024514E6A1F901DB80C7E70B1FC05E356A7E72FABF4775B3E3FB8F70A2A8E7B6A94542BB3041579
310
78CCC999E707A29CC795E67A59CC546A5D47B368954CA7B6E75EC9E1F6FC73CE3B4F71F8CB1A6B15923D61EAAEB14626AAA9D04A26EB9C66CD1BE86CA31A5D8703DE04CD1EBCE4F5CCB62F93909AD11E55799A781A956ED27D3E738F4538CB04ADABC7DAEF20BC35BA6A90BCC1DC61BA05F20D8832FFB9BC9B15E2DB838A0A
310
FBB7E0C82A562127E0446894F427794C3037186F622BF24DE1B00AA10A23BFA47B2A180D6DA5AD6F7326FEB8C100C2D7142EB2A0B2A9D1008A09BA343D70E054AB69E2A7EDB783CBD92537FAF4A44D1296AC2792729104B3276C276C951D0CF3CF3F1E6B017720A7B8505A5FF9589365979678C36F1BAF759EAF57C60F1FF5
310
FE9DCF5F8E764FF25A2D06CF25117A8FED51884C13B2B750DB0E4F5E3D64124FCF11F0AD8F1CC3B3DA4B38ED22BF1CB2585EE6BFEBBA63FBFD44F9537B9B37BDD6B358720F98A8125AED4349CCFEB0E135F19E208A04CA7E2B10711185D72E381F448036EF57C9F874E54A971CA37A639E986AC0226DC5AA00D5B14FEA9192
310
234B3DE617814FC221C92F33F1D392F297731B567FD98FD91D989379AF567A65B8ADF177591DB90FBEA99BF4ED11B16E50A0AB1DBF1156D034BBE04D69D08F939D8E92BF525A1DDAFF80ECBC95D8F45D3FDD289FD23F7D8B452F8EBB34EC082DEEE68E18EDDF072060FAD2AB1504DD4879BF67099FC58F6E9DEFBF645D1633
310
4A3E9A127C6F1AF6132CF287E433B43A0EE93812B4AA0B194E03EE3FF91EF9C6ED0074A2F6EB18A96A7C9890B1FCDA1F2095E944DB911ED54C60DF16FB74C8CE9BDC7C54C4F14078CF73C2FFF1F1BBCCD7CF64F71407EA1683DBC410D226627F66E509060D5C0AFD611DE681D509DB8DD12FB1265B03C6F5C55FF4C30BD941
310
87FF692B4F152982502F193098A789526A038AB529A52BC0DC4FB6285CBAC10A8B8DB75DCD9BDABBB221E27D1F8DA9F5EE5926A1C8AA9BA9BC09239C6A7F12914EA3B59EFF7AAEC3FFCCE56F1C5C2980AD072793527565E774F4631DB178CEEC691B1F367BEA0CF2907E1D6B854D527065979DDEF002D8B2ACEA7CE21AE297
310
737EDE1D45B31233B73FEA35BCFDD0B09721FDBAF6432681F2FD10C3E9EFB246FD6E854B344ACC9D8A0EEF876A7314B49B6A499FC650B099D650DBFEC7638ADFD245E2B7839DA5AC5F7D5623FC0ECEEC8653FC9B2BDD1AD4D00A566FBA7186DD3C9CD26512551637498CADB950FEC71ADB9A5524285DE328B8EC7EC75D2345
310
AEC6A27C42AF6D9B92155315C80DBFCABBB7DA0FAE425C4FB896B15C9BFAC4FE67DF5A23D30C93DA4D8F36FB15D100050DA6062E22AEC5F4DAC4F6FEEF97AE05DE63C6D38F9E068A20BC5E3B6BCD75320C5090924E7F93640A7735B1A43451C2D91EE62C6238B797349E59890AF3A520DF4A87095F3ABEC2E61F0593416CE4
310
6CDCBE0E00E2523FCCD04408588B5B6C9DB6459C786CE378770B54F51DA3A5E1DF2A3349BEAAC234A6CF8993B598B3B25B4B113E353A4D750FA7534749430F3EBF2512E7EA3FD43C6AB9A1F765A58463B306721A15D224FAFE8C6F5E3432D57EE697DA0DD5A9D4866A8BCCAAA9DFF1F06047851408FEC060471D0E3EB86BFA
310
F46E4B5E60311DC3E3CEA147C75CF971BE74689507154FF2D2E92F15CDB2B9182B11459FD8ACAC5A85F174BC94A7F4EE4C4F5CAFA7C02E37BF0BC77B7DCD0C047BC316F562A01A441AFA7931CC84A28CB9F4AA367EB515778F29BFE61195FA671F4352E5E46E3A64773F1F76EE5EB36D7BCE9BCEAD837A4D77F8DB8C92AEEF
310
6711920D7C7D0F76B0FD0EB7AB83724CD35BCA7D36DDDF5FBB7FF6F04A91F3E2BB3B8F1A43CD659639507FF6331C5F697BCC782AE57D757A27D97F1AB9E0AEDB43F92F1B2AACDF5FEC8ADBAF9F814E2027003BA2F9E144B1938A7A04050AE5D953B82C45619165C813A10E76DD6906B3C16438064D14CDA713AEC420034613
310
E1AC7241904A49FBF87409AFB1FCB9B72FE7933A87D8FBEDACECE4EDCF6A4FE9FB94D5DEB74FAB7CFEAE17EE965DF980DCCA2D04134994F9A2E94D2265DA4FE6AA7B7AC15FACAC2B5ABBCD7DFF542C5314FDAB2E1B9D8B65220B8E2B638BE008E8DCA22678C820C5053664D15E89F2D735B51A84955E81A443545E9FF787BE
310
0FA700A76D136C27DA179A7C6E8939E01BE756E19CB292798063D8B97F44E8A27BCF3A614FEB8BE974A718E86F7EC99B53CA35FA24F61F2B07266684623A3D4CF073E511F3A10A8FDAFAF0078C577F4DF9D339FE7862E5FA47CF4344209E5BF76D783B1B48E152AD281B15FCB934DCDA49CEC5706B1EE8B460F435324A5CAD
310
154725E21AB8044B75A557A79F6C807B9340AA3D92503E866F4274412926C8C504E4D5EF8C0E68DD0B028781A6B4054F11CF18941F101C57CCC796773ABC8DED9CD91FE5788806C05E548895354AEAC96546D55B0E94A59F148D061F42AA398D822CDECA4CDE79E13469BDCC44FDC990F366BA5978C15F97ED80CBFD73B0CD
310
9B8B83A4F6845BDFBFAF034019473FB9A63BD55D3A4A7284757071574029A4D016DCCBE95DD679EF3C4880BF169422F8C89B68A988D2B13793CAED4F74DE7486C72DC94DF46B8E93D8E02EFCB1FF9B3BA10C8AE7F653DF94F4AF466CDDCEF5776687F7C4C14B63E4EED1719DC2EC482D7DBCC7AE518CDE3D5FF86D39000EC3
310
673C0044E1D308BF05F74D1B5F033A7D1BE7F74BC55BBE3E4A20F920946CA0271EB17BD2B80E5660ACB8A29A79F5E4BBA49D4D945B6EEF4A7EFEAA65E5555BBB57A7E15D2F83C69F30BBB978D2B39F1F26FC097424D39BB33CA3D87ABF64E307938B685BAD44F71556A30B7E712CA4FE600613C3E554B69ADE949A7CFE214D
310
F1FFF05CB82151EC6FC31950239F94CF7AD39DC473F6EA356E5EC2C4EFA04383CEFE985A127484366FBEE3C0EC4FEA363E4F6632AE781392FD45D67B63FB8DF70E82734F431FD3443172A0E30A83D60982D55FA6A2CF86DBA8382502ACC6CDEF3B907982EED1160E14863FA242F9757347E1544275CCDCF71ECD5F8621CBEA
310
326B8BA884AD7F825781923E66971F04010D574C541D8427A438A37EEF8AF88240EED7362C953F5A81DE2D56109CDE2524EA0F5D2F87308C0C47BD97AD605878AB8589E17CA83930CB5E0DCCD75853D68B1AB136594926DE426C367428E9334AFAFF90ECE221BB5DC9E5BB53D2CDEF954EAA9CD814F0E5725F1965DD458E5F
310
8487683AD86B9D0076BE3EE91EB1CECC5331A67A3F79D8B27587C12EC2A6A70474749F27B4C0BBAFB94B34189E88DC18964BE4121B9137FD516C7755356E50D6714E31ACD222621EBBCD1CFF81D87479056A9DA0E0B8EA19D24CF937DA89F78E8650CCBDC110AAB6C4E46DCBFD0446BA9E2060E81F314AC2031E88135E5476
310
AC0160EF5C0DD2EEF1B8B5CB2D198BE9A554A9093B5F7D7E4B5407DDFCA1D9C152FD97F55BFFFDFE802954DFEC8995B983E28AC92F1971E28F531DC407A1280EB125F64A72E617EFB27DFBCEDCDA2D6F2BDADA36873EE46B9BE1782998C63DA7182BC383FB6FD15DA472B175D7E8B4FC88F38D6E07FEAA3FA3CBB8F6B449EC
310
F14D2175E5C5CCA3A42ABF24CA6C9395AF74535F4DDB38CB84F56614B0FD32D7E19CA5CF988DB4449C40E23DF2B16772594554579094450F56F253CD25EA7F77366FB1CFE79696C428BB64D5A41E986189427E5E4D7E2DAE3D5BB4972B3DC44EAABDDDD63A2264ECFA5C786EB0EE1FDC5BE34FA0F08376869FD1E61EA06CAE
310
15191135445EE8F0394161C3266A596AA035572BB0C8876180D8B9C77D307DF9DCDF7365ABDA6F3A2366436457A4DFC1F259666569A9E4A79C817BDD5610E5200FCE894A358EC72858D50EF67545DA81C6FACE3D457BAF70367E1E6BDD9A952FB4F56247F58F523B97E640246051A72F79BE42FFA0B3187F63097F91C48B86
310
8586F714B0EBD5A00A8412C1236E1298F60C72BE6C96B82B404CADAA304AE9F303176B14BA53FBC2D5E86377E35542019E24D97B96A49B2C0E5006E7795954DEAF5DA58958839043C6C70BD3B1B33B6DC5C31316D8A6923F142E26F6711A2258AF977DDF1F970ECC4F1F2B434B96D81BEB6E89BF3BBB3C7C8CC80505070723
310
D6D7D7D3C8CA27CA164A26024FED94B12A86031867241DA53D929636DA600F050BC40CE48B8BA03D69224720DEE2ED2127390BDF5E6EA64527BBD4C4C63FA76BB801FEEC0E61218EC98A8A86CD8313781617877E66692839B9468CF4DB8E50A73986E558E309C0D6F676F921BE02F1185454DC75B111572FF9D27D85EA14C0
310
5AD7271225B391C4275659CA4A43759D0BA44639BE4C30A84DB7F67A41399FB95CBF923B1B1672ABC807C1590557FB18D811983FA97F5E609516D62281D38B1281F68FC75528C35E4CD7DF0F7DBB5E5DD69C414EBEA2F4A5B241B996BA77AE6C772E367408C633EA3E438B68563EA8BE7667F3A4C4FDEEA52ABD78A2820F44
310
3B7914A15F180018D231E64519C56A12F6CA7C8DAE18F06F6B769DBF92329EF6A5D18FBCE600F36BD8E8198DE5CDAA96181F3A756EBA5501CEE58F497EA4F418A2B82565B9BCC611713C0B708CCA1F398B78C5F7D03B3437CC18F13061F55C7BEDADD5ACB1DB0E36D3CE47FF6EA1A563A57E9649EA5D14D1A50EAA45746338
310
1C073777EF1600607BAF6428A7DDC079D47A204EF1E1F1F0589FB054D45E02CE623B3823C317C601E589E22B1E88B448524B86A82828E32345EC18AE17214B42F8C41C6D428016D9BA31DDCB47572561E5A402E5BA4FCE55F78AF7268524AA04130F3A20BA5D1E9F9948EA48FC8F5314FDB35E21898198060034ACE5E3E2BB
310
CA34092518F275190AF65F45867FF0900AA4B81F25427414C372BF51DC29AA855C5428EE1EEDD6B849AD60F6E73475C2D2523F8A2772C840A478DED18A8C5C91B085F255DC4F54EA7AA8947354FD17ECF8FB3B4A0DE7B483CAF3A1165EE05BBA413E5C1FEF3DE1D6B8F2F3F3251C17D9FCAB48A9AAF63AC773A0E413BBC46A
310
9ADF84A566FC920E4D8C52C9769EE3301CADEEEDD92B312E02E2A7E35B7F1E7D203FE5A7D75578B06E99D0E46FFADB8FDA17ED8880390DA29094202D6F645F76F6F96409CDA05495A96E84B04A00D1A6C6C81D7F3DE9376E828CCF144EE50E364ACCE7237EA0BFB5607ED1AC3CFE73794E5B61739D14DF1743441B1AC98F00
310
ECEDE9E7301FA29755FBEFA68C91EF2B314CF510537EF1ABFC9A762496280B546F5EDAAF8A5B387D469FC9A878A92828C88608453ACEC6094DCA54111E7AD5B2663DFE2DD151B7F123B9F4FEF8EE36AB125FD7AD52A59B1B765B3E3F73E3F73DEA93875004D2AFFE3CDE9493B87A9904DD052028949041A91DC0E1BA47BA71
310
4343FD5B25E0A6A09503AFC17C790058A836A324FE31D7893512E28230332F153181C1E018E1124EBE1BA262AA428A518237D1EA7275E48C5C561BD19ED6912EDD8367DA0F31E40EEAE9683DA9257525AEA7B632B97119E17145A90231768A4F3B9120FF32E8319B015E3CBE26F1A754177D8185345817C096B0CE443A955D
310
13AC15E1FB5DEEA0239EC32A3C92241A237B0B02FFCB4F93CF2B02570C8D192E2F2A68CEEB42F12E6F8CEEFF46C251E22B4341C56FB08CCE550E7A9D6F4D6564B9EA52A83D5BF2C6E03FA19D2775E15A8A7ACF30A13C259EE7F5EF2AC3BA354F1500E1A07FC63FB4686E2F12EC69719F9ECF5FE3F35598DF2CE944008CE78F
310
0911BA5BE5D0A34E0098FF038669C26030BA9B300303039852A8F6F496341737CA7E0D2E3AAA36DE0A70AA7D9CA0D54D9AD84B18A44C9E625475E1C97B93BEBB38DCE7D227E67A2D00F531436136355F243D1FC0D712C5765754FA22FCFFAE97919161F46D6E61ACB37D83777B385889770B50765B127768443A5C4D3A4E35
310
A3151111F146B7CA116F918A049F1C272F2CD7976C69A0068773451659A97E0F4A08FE604C3FF6CE7385DB19F4D3ABC8A0D80DA8A42096AC377DB49382B36E270B6FA7570188B4B7D1DDDDA82ACA487CCA5D38BD3BD039ADBAFA4ACFF27809239B722081E2EB9F145320553D183F28471C388BC8814E5045676767AB58A8E7
310
2D1CED2CA731379515D2E533E4CF0B39DFC625F97AC4836831A4DE330E87A8126FA17EBE583D614E71E22A8DBF2825599743E0640037303E8E1B1E8EA4E1ABFA4F62907B5E4E0E5DCFDAB417C36C6848A2B8D15F1E505434C0707E16B1CFC2A1C36A42BBF55734F8F4301DDC2A5110CEE8C0747F69519265012A2174BF4E95
310
5ECD4FDE095A3ABC70536B7AD0B9D7892F81287D667C108703C9B66A221E9A0929D030008F77FF6F5D2108EF5706FC87A3069B976F7C9FC3239D13D283CDEA83597461079FEEE049B0F392889898B7D87D31F8D60ED7B56B91823A8E4EDDB36C6172ECEE42BD42B12CD67994FA0F0DFAE9389356F4CD4425A4B8AA55CBF7EC
310
D585C6A2C2316791E43D5C06841ADBB226A87FD61515FFBB0167B74E56BD7F3E90A57A97FEDCBDF483A0D6699A8C0849CAEB4947FAA90D8E332D9DEBD9F4738C37DA0CAF9CF3DAA68BCB67C420459C7A64498D6E848E5CADE92BB6901F607AA331104A67F7CD650EE169B1DAE94D2C31C2F993632259B6957E246EFE4C5481
310
107B07118607700040E5812A2A2A38DA0076875258C753F60E0F2662C748EDD5F3F3686B8FC3BD6FE631ECCAA1E8B1C1E565AD117E54893E79F4672E32F9E46B2A183DFDCF3EECB4D4D077DBEA0DA254D256045109670050129E9B9B1A9E4A11344D61497A992778095151510C4BB7EF2009B63AA4360635312E4CF668B7E0
310
D3D85A8688E2BD83B569439892ADB63461930D428E0DE42E4AC57CE48DA5CC1449530D8BD3D6A0F08DF20C8E8F570F2CFFFCEA286E30969B4654D498A58D9DA782E19FE3F002181838925592C4A1EF0B332D88B61A92C644547BED490D3A42CFFAB70E36D961F694F6307F72FF15A1C79D5B1B5CEFD353D9E2B52566DEC8F8
310
F09CB3E8359C0F68EBBB7898243E34E12A015B2685AB303C04D3A9E00671FF3DFF0A184E4A2ABEB2B666AF5B3A209C73D8EF29DCDB069C9F391EEE9DD0F74C7BCDE16F8F02E3B8816122BBEB50665775B600549D8BB33A54A6BF940C028118BC6878C79958D6784F9DEAA6E26748386FFAF8D0D0101E2847B6563F5D8DC1D7
310
8F787BE00E2C941AE12148D4A81599FE8F68D4DA5CDED75530ADE138240300EE13B0FC13A1687FED6774662C05A2B7DFB186732F0D7A93545D8B0A6390AE5054D9CB582DA846D7A061B3358B45E2B52DDE63E114397EDB7E09233A579155D795BE76102CF277F4DF8B188C4F2879BEAE3C08347124BF9ED23B128259FE107D
310
31E34A652F090B30B39E0D9AF917B76A2806135621A8A60681F16AF216514BBD02711585B5B1AE823F4B2D0369EA5B6BCB863072727FFC871CA6C9AB79A814D989057E9470A3D238BC87CBB4A0EA49AFE2B86F22E499793CAA9047080450166BDC357524561E258C77CB697F1ABB32562CF87C3B7AA12F911EF19FB3E5C022
310
22E887D08202A60A17151F5E053A86B437771088B4FEE14D652C43E8D939995D34545E12E2FF93D4E366EAD25F10CB7DED141563C3D0C447AF06078A91135FD4B9611583CB4BF3BD167F2399CEAB0E0100F8FFC305F00F1711717173138B4B48C83022295DE657EFEDD97F238ECA80F528AFB4F8D67AD4E2594B9A3AA86D74
310
87EFC313BA95745C186F0CDD84CC12DC9CB0424B42203D351FD9C0A3AF10CC7F388E0329279087386421F194F4A29464C1DEF7EF8BE515E4A199DCD5B909342598D8FE6A231F71336248D5CEC5454455C7BE383B3BC7B260FED27F703FDC39A170F3827239102F59D4DEE7FEF82EAA1A5E4BA94DCC4CC44E7E2EDE20F24244
310
E4454369D2E87C3F823F193FD4FD27E1C23984B01898D15ABC20711A8A558054951A6AE280096BA36CBA439603B7B0B4C45F248C14B2383B4B5CD8ECECE4FF859AD4A6CA2326D020EF090F4041D28DB66E5256B56232CC52829DE8060BAE6BBF37D4B7469B822454FE93210A3E8D15E69FFCF01123222611C51C4FD0A041A0
310
CFA2471CF6BE38D2B20FA4C3525B5B8B586759475CF80ADFE67A284AC24651E52B8E683D24C2622642F27E7C3C22783BCF63648BC398BD6CD0D9C97E7E7E3EACB6126DB7A6C1FD9F1031302EE67ED96F22B77C7CA0239BB324207559B105E4693EB26EC46182A92C9C0DBD24F29B31C5C5AC1F84300E0E17CEEAC15F5736FA
310
4A98971E2F1423BFCD68D4BBD5F86E74B40A369F39507C88FCDB35D2DD8DEBEA4AF999E23CF2816D204200DF6E611781B9884C1AC8888B4DE397320472959434323A5A36B22A8E1F721A270DF3BD65E4A31C11FF048AFB0D8B7B6881423793963A23CFCE935FC189ED36FAE35C46DA3574C979E4394BE52084F3081837BE03
310
3396D2EBD80F1F691B273F660D2B32FA27A33B1DE4ADA5F0FA4651511102DFA410DDA86E065272CA314D5249DF91B06BB92807B28EFD54F08F7B525252782CD276DD02E6B0319B13DF87B1F6361AD6B28FC0D711CF445429B9E5A433CD493051C49A9E03DDB1B147D880253514A5DED88009018620EE229101C041950E2D8A
310
A8E1F5F5438E0C0C0C60EEDEE9E3E0C051948C69F84BB7B2A48A1F3C8EB9E6864687F4F4F6F6E2FA87608ADAF9C5E117B7C1A737E710769DA1D15ECE6A84502AA855398712D5FB51BE92E4EF824969CE18278798AC303C2C7980DD2500ADF8FB1E6D6C2FAAFF9987178923334A244758BAA01A9A1B70FA5097D01E1CC2A58D
310
AD0EC94CE6430AA9B0C10D75E3C6BAC670EFBADEE1607739CE0FC18A2587E3EC3058562014C64219C69BC269082D5C2F4A659278D585755912176D78A1B641719C2A394CED495A1AC5D583FD2F5EDD93308EA7EAE8A6DD396598BDBD3D4CFED62D18A5BDFDE0DD5C80D1A89BA62697B131AE7CE9A6594138582F1B37D68F17
310
49AC7CB67A70695D48A4A056AC1FBD4E82358CEAE38F54B95A9016F9000F9879C0D9D131768635CA798895F27D6F1614F11F2838A83611AA51C9A3DDB539D42979C29F10465655C17BEC3E2760B80DCBF609198C7B171A531905F3EC218D696025975E986C6B4C666666787271F202805577DD5A3EF0CAFAF91B62DC4B2DB4
310
217A7606282F31D8DDBC290593BAA93EA6353AFA9939B877978481E15CFC9F2755CDC00C538F63A4BA3E80AE009B73CA0185687D339A507D165B74290D6EE46D5C58148F020C3668ABE9EF2F7549170DC80DB41FFC1D678FF19AEB10C7133832B104B80F691B3138F97A92D26E551F1F110400D45AC71A9B9AC41A1A1B1DAE
310
ED0B0810638EFFB511D46B121C6FEA0F38CD00E03CFFEB9713FE1F9C263E4DDEC160D0497FA9A132BA608584057FB15380825DE6C7FC3C667EE947D488A09898D8E939C4953BF4EC9836344D2CC6B2971B2A21A572B06096F4982D2CC7232D46E8EA69DC83722E267754D777F97F96D5DA74E1E75178084D0E70F12AD33E5F
310
71EF2AFA599B2BEBF60A5BE475F444F240CBFE8143C334E7ED9150FEEFEF7EB020C4DBED388DD1D6A167A76F3CBF119B578AE8CFA7736ACAFA4440A1C47185638A0D2F3EB5BDDEFDA958FB13CE4AA4923D5BF840392D45544329525749734866684BF7F8D9D54D892E19BCA9F829A0F8BFCBEEA6CFDFC61D74EA1A645ED7A1
310
FF241739F15694BD835B66FEC5677E40FE69BD3F91AE402F036537218A401CB0828604AD189E575015C6F3F6BBC8AC79CF6C70653847254B31551EFCBEB5978B9DB85D58D0FA41A9DFE9C624834AA04949D24B5AE6D299E072D152D12097920F14AA92C31C3B97E28B6C2E6E9C23D63043ECBBC0A60FDF5BD0C33C127EA8A3
310
308B8B6AFFEB28B4455BF6E7AF4FC6222728357EB8E46E85053E6A8843AB23295BF838ABDA94658FEF3F832F147046B4ACD6F7D48E8FCC9618582961C898D1C7A253C91BFECBDA6BA18A1FCF70755DCCEE2222F41B76D23CA98D0CB3D95F0CF66D57FFF65E2A90F5DF40FC3187621E981BD0BC1D992787212688976B94A8F0
310
C6EF646624B570B78E068826F87CE27041A95C9A4871FF65CC17FCB1639629AD6A9517000D63AC231F3D741CB8430777E7ECF80CE7A3F73C0F162F7E56AA71F4DA80A33CD6ACEE78E2C11FAC03DAFCE929B106F8F6B3ED2DC71FF994BD9CEF4E9A94896EF1B6E2B7B4978168BCF0847A3D2A4F1B0500B926E634B174548E9F
310
BAD27153FB5FC36799B1E6C7C38A94E1F9E996796D7B485E635D5287A2AE76FBD11A341DB3F8F810385BB7296391973DC6C37C452A9305AEBBE0CDB6C566DB59FE60C8E94B1FD090354BF51439FFD1B48D725228FFA88C84F686F547107A7A235665A4593B7C34D748C1AC8D56DD5DA861EEFBADDECBBD65117E65851F9035
310
1AEB65F0EFCFF4BCFEF24CB7A5879699FAC437A7AF9099186CF006BB923A59E37D7A36A29FD8D2CBB914A5E9D0A8FD212FBF796AE9A67958FF1D5D8B85F78F96219D4714EB919929241B6C018AAE0C02069F8D919961EC5DDFBFB7573E3AC8E08BFB7C8534BE6DE045B3CD63DBD71F7638BA2309CAE398EA3A7D8F98BBBC7A
310
EB367EFA5CFA27A9F8F2F52FE878058E6209C026453F8E7E8A237DFC389E9590F6059B397CFD65183BBF936E86896612A5B5FEE49DAC8455D026218AFEBEC12B3523A45B57B82C9C97E02ACFA1184DB18E48CF615DBF39C3CC6F0B4AE6BBEEA2E39D944E290302FA3DE33FA7E40296E2EF7BF1CD855BBECFAD0FD622BEE974
310
6FC4FDFDE545AE6E3BC234CADF83A0FB76DFB145BF3828AE3436368AC24989454F8FF70A177672C711CAA1A76107218CF948CA01F873520E7A2B118EBB161ABAD432932029628B6761590C98AB590C8C8C79798CE9F715BA696E839E9131A4BB68BE923F1747FBFF165331FFDD4D05997ACD168F12CA75348DAC04C7F509FE
310
83898A8B421181AF492861CE81E4A2DD0A30850CFA95E05F097FF70F9E777310D584A75BA7018922E271DAB1D785671157685B7D383D3E074DDB4F1E44EF04B07BAAC75A062077C54B9752C738C9D804D402E02851F3F89605AF189738C18C021D2139EAF72513824E10DDD3047BACC8521ED7E98B257D1166903B1B08FA6F
310
918FD7E162913FEC7D0EF4787E29C35FBA8C6E2C9C20E9AB30AE42CA2A01A090E7D010C1B5BF9CEE2A304BF3A987FB40D836979B79E18D70F257DA61E808472DD85B82761825779D6B90CAEB0F23360C6F80A7D7D77545E95B3DFF0CF96A827F9B5BCECD2C9698718417EF80FEEDEE938AFF55859D0D540B7FE09435583A6F
310
04874A0C7E8CF234DF4879722000167F5872CEC6BF3EF7E5A8CC8121E6A359227C8A29C95212F9F735BC72A887D56B8F309FC525BFB4FD767AAEC4AEFF249CFBBD2DE1AB9969A6155C7D8DABC307E47324C1F916C7BCFF40ABA5644E9FFB9238D19ADADA49D9610F01ABBA57E4DFCBDCCBB2B93C8953206C91DE01B0E2651A
310
6D6C31721915B31F7B7CBCE55466F6D70402788FA91D73BE4ADCBA99A35F17D6B83383704917D6833F0FA3CD45C926ADB8BC17999A4A0AFBCE2541F7B8CF4C2F5FBA611B3E626D64407CB32C122DFF4EF8674D6EDBB86C8F7C6A16D50FA685E2CCA34F8F7D1D8265BB0042E9D7F1F666F7BE5FAA5184DF58E12122A42EF02F
310
461B3F369AC746F96528AD208512AB56844CF75B97F352DF7995024FB02855385854F3798670D01CAC771AC3E1889EC25F61A20C1F8CAB46898817F9C47E2CDA1F286BF2F358298709FE567C91133E2638C8B53975E753EA8BFD3578B5F7186B7BF084EBA3F77BAC3132A5779902EC22AF2D2E79F42D324E083386DAEE9810
310
D1B44A5DAA54513C7A71E52A4AB9257D975B621308FE4D2141CC3DCFE946C154A3C1DFCCA7629EC69ACFA831634ADDA93C0388D2A9A2DDAFCF957C6995BCE7FBB6DC4EBAE79E63EB08E9A25F52F67076F7093CA545CA3053B5BF576DEAD4E0017143C5F759F32B2D6F145B52B67B48909B7C7FCA6586EE385A2189C16932CB
310
6DDFD9152AE317C430492A578ED27B72D85D40C7C93C097939E1B50F4D67F05334FE9DC362C30B7FF561B95259138ECFD9274C8D695C31B14D4EAA9F3D7FA8DDF652F8C5DEFA23284C799B7D94416DEE81E05A866302DC70192A5368EA65E1CED8BF107A1E2D3119A71E85DC1A7B0C1E93274CE04DD0F2ABC8AC7C987FDB00
310
2B6F81757B43502EF7A0D92E416494FAEEA4C9C090CD9557AA4D532F4996A272B94355C5A0E4974EEA9627476F30809B94D8D8D860062E02204643BEC7D0438AF800FC7E2B26955D595421E83C69E1A07E0E3122285835F014AD538188CF9737CE76D464A353FA55A001AB2526B84E985083693BC76FE211CA1D000679C889
310
E3C009832C87E1AC2EDD05C302557422DF0800E316FCAC86978A371F025A6C7DAA9F333E7BD160403A1A06EA75AA9888FF01504B03041400060808004B7ADC4C51464CB48900000043010000360000006662782F37303435394244372D444545382D343544322D413236432D3133413845363839464341302F646972656374
310
6F72792E786D6C9D8F310EC2300C45AF127987122606C71DD918B841D4B851A43646695A717C52A85029031293A5A76FBF6FACEF7DA7264E43906840EF0FA03836E242F406C6DCEE4EA06AC22492573150D1F66C60C640E8938CB705396EEDD86DE9B5042FE27813D640EA63BB001C722AF6E55CB61E4863F58284D5D3F53D
310
D715CE1C3985E63FD7F1B7EBDD617E9F1E504B03041400060808004B7ADC4C8EAF2E4043070000211C0000340000006662782F37303435394244372D444545382D343544322D413236432D3133413845363839464341302F6F626A656374732E786D6CDD595B6FE23814FE2B56F665F721376E85116544A18CD06C67468366
310
B56F91490CF5363739490BFBEBF7D8B1439C06C8DCA4D1520952C7393EE73BF793E9DB4314A267C2329AC4B7866B390622B19F0434DEDF1A45BE33C7067A3B43539624796D9F81621C915B832F1BB3E99E25452A9702B2C345D85C5DDDFD8D329FC4C4407E88B3ECD6C8FC4712610B17791290ECC90A708EADFDEE60B956B9
310
5127BB67387D6C1C956246E21C5885F518A8480E5CFD5F10C99E4D6DBE41DBD6EFB6AD77619B2D04D719A57196E3D87FC555E3B8DE19AE1AC7F5DDC1F2BE379C98C3C1A06F0E463DD7BC5BDD2D4DF7A6EF2C468BC5647E3F31D06CBA4D92B052404AE200B4783466EED4E6772AF1250A6D7CFB491C135FA2D9B62120922E25
310
5913130D585788565348296B6DA1DF51F833DB3A81A2B1A4A1AD8453BF75EB4DB6FF000859172B6519E1569EE50C742DB12FFDC199DAE5AAA6179AA108E784511CA2906E1966A020D85A2A4823C3BD8593421C33A14545AFCE2B18F6755F6AE372578421F75F63263CCD037F24792638A3FF1276E2BE7E1AF004D21634CEC7
310
52D8FC980289C9D4168BE5BD7E4FDE2C8144BB10EFC15A404CBEA9DF6BE0B5E0B160BD3466EF57DBC386C787F6C35396A484E5DCF284334BBF531AAC9916185F07504A5C75DD9D50F90CD07F00E42B5ED01434C7E861701828D9198EB35DC222D00E7290E9C09783F8E5ABABA95D3D3C43488B95E73005B7FD41986A626867
310
D7209D4D9FC1E813D697C26D7C1C824D3FD098FB39180A0A13588278BFDB1E8CD91A82292CC2533804E9E16F6AF34B043F251D88370D0DB585DF0E8A520ED3F4B393AEDE81CD30EA57AAD2643C87EFF087E03B5F6EDE6F0AB6C33E79908EBD243B1AD31C92693B431AE89ACB7F597F101E7977FC131FEB3EA8EDF2E19C7DC2
310
03478B5E36522F48280658E179B8548D5879A0E0EE6188639214995C6F0B547E1226CCDB1EBDD2875BCFFA4B19417998B480D66006D9DD6734E5A01833A9AE2A125A279C323031CCA409EE4BB57ADB224A3D1C2545CC63ED6B5B6CF20181869B225015D494652BB7556403BADB151944AF56920B0D48E9D08A7069E2030864
310
6DFC32B26318B268127B149230784BEB09DA0115789779CE48B8F368181691B7A32124122FC2E919FA1D25A8A7AE27727C4958D04A50B72CE594CA8638E0125805924A5765D0973A65E499F23A532434950EB41DB21035668333F982A78A164095310A331F4C8693F1623537070377650E6E9C9539BEBF599A77CBFE64395C
310
DD8FFB0EE42C6925028153B8AA273C5025AF7334FFCB1F8B681B631AC20D4E0107E99BB7227DDEDA101BED1B67309CDC2D6FCCE5FDFDD81C0C973D73DE1B2D4CB73F1FDF8FC693D562EED88C6449C17C92D93DDBF19449A6F1FE1C575530E5690BE4876F0929D435D7B39DD2575398FF6F107DD74C0A9A127FD5205AC5AE96
310
8AB06B10E58F364328F69F788EF27C28FB5ADDA711449B7CB4C5B9AF8CCB8ED577C4C775273D67D21B4F4695B15F0CD4E29CEF8E736D12F8D07816B997A4D8A7797B426DE0D2314E7F556EB1FAEE10013AD57775C8E53C230FF16884F7C4DB61DE26B404C66B12B4E6B07D9864198D4926DABC57E55F83A6634135A5E7DC16
310
23A49917911C7F8BFD89BEA161D3109B430F1AD29C8F04AE56059541CB16E41C45DEFE42E216F21FBD0C476958B6BAD730707B0A02D5E4B4591C679A1FF10CF6E6E1DC7302222617D7A857ECABFAA0556B4DEA936F267F061E55D7FC4478D411DD4B276BE84EF8670C41653474FB374A11D7B05247E5BC910B0B683DFDA3F7
310
42E8FEB153A1D94D27B592AD2CAA7312411F8BF38275F2D7D1D07975908C0B0D87A89DF495C5A168E0540B07E8890EEE5C795B3B06EA501AC3A0AB9320AFA4683561A10B31D4E3B3ABAFF0EB8BCAAE53FDEE78F9D32BE6BAF34550E875C101AAE53200CBE8A3D5D4AD55B7560F652F38F721906EC4AF79071E1190E0D49869
310
E4DA4A74559F5EAB9ED73CA04630B2C53CCE3EF08BF033065543FB9CD9B268B3CBF5354F6C164CA74F7C684CEBB43EBEDB34A8C04AE7A73F718CC84B83825C5DF06EF802A92FEB53D3DFA02025FAB2BEF0F82FD1512805D63A0B1807674948612A4F02B42709646F183B74E83658443291954F5D8A7A25D0E1E9E772A89AE3
310
6DA87A1CFF11C3643A94BD58E1C3541432E6AD21D7D16F3007E5A348319DB29EA00D9331CC4005A3B706586C4EA1DBB2B630CF12D34341BD31AF04C7C6F19EE7FBF2A9EAFFD363AFBAAF6A4F175CA4649A3341619B8A170550F5953766D36F175DB183700E97DB22AF84392D9CA49120A83702A57030F67B92F01EA0A0B82C
310
976B893D5A43DA69347FD10E4AAA668ED95ECCD76B36395F7EB2F9687CFD11A561B1E7EABCD4FD6A944CDE75874539859A8261483153CC6BC8C51BFB134BE01D538456148C00FD7E188FFEB01749142571B964CFE59B2AB47984F74E81AD667ED0C63BEED016530039D7F7B63823160EB2275800D532CA87A325C49A0154D1
310
B466004A235C17F098B67FBD44B236AA4D48EA6197C32386FA081C89BFCCE16E53DF509B40822F0057E2E6E9422D4C6D0653F0D97F504B03041400060808004B7ADC4C582DABFAE2000000550100003C0000006662782F37303435394244372D444545382D343544322D413236432D3133413845363839464341302F726573
310
6F75726365732F322F636E782E786D6C4D90CD6AC4300C845FC5087A8CE3A4B484C5F1BEC49E7A595C47EB9A75ACE09FD2BE7DEDAD0B3D49CC7C88D1C8F3D7EED927C6E428AC3071010C83A1CD05BB42C9B7610176563212E57F18B0A0775CA1C9A0A48D548E2E6D78D3C537D5BB70EFA2B85A0C189DB91EC102335EA7B442
310
321FB86BAE4BA60DD39D6F3A6B3EF188894A34584F64B7633F6122EA8C1BA8594CCB205E8779B94C2FA76939CDCF6F726CA492EF44BEF32E648C743CCDC2505D434D24E4D800254B749D6A6F54E32F1EAFF1E4586D25538EB5838EE5EFA3626ED716C707F2EB2A39B627EB783450672B44FD00504B03041400060808004B7A
310
DC4CFF15A4A45D000000800000003A0000006662782F37303435394244372D444545382D343544322D413236432D3133413845363839464341302F7265736F75726365732F636E782E786D6C4D8B3B0E80201005AF42B6F75B59F0390B113044D83508C6E30BC6C26AF226F3B8BA6360974DA7271430F523308B2B198F9B80
310
925DB700539227A2FCCB80A18E5640D320F996A81C9F32D6E9129A0D1EF74FCE750E6D57BC7165FBCA07504B03041400060808004B7ADC4C14581CEC4301000056050000300000006662782F37303435394244372D444545382D343544322D413236432D3133413845363839464341302F636E782E786D6CCD94C14AC43010
310
865FA5043C36692B4A59D22C78F0093C88B7349DAD71DBA4245371DFDE64CDEE2AB2E8A1B07B0B932FF0FF337F86AF3FC6217B07E7B5350D2969413230CA76DAF40D997193D7245B0BEEACC56F18C98C1CA121B14C04EF9D9DA754EA6023E72156076DB6A928119D6E67044F323548EF1BE2D52B8C92CA196D077E4B3B8992
310
96D481B7B35310DEA31E21BD570E244247445594755EDCE755FD54DEADCA7A55DDBE701649C15B6B87C46B83E0EC745315CA86A309720ACE2220F8EC74A2A207224EDA68AB0D67E15E701FF49A3E71B89B22374D83561243A3985508980708E4C8D9172C388B8E7FF87E7C783E6908A74E3B5068DDEE626D28CFB5E1288D86
310
44FCAF0B7BF02FF3B67D0B962F37F7B38693B0C5EC1E92EB43747F2721E4499A7EB8C60F7094B67CFEC36241ADAED1F441D9429ED97E0586C1C78D283E01504B03041400060808004B7ADC4C8C5EEA3B80000000A30000000B0000006662782F636E782E786D6C4D8CDF0E82201C465F85FDEE2934FFE00638127A0F97E85C
310
088DA4F5F841F3A2AB6F3BFBCE61FD67B3E86DC26BF58E437122808CBBFB69750B87B8CF9802EA050BDEEF7F37406EDC0C878C41B025F8F83CD064E631DA4CEDEA1E076C49557757D562A535C555AD4A2CCB66C0C54552DDD0EE3648928C7356D2FC7A69735E7C01504B03041400060808004B7ADC4CA6D797065F00000082
310
00000007000000636E782E786D6C4DCB3B0E80201045D1AD90E9FD7516806B51190811670C8A61F982B1B0BAC9C97B72CA7B1037C6D3332918DA1E04D2CAC69353902EDB8C20262D23F3F59B81A079470595414B17391D1F19B4730A5583A7ED43BBE4025D9592775E5ADFFA01504B03041400060808004B7ADC4CECFD112D
310
A800000026010000130000005B436F6E74656E745F54797065735D2E786D6C7D4F4B0EC22010BD0A61DF525D18634ABB506FE00510A79458060253536F2FD89D5197F3FED3F68B9BD80362B21E25DFD40D6780DADF2C1AC9671AAA3D677DD75E9E0112CB5A4C928F44E12044D22338956A1F003333F8E814E5331A1194BE2B
310
0362DB343BA13D122055543278D79E6050F344ECBC6478EDCD76CE8EABAE5449AE4298AC56946789C28AAFBEABC53F3EAF09A84A1441B91F0101CD4780756578C173A578FFDDBD00504B03041400060808004B7ADC4C3DEE336E64000000790000001B0000006175746F6465736B2D64657369676E2D7061636B6167652E78
310
6D6C35CBC10E83200C00D05F21DCA56CA76D41FC96062B120735B69A7DBE268BB7777961F8D5AF396893C2ADB70FE7ADA196782C2DF776D7A97B5933C430F15651E5469C55D70F80A4992A3ADC954792C525AE70A1E4D6AD9816CC044FEFDF01FE3FDE907802504B03041400060808004B7ADC4CD6C3DB45F30000008E0100
310
003D0000006662782F37303435394244372D444545382D343544322D413236432D3133413845363839464341302F7265736F75726365732F322F636F72652E786D6C8550CB6EC32010FC156BEFD886D40D89309153E70F7AEA0D01715062B07854FDFC42EC4AEDA9A75DCDCECCEE0E3B7DCD8FEA53FB609CED01D72D54DA4A
310
A78C9D7A48F18A285427CEBC73F1170D2A2B66DD438181B3C9BBB46C9074366A5B50EB94DE4011828E50C9476E7A08F2A667518B143323DCEB45C8BB98748DEB95C7594A466D52A3B29BB91AED81B7E378184837A0117704BD9CDF0E885E8633BA104A3B822919F77BD6143167D1CC3FDBA5D7226A059CB498A2F61511FA8E
310
BB23A647B2FB604D617216A2CF3F6F4BCB7799CE9A15FDE39616F5BF5B3236EEC8E6B62A02709C8F7B0E386B4A3AB93CA3CBB524C9BF01504B03041400060808004B7ADC4C088F1F1CF8000000960100003B0000006662782F37303435394244372D444545382D343544322D413236432D3133413845363839464341302F72
310
65736F75726365732F636F72652E786D6C8550CB6EC32010FC156BEFD886D40D89309153E70F7AEA0DE14D821283C5A3EAE71712576A4F3DED6A76667677C4E16BBE579FE88371B6075AB750A1D56E32F6D2438A67C2A13A48E19D8BBF68505935630F0506292EDEA56585B4B3116D41AD9B7005550818A1D2F7DCF410F415
310
6755AB143323DCEA45E99BBA604DEB274F8A94CCB44ACD94DDCCD9A007D98EE36E60DD4046DA31F2727CDB117E1A8EE4C438EF18E56CDC6E4553C4524433FF6CD71E55C409246B2927ED2B61FC9D767BCAF76CF3219AC29422449F7F5E9796EF407A0C2E798D4134CFE91FD7B44CFFBB2663E386ADAE4F450049F3918F8114
310
4D4929974784B99644E537504B03041400060808004B7ADC4C827E93C8F3000000B1010000310000006662782F37303435394244372D444545382D343544322D413236432D3133413845363839464341302F636F72652E786D6C8D504B6EC32014BC8AC51EDBE0D82111267263F7045D758780382831587CAA1EBF90B852BB
310
CBEAA17933CCBCA1A7EFE55E7C29E7B5353D40650D0A658495DACC3D88E10209284E8C3A6BC31F1A280C5F540F320C189D9D8DEB06096B8232193556AA0DE4DEAB000A714F8F1E7871550B2F790C89E16FE5CAC58DCFAA44E593C768D0CBAF5438C5839280E11A11587710930FD41E1139E2E6935699C9688C5A6E565A2677
310
7DD1CA01B6AF77EDE16DDCC3719A08DCB5238603EECE103503993A72783F0F35ADB298511F5CBA79FB245FF7AAFC29FC9739AEF285CCDA84066F864F85070CA53C8F05A3552E308D47BB69E6B2D90F504B03041400060808004B7ADC4C65A970DF53010000DD0200000C0000006662782F636F72652E786D6C8D525D6F8320
310
14FD2B867754685D6D8334EDEC3FD8D3DE285247AA60104C7FFEC08FB83EAC5B4C909C7BEF39F79C408E8FB68906617AA95501509C824828AE2BA9EA02387B8339888E9418ADED8F361029D68A02041850521BEDBA19E25A59A102AA74256690F5BDB020E28DBF14A0E75FA2653173D677F4F7B863FCCE6A11A378EAA3C439
310
59CDA3B2F26CF2268501342DCBFD09672758A20CC3EDF97D0FF3CBE90C2F38CF338C725CEE762409C39458D92EEADC08664505284E510ED33788F30F941D507EC09B4F92844E4A7A6BBCE75934B803F4767D9064C29FF85C57FDCDE7A4B21B3CF34D133DA0C8AF37162849423EFE3786F79CA117F6F959766D160B770F0D82
310
5B6DB6BE5269B79606D638E1A9D368FC4832553DF348F01B0F7EC1F39AC307C554ED5763D65FAFCE06F5E79D3A61E0601F91D2A665CDBADCB4E27AAE424F969671AE1B6DFE33BD585DC24CC2C3A4DF504B03041400060808004B7ADC4C072EB6A306010000B201000008000000636F72652E786D6C8D504B6EC32014BC0A62
310
8F6D48DD90081339756ED05577D41017C5068B4FD4DEBE1053A9DD75F5D0CCBC37C3B0D3E73283BB725E5BD3415C351028335AA9CDD4C118AE884270E2CC591B7EC9203062511DCC30E46C7236AE051AAD09CA64D458A90A28BC570182714E8F0EFAF1432DA212312485BF55AB186F625215AE361D67412F3FABA353222809
310
39693045CD3322F415B7474C8F64F7C6EAACE42C462D8B9596C95D5FB5729037C370E849DBA301B7043D9D5F0E885EFA33BA104A5B822919F67B56E765CE7C70E9CFE548CA198017F7ECCBEA8DE2ECDDDAB908522809AC99BF9209AB33F127745CE53F426B1376A41CDC363CE438057A10C9383798C6A3DE3473DBFC1B504B
310
010214001400060808004B7ADC4C0000000000000000000000003700000000000000000000000000000000006662782F37303435394244372D444545382D343544322D413236432D3133413845363839464341302F617474726962757465732E62696E504B010214001400060808004B7ADC4C000000000000000000000000
310
3500000000000000000000000000550000006662782F37303435394244372D444545382D343544322D413236432D3133413845363839464341302F76657274696365732E62696E504B010214001400060808004B7ADC4CF270F13306000000040000003600000000000000000000000000A80000006662782F373034353942
310
44372D444545382D343544322D413236432D3133413845363839464341302F747269616E676C65732E62696E504B010214001400060808004B7ADC4C88E57597CD3F0000904100004200000000000000000000000000020100006662782F37303435394244372D444545382D343544322D413236432D313341384536383946
310
4341302F7265736F75726365732F322F305F67656E657269632E706E67504B010214001400060808004B7ADC4C51464CB4890000004301000036000000000000000000000000002F4100006662782F37303435394244372D444545382D343544322D413236432D3133413845363839464341302F6469726563746F72792E78
310
6D6C504B010214001400060808004B7ADC4C8EAF2E4043070000211C000034000000000000000000000000000C4200006662782F37303435394244372D444545382D343544322D413236432D3133413845363839464341302F6F626A656374732E786D6C504B010214001400060808004B7ADC4C582DABFAE2000000550100
310
003C00000000000000000000000000A14900006662782F37303435394244372D444545382D343544322D413236432D3133413845363839464341302F7265736F75726365732F322F636E782E786D6C504B010214001400060808004B7ADC4CFF15A4A45D000000800000003A00000000000000000000000000DD4A00006662
310
782F37303435394244372D444545382D343544322D413236432D3133413845363839464341302F7265736F75726365732F636E782E786D6C504B010214001400060808004B7ADC4C14581CEC43010000560500003000000000000000000000000000924B00006662782F37303435394244372D444545382D343544322D4132
310
36432D3133413845363839464341302F636E782E786D6C504B010214001400060808004B7ADC4C8C5EEA3B80000000A30000000B00000000000000000000000000234D00006662782F636E782E786D6C504B010214001400060808004B7ADC4CA6D797065F000000820000000700000000000000000000000000CC4D000063
310
6E782E786D6C504B010214001400060808004B7ADC4CECFD112DA8000000260100001300000000000000000000000000504E00005B436F6E74656E745F54797065735D2E786D6C504B010214001400060808004B7ADC4C3DEE336E64000000790000001B00000000000000000000000000294F00006175746F6465736B2D64
310
657369676E2D7061636B6167652E786D6C504B010214001400060808004B7ADC4CD6C3DB45F30000008E0100003D00000000000000000000000000C64F00006662782F37303435394244372D444545382D343544322D413236432D3133413845363839464341302F7265736F75726365732F322F636F72652E786D6C504B01
310
0214001400060808004B7ADC4C088F1F1CF8000000960100003B00000000000000000000000000145100006662782F37303435394244372D444545382D343544322D413236432D3133413845363839464341302F7265736F75726365732F636F72652E786D6C504B010214001400060808004B7ADC4C827E93C8F3000000B1
310
0100003100000000000000000000000000655200006662782F37303435394244372D444545382D343544322D413236432D3133413845363839464341302F636F72652E786D6C504B010214001400060808004B7ADC4C65A970DF53010000DD0200000C00000000000000000000000000A75300006662782F636F72652E786D
310
6C504B010214001400060808004B7ADC4C072EB6A306010000B2010000080000000000000000000000000024550000636F72652E786D6C504B050600000000120012002D060000505600000000
  0
XRECORD
  5
17
102
{ACAD_REACTORS
330
12
102
}
330
12
100
AcDbXrecord
280
     1
270
     1
271
     1
  0
XRECORD
  5
16
102
{ACAD_REACTORS
330
12
102
}
330
12
100
AcDbXrecord
280
     1
270
     1
271
     1
  0
XRECORD
  5
18
102
{ACAD_REACTORS
330
12
102
}
330
12
100
AcDbXrecord
280
     1
270
     1
271
     1
  0
XRECORD
  5
15
102
{ACAD_REACTORS
330
12
102
}
330
12
100
AcDbXrecord
280
     1
270
     1
271
     1
  0
XRECORD
  5
24
102
{ACAD_REACTORS
330
22
102
}
330
22
100
AcDbXrecord
280
     1
270
     1
271
     1
  0
XRECORD
  5
23
102
{ACAD_REACTORS
330
22
102
}
330
22
100
AcDbXrecord
280
     1
270
     1
271
     1
  0
XRECORD
  5
27
102
{ACAD_REACTORS
330
22
102
}
330
22
100
AcDbXrecord
280
     1
270
     1
271
     1
  0
XRECORD
  5
26
102
{ACAD_REACTORS
330
22
102
}
330
22
100
AcDbXrecord
280
     1
270
     1
271
     1
  0
XRECORD
  5
28
102
{ACAD_REACTORS
330
22
102
}
330
22
100
AcDbXrecord
280
     1
270
     1
271
     1
  0
XRECORD
  5
25
102
{ACAD_REACTORS
330
22
102
}
330
22
100
AcDbXrecord
280
     1
270
     1
271
     1
  0
XRECORD
  5
36C
102
{ACAD_REACTORS
330
36B
102
}
330
36B
100
AcDbXrecord
280
     1
102
ACAD_ROUNDTRIP_2012_MLEADER_STYLE
298
     1
  0
XRECORD
  5
36E
102
{ACAD_REACTORS
330
36D
102
}
330
36D
100
AcDbXrecord
280
     1
102
DISPLAYNAME
  1
Imperial24
102
FLAGS
 90
        0
  0
CELLSTYLEMAP
  5
338
102
{ACAD_REACTORS
330
337
102
}
330
337
100
AcDbCellStyleMap
 90
        3
300
CELLSTYLE
  1
TABLEFORMAT_BEGIN
 90
        5
170
     1
 91
        0
 92
    32768
 62
   257
 93
        1
300
CONTENTFORMAT
  1
CONTENTFORMAT_BEGIN
 90
        0
 91
        0
 92
      512
 93
        0
300

 40
0.0
140
1.0
 94
        5
 62
     0
340
55
144
0.25
309
CONTENTFORMAT_END
171
     0
 94
        0
309
TABLEFORMAT_END
  1
CELLSTYLE_BEGIN
 90
        1
 91
        1
300
_TITLE
309
CELLSTYLE_END
300
CELLSTYLE
  1
TABLEFORMAT_BEGIN
 90
        5
170
     1
 91
        0
 92
        0
 62
   257
 93
        1
300
CONTENTFORMAT
  1
CONTENTFORMAT_BEGIN
 90
        0
 91
        0
 92
      512
 93
        0
300

 40
0.0
140
1.0
 94
        5
 62
     0
340
55
144
0.18
309
CONTENTFORMAT_END
171
     0
 94
        0
309
TABLEFORMAT_END
  1
CELLSTYLE_BEGIN
 90
        2
 91
        1
300
_HEADER
309
CELLSTYLE_END
300
CELLSTYLE
  1
TABLEFORMAT_BEGIN
 90
        5
170
     1
 91
        0
 92
        0
 62
   257
 93
        1
300
CONTENTFORMAT
  1
CONTENTFORMAT_BEGIN
 90
        0
 91
        0
 92
      512
 93
        0
300

 40
0.0
140
1.0
 94
        2
 62
     0
340
55
144
0.18
309
CONTENTFORMAT_END
171
     0
 94
        0
309
TABLEFORMAT_END
  1
CELLSTYLE_BEGIN
 90
        3
 91
        2
300
_DATA
309
CELLSTYLE_END
  0
XRECORD
  5
346
102
{ACAD_REACTORS
330
345
102
}
330
345
100
AcDbXrecord
280
     1
102
RTVSPost2010Prop28
280
     1
102
RTVSPost2010PropOp28
 70
     1
102
RTVSPost2010Prop29
280
     1
102
RTVSPost2010PropOp29
 70
     1
102
RTVSPost2010Prop30
280
     0
102
RTVSPost2010PropOp30
 70
     1
102
RTVSPost2010Prop31
280
     0
102
RTVSPost2010PropOp31
 70
     1
102
RTVSPost2010Prop32
280
     0
102
RTVSPost2010PropOp32
 70
     1
102
RTVSPost2010Prop33
280
     0
102
RTVSPost2010PropOp33
 70
     1
102
RTVSPost2010Prop34
280
     0
102
RTVSPost2010PropOp34
 70
     1
102
RTVSPost2010Prop35
280
     0
102
RTVSPost2010PropOp35
 70
     1
102
RTVSPost2010Prop36
280
     0
102
RTVSPost2010PropOp36
 70
     1
102
RTVSPost2010Prop37
 90
       50
102
RTVSPost2010PropOp37
 70
     1
102
RTVSPost2010Prop38
140
0.0
102
RTVSPost2010PropOp38
 70
     1
102
RTVSPost2010Prop39
140
1.0
102
RTVSPost2010PropOp39
 70
     1
102
RTVSPost2010Prop40
 90
        0
102
RTVSPost2010PropOp40
 70
     1
102
RTVSPost2010Prop41ColorIndex
 90
       18
102
RTVSPost2010Prop41ColorRGB
 90
        0
102
RTVSPost2010PropOp41
 70
     1
102
RTVSPost2010Prop42
 90
       50
102
RTVSPost2010PropOp42
 70
     1
102
RTVSPost2010Prop43
 90
        3
102
RTVSPost2010PropOp43
 70
     1
102
RTVSPost2010Prop44ColorIndex
 90
        5
102
RTVSPost2010Prop44ColorRGB
 90
      255
102
RTVSPost2010PropOp44
 70
     1
102
RTVSPost2010Prop45
280
     0
102
RTVSPost2010PropOp45
 70
     1
102
RTVSPost2010Prop46
 90
       50
102
RTVSPost2010PropOp46
 70
     1
102
RTVSPost2010Prop47
 90
       50
102
RTVSPost2010PropOp47
 70
     1
102
RTVSPost2010Prop48
 90
       50
102
RTVSPost2010PropOp48
 70
     1
102
RTVSPost2010Prop49
280
     0
102
RTVSPost2010PropOp49
 70
     1
102
RTVSPost2010Prop50
 90
       50
102
RTVSPost2010PropOp50
 70
     1
102
RTVSPost2010Prop51ColorIndex
 90
      256
102
RTVSPost2010Prop51ColorRGB
 90
-16777216
102
RTVSPost2010PropOp51
 70
     0
102
RTVSPost2010Prop52
140
1.0
102
RTVSPost2010PropOp52
 70
     0
102
RTVSPost2010Prop53
 90
        2
102
RTVSPost2010PropOp53
 70
     1
102
RTVSPost2010Prop54
  1
strokes_ogs.tif
102
RTVSPost2010PropOp54
 70
     1
102
RTVSPost2010Prop55
280
     0
102
RTVSPost2010PropOp55
 70
     1
102
RTVSPost2010Prop56
140
1.0
102
RTVSPost2010PropOp56
 70
     1
102
RTVSPost2010Prop57
140
1.0
102
RTVSPost2010PropOp57
 70
     1
  0
XRECORD
  5
344
102
{ACAD_REACTORS
330
343
102
}
330
343
100
AcDbXrecord
280
     1
102
RTVSPost2010Prop28
280
     0
102
RTVSPost2010PropOp28
 70
     1
102
RTVSPost2010Prop29
280
     1
102
RTVSPost2010PropOp29
 70
     1
102
RTVSPost2010Prop30
280
     1
102
RTVSPost2010PropOp30
 70
     1
102
RTVSPost2010Prop31
280
     0
102
RTVSPost2010PropOp31
 70
     1
102
RTVSPost2010Prop32
280
     0
102
RTVSPost2010PropOp32
 70
     1
102
RTVSPost2010Prop33
280
     0
102
RTVSPost2010PropOp33
 70
     1
102
RTVSPost2010Prop34
280
     0
102
RTVSPost2010PropOp34
 70
     1
102
RTVSPost2010Prop35
280
     0
102
RTVSPost2010PropOp35
 70
     1
102
RTVSPost2010Prop36
280
     0
102
RTVSPost2010PropOp36
 70
     1
102
RTVSPost2010Prop37
 90
       50
102
RTVSPost2010PropOp37
 70
     1
102
RTVSPost2010Prop38
140
0.0
102
RTVSPost2010PropOp38
 70
     1
102
RTVSPost2010Prop39
140
1.0
102
RTVSPost2010PropOp39
 70
     1
102
RTVSPost2010Prop40
 90
        0
102
RTVSPost2010PropOp40
 70
     1
102
RTVSPost2010Prop41ColorIndex
 90
       18
102
RTVSPost2010Prop41ColorRGB
 90
        0
102
RTVSPost2010PropOp41
 70
     1
102
RTVSPost2010Prop42
 90
       50
102
RTVSPost2010PropOp42
 70
     1
102
RTVSPost2010Prop43
 90
        3
102
RTVSPost2010PropOp43
 70
     1
102
RTVSPost2010Prop44ColorIndex
 90
        5
102
RTVSPost2010Prop44ColorRGB
 90
      255
102
RTVSPost2010PropOp44
 70
     1
102
RTVSPost2010Prop45
280
     0
102
RTVSPost2010PropOp45
 70
     1
102
RTVSPost2010Prop46
 90
       50
102
RTVSPost2010PropOp46
 70
     1
102
RTVSPost2010Prop47
 90
       50
102
RTVSPost2010PropOp47
 70
     1
102
RTVSPost2010Prop48
 90
       50
102
RTVSPost2010PropOp48
 70
     1
102
RTVSPost2010Prop49
280
     0
102
RTVSPost2010PropOp49
 70
     1
102
RTVSPost2010Prop50
 90
       50
102
RTVSPost2010PropOp50
 70
     1
102
RTVSPost2010Prop51ColorIndex
 90
      256
102
RTVSPost2010Prop51ColorRGB
 90
-16777216
102
RTVSPost2010PropOp51
 70
     0
102
RTVSPost2010Prop52
140
1.0
102
RTVSPost2010PropOp52
 70
     0
102
RTVSPost2010Prop53
 90
        2
102
RTVSPost2010PropOp53
 70
     1
102
RTVSPost2010Prop54
  1
strokes_ogs.tif
102
RTVSPost2010PropOp54
 70
     1
102
RTVSPost2010Prop55
280
     0
102
RTVSPost2010PropOp55
 70
     1
102
RTVSPost2010Prop56
140
1.0
102
RTVSPost2010PropOp56
 70
     1
102
RTVSPost2010Prop57
140
1.0
102
RTVSPost2010PropOp57
 70
     1
  0
XRECORD
  5
352
102
{ACAD_REACTORS
330
351
102
}
330
351
100
AcDbXrecord
280
     1
102
RTVSPost2010Prop28
280
     0
102
RTVSPost2010PropOp28
 70
     1
102
RTVSPost2010Prop29
280
     1
102
RTVSPost2010PropOp29
 70
     1
102
RTVSPost2010Prop30
280
     1
102
RTVSPost2010PropOp30
 70
     1
102
RTVSPost2010Prop31
280
     0
102
RTVSPost2010PropOp31
 70
     1
102
RTVSPost2010Prop32
280
     0
102
RTVSPost2010PropOp32
 70
     1
102
RTVSPost2010Prop33
280
     0
102
RTVSPost2010PropOp33
 70
     1
102
RTVSPost2010Prop34
280
     0
102
RTVSPost2010PropOp34
 70
     1
102
RTVSPost2010Prop35
280
     0
102
RTVSPost2010PropOp35
 70
     1
102
RTVSPost2010Prop36
280
     0
102
RTVSPost2010PropOp36
 70
     1
102
RTVSPost2010Prop37
 90
       50
102
RTVSPost2010PropOp37
 70
     1
102
RTVSPost2010Prop38
140
0.0
102
RTVSPost2010PropOp38
 70
     1
102
RTVSPost2010Prop39
140
1.0
102
RTVSPost2010PropOp39
 70
     1
102
RTVSPost2010Prop40
 90
        0
102
RTVSPost2010PropOp40
 70
     1
102
RTVSPost2010Prop41ColorIndex
 90
       18
102
RTVSPost2010Prop41ColorRGB
 90
        0
102
RTVSPost2010PropOp41
 70
     1
102
RTVSPost2010Prop42
 90
       50
102
RTVSPost2010PropOp42
 70
     1
102
RTVSPost2010Prop43
 90
        3
102
RTVSPost2010PropOp43
 70
     1
102
RTVSPost2010Prop44ColorIndex
 90
        5
102
RTVSPost2010Prop44ColorRGB
 90
      255
102
RTVSPost2010PropOp44
 70
     1
102
RTVSPost2010Prop45
280
     0
102
RTVSPost2010PropOp45
 70
     1
102
RTVSPost2010Prop46
 90
       50
102
RTVSPost2010PropOp46
 70
     1
102
RTVSPost2010Prop47
 90
       50
102
RTVSPost2010PropOp47
 70
     1
102
RTVSPost2010Prop48
 90
       50
102
RTVSPost2010PropOp48
 70
     1
102
RTVSPost2010Prop49
280
     0
102
RTVSPost2010PropOp49
 70
     1
102
RTVSPost2010Prop50
 90
       50
102
RTVSPost2010PropOp50
 70
     1
102
RTVSPost2010Prop51ColorIndex
 90
      256
102
RTVSPost2010Prop51ColorRGB
 90
-16777216
102
RTVSPost2010PropOp51
 70
     0
102
RTVSPost2010Prop52
140
1.0
102
RTVSPost2010PropOp52
 70
     0
102
RTVSPost2010Prop53
 90
        2
102
RTVSPost2010PropOp53
 70
     1
102
RTVSPost2010Prop54
  1
strokes_ogs.tif
102
RTVSPost2010PropOp54
 70
     1
102
RTVSPost2010Prop55
280
     0
102
RTVSPost2010PropOp55
 70
     1
102
RTVSPost2010Prop56
140
1.0
102
RTVSPost2010PropOp56
 70
     1
102
RTVSPost2010Prop57
140
1.0
102
RTVSPost2010PropOp57
 70
     1
  0
XRECORD
  5
35A
102
{ACAD_REACTORS
330
359
102
}
330
359
100
AcDbXrecord
280
     1
102
RTVSPost2010Prop28
280
     0
102
RTVSPost2010PropOp28
 70
     1
102
RTVSPost2010Prop29
280
     1
102
RTVSPost2010PropOp29
 70
     1
102
RTVSPost2010Prop30
280
     1
102
RTVSPost2010PropOp30
 70
     1
102
RTVSPost2010Prop31
280
     0
102
RTVSPost2010PropOp31
 70
     1
102
RTVSPost2010Prop32
280
     0
102
RTVSPost2010PropOp32
 70
     1
102
RTVSPost2010Prop33
280
     0
102
RTVSPost2010PropOp33
 70
     1
102
RTVSPost2010Prop34
280
     0
102
RTVSPost2010PropOp34
 70
     1
102
RTVSPost2010Prop35
280
     0
102
RTVSPost2010PropOp35
 70
     1
102
RTVSPost2010Prop36
280
     0
102
RTVSPost2010PropOp36
 70
     1
102
RTVSPost2010Prop37
 90
       50
102
RTVSPost2010PropOp37
 70
     1
102
RTVSPost2010Prop38
140
0.0
102
RTVSPost2010PropOp38
 70
     1
102
RTVSPost2010Prop39
140
1.0
102
RTVSPost2010PropOp39
 70
     1
102
RTVSPost2010Prop40
 90
        0
102
RTVSPost2010PropOp40
 70
     1
102
RTVSPost2010Prop41ColorIndex
 90
       18
102
RTVSPost2010Prop41ColorRGB
 90
        0
102
RTVSPost2010PropOp41
 70
     1
102
RTVSPost2010Prop42
 90
       50
102
RTVSPost2010PropOp42
 70
     1
102
RTVSPost2010Prop43
 90
        3
102
RTVSPost2010PropOp43
 70
     1
102
RTVSPost2010Prop44ColorIndex
 90
        5
102
RTVSPost2010Prop44ColorRGB
 90
      255
102
RTVSPost2010PropOp44
 70
     1
102
RTVSPost2010Prop45
280
     0
102
RTVSPost2010PropOp45
 70
     1
102
RTVSPost2010Prop46
 90
       50
102
RTVSPost2010PropOp46
 70
     1
102
RTVSPost2010Prop47
 90
       50
102
RTVSPost2010PropOp47
 70
     1
102
RTVSPost2010Prop48
 90
       50
102
RTVSPost2010PropOp48
 70
     1
102
RTVSPost2010Prop49
280
     0
102
RTVSPost2010PropOp49
 70
     1
102
RTVSPost2010Prop50
 90
       50
102
RTVSPost2010PropOp50
 70
     1
102
RTVSPost2010Prop51ColorIndex
 90
      256
102
RTVSPost2010Prop51ColorRGB
 90
-16777216
102
RTVSPost2010PropOp51
 70
     0
102
RTVSPost2010Prop52
140
1.0
102
RTVSPost2010PropOp52
 70
     0
102
RTVSPost2010Prop53
 90
        2
102
RTVSPost2010PropOp53
 70
     1
102
RTVSPost2010Prop54
  1
strokes_ogs.tif
102
RTVSPost2010PropOp54
 70
     1
102
RTVSPost2010Prop55
280
     0
102
RTVSPost2010PropOp55
 70
     1
102
RTVSPost2010Prop56
140
1.0
102
RTVSPost2010PropOp56
 70
     1
102
RTVSPost2010Prop57
140
1.0
102
RTVSPost2010PropOp57
 70
     1
  0
XRECORD
  5
34C
102
{ACAD_REACTORS
330
34B
102
}
330
34B
100
AcDbXrecord
280
     1
102
RTVSPost2010Prop28
280
     0
102
RTVSPost2010PropOp28
 70
     1
102
RTVSPost2010Prop29
280
     1
102
RTVSPost2010PropOp29
 70
     1
102
RTVSPost2010Prop30
280
     1
102
RTVSPost2010PropOp30
 70
     1
102
RTVSPost2010Prop31
280
     0
102
RTVSPost2010PropOp31
 70
     1
102
RTVSPost2010Prop32
280
     0
102
RTVSPost2010PropOp32
 70
     1
102
RTVSPost2010Prop33
280
     0
102
RTVSPost2010PropOp33
 70
     1
102
RTVSPost2010Prop34
280
     0
102
RTVSPost2010PropOp34
 70
     1
102
RTVSPost2010Prop35
280
     0
102
RTVSPost2010PropOp35
 70
     1
102
RTVSPost2010Prop36
280
     0
102
RTVSPost2010PropOp36
 70
     1
102
RTVSPost2010Prop37
 90
       50
102
RTVSPost2010PropOp37
 70
     1
102
RTVSPost2010Prop38
140
0.0
102
RTVSPost2010PropOp38
 70
     1
102
RTVSPost2010Prop39
140
1.0
102
RTVSPost2010PropOp39
 70
     1
102
RTVSPost2010Prop40
 90
        0
102
RTVSPost2010PropOp40
 70
     1
102
RTVSPost2010Prop41ColorIndex
 90
       18
102
RTVSPost2010Prop41ColorRGB
 90
        0
102
RTVSPost2010PropOp41
 70
     1
102
RTVSPost2010Prop42
 90
       50
102
RTVSPost2010PropOp42
 70
     1
102
RTVSPost2010Prop43
 90
        3
102
RTVSPost2010PropOp43
 70
     1
102
RTVSPost2010Prop44ColorIndex
 90
        5
102
RTVSPost2010Prop44ColorRGB
 90
      255
102
RTVSPost2010PropOp44
 70
     1
102
RTVSPost2010Prop45
280
     0
102
RTVSPost2010PropOp45
 70
     1
102
RTVSPost2010Prop46
 90
       50
102
RTVSPost2010PropOp46
 70
     1
102
RTVSPost2010Prop47
 90
       50
102
RTVSPost2010PropOp47
 70
     1
102
RTVSPost2010Prop48
 90
       50
102
RTVSPost2010PropOp48
 70
     1
102
RTVSPost2010Prop49
280
     0
102
RTVSPost2010PropOp49
 70
     1
102
RTVSPost2010Prop50
 90
       50
102
RTVSPost2010PropOp50
 70
     1
102
RTVSPost2010Prop51ColorIndex
 90
      256
102
RTVSPost2010Prop51ColorRGB
 90
-16777216
102
RTVSPost2010PropOp51
 70
     0
102
RTVSPost2010Prop52
140
1.0
102
RTVSPost2010PropOp52
 70
     0
102
RTVSPost2010Prop53
 90
        2
102
RTVSPost2010PropOp53
 70
     1
102
RTVSPost2010Prop54
  1
strokes_ogs.tif
102
RTVSPost2010PropOp54
 70
     1
102
RTVSPost2010Prop55
280
     0
102
RTVSPost2010PropOp55
 70
     1
102
RTVSPost2010Prop56
140
1.0
102
RTVSPost2010PropOp56
 70
     1
102
RTVSPost2010Prop57
140
1.0
102
RTVSPost2010PropOp57
 70
     1
  0
XRECORD
  5
350
102
{ACAD_REACTORS
330
34F
102
}
330
34F
100
AcDbXrecord
280
     1
102
RTVSPost2010Prop28
280
     0
102
RTVSPost2010PropOp28
 70
     1
102
RTVSPost2010Prop29
280
     1
102
RTVSPost2010PropOp29
 70
     1
102
RTVSPost2010Prop30
280
     1
102
RTVSPost2010PropOp30
 70
     1
102
RTVSPost2010Prop31
280
     0
102
RTVSPost2010PropOp31
 70
     1
102
RTVSPost2010Prop32
280
     0
102
RTVSPost2010PropOp32
 70
     1
102
RTVSPost2010Prop33
280
     0
102
RTVSPost2010PropOp33
 70
     1
102
RTVSPost2010Prop34
280
     0
102
RTVSPost2010PropOp34
 70
     1
102
RTVSPost2010Prop35
280
     0
102
RTVSPost2010PropOp35
 70
     1
102
RTVSPost2010Prop36
280
     0
102
RTVSPost2010PropOp36
 70
     1
102
RTVSPost2010Prop37
 90
       50
102
RTVSPost2010PropOp37
 70
     1
102
RTVSPost2010Prop38
140
0.0
102
RTVSPost2010PropOp38
 70
     1
102
RTVSPost2010Prop39
140
1.0
102
RTVSPost2010PropOp39
 70
     1
102
RTVSPost2010Prop40
 90
        0
102
RTVSPost2010PropOp40
 70
     1
102
RTVSPost2010Prop41ColorIndex
 90
       18
102
RTVSPost2010Prop41ColorRGB
 90
        0
102
RTVSPost2010PropOp41
 70
     1
102
RTVSPost2010Prop42
 90
       50
102
RTVSPost2010PropOp42
 70
     1
102
RTVSPost2010Prop43
 90
        3
102
RTVSPost2010PropOp43
 70
     1
102
RTVSPost2010Prop44ColorIndex
 90
        5
102
RTVSPost2010Prop44ColorRGB
 90
      255
102
RTVSPost2010PropOp44
 70
     1
102
RTVSPost2010Prop45
280
     0
102
RTVSPost2010PropOp45
 70
     1
102
RTVSPost2010Prop46
 90
       50
102
RTVSPost2010PropOp46
 70
     1
102
RTVSPost2010Prop47
 90
       50
102
RTVSPost2010PropOp47
 70
     1
102
RTVSPost2010Prop48
 90
       50
102
RTVSPost2010PropOp48
 70
     1
102
RTVSPost2010Prop49
280
     0
102
RTVSPost2010PropOp49
 70
     1
102
RTVSPost2010Prop50
 90
       50
102
RTVSPost2010PropOp50
 70
     1
102
RTVSPost2010Prop51ColorIndex
 90
      256
102
RTVSPost2010Prop51ColorRGB
 90
-16777216
102
RTVSPost2010PropOp51
 70
     0
102
RTVSPost2010Prop52
140
1.0
102
RTVSPost2010PropOp52
 70
     0
102
RTVSPost2010Prop53
 90
        2
102
RTVSPost2010PropOp53
 70
     1
102
RTVSPost2010Prop54
  1
strokes_ogs.tif
102
RTVSPost2010PropOp54
 70
     1
102
RTVSPost2010Prop55
280
     0
102
RTVSPost2010PropOp55
 70
     1
102
RTVSPost2010Prop56
140
1.0
102
RTVSPost2010PropOp56
 70
     1
102
RTVSPost2010Prop57
140
1.0
102
RTVSPost2010PropOp57
 70
     1
  0
XRECORD
  5
36A
102
{ACAD_REACTORS
330
369
102
}
330
369
100
AcDbXrecord
280
     1
102
RTVSPost2010Prop28
280
     0
102
RTVSPost2010PropOp28
 70
     0
102
RTVSPost2010Prop29
280
     1
102
RTVSPost2010PropOp29
 70
     0
102
RTVSPost2010Prop30
280
     1
102
RTVSPost2010PropOp30
 70
     0
102
RTVSPost2010Prop31
280
     0
102
RTVSPost2010PropOp31
 70
     0
102
RTVSPost2010Prop32
280
     0
102
RTVSPost2010PropOp32
 70
     0
102
RTVSPost2010Prop33
280
     0
102
RTVSPost2010PropOp33
 70
     0
102
RTVSPost2010Prop34
280
     0
102
RTVSPost2010PropOp34
 70
     0
102
RTVSPost2010Prop35
280
     0
102
RTVSPost2010PropOp35
 70
     0
102
RTVSPost2010Prop36
280
     0
102
RTVSPost2010PropOp36
 70
     0
102
RTVSPost2010Prop37
 90
       50
102
RTVSPost2010PropOp37
 70
     0
102
RTVSPost2010Prop38
140
0.0
102
RTVSPost2010PropOp38
 70
     0
102
RTVSPost2010Prop39
140
1.0
102
RTVSPost2010PropOp39
 70
     0
102
RTVSPost2010Prop40
 90
        0
102
RTVSPost2010PropOp40
 70
     0
102
RTVSPost2010Prop41ColorIndex
 90
       18
102
RTVSPost2010Prop41ColorRGB
 90
        0
102
RTVSPost2010PropOp41
 70
     0
102
RTVSPost2010Prop42
 90
       50
102
RTVSPost2010PropOp42
 70
     0
102
RTVSPost2010Prop43
 90
        3
102
RTVSPost2010PropOp43
 70
     0
102
RTVSPost2010Prop44ColorIndex
 90
        5
102
RTVSPost2010Prop44ColorRGB
 90
      255
102
RTVSPost2010PropOp44
 70
     0
102
RTVSPost2010Prop45
280
     0
102
RTVSPost2010PropOp45
 70
     0
102
RTVSPost2010Prop46
 90
       50
102
RTVSPost2010PropOp46
 70
     0
102
RTVSPost2010Prop47
 90
       50
102
RTVSPost2010PropOp47
 70
     0
102
RTVSPost2010Prop48
 90
       50
102
RTVSPost2010PropOp48
 70
     0
102
RTVSPost2010Prop49
280
     0
102
RTVSPost2010PropOp49
 70
     0
102
RTVSPost2010Prop50
 90
       50
102
RTVSPost2010PropOp50
 70
     0
102
RTVSPost2010Prop51ColorIndex
 90
      256
102
RTVSPost2010Prop51ColorRGB
 90
-16777216
102
RTVSPost2010PropOp51
 70
     0
102
RTVSPost2010Prop52
140
1.0
102
RTVSPost2010PropOp52
 70
     0
102
RTVSPost2010Prop53
 90
        2
102
RTVSPost2010PropOp53
 70
     0
102
RTVSPost2010Prop54
  1
strokes_ogs.tif
102
RTVSPost2010PropOp54
 70
     0
102
RTVSPost2010Prop55
280
     0
102
RTVSPost2010PropOp55
 70
     0
102
RTVSPost2010Prop56
140
1.0
102
RTVSPost2010PropOp56
 70
     0
102
RTVSPost2010Prop57
140
1.0
102
RTVSPost2010PropOp57
 70
     0
  0
XRECORD
  5
358
102
{ACAD_REACTORS
330
357
102
}
330
357
100
AcDbXrecord
280
     1
102
RTVSPost2010Prop28
280
     0
102
RTVSPost2010PropOp28
 70
     1
102
RTVSPost2010Prop29
280
     1
102
RTVSPost2010PropOp29
 70
     1
102
RTVSPost2010Prop30
280
     1
102
RTVSPost2010PropOp30
 70
     1
102
RTVSPost2010Prop31
280
     0
102
RTVSPost2010PropOp31
 70
     1
102
RTVSPost2010Prop32
280
     0
102
RTVSPost2010PropOp32
 70
     1
102
RTVSPost2010Prop33
280
     0
102
RTVSPost2010PropOp33
 70
     1
102
RTVSPost2010Prop34
280
     0
102
RTVSPost2010PropOp34
 70
     1
102
RTVSPost2010Prop35
280
     0
102
RTVSPost2010PropOp35
 70
     1
102
RTVSPost2010Prop36
280
     0
102
RTVSPost2010PropOp36
 70
     1
102
RTVSPost2010Prop37
 90
       50
102
RTVSPost2010PropOp37
 70
     1
102
RTVSPost2010Prop38
140
0.0
102
RTVSPost2010PropOp38
 70
     1
102
RTVSPost2010Prop39
140
1.0
102
RTVSPost2010PropOp39
 70
     1
102
RTVSPost2010Prop40
 90
        0
102
RTVSPost2010PropOp40
 70
     1
102
RTVSPost2010Prop41ColorIndex
 90
       18
102
RTVSPost2010Prop41ColorRGB
 90
        0
102
RTVSPost2010PropOp41
 70
     1
102
RTVSPost2010Prop42
 90
       50
102
RTVSPost2010PropOp42
 70
     1
102
RTVSPost2010Prop43
 90
        3
102
RTVSPost2010PropOp43
 70
     1
102
RTVSPost2010Prop44ColorIndex
 90
        5
102
RTVSPost2010Prop44ColorRGB
 90
      255
102
RTVSPost2010PropOp44
 70
     1
102
RTVSPost2010Prop45
280
     0
102
RTVSPost2010PropOp45
 70
     1
102
RTVSPost2010Prop46
 90
       50
102
RTVSPost2010PropOp46
 70
     1
102
RTVSPost2010Prop47
 90
       50
102
RTVSPost2010PropOp47
 70
     1
102
RTVSPost2010Prop48
 90
       50
102
RTVSPost2010PropOp48
 70
     1
102
RTVSPost2010Prop49
280
     0
102
RTVSPost2010PropOp49
 70
     1
102
RTVSPost2010Prop50
 90
       50
102
RTVSPost2010PropOp50
 70
     1
102
RTVSPost2010Prop51ColorIndex
 90
      256
102
RTVSPost2010Prop51ColorRGB
 90
-16777216
102
RTVSPost2010PropOp51
 70
     0
102
RTVSPost2010Prop52
140
1.0
102
RTVSPost2010PropOp52
 70
     0
102
RTVSPost2010Prop53
 90
        2
102
RTVSPost2010PropOp53
 70
     1
102
RTVSPost2010Prop54
  1
strokes_ogs.tif
102
RTVSPost2010PropOp54
 70
     1
102
RTVSPost2010Prop55
280
     0
102
RTVSPost2010PropOp55
 70
     1
102
RTVSPost2010Prop56
140
1.0
102
RTVSPost2010PropOp56
 70
     1
102
RTVSPost2010Prop57
140
1.0
102
RTVSPost2010PropOp57
 70
     1
  0
XRECORD
  5
33C
102
{ACAD_REACTORS
330
33B
102
}
330
33B
100
AcDbXrecord
280
     1
102
RTVSPost2010Prop28
280
     0
102
RTVSPost2010PropOp28
 70
     1
102
RTVSPost2010Prop29
280
     1
102
RTVSPost2010PropOp29
 70
     1
102
RTVSPost2010Prop30
280
     1
102
RTVSPost2010PropOp30
 70
     1
102
RTVSPost2010Prop31
280
     0
102
RTVSPost2010PropOp31
 70
     1
102
RTVSPost2010Prop32
280
     0
102
RTVSPost2010PropOp32
 70
     1
102
RTVSPost2010Prop33
280
     0
102
RTVSPost2010PropOp33
 70
     1
102
RTVSPost2010Prop34
280
     0
102
RTVSPost2010PropOp34
 70
     1
102
RTVSPost2010Prop35
280
     0
102
RTVSPost2010PropOp35
 70
     1
102
RTVSPost2010Prop36
280
     0
102
RTVSPost2010PropOp36
 70
     1
102
RTVSPost2010Prop37
 90
       50
102
RTVSPost2010PropOp37
 70
     1
102
RTVSPost2010Prop38
140
0.0
102
RTVSPost2010PropOp38
 70
     1
102
RTVSPost2010Prop39
140
1.0
102
RTVSPost2010PropOp39
 70
     1
102
RTVSPost2010Prop40
 90
        0
102
RTVSPost2010PropOp40
 70
     1
102
RTVSPost2010Prop41ColorIndex
 90
       18
102
RTVSPost2010Prop41ColorRGB
 90
        0
102
RTVSPost2010PropOp41
 70
     1
102
RTVSPost2010Prop42
 90
       50
102
RTVSPost2010PropOp42
 70
     1
102
RTVSPost2010Prop43
 90
        3
102
RTVSPost2010PropOp43
 70
     1
102
RTVSPost2010Prop44ColorIndex
 90
        5
102
RTVSPost2010Prop44ColorRGB
 90
      255
102
RTVSPost2010PropOp44
 70
     1
102
RTVSPost2010Prop45
280
     0
102
RTVSPost2010PropOp45
 70
     1
102
RTVSPost2010Prop46
 90
       50
102
RTVSPost2010PropOp46
 70
     1
102
RTVSPost2010Prop47
 90
       50
102
RTVSPost2010PropOp47
 70
     1
102
RTVSPost2010Prop48
 90
       50
102
RTVSPost2010PropOp48
 70
     1
102
RTVSPost2010Prop49
280
     0
102
RTVSPost2010PropOp49
 70
     1
102
RTVSPost2010Prop50
 90
       50
102
RTVSPost2010PropOp50
 70
     1
102
RTVSPost2010Prop51ColorIndex
 90
      256
102
RTVSPost2010Prop51ColorRGB
 90
-16777216
102
RTVSPost2010PropOp51
 70
     0
102
RTVSPost2010Prop52
140
1.0
102
RTVSPost2010PropOp52
 70
     0
102
RTVSPost2010Prop53
 90
        2
102
RTVSPost2010PropOp53
 70
     1
102
RTVSPost2010Prop54
  1
strokes_ogs.tif
102
RTVSPost2010PropOp54
 70
     1
102
RTVSPost2010Prop55
280
     0
102
RTVSPost2010PropOp55
 70
     1
102
RTVSPost2010Prop56
140
1.0
102
RTVSPost2010PropOp56
 70
     1
102
RTVSPost2010Prop57
140
1.0
102
RTVSPost2010PropOp57
 70
     1
  0
XRECORD
  5
33E
102
{ACAD_REACTORS
330
33D
102
}
330
33D
100
AcDbXrecord
280
     1
102
RTVSPost2010Prop28
280
     0
102
RTVSPost2010PropOp28
 70
     1
102
RTVSPost2010Prop29
280
     1
102
RTVSPost2010PropOp29
 70
     1
102
RTVSPost2010Prop30
280
     1
102
RTVSPost2010PropOp30
 70
     1
102
RTVSPost2010Prop31
280
     0
102
RTVSPost2010PropOp31
 70
     1
102
RTVSPost2010Prop32
280
     0
102
RTVSPost2010PropOp32
 70
     1
102
RTVSPost2010Prop33
280
     0
102
RTVSPost2010PropOp33
 70
     1
102
RTVSPost2010Prop34
280
     0
102
RTVSPost2010PropOp34
 70
     1
102
RTVSPost2010Prop35
280
     0
102
RTVSPost2010PropOp35
 70
     1
102
RTVSPost2010Prop36
280
     0
102
RTVSPost2010PropOp36
 70
     1
102
RTVSPost2010Prop37
 90
       50
102
RTVSPost2010PropOp37
 70
     1
102
RTVSPost2010Prop38
140
0.0
102
RTVSPost2010PropOp38
 70
     1
102
RTVSPost2010Prop39
140
1.0
102
RTVSPost2010PropOp39
 70
     1
102
RTVSPost2010Prop40
 90
        0
102
RTVSPost2010PropOp40
 70
     1
102
RTVSPost2010Prop41ColorIndex
 90
       18
102
RTVSPost2010Prop41ColorRGB
 90
        0
102
RTVSPost2010PropOp41
 70
     1
102
RTVSPost2010Prop42
 90
       50
102
RTVSPost2010PropOp42
 70
     1
102
RTVSPost2010Prop43
 90
        3
102
RTVSPost2010PropOp43
 70
     1
102
RTVSPost2010Prop44ColorIndex
 90
        5
102
RTVSPost2010Prop44ColorRGB
 90
      255
102
RTVSPost2010PropOp44
 70
     1
102
RTVSPost2010Prop45
280
     0
102
RTVSPost2010PropOp45
 70
     1
102
RTVSPost2010Prop46
 90
       50
102
RTVSPost2010PropOp46
 70
     1
102
RTVSPost2010Prop47
 90
       50
102
RTVSPost2010PropOp47
 70
     1
102
RTVSPost2010Prop48
 90
       50
102
RTVSPost2010PropOp48
 70
     1
102
RTVSPost2010Prop49
280
     0
102
RTVSPost2010PropOp49
 70
     1
102
RTVSPost2010Prop50
 90
       50
102
RTVSPost2010PropOp50
 70
     1
102
RTVSPost2010Prop51ColorIndex
 90
      256
102
RTVSPost2010Prop51ColorRGB
 90
-16777216
102
RTVSPost2010PropOp51
 70
     0
102
RTVSPost2010Prop52
140
1.0
102
RTVSPost2010PropOp52
 70
     0
102
RTVSPost2010Prop53
 90
        2
102
RTVSPost2010PropOp53
 70
     1
102
RTVSPost2010Prop54
  1
strokes_ogs.tif
102
RTVSPost2010PropOp54
 70
     1
102
RTVSPost2010Prop55
280
     0
102
RTVSPost2010PropOp55
 70
     1
102
RTVSPost2010Prop56
140
1.0
102
RTVSPost2010PropOp56
 70
     1
102
RTVSPost2010Prop57
140
1.0
102
RTVSPost2010PropOp57
 70
     1
  0
XRECORD
  5
340
102
{ACAD_REACTORS
330
33F
102
}
330
33F
100
AcDbXrecord
280
     1
102
RTVSPost2010Prop28
280
     0
102
RTVSPost2010PropOp28
 70
     1
102
RTVSPost2010Prop29
280
     1
102
RTVSPost2010PropOp29
 70
     1
102
RTVSPost2010Prop30
280
     1
102
RTVSPost2010PropOp30
 70
     1
102
RTVSPost2010Prop31
280
     0
102
RTVSPost2010PropOp31
 70
     1
102
RTVSPost2010Prop32
280
     0
102
RTVSPost2010PropOp32
 70
     1
102
RTVSPost2010Prop33
280
     0
102
RTVSPost2010PropOp33
 70
     1
102
RTVSPost2010Prop34
280
     0
102
RTVSPost2010PropOp34
 70
     1
102
RTVSPost2010Prop35
280
     0
102
RTVSPost2010PropOp35
 70
     1
102
RTVSPost2010Prop36
280
     0
102
RTVSPost2010PropOp36
 70
     1
102
RTVSPost2010Prop37
 90
       50
102
RTVSPost2010PropOp37
 70
     1
102
RTVSPost2010Prop38
140
0.0
102
RTVSPost2010PropOp38
 70
     1
102
RTVSPost2010Prop39
140
1.0
102
RTVSPost2010PropOp39
 70
     1
102
RTVSPost2010Prop40
 90
        0
102
RTVSPost2010PropOp40
 70
     1
102
RTVSPost2010Prop41ColorIndex
 90
       18
102
RTVSPost2010Prop41ColorRGB
 90
        0
102
RTVSPost2010PropOp41
 70
     1
102
RTVSPost2010Prop42
 90
       50
102
RTVSPost2010PropOp42
 70
     1
102
RTVSPost2010Prop43
 90
        3
102
RTVSPost2010PropOp43
 70
     1
102
RTVSPost2010Prop44ColorIndex
 90
        5
102
RTVSPost2010Prop44ColorRGB
 90
      255
102
RTVSPost2010PropOp44
 70
     1
102
RTVSPost2010Prop45
280
     0
102
RTVSPost2010PropOp45
 70
     1
102
RTVSPost2010Prop46
 90
       50
102
RTVSPost2010PropOp46
 70
     1
102
RTVSPost2010Prop47
 90
       50
102
RTVSPost2010PropOp47
 70
     1
102
RTVSPost2010Prop48
 90
       50
102
RTVSPost2010PropOp48
 70
     1
102
RTVSPost2010Prop49
280
     0
102
RTVSPost2010PropOp49
 70
     1
102
RTVSPost2010Prop50
 90
       50
102
RTVSPost2010PropOp50
 70
     1
102
RTVSPost2010Prop51ColorIndex
 90
      256
102
RTVSPost2010Prop51ColorRGB
 90
-16777216
102
RTVSPost2010PropOp51
 70
     0
102
RTVSPost2010Prop52
140
1.0
102
RTVSPost2010PropOp52
 70
     0
102
RTVSPost2010Prop53
 90
        2
102
RTVSPost2010PropOp53
 70
     1
102
RTVSPost2010Prop54
  1
strokes_ogs.tif
102
RTVSPost2010PropOp54
 70
     1
102
RTVSPost2010Prop55
280
     0
102
RTVSPost2010PropOp55
 70
     1
102
RTVSPost2010Prop56
140
1.0
102
RTVSPost2010PropOp56
 70
     1
102
RTVSPost2010Prop57
140
1.0
102
RTVSPost2010PropOp57
 70
     1
  0
XRECORD
  5
342
102
{ACAD_REACTORS
330
341
102
}
330
341
100
AcDbXrecord
280
     1
102
RTVSPost2010Prop28
280
     0
102
RTVSPost2010PropOp28
 70
     1
102
RTVSPost2010Prop29
280
     1
102
RTVSPost2010PropOp29
 70
     1
102
RTVSPost2010Prop30
280
     1
102
RTVSPost2010PropOp30
 70
     1
102
RTVSPost2010Prop31
280
     0
102
RTVSPost2010PropOp31
 70
     1
102
RTVSPost2010Prop32
280
     0
102
RTVSPost2010PropOp32
 70
     1
102
RTVSPost2010Prop33
280
     0
102
RTVSPost2010PropOp33
 70
     1
102
RTVSPost2010Prop34
280
     0
102
RTVSPost2010PropOp34
 70
     1
102
RTVSPost2010Prop35
280
     0
102
RTVSPost2010PropOp35
 70
     1
102
RTVSPost2010Prop36
280
     0
102
RTVSPost2010PropOp36
 70
     1
102
RTVSPost2010Prop37
 90
       50
102
RTVSPost2010PropOp37
 70
     1
102
RTVSPost2010Prop38
140
0.0
102
RTVSPost2010PropOp38
 70
     1
102
RTVSPost2010Prop39
140
1.0
102
RTVSPost2010PropOp39
 70
     1
102
RTVSPost2010Prop40
 90
        0
102
RTVSPost2010PropOp40
 70
     1
102
RTVSPost2010Prop41ColorIndex
 90
       18
102
RTVSPost2010Prop41ColorRGB
 90
        0
102
RTVSPost2010PropOp41
 70
     1
102
RTVSPost2010Prop42
 90
       50
102
RTVSPost2010PropOp42
 70
     1
102
RTVSPost2010Prop43
 90
        3
102
RTVSPost2010PropOp43
 70
     1
102
RTVSPost2010Prop44ColorIndex
 90
        5
102
RTVSPost2010Prop44ColorRGB
 90
      255
102
RTVSPost2010PropOp44
 70
     1
102
RTVSPost2010Prop45
280
     0
102
RTVSPost2010PropOp45
 70
     1
102
RTVSPost2010Prop46
 90
       50
102
RTVSPost2010PropOp46
 70
     1
102
RTVSPost2010Prop47
 90
       50
102
RTVSPost2010PropOp47
 70
     1
102
RTVSPost2010Prop48
 90
       50
102
RTVSPost2010PropOp48
 70
     1
102
RTVSPost2010Prop49
280
     0
102
RTVSPost2010PropOp49
 70
     1
102
RTVSPost2010Prop50
 90
       50
102
RTVSPost2010PropOp50
 70
     1
102
RTVSPost2010Prop51ColorIndex
 90
      256
102
RTVSPost2010Prop51ColorRGB
 90
-16777216
102
RTVSPost2010PropOp51
 70
     0
102
RTVSPost2010Prop52
140
1.0
102
RTVSPost2010PropOp52
 70
     0
102
RTVSPost2010Prop53
 90
        2
102
RTVSPost2010PropOp53
 70
     1
102
RTVSPost2010Prop54
  1
strokes_ogs.tif
102
RTVSPost2010PropOp54
 70
     1
102
RTVSPost2010Prop55
280
     0
102
RTVSPost2010PropOp55
 70
     1
102
RTVSPost2010Prop56
140
1.0
102
RTVSPost2010PropOp56
 70
     1
102
RTVSPost2010Prop57
140
1.0
102
RTVSPost2010PropOp57
 70
     1
  0
XRECORD
  5
34A
102
{ACAD_REACTORS
330
349
102
}
330
349
100
AcDbXrecord
280
     1
102
RTVSPost2010Prop28
280
     0
102
RTVSPost2010PropOp28
 70
     1
102
RTVSPost2010Prop29
280
     1
102
RTVSPost2010PropOp29
 70
     1
102
RTVSPost2010Prop30
280
     1
102
RTVSPost2010PropOp30
 70
     1
102
RTVSPost2010Prop31
280
     0
102
RTVSPost2010PropOp31
 70
     1
102
RTVSPost2010Prop32
280
     0
102
RTVSPost2010PropOp32
 70
     1
102
RTVSPost2010Prop33
280
     0
102
RTVSPost2010PropOp33
 70
     1
102
RTVSPost2010Prop34
280
     0
102
RTVSPost2010PropOp34
 70
     1
102
RTVSPost2010Prop35
280
     0
102
RTVSPost2010PropOp35
 70
     1
102
RTVSPost2010Prop36
280
     0
102
RTVSPost2010PropOp36
 70
     1
102
RTVSPost2010Prop37
 90
       50
102
RTVSPost2010PropOp37
 70
     1
102
RTVSPost2010Prop38
140
0.0
102
RTVSPost2010PropOp38
 70
     1
102
RTVSPost2010Prop39
140
1.0
102
RTVSPost2010PropOp39
 70
     1
102
RTVSPost2010Prop40
 90
        0
102
RTVSPost2010PropOp40
 70
     1
102
RTVSPost2010Prop41ColorIndex
 90
       18
102
RTVSPost2010Prop41ColorRGB
 90
        0
102
RTVSPost2010PropOp41
 70
     1
102
RTVSPost2010Prop42
 90
       50
102
RTVSPost2010PropOp42
 70
     1
102
RTVSPost2010Prop43
 90
        3
102
RTVSPost2010PropOp43
 70
     1
102
RTVSPost2010Prop44ColorIndex
 90
        5
102
RTVSPost2010Prop44ColorRGB
 90
      255
102
RTVSPost2010PropOp44
 70
     1
102
RTVSPost2010Prop45
280
     0
102
RTVSPost2010PropOp45
 70
     1
102
RTVSPost2010Prop46
 90
       50
102
RTVSPost2010PropOp46
 70
     1
102
RTVSPost2010Prop47
 90
       50
102
RTVSPost2010PropOp47
 70
     1
102
RTVSPost2010Prop48
 90
       50
102
RTVSPost2010PropOp48
 70
     1
102
RTVSPost2010Prop49
280
     0
102
RTVSPost2010PropOp49
 70
     1
102
RTVSPost2010Prop50
 90
       50
102
RTVSPost2010PropOp50
 70
     1
102
RTVSPost2010Prop51ColorIndex
 90
      256
102
RTVSPost2010Prop51ColorRGB
 90
-16777216
102
RTVSPost2010PropOp51
 70
     0
102
RTVSPost2010Prop52
140
1.0
102
RTVSPost2010PropOp52
 70
     0
102
RTVSPost2010Prop53
 90
        2
102
RTVSPost2010PropOp53
 70
     1
102
RTVSPost2010Prop54
  1
strokes_ogs.tif
102
RTVSPost2010PropOp54
 70
     1
102
RTVSPost2010Prop55
280
     0
102
RTVSPost2010PropOp55
 70
     1
102
RTVSPost2010Prop56
140
1.0
102
RTVSPost2010PropOp56
 70
     1
102
RTVSPost2010Prop57
140
1.0
102
RTVSPost2010PropOp57
 70
     1
  0
XRECORD
  5
366
102
{ACAD_REACTORS
330
365
102
}
330
365
100
AcDbXrecord
280
     1
102
RTVSPost2010Prop28
280
     0
102
RTVSPost2010PropOp28
 70
     0
102
RTVSPost2010Prop29
280
     1
102
RTVSPost2010PropOp29
 70
     0
102
RTVSPost2010Prop30
280
     1
102
RTVSPost2010PropOp30
 70
     0
102
RTVSPost2010Prop31
280
     0
102
RTVSPost2010PropOp31
 70
     0
102
RTVSPost2010Prop32
280
     0
102
RTVSPost2010PropOp32
 70
     0
102
RTVSPost2010Prop33
280
     0
102
RTVSPost2010PropOp33
 70
     0
102
RTVSPost2010Prop34
280
     0
102
RTVSPost2010PropOp34
 70
     0
102
RTVSPost2010Prop35
280
     0
102
RTVSPost2010PropOp35
 70
     0
102
RTVSPost2010Prop36
280
     0
102
RTVSPost2010PropOp36
 70
     0
102
RTVSPost2010Prop37
 90
       50
102
RTVSPost2010PropOp37
 70
     0
102
RTVSPost2010Prop38
140
0.0
102
RTVSPost2010PropOp38
 70
     0
102
RTVSPost2010Prop39
140
1.0
102
RTVSPost2010PropOp39
 70
     0
102
RTVSPost2010Prop40
 90
        0
102
RTVSPost2010PropOp40
 70
     0
102
RTVSPost2010Prop41ColorIndex
 90
       18
102
RTVSPost2010Prop41ColorRGB
 90
        0
102
RTVSPost2010PropOp41
 70
     0
102
RTVSPost2010Prop42
 90
       50
102
RTVSPost2010PropOp42
 70
     0
102
RTVSPost2010Prop43
 90
        3
102
RTVSPost2010PropOp43
 70
     0
102
RTVSPost2010Prop44ColorIndex
 90
        5
102
RTVSPost2010Prop44ColorRGB
 90
      255
102
RTVSPost2010PropOp44
 70
     0
102
RTVSPost2010Prop45
280
     0
102
RTVSPost2010PropOp45
 70
     0
102
RTVSPost2010Prop46
 90
       50
102
RTVSPost2010PropOp46
 70
     0
102
RTVSPost2010Prop47
 90
       50
102
RTVSPost2010PropOp47
 70
     0
102
RTVSPost2010Prop48
 90
       50
102
RTVSPost2010PropOp48
 70
     0
102
RTVSPost2010Prop49
280
     0
102
RTVSPost2010PropOp49
 70
     0
102
RTVSPost2010Prop50
 90
       50
102
RTVSPost2010PropOp50
 70
     0
102
RTVSPost2010Prop51ColorIndex
 90
      256
102
RTVSPost2010Prop51ColorRGB
 90
-16777216
102
RTVSPost2010PropOp51
 70
     0
102
RTVSPost2010Prop52
140
1.0
102
RTVSPost2010PropOp52
 70
     0
102
RTVSPost2010Prop53
 90
        2
102
RTVSPost2010PropOp53
 70
     0
102
RTVSPost2010Prop54
  1
strokes_ogs.tif
102
RTVSPost2010PropOp54
 70
     0
102
RTVSPost2010Prop55
280
     0
102
RTVSPost2010PropOp55
 70
     0
102
RTVSPost2010Prop56
140
1.0
102
RTVSPost2010PropOp56
 70
     0
102
RTVSPost2010Prop57
140
1.0
102
RTVSPost2010PropOp57
 70
     0
  0
XRECORD
  5
356
102
{ACAD_REACTORS
330
355
102
}
330
355
100
AcDbXrecord
280
     1
102
RTVSPost2010Prop28
280
     0
102
RTVSPost2010PropOp28
 70
     1
102
RTVSPost2010Prop29
280
     1
102
RTVSPost2010PropOp29
 70
     1
102
RTVSPost2010Prop30
280
     1
102
RTVSPost2010PropOp30
 70
     1
102
RTVSPost2010Prop31
280
     0
102
RTVSPost2010PropOp31
 70
     1
102
RTVSPost2010Prop32
280
     0
102
RTVSPost2010PropOp32
 70
     1
102
RTVSPost2010Prop33
280
     0
102
RTVSPost2010PropOp33
 70
     1
102
RTVSPost2010Prop34
280
     0
102
RTVSPost2010PropOp34
 70
     1
102
RTVSPost2010Prop35
280
     0
102
RTVSPost2010PropOp35
 70
     1
102
RTVSPost2010Prop36
280
     0
102
RTVSPost2010PropOp36
 70
     1
102
RTVSPost2010Prop37
 90
       50
102
RTVSPost2010PropOp37
 70
     1
102
RTVSPost2010Prop38
140
0.0
102
RTVSPost2010PropOp38
 70
     1
102
RTVSPost2010Prop39
140
1.0
102
RTVSPost2010PropOp39
 70
     1
102
RTVSPost2010Prop40
 90
        0
102
RTVSPost2010PropOp40
 70
     1
102
RTVSPost2010Prop41ColorIndex
 90
       18
102
RTVSPost2010Prop41ColorRGB
 90
        0
102
RTVSPost2010PropOp41
 70
     1
102
RTVSPost2010Prop42
 90
       50
102
RTVSPost2010PropOp42
 70
     1
102
RTVSPost2010Prop43
 90
        3
102
RTVSPost2010PropOp43
 70
     1
102
RTVSPost2010Prop44ColorIndex
 90
        5
102
RTVSPost2010Prop44ColorRGB
 90
      255
102
RTVSPost2010PropOp44
 70
     1
102
RTVSPost2010Prop45
280
     0
102
RTVSPost2010PropOp45
 70
     1
102
RTVSPost2010Prop46
 90
       50
102
RTVSPost2010PropOp46
 70
     1
102
RTVSPost2010Prop47
 90
       50
102
RTVSPost2010PropOp47
 70
     1
102
RTVSPost2010Prop48
 90
       50
102
RTVSPost2010PropOp48
 70
     1
102
RTVSPost2010Prop49
280
     0
102
RTVSPost2010PropOp49
 70
     1
102
RTVSPost2010Prop50
 90
       50
102
RTVSPost2010PropOp50
 70
     1
102
RTVSPost2010Prop51ColorIndex
 90
      256
102
RTVSPost2010Prop51ColorRGB
 90
-16777216
102
RTVSPost2010PropOp51
 70
     0
102
RTVSPost2010Prop52
140
1.0
102
RTVSPost2010PropOp52
 70
     0
102
RTVSPost2010Prop53
 90
        2
102
RTVSPost2010PropOp53
 70
     1
102
RTVSPost2010Prop54
  1
strokes_ogs.tif
102
RTVSPost2010PropOp54
 70
     1
102
RTVSPost2010Prop55
280
     0
102
RTVSPost2010PropOp55
 70
     1
102
RTVSPost2010Prop56
140
1.0
102
RTVSPost2010PropOp56
 70
     1
102
RTVSPost2010Prop57
140
1.0
102
RTVSPost2010PropOp57
 70
     1
  0
XRECORD
  5
368
102
{ACAD_REACTORS
330
367
102
}
330
367
100
AcDbXrecord
280
     1
102
RTVSPost2010Prop28
280
     0
102
RTVSPost2010PropOp28
 70
     0
102
RTVSPost2010Prop29
280
     1
102
RTVSPost2010PropOp29
 70
     0
102
RTVSPost2010Prop30
280
     1
102
RTVSPost2010PropOp30
 70
     0
102
RTVSPost2010Prop31
280
     0
102
RTVSPost2010PropOp31
 70
     0
102
RTVSPost2010Prop32
280
     0
102
RTVSPost2010PropOp32
 70
     0
102
RTVSPost2010Prop33
280
     0
102
RTVSPost2010PropOp33
 70
     0
102
RTVSPost2010Prop34
280
     0
102
RTVSPost2010PropOp34
 70
     0
102
RTVSPost2010Prop35
280
     0
102
RTVSPost2010PropOp35
 70
     0
102
RTVSPost2010Prop36
280
     0
102
RTVSPost2010PropOp36
 70
     0
102
RTVSPost2010Prop37
 90
       50
102
RTVSPost2010PropOp37
 70
     0
102
RTVSPost2010Prop38
140
0.0
102
RTVSPost2010PropOp38
 70
     0
102
RTVSPost2010Prop39
140
1.0
102
RTVSPost2010PropOp39
 70
     0
102
RTVSPost2010Prop40
 90
        0
102
RTVSPost2010PropOp40
 70
     0
102
RTVSPost2010Prop41ColorIndex
 90
       18
102
RTVSPost2010Prop41ColorRGB
 90
        0
102
RTVSPost2010PropOp41
 70
     0
102
RTVSPost2010Prop42
 90
       50
102
RTVSPost2010PropOp42
 70
     0
102
RTVSPost2010Prop43
 90
        3
102
RTVSPost2010PropOp43
 70
     0
102
RTVSPost2010Prop44ColorIndex
 90
        5
102
RTVSPost2010Prop44ColorRGB
 90
      255
102
RTVSPost2010PropOp44
 70
     0
102
RTVSPost2010Prop45
280
     0
102
RTVSPost2010PropOp45
 70
     0
102
RTVSPost2010Prop46
 90
       50
102
RTVSPost2010PropOp46
 70
     0
102
RTVSPost2010Prop47
 90
       50
102
RTVSPost2010PropOp47
 70
     0
102
RTVSPost2010Prop48
 90
       50
102
RTVSPost2010PropOp48
 70
     0
102
RTVSPost2010Prop49
280
     0
102
RTVSPost2010PropOp49
 70
     0
102
RTVSPost2010Prop50
 90
       50
102
RTVSPost2010PropOp50
 70
     0
102
RTVSPost2010Prop51ColorIndex
 90
      256
102
RTVSPost2010Prop51ColorRGB
 90
-16777216
102
RTVSPost2010PropOp51
 70
     0
102
RTVSPost2010Prop52
140
1.0
102
RTVSPost2010PropOp52
 70
     0
102
RTVSPost2010Prop53
 90
        2
102
RTVSPost2010PropOp53
 70
     0
102
RTVSPost2010Prop54
  1
strokes_ogs.tif
102
RTVSPost2010PropOp54
 70
     0
102
RTVSPost2010Prop55
280
     0
102
RTVSPost2010PropOp55
 70
     0
102
RTVSPost2010Prop56
140
1.0
102
RTVSPost2010PropOp56
 70
     0
102
RTVSPost2010Prop57
140
1.0
102
RTVSPost2010PropOp57
 70
     0
  0
XRECORD
  5
34E
102
{ACAD_REACTORS
330
34D
102
}
330
34D
100
AcDbXrecord
280
     1
102
RTVSPost2010Prop28
280
     0
102
RTVSPost2010PropOp28
 70
     1
102
RTVSPost2010Prop29
280
     1
102
RTVSPost2010PropOp29
 70
     1
102
RTVSPost2010Prop30
280
     1
102
RTVSPost2010PropOp30
 70
     1
102
RTVSPost2010Prop31
280
     0
102
RTVSPost2010PropOp31
 70
     1
102
RTVSPost2010Prop32
280
     0
102
RTVSPost2010PropOp32
 70
     1
102
RTVSPost2010Prop33
280
     0
102
RTVSPost2010PropOp33
 70
     1
102
RTVSPost2010Prop34
280
     0
102
RTVSPost2010PropOp34
 70
     1
102
RTVSPost2010Prop35
280
     0
102
RTVSPost2010PropOp35
 70
     1
102
RTVSPost2010Prop36
280
     0
102
RTVSPost2010PropOp36
 70
     1
102
RTVSPost2010Prop37
 90
       50
102
RTVSPost2010PropOp37
 70
     1
102
RTVSPost2010Prop38
140
0.0
102
RTVSPost2010PropOp38
 70
     1
102
RTVSPost2010Prop39
140
1.0
102
RTVSPost2010PropOp39
 70
     1
102
RTVSPost2010Prop40
 90
        0
102
RTVSPost2010PropOp40
 70
     1
102
RTVSPost2010Prop41ColorIndex
 90
       18
102
RTVSPost2010Prop41ColorRGB
 90
        0
102
RTVSPost2010PropOp41
 70
     1
102
RTVSPost2010Prop42
 90
       50
102
RTVSPost2010PropOp42
 70
     1
102
RTVSPost2010Prop43
 90
        3
102
RTVSPost2010PropOp43
 70
     1
102
RTVSPost2010Prop44ColorIndex
 90
        5
102
RTVSPost2010Prop44ColorRGB
 90
      255
102
RTVSPost2010PropOp44
 70
     1
102
RTVSPost2010Prop45
280
     0
102
RTVSPost2010PropOp45
 70
     1
102
RTVSPost2010Prop46
 90
       50
102
RTVSPost2010PropOp46
 70
     1
102
RTVSPost2010Prop47
 90
       50
102
RTVSPost2010PropOp47
 70
     1
102
RTVSPost2010Prop48
 90
       50
102
RTVSPost2010PropOp48
 70
     1
102
RTVSPost2010Prop49
280
     0
102
RTVSPost2010PropOp49
 70
     1
102
RTVSPost2010Prop50
 90
       50
102
RTVSPost2010PropOp50
 70
     1
102
RTVSPost2010Prop51ColorIndex
 90
      256
102
RTVSPost2010Prop51ColorRGB
 90
-16777216
102
RTVSPost2010PropOp51
 70
     0
102
RTVSPost2010Prop52
140
1.0
102
RTVSPost2010PropOp52
 70
     0
102
RTVSPost2010Prop53
 90
        2
102
RTVSPost2010PropOp53
 70
     1
102
RTVSPost2010Prop54
  1
strokes_ogs.tif
102
RTVSPost2010PropOp54
 70
     1
102
RTVSPost2010Prop55
280
     0
102
RTVSPost2010PropOp55
 70
     1
102
RTVSPost2010Prop56
140
1.0
102
RTVSPost2010PropOp56
 70
     1
102
RTVSPost2010Prop57
140
1.0
102
RTVSPost2010PropOp57
 70
     1
  0
XRECORD
  5
364
102
{ACAD_REACTORS
330
363
102
}
330
363
100
AcDbXrecord
280
     1
102
RTVSPost2010Prop28
280
     0
102
RTVSPost2010PropOp28
 70
     1
102
RTVSPost2010Prop29
280
     1
102
RTVSPost2010PropOp29
 70
     1
102
RTVSPost2010Prop30
280
     1
102
RTVSPost2010PropOp30
 70
     1
102
RTVSPost2010Prop31
280
     0
102
RTVSPost2010PropOp31
 70
     1
102
RTVSPost2010Prop32
280
     0
102
RTVSPost2010PropOp32
 70
     1
102
RTVSPost2010Prop33
280
     0
102
RTVSPost2010PropOp33
 70
     1
102
RTVSPost2010Prop34
280
     0
102
RTVSPost2010PropOp34
 70
     1
102
RTVSPost2010Prop35
280
     0
102
RTVSPost2010PropOp35
 70
     1
102
RTVSPost2010Prop36
280
     0
102
RTVSPost2010PropOp36
 70
     1
102
RTVSPost2010Prop37
 90
       50
102
RTVSPost2010PropOp37
 70
     1
102
RTVSPost2010Prop38
140
0.0
102
RTVSPost2010PropOp38
 70
     1
102
RTVSPost2010Prop39
140
1.0
102
RTVSPost2010PropOp39
 70
     1
102
RTVSPost2010Prop40
 90
        0
102
RTVSPost2010PropOp40
 70
     1
102
RTVSPost2010Prop41ColorIndex
 90
       18
102
RTVSPost2010Prop41ColorRGB
 90
        0
102
RTVSPost2010PropOp41
 70
     1
102
RTVSPost2010Prop42
 90
       50
102
RTVSPost2010PropOp42
 70
     1
102
RTVSPost2010Prop43
 90
        3
102
RTVSPost2010PropOp43
 70
     1
102
RTVSPost2010Prop44ColorIndex
 90
        5
102
RTVSPost2010Prop44ColorRGB
 90
      255
102
RTVSPost2010PropOp44
 70
     1
102
RTVSPost2010Prop45
280
     0
102
RTVSPost2010PropOp45
 70
     1
102
RTVSPost2010Prop46
 90
       50
102
RTVSPost2010PropOp46
 70
     1
102
RTVSPost2010Prop47
 90
       50
102
RTVSPost2010PropOp47
 70
     1
102
RTVSPost2010Prop48
 90
       50
102
RTVSPost2010PropOp48
 70
     1
102
RTVSPost2010Prop49
280
     0
102
RTVSPost2010PropOp49
 70
     1
102
RTVSPost2010Prop50
 90
       50
102
RTVSPost2010PropOp50
 70
     1
102
RTVSPost2010Prop51ColorIndex
 90
      256
102
RTVSPost2010Prop51ColorRGB
 90
-16777216
102
RTVSPost2010PropOp51
 70
     0
102
RTVSPost2010Prop52
140
1.0
102
RTVSPost2010PropOp52
 70
     0
102
RTVSPost2010Prop53
 90
        2
102
RTVSPost2010PropOp53
 70
     1
102
RTVSPost2010Prop54
  1
strokes_ogs.tif
102
RTVSPost2010PropOp54
 70
     1
102
RTVSPost2010Prop55
280
     0
102
RTVSPost2010PropOp55
 70
     1
102
RTVSPost2010Prop56
140
1.0
102
RTVSPost2010PropOp56
 70
     1
102
RTVSPost2010Prop57
140
1.0
102
RTVSPost2010PropOp57
 70
     1
  0
XRECORD
  5
362
102
{ACAD_REACTORS
330
361
102
}
330
361
100
AcDbXrecord
280
     1
102
RTVSPost2010Prop28
280
     0
102
RTVSPost2010PropOp28
 70
     1
102
RTVSPost2010Prop29
280
     1
102
RTVSPost2010PropOp29
 70
     1
102
RTVSPost2010Prop30
280
     1
102
RTVSPost2010PropOp30
 70
     1
102
RTVSPost2010Prop31
280
     0
102
RTVSPost2010PropOp31
 70
     1
102
RTVSPost2010Prop32
280
     0
102
RTVSPost2010PropOp32
 70
     1
102
RTVSPost2010Prop33
280
     0
102
RTVSPost2010PropOp33
 70
     1
102
RTVSPost2010Prop34
280
     0
102
RTVSPost2010PropOp34
 70
     1
102
RTVSPost2010Prop35
280
     0
102
RTVSPost2010PropOp35
 70
     1
102
RTVSPost2010Prop36
280
     0
102
RTVSPost2010PropOp36
 70
     1
102
RTVSPost2010Prop37
 90
       50
102
RTVSPost2010PropOp37
 70
     1
102
RTVSPost2010Prop38
140
0.0
102
RTVSPost2010PropOp38
 70
     1
102
RTVSPost2010Prop39
140
1.0
102
RTVSPost2010PropOp39
 70
     1
102
RTVSPost2010Prop40
 90
        0
102
RTVSPost2010PropOp40
 70
     1
102
RTVSPost2010Prop41ColorIndex
 90
       18
102
RTVSPost2010Prop41ColorRGB
 90
        0
102
RTVSPost2010PropOp41
 70
     1
102
RTVSPost2010Prop42
 90
       50
102
RTVSPost2010PropOp42
 70
     1
102
RTVSPost2010Prop43
 90
        3
102
RTVSPost2010PropOp43
 70
     1
102
RTVSPost2010Prop44ColorIndex
 90
        5
102
RTVSPost2010Prop44ColorRGB
 90
      255
102
RTVSPost2010PropOp44
 70
     1
102
RTVSPost2010Prop45
280
     0
102
RTVSPost2010PropOp45
 70
     1
102
RTVSPost2010Prop46
 90
       50
102
RTVSPost2010PropOp46
 70
     1
102
RTVSPost2010Prop47
 90
       50
102
RTVSPost2010PropOp47
 70
     1
102
RTVSPost2010Prop48
 90
       50
102
RTVSPost2010PropOp48
 70
     1
102
RTVSPost2010Prop49
280
     0
102
RTVSPost2010PropOp49
 70
     1
102
RTVSPost2010Prop50
 90
       50
102
RTVSPost2010PropOp50
 70
     1
102
RTVSPost2010Prop51ColorIndex
 90
      256
102
RTVSPost2010Prop51ColorRGB
 90
-16777216
102
RTVSPost2010PropOp51
 70
     0
102
RTVSPost2010Prop52
140
1.0
102
RTVSPost2010PropOp52
 70
     0
102
RTVSPost2010Prop53
 90
        2
102
RTVSPost2010PropOp53
 70
     1
102
RTVSPost2010Prop54
  1
strokes_ogs.tif
102
RTVSPost2010PropOp54
 70
     1
102
RTVSPost2010Prop55
280
     0
102
RTVSPost2010PropOp55
 70
     1
102
RTVSPost2010Prop56
140
1.0
102
RTVSPost2010PropOp56
 70
     1
102
RTVSPost2010Prop57
140
1.0
102
RTVSPost2010PropOp57
 70
     1
  0
XRECORD
  5
35C
102
{ACAD_REACTORS
330
35B
102
}
330
35B
100
AcDbXrecord
280
     1
102
RTVSPost2010Prop28
280
     0
102
RTVSPost2010PropOp28
 70
     1
102
RTVSPost2010Prop29
280
     1
102
RTVSPost2010PropOp29
 70
     1
102
RTVSPost2010Prop30
280
     1
102
RTVSPost2010PropOp30
 70
     1
102
RTVSPost2010Prop31
280
     0
102
RTVSPost2010PropOp31
 70
     1
102
RTVSPost2010Prop32
280
     0
102
RTVSPost2010PropOp32
 70
     1
102
RTVSPost2010Prop33
280
     0
102
RTVSPost2010PropOp33
 70
     1
102
RTVSPost2010Prop34
280
     0
102
RTVSPost2010PropOp34
 70
     1
102
RTVSPost2010Prop35
280
     0
102
RTVSPost2010PropOp35
 70
     1
102
RTVSPost2010Prop36
280
     0
102
RTVSPost2010PropOp36
 70
     1
102
RTVSPost2010Prop37
 90
       50
102
RTVSPost2010PropOp37
 70
     1
102
RTVSPost2010Prop38
140
0.0
102
RTVSPost2010PropOp38
 70
     1
102
RTVSPost2010Prop39
140
1.0
102
RTVSPost2010PropOp39
 70
     1
102
RTVSPost2010Prop40
 90
        0
102
RTVSPost2010PropOp40
 70
     1
102
RTVSPost2010Prop41ColorIndex
 90
       18
102
RTVSPost2010Prop41ColorRGB
 90
        0
102
RTVSPost2010PropOp41
 70
     1
102
RTVSPost2010Prop42
 90
       50
102
RTVSPost2010PropOp42
 70
     1
102
RTVSPost2010Prop43
 90
        3
102
RTVSPost2010PropOp43
 70
     1
102
RTVSPost2010Prop44ColorIndex
 90
        5
102
RTVSPost2010Prop44ColorRGB
 90
      255
102
RTVSPost2010PropOp44
 70
     1
102
RTVSPost2010Prop45
280
     0
102
RTVSPost2010PropOp45
 70
     1
102
RTVSPost2010Prop46
 90
       50
102
RTVSPost2010PropOp46
 70
     1
102
RTVSPost2010Prop47
 90
       50
102
RTVSPost2010PropOp47
 70
     1
102
RTVSPost2010Prop48
 90
       50
102
RTVSPost2010PropOp48
 70
     1
102
RTVSPost2010Prop49
280
     0
102
RTVSPost2010PropOp49
 70
     1
102
RTVSPost2010Prop50
 90
       50
102
RTVSPost2010PropOp50
 70
     1
102
RTVSPost2010Prop51ColorIndex
 90
      256
102
RTVSPost2010Prop51ColorRGB
 90
-16777216
102
RTVSPost2010PropOp51
 70
     0
102
RTVSPost2010Prop52
140
1.0
102
RTVSPost2010PropOp52
 70
     0
102
RTVSPost2010Prop53
 90
        2
102
RTVSPost2010PropOp53
 70
     1
102
RTVSPost2010Prop54
  1
strokes_ogs.tif
102
RTVSPost2010PropOp54
 70
     1
102
RTVSPost2010Prop55
280
     0
102
RTVSPost2010PropOp55
 70
     1
102
RTVSPost2010Prop56
140
1.0
102
RTVSPost2010PropOp56
 70
     1
102
RTVSPost2010Prop57
140
1.0
102
RTVSPost2010PropOp57
 70
     1
  0
XRECORD
  5
35E
102
{ACAD_REACTORS
330
35D
102
}
330
35D
100
AcDbXrecord
280
     1
102
RTVSPost2010Prop28
280
     0
102
RTVSPost2010PropOp28
 70
     1
102
RTVSPost2010Prop29
280
     1
102
RTVSPost2010PropOp29
 70
     1
102
RTVSPost2010Prop30
280
     1
102
RTVSPost2010PropOp30
 70
     1
102
RTVSPost2010Prop31
280
     0
102
RTVSPost2010PropOp31
 70
     1
102
RTVSPost2010Prop32
280
     0
102
RTVSPost2010PropOp32
 70
     1
102
RTVSPost2010Prop33
280
     0
102
RTVSPost2010PropOp33
 70
     1
102
RTVSPost2010Prop34
280
     0
102
RTVSPost2010PropOp34
 70
     1
102
RTVSPost2010Prop35
280
     0
102
RTVSPost2010PropOp35
 70
     1
102
RTVSPost2010Prop36
280
     0
102
RTVSPost2010PropOp36
 70
     1
102
RTVSPost2010Prop37
 90
       50
102
RTVSPost2010PropOp37
 70
     1
102
RTVSPost2010Prop38
140
0.0
102
RTVSPost2010PropOp38
 70
     1
102
RTVSPost2010Prop39
140
1.0
102
RTVSPost2010PropOp39
 70
     1
102
RTVSPost2010Prop40
 90
        0
102
RTVSPost2010PropOp40
 70
     1
102
RTVSPost2010Prop41ColorIndex
 90
       18
102
RTVSPost2010Prop41ColorRGB
 90
        0
102
RTVSPost2010PropOp41
 70
     1
102
RTVSPost2010Prop42
 90
       50
102
RTVSPost2010PropOp42
 70
     1
102
RTVSPost2010Prop43
 90
        3
102
RTVSPost2010PropOp43
 70
     1
102
RTVSPost2010Prop44ColorIndex
 90
        5
102
RTVSPost2010Prop44ColorRGB
 90
      255
102
RTVSPost2010PropOp44
 70
     1
102
RTVSPost2010Prop45
280
     0
102
RTVSPost2010PropOp45
 70
     1
102
RTVSPost2010Prop46
 90
       50
102
RTVSPost2010PropOp46
 70
     1
102
RTVSPost2010Prop47
 90
       50
102
RTVSPost2010PropOp47
 70
     1
102
RTVSPost2010Prop48
 90
       50
102
RTVSPost2010PropOp48
 70
     1
102
RTVSPost2010Prop49
280
     0
102
RTVSPost2010PropOp49
 70
     1
102
RTVSPost2010Prop50
 90
       50
102
RTVSPost2010PropOp50
 70
     1
102
RTVSPost2010Prop51ColorIndex
 90
      256
102
RTVSPost2010Prop51ColorRGB
 90
-16777216
102
RTVSPost2010PropOp51
 70
     0
102
RTVSPost2010Prop52
140
1.0
102
RTVSPost2010PropOp52
 70
     0
102
RTVSPost2010Prop53
 90
        2
102
RTVSPost2010PropOp53
 70
     1
102
RTVSPost2010Prop54
  1
strokes_ogs.tif
102
RTVSPost2010PropOp54
 70
     1
102
RTVSPost2010Prop55
280
     0
102
RTVSPost2010PropOp55
 70
     1
102
RTVSPost2010Prop56
140
1.0
102
RTVSPost2010PropOp56
 70
     1
102
RTVSPost2010Prop57
140
1.0
102
RTVSPost2010PropOp57
 70
     1
  0
XRECORD
  5
354
102
{ACAD_REACTORS
330
353
102
}
330
353
100
AcDbXrecord
280
     1
102
RTVSPost2010Prop28
280
     0
102
RTVSPost2010PropOp28
 70
     1
102
RTVSPost2010Prop29
280
     1
102
RTVSPost2010PropOp29
 70
     1
102
RTVSPost2010Prop30
280
     1
102
RTVSPost2010PropOp30
 70
     1
102
RTVSPost2010Prop31
280
     0
102
RTVSPost2010PropOp31
 70
     1
102
RTVSPost2010Prop32
280
     0
102
RTVSPost2010PropOp32
 70
     1
102
RTVSPost2010Prop33
280
     0
102
RTVSPost2010PropOp33
 70
     1
102
RTVSPost2010Prop34
280
     0
102
RTVSPost2010PropOp34
 70
     1
102
RTVSPost2010Prop35
280
     0
102
RTVSPost2010PropOp35
 70
     1
102
RTVSPost2010Prop36
280
     0
102
RTVSPost2010PropOp36
 70
     1
102
RTVSPost2010Prop37
 90
       50
102
RTVSPost2010PropOp37
 70
     1
102
RTVSPost2010Prop38
140
0.0
102
RTVSPost2010PropOp38
 70
     1
102
RTVSPost2010Prop39
140
1.0
102
RTVSPost2010PropOp39
 70
     1
102
RTVSPost2010Prop40
 90
        0
102
RTVSPost2010PropOp40
 70
     1
102
RTVSPost2010Prop41ColorIndex
 90
       18
102
RTVSPost2010Prop41ColorRGB
 90
        0
102
RTVSPost2010PropOp41
 70
     1
102
RTVSPost2010Prop42
 90
       50
102
RTVSPost2010PropOp42
 70
     1
102
RTVSPost2010Prop43
 90
        3
102
RTVSPost2010PropOp43
 70
     1
102
RTVSPost2010Prop44ColorIndex
 90
        5
102
RTVSPost2010Prop44ColorRGB
 90
      255
102
RTVSPost2010PropOp44
 70
     1
102
RTVSPost2010Prop45
280
     0
102
RTVSPost2010PropOp45
 70
     1
102
RTVSPost2010Prop46
 90
       50
102
RTVSPost2010PropOp46
 70
     1
102
RTVSPost2010Prop47
 90
       50
102
RTVSPost2010PropOp47
 70
     1
102
RTVSPost2010Prop48
 90
       50
102
RTVSPost2010PropOp48
 70
     1
102
RTVSPost2010Prop49
280
     0
102
RTVSPost2010PropOp49
 70
     1
102
RTVSPost2010Prop50
 90
       50
102
RTVSPost2010PropOp50
 70
     1
102
RTVSPost2010Prop51ColorIndex
 90
      256
102
RTVSPost2010Prop51ColorRGB
 90
-16777216
102
RTVSPost2010PropOp51
 70
     0
102
RTVSPost2010Prop52
140
1.0
102
RTVSPost2010PropOp52
 70
     0
102
RTVSPost2010Prop53
 90
        2
102
RTVSPost2010PropOp53
 70
     1
102
RTVSPost2010Prop54
  1
strokes_ogs.tif
102
RTVSPost2010PropOp54
 70
     1
102
RTVSPost2010Prop55
280
     0
102
RTVSPost2010PropOp55
 70
     1
102
RTVSPost2010Prop56
140
1.0
102
RTVSPost2010PropOp56
 70
     1
102
RTVSPost2010Prop57
140
1.0
102
RTVSPost2010PropOp57
 70
     1
  0
XRECORD
  5
348
102
{ACAD_REACTORS
330
347
102
}
330
347
100
AcDbXrecord
280
     1
102
RTVSPost2010Prop28
280
     0
102
RTVSPost2010PropOp28
 70
     1
102
RTVSPost2010Prop29
280
     1
102
RTVSPost2010PropOp29
 70
     1
102
RTVSPost2010Prop30
280
     1
102
RTVSPost2010PropOp30
 70
     1
102
RTVSPost2010Prop31
280
     0
102
RTVSPost2010PropOp31
 70
     1
102
RTVSPost2010Prop32
280
     0
102
RTVSPost2010PropOp32
 70
     1
102
RTVSPost2010Prop33
280
     0
102
RTVSPost2010PropOp33
 70
     1
102
RTVSPost2010Prop34
280
     0
102
RTVSPost2010PropOp34
 70
     1
102
RTVSPost2010Prop35
280
     0
102
RTVSPost2010PropOp35
 70
     1
102
RTVSPost2010Prop36
280
     0
102
RTVSPost2010PropOp36
 70
     1
102
RTVSPost2010Prop37
 90
       50
102
RTVSPost2010PropOp37
 70
     1
102
RTVSPost2010Prop38
140
0.0
102
RTVSPost2010PropOp38
 70
     1
102
RTVSPost2010Prop39
140
1.0
102
RTVSPost2010PropOp39
 70
     1
102
RTVSPost2010Prop40
 90
        0
102
RTVSPost2010PropOp40
 70
     1
102
RTVSPost2010Prop41ColorIndex
 90
       18
102
RTVSPost2010Prop41ColorRGB
 90
        0
102
RTVSPost2010PropOp41
 70
     1
102
RTVSPost2010Prop42
 90
       50
102
RTVSPost2010PropOp42
 70
     1
102
RTVSPost2010Prop43
 90
        3
102
RTVSPost2010PropOp43
 70
     1
102
RTVSPost2010Prop44ColorIndex
 90
        5
102
RTVSPost2010Prop44ColorRGB
 90
      255
102
RTVSPost2010PropOp44
 70
     1
102
RTVSPost2010Prop45
280
     0
102
RTVSPost2010PropOp45
 70
     1
102
RTVSPost2010Prop46
 90
       50
102
RTVSPost2010PropOp46
 70
     1
102
RTVSPost2010Prop47
 90
       50
102
RTVSPost2010PropOp47
 70
     1
102
RTVSPost2010Prop48
 90
       50
102
RTVSPost2010PropOp48
 70
     1
102
RTVSPost2010Prop49
280
     0
102
RTVSPost2010PropOp49
 70
     1
102
RTVSPost2010Prop50
 90
       50
102
RTVSPost2010PropOp50
 70
     1
102
RTVSPost2010Prop51ColorIndex
 90
      256
102
RTVSPost2010Prop51ColorRGB
 90
-16777216
102
RTVSPost2010PropOp51
 70
     0
102
RTVSPost2010Prop52
140
1.0
102
RTVSPost2010PropOp52
 70
     0
102
RTVSPost2010Prop53
 90
        2
102
RTVSPost2010PropOp53
 70
     1
102
RTVSPost2010Prop54
  1
strokes_ogs.tif
102
RTVSPost2010PropOp54
 70
     1
102
RTVSPost2010Prop55
280
     0
102
RTVSPost2010PropOp55
 70
     1
102
RTVSPost2010Prop56
140
1.0
102
RTVSPost2010PropOp56
 70
     1
102
RTVSPost2010Prop57
140
1.0
102
RTVSPost2010PropOp57
 70
     1
  0
XRECORD
  5
360
102
{ACAD_REACTORS
330
35F
102
}
330
35F
100
AcDbXrecord
280
     1
102
RTVSPost2010Prop28
280
     0
102
RTVSPost2010PropOp28
 70
     1
102
RTVSPost2010Prop29
280
     1
102
RTVSPost2010PropOp29
 70
     1
102
RTVSPost2010Prop30
280
     1
102
RTVSPost2010PropOp30
 70
     1
102
RTVSPost2010Prop31
280
     0
102
RTVSPost2010PropOp31
 70
     1
102
RTVSPost2010Prop32
280
     0
102
RTVSPost2010PropOp32
 70
     1
102
RTVSPost2010Prop33
280
     0
102
RTVSPost2010PropOp33
 70
     1
102
RTVSPost2010Prop34
280
     0
102
RTVSPost2010PropOp34
 70
     1
102
RTVSPost2010Prop35
280
     0
102
RTVSPost2010PropOp35
 70
     1
102
RTVSPost2010Prop36
280
     0
102
RTVSPost2010PropOp36
 70
     1
102
RTVSPost2010Prop37
 90
       50
102
RTVSPost2010PropOp37
 70
     1
102
RTVSPost2010Prop38
140
0.0
102
RTVSPost2010PropOp38
 70
     1
102
RTVSPost2010Prop39
140
1.0
102
RTVSPost2010PropOp39
 70
     1
102
RTVSPost2010Prop40
 90
        0
102
RTVSPost2010PropOp40
 70
     1
102
RTVSPost2010Prop41ColorIndex
 90
       18
102
RTVSPost2010Prop41ColorRGB
 90
        0
102
RTVSPost2010PropOp41
 70
     1
102
RTVSPost2010Prop42
 90
       50
102
RTVSPost2010PropOp42
 70
     1
102
RTVSPost2010Prop43
 90
        3
102
RTVSPost2010PropOp43
 70
     1
102
RTVSPost2010Prop44ColorIndex
 90
        5
102
RTVSPost2010Prop44ColorRGB
 90
      255
102
RTVSPost2010PropOp44
 70
     1
102
RTVSPost2010Prop45
280
     0
102
RTVSPost2010PropOp45
 70
     1
102
RTVSPost2010Prop46
 90
       50
102
RTVSPost2010PropOp46
 70
     1
102
RTVSPost2010Prop47
 90
       50
102
RTVSPost2010PropOp47
 70
     1
102
RTVSPost2010Prop48
 90
       50
102
RTVSPost2010PropOp48
 70
     1
102
RTVSPost2010Prop49
280
     0
102
RTVSPost2010PropOp49
 70
     1
102
RTVSPost2010Prop50
 90
       50
102
RTVSPost2010PropOp50
 70
     1
102
RTVSPost2010Prop51ColorIndex
 90
      256
102
RTVSPost2010Prop51ColorRGB
 90
-16777216
102
RTVSPost2010PropOp51
 70
     0
102
RTVSPost2010Prop52
140
1.0
102
RTVSPost2010PropOp52
 70
     0
102
RTVSPost2010Prop53
 90
        2
102
RTVSPost2010PropOp53
 70
     1
102
RTVSPost2010Prop54
  1
strokes_ogs.tif
102
RTVSPost2010PropOp54
 70
     1
102
RTVSPost2010Prop55
280
     0
102
RTVSPost2010PropOp55
 70
     1
102
RTVSPost2010Prop56
140
1.0
102
RTVSPost2010PropOp56
 70
     1
102
RTVSPost2010Prop57
140
1.0
102
RTVSPost2010PropOp57
 70
     1
  0
ENDSEC
  0
EOF
