  0
SECTION
  2
HEADER
  9
$ACADVER
  1
AC1015
  9
$ACADMAINTVER
 70
     6
  9
$DWGCODEPAGE
  3
DOS932
  9
$INSBASE
 10
0.0
 20
0.0
 30
0.0
  9
$EXTMIN
 10
0.0
 20
0.0
 30
0.0
  9
$EXTMAX
 10
431.8
 20
279.4
 30
0.0
  9
$LIMMIN
 10
0.0
 20
0.0
  9
$LIMMAX
 10
431.8
 20
279.4
  9
$ORTHOMODE
 70
     0
  9
$REGENMODE
 70
     1
  9
$FILLMODE
 70
     1
  9
$QTEXTMODE
 70
     0
  9
$MIRRTEXT
 70
     1
  9
$LTSCALE
 40
1.0
  9
$ATTMODE
 70
     1
  9
$TEXTSIZE
 40
3.5
  9
$TRACEWID
 40
1.0
  9
$TEXTSTYLE
  7
Standard
  9
$CLAYER
  8
0
  9
$CELTYPE
  6
ByLayer
  9
$CECOLOR
 62
   256
  9
$CELTSCALE
 40
1.0
  9
$DISPSILH
 70
     0
  9
$DIMSCALE
 40
1.0
  9
$DIMASZ
 40
3.556
  9
$DIMEXO
 40
1.0
  9
$DIMDLI
 40
3.75
  9
$DIMRND
 40
0.0
  9
$DIMDLE
 40
0.0
  9
$DIMEXE
 40
1.0
  9
$DIMTP
 40
0.0
  9
$DIMTM
 40
0.0
  9
$DIMTXT
 40
3.5
  9
$DIMCEN
 40
2.5
  9
$DIMTSZ
 40
0.0
  9
$DIMTOL
 70
     0
  9
$DIMLIM
 70
     0
  9
$DIMTIH
 70
     1
  9
$DIMTOH
 70
     1
  9
$DIMSE1
 70
     0
  9
$DIMSE2
 70
     0
  9
$DIMTAD
 70
     1
  9
$DIMZIN
 70
     1
  9
$DIMBLK
  1

  9
$DIMASO
 70
     1
  9
$DIMSHO
 70
     1
  9
$DIMPOST
  1

  9
$DIMAPOST
  1

  9
$DIMALT
 70
     0
  9
$DIMALTD
 70
     3
  9
$DIMALTF
 40
0.0393700787
  9
$DIMLFAC
 40
1.0
  9
$DIMTOFL
 70
     1
  9
$DIMTVP
 40
0.0
  9
$DIMTIX
 70
     0
  9
$DIMSOXD
 70
     0
  9
$DIMSAH
 70
     0
  9
$DIMBLK1
  1

  9
$DIMBLK2
  1

  9
$DIMSTYLE
  2
ISO-25
  9
$DIMCLRD
 70
     0
  9
$DIMCLRE
 70
     0
  9
$DIMCLRT
 70
     0
  9
$DIMTFAC
 40
1.0
  9
$DIMGAP
 40
1.524
  9
$DIMJUST
 70
     0
  9
$DIMSD1
 70
     0
  9
$DIMSD2
 70
     0
  9
$DIMTOLJ
 70
     0
  9
$DIMTZIN
 70
     1
  9
$DIMALTZ
 70
     0
  9
$DIMALTTZ
 70
     0
  9
$DIMUPT
 70
     0
  9
$DIMDEC
 70
     2
  9
$DIMTDEC
 70
     2
  9
$DIMALTU
 70
     2
  9
$DIMALTTD
 70
     3
  9
$DIMTXSTY
  7
Standard
  9
$DIMAUNIT
 70
     0
  9
$DIMADEC
 70
     2
  9
$DIMALTRND
 40
0.0
  9
$DIMAZIN
 70
     0
  9
$DIMDSEP
 70
    44
  9
$DIMATFIT
 70
     3
  9
$DIMFRAC
 70
     0
  9
$DIMLDRBLK
  1

  9
$DIMLUNIT
 70
     2
  9
$DIMLWD
 70
    -2
  9
$DIMLWE
 70
    -2
  9
$DIMTMOVE
 70
     0
  9
$LUNITS
 70
     2
  9
$LUPREC
 70
     2
  9
$SKETCHINC
 40
1.0
  9
$FILLETRAD
 40
10.0
  9
$AUNITS
 70
     0
  9
$AUPREC
 70
     2
  9
$MENU
  1
.
  9
$ELEVATION
 40
0.0
  9
$PELEVATION
 40
0.0
  9
$THICKNESS
 40
0.0
  9
$LIMCHECK
 70
     0
  9
$CHAMFERA
 40
0.0
  9
$CHAMFERB
 40
0.0
  9
$CHAMFERC
 40
0.0
  9
$CHAMFERD
 40
0.0
  9
$SKPOLY
 70
     0
  9
$TDCREATE
 40
2459380.756642755
  9
$TDUCREATE
 40
2459380.381642755
  9
$TDUPDATE
 40
2459380.756643345
  9
$TDUUPDATE
 40
2459380.381643345
  9
$TDINDWG
 40
0.0000000116
  9
$TDUSRTIMER
 40
0.0000000116
  9
$USRTIMER
 70
     1
  9
$ANGBASE
 50
0.0
  9
$ANGDIR
 70
     0
  9
$PDMODE
 70
     0
  9
$PDSIZE
 40
-1.0
  9
$PLINEWID
 40
0.0
  9
$SPLFRAME
 70
     0
  9
$SPLINETYPE
 70
     6
  9
$SPLINESEGS
 70
     8
  9
$HANDSEED
  5
236
  9
$SURFTAB1
 70
     6
  9
$SURFTAB2
 70
     6
  9
$SURFTYPE
 70
     6
  9
$SURFU
 70
     6
  9
$SURFV
 70
     6
  9
$UCSBASE
  2

  9
$UCSNAME
  2

  9
$UCSORG
 10
0.0
 20
0.0
 30
0.0
  9
$UCSXDIR
 10
1.0
 20
0.0
 30
0.0
  9
$UCSYDIR
 10
0.0
 20
1.0
 30
0.0
  9
$UCSORTHOREF
  2

  9
$UCSORTHOVIEW
 70
     0
  9
$UCSORGTOP
 10
0.0
 20
0.0
 30
0.0
  9
$UCSORGBOTTOM
 10
0.0
 20
0.0
 30
0.0
  9
$UCSORGLEFT
 10
0.0
 20
0.0
 30
0.0
  9
$UCSORGRIGHT
 10
0.0
 20
0.0
 30
0.0
  9
$UCSORGFRONT
 10
0.0
 20
0.0
 30
0.0
  9
$UCSORGBACK
 10
0.0
 20
0.0
 30
0.0
  9
$PUCSBASE
  2

  9
$PUCSNAME
  2

  9
$PUCSORG
 10
0.0
 20
0.0
 30
0.0
  9
$PUCSXDIR
 10
1.0
 20
0.0
 30
0.0
  9
$PUCSYDIR
 10
0.0
 20
1.0
 30
0.0
  9
$PUCSORTHOREF
  2

  9
$PUCSORTHOVIEW
 70
     0
  9
$PUCSORGTOP
 10
0.0
 20
0.0
 30
0.0
  9
$PUCSORGBOTTOM
 10
0.0
 20
0.0
 30
0.0
  9
$PUCSORGLEFT
 10
0.0
 20
0.0
 30
0.0
  9
$PUCSORGRIGHT
 10
0.0
 20
0.0
 30
0.0
  9
$PUCSORGFRONT
 10
0.0
 20
0.0
 30
0.0
  9
$PUCSORGBACK
 10
0.0
 20
0.0
 30
0.0
  9
$USERI1
 70
     0
  9
$USERI2
 70
     0
  9
$USERI3
 70
     0
  9
$USERI4
 70
     0
  9
$USERI5
 70
     0
  9
$USERR1
 40
0.0
  9
$USERR2
 40
0.0
  9
$USERR3
 40
0.0
  9
$USERR4
 40
0.0
  9
$USERR5
 40
0.0
  9
$WORLDVIEW
 70
     1
  9
$SHADEDGE
 70
     3
  9
$SHADEDIF
 70
    70
  9
$TILEMODE
 70
     1
  9
$MAXACTVP
 70
    64
  9
$PINSBASE
 10
0.0
 20
0.0
 30
0.0
  9
$PLIMCHECK
 70
     0
  9
$PEXTMIN
 10
1.0000000000E+20
 20
1.0000000000E+20
 30
1.0000000000E+20
  9
$PEXTMAX
 10
-1.0000000000E+20
 20
-1.0000000000E+20
 30
-1.0000000000E+20
  9
$PLIMMIN
 10
0.0
 20
0.0
  9
$PLIMMAX
 10
420.0
 20
297.0
  9
$UNITMODE
 70
     0
  9
$VISRETAIN
 70
     1
  9
$PLINEGEN
 70
     0
  9
$PSLTSCALE
 70
     1
  9
$TREEDEPTH
 70
  3020
  9
$CMLSTYLE
  2
Standard
  9
$CMLJUST
 70
     0
  9
$CMLSCALE
 40
20.0
  9
$PROXYGRAPHICS
 70
     1
  9
$MEASUREMENT
 70
     1
  9
$CELWEIGHT
370
    -1
  9
$ENDCAPS
280
     0
  9
$JOINSTYLE
280
     0
  9
$LWDISPLAY
290
     1
  9
$INSUNITS
 70
     4
  9
$HYPERLINKBASE
  1

  9
$STYLESHEET
  1

  9
$XEDIT
290
     1
  9
$CEPSNTYPE
380
     0
  9
$PSTYLEMODE
290
     1
  9
$FINGERPRINTGUID
  2
{C2B5D132-048F-4E96-91F0-F699EA027466}
  9
$VERSIONGUID
  2
{FAEB1C32-E019-11D5-929B-00C0DF256EC4}
  9
$EXTNAMES
290
     1
  9
$PSVPSCALE
 40
0.0
  9
$OLESTARTUP
290
     0
  0
ENDSEC
  0
SECTION
  2
CLASSES
  0
CLASS
  1
ACDBDICTIONARYWDFLT
  2
AcDbDictionaryWithDefault
  3
ObjectDBX Classes
 90
        0
280
     0
281
     0
  0
CLASS
  1
VISUALSTYLE
  2
AcDbVisualStyle
  3
ObjectDBX Classes
 90
     4095
280
     0
281
     0
  0
CLASS
  1
MATERIAL
  2
AcDbMaterial
  3
ObjectDBX Classes
 90
     1153
280
     0
281
     0
  0
CLASS
  1
SCALE
  2
AcDbScale
  3
ObjectDBX Classes
 90
     1153
280
     0
281
     0
  0
CLASS
  1
TABLESTYLE
  2
AcDbTableStyle
  3
ObjectDBX Classes
 90
     4095
280
     0
281
     0
  0
CLASS
  1
MLEADERSTYLE
  2
AcDbMLeaderStyle
  3
ACDB_MLEADERSTYLE_CLASS
 90
     4095
280
     0
281
     0
  0
CLASS
  1
SUN
  2
AcDbSun
  3
SCENEOE
 90
     1153
280
     0
281
     0
  0
CLASS
  1
ACDBPLACEHOLDER
  2
AcDbPlaceHolder
  3
ObjectDBX Classes
 90
        0
280
     0
281
     0
  0
CLASS
  1
LAYOUT
  2
AcDbLayout
  3
ObjectDBX Classes
 90
        0
280
     0
281
     0
  0
ENDSEC
  0
SECTION
  2
TABLES
  0
TABLE
  2
VPORT
  5
8
330
0
100
AcDbSymbolTable
 70
     1
  0
VPORT
  5
29
330
8
100
AcDbSymbolTableRecord
100
AcDbViewportTableRecord
  2
*Active
 70
     0
 10
0.0
 20
0.0
 11
1.0
 21
1.0
 12
215.9
 22
139.7
 13
0.0
 23
0.0
 14
10.0
 24
10.0
 15
10.0
 25
10.0
 16
0.0
 26
0.0
 36
1.0
 17
0.0
 27
0.0
 37
0.0
 40
279.4
 41
1.5454545455
 42
50.0
 43
0.0
 44
0.0
 50
0.0
 51
0.0
 71
     0
 72
  2000
 73
     1
 74
     3
 75
     0
 76
     0
 77
     0
 78
     0
281
     0
 65
     1
110
0.0
120
0.0
130
0.0
111
1.0
121
0.0
131
0.0
112
0.0
122
1.0
132
0.0
 79
     0
146
0.0
  0
ENDTAB
  0
TABLE
  2
LTYPE
  5
5
330
0
100
AcDbSymbolTable
 70
     6
  0
LTYPE
  5
14
330
5
100
AcDbSymbolTableRecord
100
AcDbLinetypeTableRecord
  2
ByBlock
 70
     0
  3

 72
    65
 73
     0
 40
0.0
  0
LTYPE
  5
15
330
5
100
AcDbSymbolTableRecord
100
AcDbLinetypeTableRecord
  2
ByLayer
 70
     0
  3

 72
    65
 73
     0
 40
0.0
  0
LTYPE
  5
16
330
5
100
AcDbSymbolTableRecord
100
AcDbLinetypeTableRecord
  2
Continuous
 70
     0
  3
Solid line
 72
    65
 73
     0
 40
0.0
  0
LTYPE
  5
6E
330
5
100
AcDbSymbolTableRecord
100
AcDbLinetypeTableRecord
  2
HIDDEN
 70
     0
  3
Hidden __ __ __ __ __ __ __ __ __ __ __ __ __ __
 72
    65
 73
     2
 40
1.905
 49
1.27
 74
     0
 49
-0.635
 74
     0
  0
LTYPE
  5
6F
330
5
100
AcDbSymbolTableRecord
100
AcDbLinetypeTableRecord
  2
PHANTOM
 70
     0
  3
Phantom ______  __  __  ______  __  __  ______
 72
    65
 73
     6
 40
12.7
 49
6.35
 74
     0
 49
-1.27
 74
     0
 49
1.27
 74
     0
 49
-1.27
 74
     0
 49
1.27
 74
     0
 49
-1.27
 74
     0
  0
LTYPE
  5
70
330
5
100
AcDbSymbolTableRecord
100
AcDbLinetypeTableRecord
  2
CENTER
 70
     0
  3
Center ____ _ ____ _ ____ _ ____ _ ____ _ ____
 72
    65
 73
     4
 40
10.16
 49
6.35
 74
     0
 49
-1.27
 74
     0
 49
1.27
 74
     0
 49
-1.27
 74
     0
  0
LTYPE
  5
71
330
5
100
AcDbSymbolTableRecord
100
AcDbLinetypeTableRecord
  2
CENTERX2
 70
     0
  3
Center (2x) ________  __  ________  __  _____
 72
    65
 73
     4
 40
20.32
 49
12.7
 74
     0
 49
-2.54
 74
     0
 49
2.54
 74
     0
 49
-2.54
 74
     0
  0
LTYPE
  5
72
330
5
100
AcDbSymbolTableRecord
100
AcDbLinetypeTableRecord
  2
DOT2
 70
     0
  3
Dot (.5x) ........................................
 72
    65
 73
     2
 40
0.635
 49
0.0
 74
     0
 49
-0.635
 74
     0
  0
ENDTAB
  0
TABLE
  2
LAYER
  5
2
330
0
100
AcDbSymbolTable
 70
     1
  0
LAYER
  5
10
330
2
100
AcDbSymbolTableRecord
100
AcDbLayerTableRecord
  2
0
 70
     0
 62
     7
  6
Continuous
370
    -3
390
F
  0
ENDTAB
  0
TABLE
  2
STYLE
  5
3
330
0
100
AcDbSymbolTable
 70
     2
  0
STYLE
  5
11
330
3
100
AcDbSymbolTableRecord
100
AcDbTextStyleTableRecord
  2
Standard
 70
     0
 40
0.0
 41
1.0
 50
0.0
 71
     0
 42
3.5
  3
txt
  4
bigfont
  0
STYLE
  5
1F6
330
3
100
AcDbSymbolTableRecord
100
AcDbTextStyleTableRecord
  2
SLDTEXTSTYLE0
 70
     0
 40
0.0
 41
0.75
 50
0.0
 71
     0
 42
3.5
  3
TXT
  4
bigfont
  0
ENDTAB
  0
TABLE
  2
VIEW
  5
6
330
0
100
AcDbSymbolTable
 70
     0
  0
ENDTAB
  0
TABLE
  2
UCS
  5
7
330
0
100
AcDbSymbolTable
 70
     0
  0
ENDTAB
  0
TABLE
  2
APPID
  5
9
330
0
100
AcDbSymbolTable
 70
     1
  0
APPID
  5
12
330
9
100
AcDbSymbolTableRecord
100
AcDbRegAppTableRecord
  2
ACAD
 70
     0
  0
ENDTAB
  0
TABLE
  2
DIMSTYLE
  5
A
330
0
100
AcDbSymbolTable
 70
     1
100
AcDbDimStyleTable
  0
DIMSTYLE
105
27
330
A
100
AcDbSymbolTableRecord
100
AcDbDimStyleTableRecord
  2
ISO-25
 70
     0
 41
2.5
 42
0.625
 43
3.75
 44
1.25
 73
     0
 74
     0
 77
     1
 78
     8
140
2.5
141
2.5
143
0.0393700787
147
0.625
171
     3
172
     1
178
     0
271
     2
272
     2
274
     3
278
    44
283
     0
284
     8
340
11
  0
ENDTAB
  0
TABLE
  2
BLOCK_RECORD
  5
1
330
0
100
AcDbSymbolTable
 70
     1
  0
BLOCK_RECORD
  5
1F
330
1
100
AcDbSymbolTableRecord
100
AcDbBlockTableRecord
  2
*Model_Space
340
22
  0
BLOCK_RECORD
  5
1B
330
1
100
AcDbSymbolTableRecord
100
AcDbBlockTableRecord
  2
*Paper_Space
340
1E
  0
BLOCK_RECORD
  5
23
330
1
100
AcDbSymbolTableRecord
100
AcDbBlockTableRecord
  2
*Paper_Space0
340
26
  0
ENDTAB
  0
ENDSEC
  0
SECTION
  2
BLOCKS
  0
BLOCK
  5
20
330
1F
100
AcDbEntity
  8
0
100
AcDbBlockBegin
  2
*Model_Space
 70
     0
 10
0.0
 20
0.0
 30
0.0
  3
*Model_Space
  1

  0
ENDBLK
  5
21
330
1F
100
AcDbEntity
  8
0
100
AcDbBlockEnd
  0
BLOCK
  5
1C
330
1B
100
AcDbEntity
 67
     1
  8
0
100
AcDbBlockBegin
  2
*Paper_Space
 70
     0
 10
0.0
 20
0.0
 30
0.0
  3
*Paper_Space
  1

  0
ENDBLK
  5
1D
330
1B
100
AcDbEntity
 67
     1
  8
0
100
AcDbBlockEnd
  0
BLOCK
  5
24
330
23
100
AcDbEntity
  8
0
100
AcDbBlockBegin
  2
*Paper_Space0
 70
     0
 10
0.0
 20
0.0
 30
0.0
  3
*Paper_Space0
  1

  0
ENDBLK
  5
25
330
23
100
AcDbEntity
  8
0
100
AcDbBlockEnd
  0
ENDSEC
  0
SECTION
  2
ENTITIES
  0
LINE
  5
73
330
1F
100
AcDbEntity
  8
0
  6
Continuous
 62
     7
370
    25
100
AcDbLine
 10
175.0086640964
 20
120.8475539698
 30
0.0
 11
173.0586641493
 21
128.8475534184
 31
0.0
  0
LINE
  5
74
330
1F
100
AcDbEntity
  8
0
  6
Continuous
 62
     7
370
    25
100
AcDbLine
 10
174.5586643952
 20
112.8475535898
 30
0.0
 11
175.0086640964
 21
120.8475539698
 31
0.0
  0
LINE
  5
75
330
1F
100
AcDbEntity
  8
0
  6
Continuous
 62
     7
370
    25
100
AcDbLine
 10
160.4880077789
 20
114.103671187
 30
0.0
 11
160.558663963
 21
112.8475535898
 31
0.0
  0
LINE
  5
76
330
1F
100
AcDbEntity
  8
0
  6
Continuous
 62
     7
370
    25
100
AcDbLine
 10
162.0586642089
 20
128.8475534184
 30
0.0
 11
161.8046874205
 21
127.8055971725
 31
0.0
  0
LINE
  5
77
330
1F
100
AcDbEntity
  8
0
  6
Continuous
 62
     7
370
    25
100
AcDbLine
 10
157.5586644026
 20
110.3475541113
 30
0.0
 11
150.5586632552
 21
110.3475541113
 31
0.0
  0
LINE
  5
78
330
1F
100
AcDbEntity
  8
0
  6
Continuous
 62
     7
370
    25
100
AcDbLine
 10
150.5586632552
 20
94.3475533514
 30
0.0
 11
157.5586644026
 21
94.3475533514
 31
0.0
  0
LINE
  5
79
330
1F
100
AcDbEntity
  8
0
  6
Continuous
 62
     7
370
    25
100
AcDbLine
 10
150.5586632552
 20
110.3475541113
 30
0.0
 11
147.5586646261
 21
109.3475539474
 31
0.0
  0
LINE
  5
7A
330
1F
100
AcDbEntity
  8
0
  6
Continuous
 62
     7
370
    25
100
AcDbLine
 10
147.5586646261
 20
95.3475535153
 30
0.0
 11
150.5586632552
 21
94.3475533514
 31
0.0
  0
LINE
  5
7B
330
1F
100
AcDbEntity
  8
0
  6
Continuous
 62
     7
370
    25
100
AcDbLine
 10
147.5586646261
 20
110.3475541113
 30
0.0
 11
142.5586638066
 21
109.3475539474
 31
0.0
  0
LINE
  5
7C
330
1F
100
AcDbEntity
  8
0
  6
Continuous
 62
     7
370
    25
100
AcDbLine
 10
142.5586638066
 20
95.3475535153
 30
0.0
 11
147.5586646261
 21
94.3475533514
 31
0.0
  0
LINE
  5
7D
330
1F
100
AcDbEntity
  8
0
  6
Continuous
 62
     7
370
    25
100
AcDbLine
 10
142.5586638066
 20
110.3475541113
 30
0.0
 11
137.9606069091
 21
109.4279419868
 31
0.0
  0
LINE
  5
7E
330
1F
100
AcDbEntity
  8
0
  6
Continuous
 62
     7
370
    25
100
AcDbLine
 10
137.9606069091
 20
95.2671654759
 30
0.0
 11
142.5586638066
 21
94.3475533514
 31
0.0
  0
ARC
  5
7F
330
1F
100
AcDbEntity
  8
0
  6
Continuous
 62
     7
370
    25
100
AcDbCircle
 10
138.0586641791
 20
95.7574556827
 30
0.0
 40
0.5
100
AcDbArc
 50
180.0
 51
258.690067526
  0
ARC
  5
80
330
1F
100
AcDbEntity
  8
0
  6
Continuous
 62
     7
370
    25
100
AcDbCircle
 10
138.0586641791
 20
108.93765178
 30
0.0
 40
0.5000000000000063
100
AcDbArc
 50
101.309932474
 51
180.0
  0
LINE
  5
81
330
1F
100
AcDbEntity
  8
0
  6
Continuous
 62
     7
370
    25
100
AcDbLine
 10
177.0586638736
 20
92.3475539549
 30
0.0
 11
177.5586639556
 21
92.8475540368
 31
0.0
  0
LINE
  5
82
330
1F
100
AcDbEntity
  8
0
  6
Continuous
 62
     7
370
    25
100
AcDbLine
 10
177.5586639556
 20
111.8475534259
 30
0.0
 11
177.0586638736
 21
112.3475535078
 31
0.0
  0
LINE
  5
83
330
1F
100
AcDbEntity
  8
0
  6
Continuous
 62
     7
370
    25
100
AcDbLine
 10
177.0586638736
 20
112.3475535078
 30
0.0
 11
175.4406305986
 21
112.3475535078
 31
0.0
  0
LINE
  5
84
330
1F
100
AcDbEntity
  8
0
  6
Continuous
 62
     7
370
    25
100
AcDbLine
 10
175.4406305986
 20
92.3475539549
 30
0.0
 11
177.0586638736
 21
92.3475539549
 31
0.0
  0
ARC
  5
85
330
1F
100
AcDbEntity
  8
0
  6
Continuous
 62
     7
370
    25
100
AcDbCircle
 10
176.5586641791
 20
111.3475537313
 30
0.0
 40
1.500000000000014
100
AcDbArc
 50
138.1896851042
 51
180.0
  0
ARC
  5
86
330
1F
100
AcDbEntity
  8
0
  6
Continuous
 62
     7
370
    25
100
AcDbCircle
 10
176.5586641791
 20
93.3475537313
 30
0.0
 40
1.500000000000014
100
AcDbArc
 50
180.0
 51
221.8103148958
  0
LINE
  5
87
330
1F
100
AcDbEntity
  8
0
  6
Continuous
 62
     7
370
    25
100
AcDbLine
 10
157.8086639779
 20
92.3475539549
 30
0.0
 11
159.6766977596
 21
92.3475539549
 31
0.0
  0
LINE
  5
88
330
1F
100
AcDbEntity
  8
0
  6
Continuous
 62
     7
370
    25
100
AcDbLine
 10
159.6766977596
 20
112.3475535078
 30
0.0
 11
157.8086639779
 21
112.3475535078
 31
0.0
  0
ARC
  5
89
330
1F
100
AcDbEntity
  8
0
  6
Continuous
 62
     7
370
    25
100
AcDbCircle
 10
158.5586641791
 20
93.3475537313
 30
0.0
 40
1.5
100
AcDbArc
 50
318.1896851042
 51
0.0
  0
ARC
  5
8A
330
1F
100
AcDbEntity
  8
0
  6
Continuous
 62
     7
370
    25
100
AcDbCircle
 10
158.5586641791
 20
111.3475537313
 30
0.0
 40
1.5
100
AcDbArc
 50
0.0
 51
41.8103148958
  0
LINE
  5
8B
330
1F
100
AcDbEntity
  8
0
  6
Continuous
 62
     7
370
    25
100
AcDbLine
 10
157.8086639779
 20
112.3475535078
 30
0.0
 11
157.5586644026
 21
112.0975539325
 31
0.0
  0
LINE
  5
8C
330
1F
100
AcDbEntity
  8
0
  6
Continuous
 62
     7
370
    25
100
AcDbLine
 10
157.5586644026
 20
92.5975535302
 30
0.0
 11
157.8086639779
 21
92.3475539549
 31
0.0
  0
ARC
  5
8D
330
1F
100
AcDbEntity
  8
0
  6
Continuous
 62
     7
370
    25
100
AcDbCircle
 10
174.5586641791
 20
111.3475537313
 30
0.0
 40
0.5
100
AcDbArc
 50
270.0
 51
0.0
  0
ARC
  5
8E
330
1F
100
AcDbEntity
  8
0
  6
Continuous
 62
     7
370
    25
100
AcDbCircle
 10
160.5586641791
 20
93.3475537313
 30
0.0
 40
0.5
100
AcDbArc
 50
90.0
 51
180.0
  0
ARC
  5
8F
330
1F
100
AcDbEntity
  8
0
  6
Continuous
 62
     7
370
    25
100
AcDbCircle
 10
160.5586641791
 20
111.3475537313
 30
0.0
 40
0.5
100
AcDbArc
 50
180.0
 51
270.0
  0
ARC
  5
90
330
1F
100
AcDbEntity
  8
0
  6
Continuous
 62
     7
370
    25
100
AcDbCircle
 10
174.5586641791
 20
93.3475537313
 30
0.0
 40
0.5
100
AcDbArc
 50
0.0
 51
90.0
  0
LINE
  5
91
330
1F
100
AcDbEntity
  8
0
  6
Continuous
 62
     7
370
    25
100
AcDbLine
 10
161.1763431716
 20
110.8475541933
 30
0.0
 11
160.558663963
 21
110.8475541933
 31
0.0
  0
LINE
  5
92
330
1F
100
AcDbEntity
  8
0
  6
Continuous
 62
     7
370
    25
100
AcDbLine
 10
174.5586643952
 20
110.8475541933
 30
0.0
 11
173.9586640174
 21
110.8475541933
 31
0.0
  0
LINE
  5
93
330
1F
100
AcDbEntity
  8
0
  6
Continuous
 62
     7
370
    25
100
AcDbLine
 10
160.558663963
 20
93.8475532694
 30
0.0
 11
174.5586643952
 21
93.8475532694
 31
0.0
  0
SPLINE
  5
94
330
1F
100
AcDbEntity
  8
0
  6
Continuous
 62
     7
370
    25
100
AcDbSpline
210
0.0
220
0.0
230
1.0
 70
     8
 71
     3
 72
    13
 73
     9
 74
     0
 42
0.000000001
 43
0.00000001
 40
0.0
 40
0.0
 40
0.0
 40
0.0
 40
0.165764770712366
 40
0.3288517014565883
 40
0.5079763322819512
 40
0.6908236301181547
 40
0.865922736235392
 40
0.9999999999999999
 40
0.9999999999999999
 40
0.9999999999999999
 40
0.9999999999999999
 10
173.9589722851991
 20
110.8508873967738
 30
0.0
 10
173.915278167884
 20
110.8527697767316
 30
0.0
 10
173.8285957880216
 20
110.8565041278199
 30
0.0
 10
173.7044112607476
 20
110.9106612696586
 30
0.0
 10
173.5940445420191
 20
110.9950981183138
 30
0.0
 10
173.5112318006046
 20
111.1108924164188
 30
0.0
 10
173.4647985943929
 20
111.2336547906638
 30
0.0
 10
173.4615121807818
 20
111.314889202272
 30
0.0
 10
173.4600869963645
 20
111.350117274961
 30
0.0
  0
SPLINE
  5
95
330
1F
100
AcDbEntity
  8
0
  6
Continuous
 62
     7
370
    25
100
AcDbSpline
210
0.0
220
0.0
230
1.0
 70
     8
 71
     3
 72
    13
 73
     9
 74
     0
 42
0.000000001
 43
0.00000001
 40
0.0
 40
0.0
 40
0.0
 40
0.0
 40
0.1607066454459125
 40
0.3468546424435092
 40
0.5363364128969866
 40
0.7155423116060323
 40
0.8707861657624715
 40
1.0
 40
1.0
 40
1.0
 40
1.0
 10
161.6575640651165
 20
111.3384422151656
 30
0.0
 10
161.6543398728854
 20
111.2977358439045
 30
0.0
 10
161.6473810689082
 20
111.2098789055075
 30
0.0
 10
161.5908954880164
 20
111.0836897095202
 30
0.0
 10
161.5010864900481
 20
110.9738580912329
 30
0.0
 10
161.3902541757519
 20
110.8986918541977
 30
0.0
 10
161.2791070467671
 20
110.8569265261913
 30
0.0
 10
161.2072146684311
 20
110.8510311984737
 30
0.0
 10
161.1745578261792
 20
110.8483532680483
 30
0.0
  0
LINE
  5
96
330
1F
100
AcDbEntity
  8
0
  6
Continuous
 62
     7
370
    25
100
AcDbLine
 10
173.4586644011
 20
111.3475533439
 30
0.0
 11
173.4586644011
 21
112.8475535898
 31
0.0
  0
LINE
  5
97
330
1F
100
AcDbEntity
  8
0
  6
Continuous
 62
     7
370
    25
100
AcDbLine
 10
161.6586639571
 20
112.8475535898
 30
0.0
 11
161.6586639571
 21
111.3362834094
 31
0.0
  0
LINE
  5
98
330
1F
100
AcDbEntity
  8
0
  6
Continuous
 62
     7
370
    25
100
AcDbLine
 10
177.5586639556
 20
97.2951161912
 30
0.0
 11
186.2037160459
 21
97.5652742436
 31
0.0
  0
LINE
  5
99
330
1F
100
AcDbEntity
  8
0
  6
Continuous
 62
     7
370
    25
100
AcDbLine
 10
186.2037160459
 20
107.129833219
 30
0.0
 11
177.5586639556
 21
107.3999912715
 31
0.0
  0
LINE
  5
9A
330
1F
100
AcDbEntity
  8
0
  6
Continuous
 62
     7
370
    25
100
AcDbLine
 10
186.2037160459
 20
97.5652742436
 30
0.0
 11
187.5586637321
 21
98.3475535414
 31
0.0
  0
LINE
  5
9B
330
1F
100
AcDbEntity
  8
0
  6
Continuous
 62
     7
370
    25
100
AcDbLine
 10
187.5586637321
 20
106.3475539213
 30
0.0
 11
186.2037160459
 21
107.129833219
 31
0.0
  0
LINE
  5
9C
330
1F
100
AcDbEntity
  8
0
  6
Continuous
 62
     7
370
    25
100
AcDbLine
 10
172.7977494734
 20
128.8475534184
 30
0.0
 11
172.7977494734
 21
129.4475542618
 31
0.0
  0
LINE
  5
9D
330
1F
100
AcDbEntity
  8
0
  6
Continuous
 62
     7
370
    25
100
AcDbLine
 10
162.3195788848
 20
128.8475534184
 30
0.0
 11
172.7977494734
 21
128.8475534184
 31
0.0
  0
LINE
  5
9E
330
1F
100
AcDbEntity
  8
0
  6
Continuous
 62
     7
370
    25
100
AcDbLine
 10
162.3195788848
 20
129.4475542618
 30
0.0
 11
162.3195788848
 21
128.8475534184
 31
0.0
  0
LINE
  5
9F
330
1F
100
AcDbEntity
  8
0
  6
Continuous
 62
     7
370
    25
100
AcDbLine
 10
172.7977494734
 20
129.4475542618
 30
0.0
 11
162.3195788848
 21
129.4475542618
 31
0.0
  0
SPLINE
  5
A0
330
1F
100
AcDbEntity
  8
0
  6
Continuous
 62
     7
370
    25
100
AcDbSpline
210
0.0
220
0.0
230
1.0
 70
     8
 71
     3
 72
    15
 73
    11
 74
     0
 42
0.000000001
 43
0.00000001
 40
0.0
 40
0.0
 40
0.0
 40
0.0
 40
0.0090436668555053
 40
0.1032416108587011
 40
0.1542555096908477
 40
0.3133160372726557
 40
0.5243720667937798
 40
0.6678058153000223
 40
0.9918331445062708
 40
0.9999999999999999
 40
0.9999999999999999
 40
0.9999999999999999
 40
0.9999999999999999
 10
172.7977494734107
 20
129.4475542618246
 30
0.0
 10
172.797743717911
 20
129.4492349423296
 30
0.0
 10
172.7976780136928
 20
129.4684214255828
 30
0.0
 10
172.7956829279041
 20
129.4971154097167
 30
0.0
 10
172.7878667051685
 20
129.5477921184552
 30
0.0
 10
172.7706957095276
 20
129.6056676853335
 30
0.0
 10
172.744112696723
 20
129.6505357810153
 30
0.0
 10
172.7062825284405
 20
129.6878936209562
 30
0.0
 10
172.6780033349225
 20
129.6974528895271
 30
0.0
 10
172.6581712441438
 20
129.6975505059597
 30
0.0
 10
172.6576836804627
 20
129.697552905819
 30
0.0
  0
SPLINE
  5
A1
330
1F
100
AcDbEntity
  8
0
  6
Continuous
 62
     7
370
    25
100
AcDbSpline
210
0.0
220
0.0
230
1.0
 70
     8
 71
     3
 72
    15
 73
    11
 74
     0
 42
0.000000001
 43
0.00000001
 40
0.0
 40
0.0
 40
0.0
 40
0.0
 40
0.0081668554937291
 40
0.3321941846999776
 40
0.4756279332062201
 40
0.6866839627273442
 40
0.8457444903091523
 40
0.8967583891412989
 40
0.9909563331444947
 40
1.0
 40
1.0
 40
1.0
 40
1.0
 10
162.4596446777462
 20
129.697552905819
 30
0.0
 10
162.4591571140651
 20
129.6975505059597
 30
0.0
 10
162.4393250232863
 20
129.6974528895271
 30
0.0
 10
162.4110458297684
 20
129.6878936209562
 30
0.0
 10
162.3732156614859
 20
129.6505357810153
 30
0.0
 10
162.3466326486813
 20
129.6056676853335
 30
0.0
 10
162.3294616530404
 20
129.5477921184552
 30
0.0
 10
162.3216454303048
 20
129.4971154097167
 30
0.0
 10
162.3196503445161
 20
129.4684214255828
 30
0.0
 10
162.3195846402978
 20
129.4492349423296
 30
0.0
 10
162.3195788847982
 20
129.4475542618246
 30
0.0
  0
LINE
  5
A2
330
1F
100
AcDbEntity
  8
0
  6
Continuous
 62
     7
370
    25
100
AcDbLine
 10
162.4596446777
 20
129.6975529058
 30
0.0
 11
172.6576836805
 21
129.6975529058
 31
0.0
  0
SPLINE
  5
A3
330
1F
100
AcDbEntity
  8
0
  6
Continuous
 62
     7
370
    25
100
AcDbSpline
210
0.0
220
0.0
230
1.0
 70
     8
 71
     3
 72
    15
 73
    11
 74
     0
 42
0.000000001
 43
0.00000001
 40
0.0
 40
0.0
 40
0.0
 40
0.0
 40
0.0080845166116213
 40
0.3310110803515837
 40
0.4750334718139839
 40
0.6874373868841556
 40
0.8468378249369453
 40
0.9001014979498858
 40
0.9910465065391931
 40
0.9999999999999999
 40
0.9999999999999999
 40
0.9999999999999999
 40
0.9999999999999999
 10
172.6576836804627
 20
129.697552905819
 30
0.0
 10
172.658963450895
 20
129.6975505038926
 30
0.0
 10
172.7113621549553
 20
129.6974521598267
 30
0.0
 10
172.7867182744723
 20
129.6877597990667
 30
0.0
 10
172.8886379400386
 20
129.6504824881598
 30
0.0
 10
172.9610277482086
 20
129.6057719917926
 30
0.0
 10
173.0087347945012
 20
129.5476372425786
 30
0.0
 10
173.0302684845541
 20
129.4967492087144
 30
0.0
 10
173.0356991561545
 20
129.4679874480613
 30
0.0
 10
173.0358739233911
 20
129.449234969638
 30
0.0
 10
173.0358895870625
 20
129.4475542618246
 30
0.0
  0
LINE
  5
A4
330
1F
100
AcDbEntity
  8
0
  6
Continuous
 62
     7
370
    25
100
AcDbLine
 10
172.7977494734
 20
129.4475542618
 30
0.0
 11
173.0358895871
 21
129.4475542618
 31
0.0
  0
SPLINE
  5
A5
330
1F
100
AcDbEntity
  8
0
  6
Continuous
 62
     7
370
    25
100
AcDbSpline
210
0.0
220
0.0
230
1.0
 70
     8
 71
     3
 72
    15
 73
    11
 74
     0
 42
0.000000001
 43
0.00000001
 40
0.0
 40
0.0
 40
0.0
 40
0.0
 40
0.0089534934608068
 40
0.0998985020501141
 40
0.1531621750630547
 40
0.3125626131158444
 40
0.524966528186016
 40
0.6689889196484162
 40
0.9919154833883785
 40
0.9999999999999999
 40
0.9999999999999999
 40
0.9999999999999999
 40
0.9999999999999999
 10
162.0814387711464
 20
129.4475542618246
 30
0.0
 10
162.0814544348178
 20
129.449234969638
 30
0.0
 10
162.0816292020545
 20
129.4679874480613
 30
0.0
 10
162.0870598736549
 20
129.4967492087144
 30
0.0
 10
162.1085935637077
 20
129.5476372425786
 30
0.0
 10
162.1563006100003
 20
129.6057719917926
 30
0.0
 10
162.2286904181703
 20
129.6504824881597
 30
0.0
 10
162.3306100837366
 20
129.6877597990668
 30
0.0
 10
162.4059662032537
 20
129.6974521598266
 30
0.0
 10
162.4583649073139
 20
129.6975505038926
 30
0.0
 10
162.4596446777462
 20
129.697552905819
 30
0.0
  0
LINE
  5
A6
330
1F
100
AcDbEntity
  8
0
  6
Continuous
 62
     7
370
    25
100
AcDbLine
 10
162.0814387711
 20
129.4475542618
 30
0.0
 11
162.3195788848
 21
129.4475542618
 31
0.0
  0
LINE
  5
A7
330
1F
100
AcDbEntity
  8
0
  6
Continuous
 62
     7
370
    25
100
AcDbLine
 10
162.0814387711
 20
128.8475534184
 30
0.0
 11
162.0814387711
 21
129.4475542618
 31
0.0
  0
LINE
  5
A8
330
1F
100
AcDbEntity
  8
0
  6
Continuous
 62
     7
370
    25
100
AcDbLine
 10
162.3195788848
 20
128.8475534184
 30
0.0
 11
162.0814387711
 21
128.8475534184
 31
0.0
  0
LINE
  5
A9
330
1F
100
AcDbEntity
  8
0
  6
Continuous
 62
     7
370
    25
100
AcDbLine
 10
173.0358895871
 20
129.4475542618
 30
0.0
 11
173.0358895871
 21
128.8475534184
 31
0.0
  0
LINE
  5
AA
330
1F
100
AcDbEntity
  8
0
  6
Continuous
 62
     7
370
    25
100
AcDbLine
 10
173.0358895871
 20
128.8475534184
 30
0.0
 11
172.7977494734
 21
128.8475534184
 31
0.0
  0
LINE
  5
AB
330
1F
100
AcDbEntity
  8
0
  6
Continuous
 62
     7
370
    25
100
AcDbLine
 10
162.0814387711
 20
129.4475542618
 30
0.0
 11
161.8086641679
 21
129.4475542618
 31
0.0
  0
LINE
  5
AC
330
1F
100
AcDbEntity
  8
0
  6
Continuous
 62
     7
370
    25
100
AcDbLine
 10
161.8086641679
 20
129.6975529058
 30
0.0
 11
161.8086641679
 21
129.4475542618
 31
0.0
  0
LINE
  5
AD
330
1F
100
AcDbEntity
  8
0
  6
Continuous
 62
     7
370
    25
100
AcDbLine
 10
161.8086641679
 20
129.6975529058
 30
0.0
 11
162.4596446777
 21
129.6975529058
 31
0.0
  0
LINE
  5
AE
330
1F
100
AcDbEntity
  8
0
  6
Continuous
 62
     7
370
    25
100
AcDbLine
 10
161.558664127
 20
128.8475534184
 30
0.0
 11
161.558664127
 21
129.4475542618
 31
0.0
  0
LINE
  5
AF
330
1F
100
AcDbEntity
  8
0
  6
Continuous
 62
     7
370
    25
100
AcDbLine
 10
161.558664127
 20
129.4475542618
 30
0.0
 11
161.8086641679
 21
129.4475542618
 31
0.0
  0
LINE
  5
B0
330
1F
100
AcDbEntity
  8
0
  6
Continuous
 62
     7
370
    25
100
AcDbLine
 10
161.8086641679
 20
129.4475542618
 30
0.0
 11
161.8086641679
 21
128.8475534184
 31
0.0
  0
LINE
  5
B1
330
1F
100
AcDbEntity
  8
0
  6
Continuous
 62
     7
370
    25
100
AcDbLine
 10
161.8086641679
 20
128.8475534184
 30
0.0
 11
161.558664127
 21
128.8475534184
 31
0.0
  0
LINE
  5
B2
330
1F
100
AcDbEntity
  8
0
  6
Continuous
 62
     7
370
    25
100
AcDbLine
 10
173.3086641903
 20
129.4475542618
 30
0.0
 11
173.3086641903
 21
129.6975529058
 31
0.0
  0
LINE
  5
B3
330
1F
100
AcDbEntity
  8
0
  6
Continuous
 62
     7
370
    25
100
AcDbLine
 10
173.3086641903
 20
129.4475542618
 30
0.0
 11
173.0358895871
 21
129.4475542618
 31
0.0
  0
LINE
  5
B4
330
1F
100
AcDbEntity
  8
0
  6
Continuous
 62
     7
370
    25
100
AcDbLine
 10
172.6576836805
 20
129.6975529058
 30
0.0
 11
173.3086641903
 21
129.6975529058
 31
0.0
  0
LINE
  5
B5
330
1F
100
AcDbEntity
  8
0
  6
Continuous
 62
     7
370
    25
100
AcDbLine
 10
173.3086641903
 20
128.8475534184
 30
0.0
 11
173.3086641903
 21
129.4475542618
 31
0.0
  0
LINE
  5
B6
330
1F
100
AcDbEntity
  8
0
  6
Continuous
 62
     7
370
    25
100
AcDbLine
 10
173.0358895871
 20
128.8475534184
 30
0.0
 11
173.3086641903
 21
128.8475534184
 31
0.0
  0
LINE
  5
B7
330
1F
100
AcDbEntity
  8
0
  6
Continuous
 62
     7
370
    25
100
AcDbLine
 10
161.8086641679
 20
128.8475534184
 30
0.0
 11
162.0814387711
 21
128.8475534184
 31
0.0
  0
LINE
  5
B8
330
1F
100
AcDbEntity
  8
0
  6
Continuous
 62
     7
370
    25
100
AcDbLine
 10
173.3086641903
 20
129.4475542618
 30
0.0
 11
173.5586642313
 21
129.4475542618
 31
0.0
  0
LINE
  5
B9
330
1F
100
AcDbEntity
  8
0
  6
Continuous
 62
     7
370
    25
100
AcDbLine
 10
173.5586642313
 20
129.4475542618
 30
0.0
 11
173.5586642313
 21
128.8475534184
 31
0.0
  0
LINE
  5
BA
330
1F
100
AcDbEntity
  8
0
  6
Continuous
 62
     7
370
    25
100
AcDbLine
 10
173.5586642313
 20
128.8475534184
 30
0.0
 11
173.3086641903
 21
128.8475534184
 31
0.0
  0
ARC
  5
BB
330
1F
100
AcDbEntity
  8
0
  6
Continuous
 62
     7
370
    25
100
AcDbCircle
 10
161.8086641791
 20
129.4475537313
 30
0.0
 40
0.25
100
AcDbArc
 50
90.0
 51
180.0
  0
ARC
  5
BC
330
1F
100
AcDbEntity
  8
0
  6
Continuous
 62
     7
370
    25
100
AcDbCircle
 10
173.3086641791
 20
129.4475537313
 30
0.0
 40
0.25
100
AcDbArc
 50
0.0
 51
90.0
  0
LINE
  5
BD
330
1F
100
AcDbEntity
  8
0
  6
Continuous
 62
     7
370
    25
100
AcDbLine
 10
162.5586642909
 20
129.6975529058
 30
0.0
 11
162.5586642909
 21
129.7075534476
 31
0.0
  0
LINE
  5
BE
330
1F
100
AcDbEntity
  8
0
  6
Continuous
 62
     7
370
    25
100
AcDbLine
 10
172.5586640673
 20
129.6975529058
 30
0.0
 11
172.5586640673
 21
129.7075534476
 31
0.0
  0
LINE
  5
BF
330
1F
100
AcDbEntity
  8
0
  6
Continuous
 62
     7
370
    25
100
AcDbLine
 10
162.5586642909
 20
129.7075534476
 30
0.0
 11
172.5586640673
 21
129.7075534476
 31
0.0
  0
LINE
  5
C0
330
1F
100
AcDbEntity
  8
0
  6
Continuous
 62
     7
370
    25
100
AcDbLine
 10
163.0841174188
 20
120.8475539698
 30
0.0
 11
175.0086640964
 21
120.8475539698
 31
0.0
  0
SPLINE
  5
C1
330
1F
100
AcDbEntity
  8
0
  6
Continuous
 62
     7
370
    25
100
AcDbSpline
210
0.0
220
0.0
230
1.0
 70
     8
 71
     3
 72
     9
 73
     5
 74
     0
 42
0.000000001
 43
0.00000001
 40
0.0
 40
0.0
 40
0.0
 40
0.0
 40
0.4978404435797771
 40
1.0
 40
1.0
 40
1.0
 40
1.0
 10
163.8443280967652
 20
121.8422977490635
 30
0.0
 10
163.7080060745162
 20
121.6857864692726
 30
0.0
 10
163.4341793414596
 20
121.371406065251
 30
0.0
 10
163.2011402337432
 20
121.0226734068259
 30
0.0
 10
163.0841174187838
 20
120.8475539697619
 30
0.0
  0
LINE
  5
C2
330
1F
100
AcDbEntity
  8
0
  6
Continuous
 62
     7
370
    25
100
AcDbLine
 10
162.3348618882
 20
128.8475534184
 30
0.0
 11
160.6067234675
 21
121.8422977491
 31
0.0
  0
LINE
  5
C3
330
1F
100
AcDbEntity
  8
0
  6
Continuous
 62
     7
370
    25
100
AcDbLine
 10
172.7977494734
 20
128.8475534184
 30
0.0
 11
162.3348618882
 21
128.8475534184
 31
0.0
  0
LINE
  5
C4
330
1F
100
AcDbEntity
  8
0
  6
Continuous
 62
     7
370
    25
100
AcDbLine
 10
165.5586640841
 20
112.8475535898
 30
0.0
 11
174.5586643952
 21
112.8475535898
 31
0.0
  0
LINE
  5
C5
330
1F
100
AcDbEntity
  8
0
  6
Continuous
 62
     7
370
    25
100
AcDbLine
 10
165.5586640841
 20
112.8853708742
 30
0.0
 11
165.5586640841
 21
112.8475535898
 31
0.0
  0
SPLINE
  5
C6
330
1F
100
AcDbEntity
  8
0
  6
Continuous
 62
     7
370
    25
100
AcDbSpline
210
0.0
220
0.0
230
1.0
 70
     8
 71
     3
 72
     9
 73
     5
 74
     0
 42
0.000000001
 43
0.00000001
 40
0.0
 40
0.0
 40
0.0
 40
0.0
 40
0.4875149508301391
 40
1.0
 40
1.0
 40
1.0
 40
1.0
 10
165.4027190084337
 20
112.8475535897823
 30
0.0
 10
165.4290255839821
 20
112.8492811713538
 30
0.0
 10
165.4829861353531
 20
112.8528248197456
 30
0.0
 10
165.5330216373886
 20
112.8743430850133
 30
0.0
 10
165.5586640841096
 20
112.8853708742471
 30
0.0
  0
SPLINE
  5
C7
330
1F
100
AcDbEntity
  8
0
  6
Continuous
 62
     7
370
    25
100
AcDbSpline
210
0.0
220
0.0
230
1.0
 70
     8
 71
     3
 72
    17
 73
    13
 74
     0
 42
0.000000001
 43
0.00000001
 40
0.0
 40
0.0
 40
0.0
 40
0.0
 40
0.3241697917523345
 40
0.5422758587479237
 40
0.689509089275669
 40
0.7894035981534984
 40
0.8577089567094359
 40
0.9049823628410104
 40
0.9551711781537311
 40
0.9753097815865951
 40
0.991957189245944
 40
1.0
 40
1.0
 40
1.0
 40
1.0
 10
163.0841174187838
 20
120.8475539697619
 30
0.0
 10
163.2268325672579
 20
119.9349403170453
 30
0.0
 10
163.4655685064606
 20
118.4083071611401
 30
0.0
 10
163.8451562519611
 20
116.4815342437714
 30
0.0
 10
164.1542901009755
 20
115.1938988196789
 30
0.0
 10
164.4104041153677
 20
114.3347471037227
 30
0.0
 10
164.6247149710838
 20
113.7612794159635
 30
0.0
 10
164.8279490368072
 20
113.3397470561838
 30
0.0
 10
165.0124950025966
 20
113.0592551929888
 30
0.0
 10
165.1985649801575
 20
112.9037049983023
 30
0.0
 10
165.313776337121
 20
112.8530955821634
 30
0.0
 10
165.3808649640167
 20
112.8489153090321
 30
0.0
 10
165.4027190084337
 20
112.8475535897823
 30
0.0
  0
SPLINE
  5
C8
330
1F
100
AcDbEntity
  8
0
  6
Continuous
 62
     7
370
    25
100
AcDbSpline
210
0.0
220
0.0
230
1.0
 70
     8
 71
     3
 72
    14
 73
    10
 74
     0
 42
0.000000001
 43
0.00000001
 40
0.0
 40
0.0
 40
0.0
 40
0.0
 40
0.1576094553927752
 40
0.315238234353942
 40
0.4726925966125388
 40
0.6301651045756322
 40
0.790731299294198
 40
0.9513051076307096
 40
1.0
 40
1.0
 40
1.0
 40
1.0
 10
161.058664044994
 20
112.8475535897823
 30
0.0
 10
160.9920929887006
 20
113.0610552670293
 30
0.0
 10
160.8589427142282
 20
113.4880847977082
 30
0.0
 10
160.5303765392363
 20
114.073332257219
 30
0.0
 10
160.1169863664828
 20
114.5954867846821
 30
0.0
 10
159.6213115392792
 20
115.0444649987617
 30
0.0
 10
159.055021776974
 20
115.4037471719337
 30
0.0
 10
158.5787711620681
 20
115.6083129143067
 30
0.0
 10
158.2985765110434
 20
115.689107659076
 30
0.0
 10
158.2333778056084
 20
115.7079078493924
 30
0.0
  0
LWPOLYLINE
  5
C9
330
1F
100
AcDbEntity
  8
0
  6
Continuous
 62
     7
370
    25
100
AcDbPolyline
 90
        4
 70
   128
 43
0.0
 10
158.2333778056
 20
115.7079078494
 10
156.3160556393
 20
116.2282675742
 10
154.3888921874
 20
116.7512983321
 10
152.4536206412
 20
117.2765288739
  0
SPLINE
  5
CA
330
1F
100
AcDbEntity
  8
0
  6
Continuous
 62
     7
370
    25
100
AcDbSpline
210
0.0
220
0.0
230
1.0
 70
     8
 71
     3
 72
    11
 73
     7
 74
     0
 42
0.000000001
 43
0.00000001
 40
0.0
 40
0.0
 40
0.0
 40
0.0
 40
0.2488465959137647
 40
0.4976945924499491
 40
0.7488461206779728
 40
1.0
 40
1.0
 40
1.0
 40
1.0
 10
145.3832273396431
 20
118.5997287048312
 30
0.0
 10
145.9776632889208
 20
118.5302045489865
 30
0.0
 10
147.1665385332333
 20
118.3911558459836
 30
0.0
 10
148.9412629183129
 20
118.0908261599439
 30
0.0
 10
150.7078438180706
 20
117.7289178116278
 30
0.0
 10
151.8716932176429
 20
117.4273256570086
 30
0.0
 10
152.4536206411897
 20
117.2765288738818
 30
0.0
  0
LINE
  5
CB
330
1F
100
AcDbEntity
  8
0
  6
Continuous
 62
     7
370
    25
100
AcDbLine
 10
145.3832273396
 20
118.5997287048
 30
0.0
 11
145.3832273396
 21
121.8422977491
 31
0.0
  0
LINE
  5
CC
330
1F
100
AcDbEntity
  8
0
  6
Continuous
 62
     7
370
    25
100
AcDbLine
 10
145.3832273396
 20
121.8422977491
 30
0.0
 11
163.8443280968
 21
121.8422977491
 31
0.0
  0
LINE
  5
CD
330
1F
100
AcDbEntity
  8
0
  6
Continuous
 62
     7
370
    25
100
AcDbLine
 10
165.4027190084
 20
112.8475535898
 30
0.0
 11
161.058664045
 21
112.8475535898
 31
0.0
  0
LINE
  5
CE
330
1F
100
AcDbEntity
  8
0
  6
Continuous
 62
     7
370
    25
100
AcDbLine
 10
165.5586640841
 20
112.8853708742
 30
0.0
 11
165.5518647308
 21
112.8475535898
 31
0.0
  0
LINE
  5
CF
330
1F
100
AcDbEntity
  8
0
  6
Continuous
 62
     7
370
    25
100
AcDbLine
 10
165.5586640841
 20
112.8475535898
 30
0.0
 11
165.5518647308
 21
112.8475535898
 31
0.0
  0
LINE
  5
D0
330
1F
100
AcDbEntity
  8
0
  6
Continuous
 62
     7
370
    25
100
AcDbLine
 10
165.5518647308
 20
112.8475535898
 30
0.0
 11
165.4027190084
 21
112.8475535898
 31
0.0
  0
LINE
  5
D1
330
1F
100
AcDbEntity
  8
0
  6
Continuous
 62
     7
370
    25
100
AcDbLine
 10
145.3832273396
 20
130.8475537462
 30
0.0
 11
145.3832273396
 21
121.8422977491
 31
0.0
  0
LINE
  5
D2
330
1F
100
AcDbEntity
  8
0
  6
Continuous
 62
     7
370
    25
100
AcDbLine
 10
145.3832273396
 20
130.8475537462
 30
0.0
 11
147.5586646261
 21
130.8475537462
 31
0.0
  0
LINE
  5
D3
330
1F
100
AcDbEntity
  8
0
  6
Continuous
 62
     7
370
    25
100
AcDbLine
 10
147.5586646261
 20
130.8475537462
 30
0.0
 11
147.5586646261
 21
128.8665095581
 31
0.0
  0
ARC
  5
D4
330
1F
100
AcDbEntity
  8
0
  6
Continuous
 62
     7
370
    25
100
AcDbCircle
 10
153.5586641791
 20
128.8665092547
 30
0.0
 40
6.00000000000002
100
AcDbArc
 50
180.0
 51
275.5801667845
  0
ARC
  5
D5
330
1F
100
AcDbEntity
  8
0
  6
Continuous
 62
     7
370
    25
100
AcDbCircle
 10
153.1697106148
 20
132.8475537313
 30
0.0
 40
10.00000000000848
100
AcDbArc
 50
275.5801667845
 51
336.4218215217
  0
LINE
  5
D6
330
1F
100
AcDbEntity
  8
0
  6
Continuous
 62
     7
370
    25
100
AcDbLine
 10
140.6669967833
 20
118.8475536419
 30
0.0
 11
132.5586640301
 21
118.8475536419
 31
0.0
  0
ARC
  5
D7
330
1F
100
AcDbEntity
  8
0
  6
Continuous
 62
     7
370
    25
100
AcDbCircle
 10
132.5586641791
 20
123.8475537313
 30
0.0
 40
5.000000000000014
100
AcDbArc
 50
180.0
 51
270.0
  0
LINE
  5
D8
330
1F
100
AcDbEntity
  8
0
  6
Continuous
 62
     7
370
    25
100
AcDbLine
 10
127.5586650732
 20
123.8475544615
 30
0.0
 11
127.5586650732
 21
130.8475537462
 31
0.0
  0
LINE
  5
D9
330
1F
100
AcDbEntity
  8
0
  6
Continuous
 62
     7
370
    25
100
AcDbLine
 10
127.5586650732
 20
130.8475537462
 30
0.0
 11
145.3832273396
 21
130.8475537462
 31
0.0
  0
ARC
  5
DA
330
1F
100
AcDbEntity
  8
0
  6
Continuous
 62
     7
370
    25
100
AcDbCircle
 10
140.6669963213
 20
73.8474244772
 30
0.0
 40
45.00012925418375
100
AcDbArc
 50
83.9840777705
 51
90.0
  0
LINE
  5
DB
330
1F
100
AcDbEntity
  8
0
  6
Continuous
 62
     7
370
    25
100
AcDbLine
 10
161.058664045
 20
112.8475535898
 30
0.0
 11
160.558663963
 21
112.8475535898
 31
0.0
  0
LINE
  5
DC
330
1F
100
AcDbEntity
  8
0
  6
Continuous
 62
     7
370
    25
100
AcDbLine
 10
162.3195788848
 20
128.8475534184
 30
0.0
 11
162.3348618882
 21
128.8475534184
 31
0.0
  0
LINE
  5
DD
330
1F
100
AcDbEntity
  8
0
  6
Continuous
 62
     7
370
    25
100
AcDbLine
 10
150.5586632552
 20
110.3475541113
 30
0.0
 11
150.5586632552
 21
94.3475533514
 31
0.0
  0
LINE
  5
DE
330
1F
100
AcDbEntity
  8
0
  6
Continuous
 62
     7
370
    25
100
AcDbLine
 10
147.5586646261
 20
110.3475541113
 30
0.0
 11
147.5586646261
 21
94.3475533514
 31
0.0
  0
LINE
  5
DF
330
1F
100
AcDbEntity
  8
0
  6
Continuous
 62
     7
370
    25
100
AcDbLine
 10
142.5586638066
 20
110.3475541113
 30
0.0
 11
142.5586638066
 21
94.3475533514
 31
0.0
  0
LINE
  5
E0
330
1F
100
AcDbEntity
  8
0
  6
Continuous
 62
     7
370
    25
100
AcDbLine
 10
137.5586648497
 20
108.881612332
 30
0.0
 11
137.5586648497
 21
108.937651874
 31
0.0
  0
LINE
  5
E1
330
1F
100
AcDbEntity
  8
0
  6
Continuous
 62
     7
370
    25
100
AcDbLine
 10
137.5586648497
 20
95.7574555887
 30
0.0
 11
137.5586648497
 21
108.881612332
 31
0.0
  0
LINE
  5
E2
330
1F
100
AcDbEntity
  8
0
  6
Continuous
 62
     7
370
    25
100
AcDbLine
 10
177.0586638736
 20
92.3475539549
 30
0.0
 11
177.0586638736
 21
112.3475535078
 31
0.0
  0
LINE
  5
E3
330
1F
100
AcDbEntity
  8
0
  6
Continuous
 62
     7
370
    25
100
AcDbLine
 10
177.5586639556
 20
111.8475534259
 30
0.0
 11
177.5586639556
 21
92.8475540368
 31
0.0
  0
LINE
  5
E4
330
1F
100
AcDbEntity
  8
0
  6
Continuous
 62
     7
370
    25
100
AcDbLine
 10
175.4406305986
 20
92.3475539549
 30
0.0
 11
175.4406305986
 21
112.3475535078
 31
0.0
  0
SPLINE
  5
E5
330
1F
100
AcDbEntity
  8
0
  6
Continuous
 62
     7
370
    25
100
AcDbSpline
210
0.0
220
0.0
230
1.0
 70
     8
 71
     3
 72
     8
 73
     4
 74
     0
 42
0.000000001
 43
0.00000001
 40
0.0
 40
0.0
 40
0.0
 40
0.0
 40
1.0
 40
1.0
 40
1.0
 40
1.0
 10
175.1558653037584
 20
96.94786387984742
 30
0.0
 10
175.0880288861823
 20
96.91650093883663
 30
0.0
 10
175.0586641791045
 20
96.88303277818707
 30
0.0
 10
175.0586641791045
 20
96.84755373134331
 30
0.0
  0
SPLINE
  5
E6
330
1F
100
AcDbEntity
  8
0
  6
Continuous
 62
     7
370
    25
100
AcDbSpline
210
0.0
220
0.0
230
1.0
 70
     8
 71
     3
 72
    12
 73
     8
 74
     0
 42
0.000000001
 43
0.00000001
 40
0.0
 40
0.0
 40
0.0
 40
0.0
 40
0.5000000000000001
 40
0.5000000000000001
 40
0.75
 40
0.75
 40
1.0
 40
1.0
 40
1.0
 40
1.0
 10
175.1558653037584
 20
96.94786387984742
 30
0.0
 10
175.2237350637682
 20
96.97924223612951
 30
0.0
 10
175.2997696150219
 20
97.11295075662805
 30
0.0
 10
175.3464142133989
 20
97.39097686629383
 30
0.0
 10
175.3508532099216
 20
97.4978230502978
 30
0.0
 10
175.3351225961287
 20
97.72470452435354
 30
0.0
 10
175.3152421661864
 20
97.84487349665815
 30
0.0
 10
175.2877502462065
 20
97.9663231414684
 30
0.0
  0
SPLINE
  5
E7
330
1F
100
AcDbEntity
  8
0
  6
Continuous
 62
     7
370
    25
100
AcDbSpline
210
0.0
220
0.0
230
1.0
 70
     8
 71
     3
 72
    12
 73
     8
 74
     0
 42
0.000000001
 43
0.00000001
 40
0.0
 40
0.0
 40
0.0
 40
0.0
 40
0.5
 40
0.5
 40
0.75
 40
0.75
 40
1.0
 40
1.0
 40
1.0
 40
1.0
 10
175.0586641791045
 20
102.3475537313433
 30
0.0
 10
175.0586641791045
 20
101.6135967091861
 30
0.0
 10
175.0541067841052
 20
100.8806182648233
 30
0.0
 10
175.0812904484845
 20
99.78379415187688
 30
0.0
 10
175.0967401194017
 20
99.41864656330644
 30
0.0
 10
175.1596037209335
 20
98.6898585494424
 30
0.0
 10
175.2066336441019
 20
98.32466779404407
 30
0.0
 10
175.2877502462065
 20
97.9663231414684
 30
0.0
  0
SPLINE
  5
E8
330
1F
100
AcDbEntity
  8
0
  6
Continuous
 62
     7
370
    25
100
AcDbSpline
210
0.0
220
0.0
230
1.0
 70
     8
 71
     3
 72
    12
 73
     8
 74
     0
 42
0.000000001
 43
0.00000001
 40
0.0
 40
0.0
 40
0.0
 40
0.0
 40
0.25
 40
0.25
 40
0.5
 40
0.5
 40
1.0
 40
1.0
 40
1.0
 40
1.0
 10
175.2877502462065
 20
106.7287843212182
 30
0.0
 10
175.2066336441019
 20
106.3704396686425
 30
0.0
 10
175.1596037209335
 20
106.0052489132442
 30
0.0
 10
175.0967401194017
 20
105.2764608993802
 30
0.0
 10
175.0812904484845
 20
104.9113133108097
 30
0.0
 10
175.0541067841052
 20
103.8144891978633
 30
0.0
 10
175.0586641791045
 20
103.0815107535005
 30
0.0
 10
175.0586641791045
 20
102.3475537313433
 30
0.0
  0
SPLINE
  5
E9
330
1F
100
AcDbEntity
  8
0
  6
Continuous
 62
     7
370
    25
100
AcDbSpline
210
0.0
220
0.0
230
1.0
 70
     8
 71
     3
 72
    14
 73
    10
 74
     0
 42
0.000000001
 43
0.00000001
 40
0.0
 40
0.0
 40
0.0
 40
0.0
 40
0.25
 40
0.25
 40
0.5
 40
0.5
 40
0.75
 40
0.75
 40
1.0
 40
1.0
 40
1.0
 40
1.0
 10
175.2877502462065
 20
106.7287843212182
 30
0.0
 10
175.3152712339516
 20
106.8503623772039
 30
0.0
 10
175.335191155788
 20
106.9708871142291
 30
0.0
 10
175.350858197606
 20
107.1978633733372
 30
0.0
 10
175.3463663657937
 20
107.3048333509033
 30
0.0
 10
175.3151100205101
 20
107.4902989026831
 30
0.0
 10
175.2887374371284
 20
107.5691841638019
 30
0.0
 10
175.2259008859841
 20
107.689821954975
 30
0.0
 10
175.189861307124
 20
107.7315261454176
 30
0.0
 10
175.1558653037584
 20
107.7472435828392
 30
0.0
  0
SPLINE
  5
EA
330
1F
100
AcDbEntity
  8
0
  6
Continuous
 62
     7
370
    25
100
AcDbSpline
210
0.0
220
0.0
230
1.0
 70
     8
 71
     3
 72
     8
 73
     4
 74
     0
 42
0.000000001
 43
0.00000001
 40
0.0
 40
0.0
 40
0.0
 40
0.0
 40
1.0
 40
1.0
 40
1.0
 40
1.0
 10
175.0586641791045
 20
107.8475537313433
 30
0.0
 10
175.0586641791045
 20
107.8120746844995
 30
0.0
 10
175.0880288861823
 20
107.77860652385
 30
0.0
 10
175.1558653037584
 20
107.7472435828392
 30
0.0
  0
LINE
  5
EB
330
1F
100
AcDbEntity
  8
0
  6
Continuous
 62
     7
370
    25
100
AcDbLine
 10
175.0586640115
 20
107.8475537015
 30
0.0
 11
175.0586640115
 21
111.3475533439
 31
0.0
  0
LINE
  5
EC
330
1F
100
AcDbEntity
  8
0
  6
Continuous
 62
     7
370
    25
100
AcDbLine
 10
175.0586640115
 20
93.3475541188
 30
0.0
 11
175.0586640115
 21
96.8475537611
 31
0.0
  0
LINE
  5
ED
330
1F
100
AcDbEntity
  8
0
  6
Continuous
 62
     7
370
    25
100
AcDbLine
 10
159.6766977596
 20
102.3475537313
 30
0.0
 11
159.6766977596
 21
92.3475539549
 31
0.0
  0
LINE
  5
EE
330
1F
100
AcDbEntity
  8
0
  6
Continuous
 62
     7
370
    25
100
AcDbLine
 10
159.6766977596
 20
112.3475535078
 30
0.0
 11
159.6766977596
 21
102.3475537313
 31
0.0
  0
LINE
  5
EF
330
1F
100
AcDbEntity
  8
0
  6
Continuous
 62
     7
370
    25
100
AcDbLine
 10
157.8086639779
 20
102.3475537313
 30
0.0
 11
157.8086639779
 21
92.3475539549
 31
0.0
  0
LINE
  5
F0
330
1F
100
AcDbEntity
  8
0
  6
Continuous
 62
     7
370
    25
100
AcDbLine
 10
157.8086639779
 20
112.3475535078
 30
0.0
 11
157.8086639779
 21
102.3475537313
 31
0.0
  0
LINE
  5
F1
330
1F
100
AcDbEntity
  8
0
  6
Continuous
 62
     7
370
    25
100
AcDbLine
 10
160.0586643467
 20
111.3475533439
 30
0.0
 11
160.0586643467
 21
107.8475537015
 31
0.0
  0
SPLINE
  5
F2
330
1F
100
AcDbEntity
  8
0
  6
Continuous
 62
     7
370
    25
100
AcDbSpline
210
0.0
220
0.0
230
1.0
 70
     8
 71
     3
 72
     8
 73
     4
 74
     0
 42
0.000000001
 43
0.00000001
 40
0.0
 40
0.0
 40
0.0
 40
0.0
 40
1.0
 40
1.0
 40
1.0
 40
1.0
 10
159.9614630544505
 20
107.7472435828392
 30
0.0
 10
160.0292994720266
 20
107.77860652385
 30
0.0
 10
160.0586641791045
 20
107.8120746844995
 30
0.0
 10
160.0586641791045
 20
107.8475537313433
 30
0.0
  0
SPLINE
  5
F3
330
1F
100
AcDbEntity
  8
0
  6
Continuous
 62
     7
370
    25
100
AcDbSpline
210
0.0
220
0.0
230
1.0
 70
     8
 71
     3
 72
    12
 73
     8
 74
     0
 42
0.000000001
 43
0.00000001
 40
0.0
 40
0.0
 40
0.0
 40
0.0
 40
0.4999999999999992
 40
0.4999999999999992
 40
0.7499999999999996
 40
0.7499999999999996
 40
1.0
 40
1.0
 40
1.0
 40
1.0
 10
159.9614630544505
 20
107.7472435828392
 30
0.0
 10
159.8935932944407
 20
107.7158652265571
 30
0.0
 10
159.817558743187
 20
107.5821567060586
 30
0.0
 10
159.77091414481
 20
107.3041305963928
 30
0.0
 10
159.7664751482874
 20
107.1972844123888
 30
0.0
 10
159.7822057620802
 20
106.9704029383331
 30
0.0
 10
159.8020861920226
 20
106.8502339660285
 30
0.0
 10
159.8295781120024
 20
106.7287843212182
 30
0.0
  0
SPLINE
  5
F4
330
1F
100
AcDbEntity
  8
0
  6
Continuous
 62
     7
370
    25
100
AcDbSpline
210
0.0
220
0.0
230
1.0
 70
     8
 71
     3
 72
    12
 73
     8
 74
     0
 42
0.000000001
 43
0.00000001
 40
0.0
 40
0.0
 40
0.0
 40
0.0
 40
0.4999999999999998
 40
0.4999999999999998
 40
0.7499999999999999
 40
0.7499999999999999
 40
1.0
 40
1.0
 40
1.0
 40
1.0
 10
160.0586641791045
 20
102.3475537313433
 30
0.0
 10
160.0586641791045
 20
103.0815107535005
 30
0.0
 10
160.0632215741037
 20
103.8144891978633
 30
0.0
 10
160.0360379097244
 20
104.9113133108097
 30
0.0
 10
160.0205882388072
 20
105.2764608993802
 30
0.0
 10
159.9577246372754
 20
106.0052489132442
 30
0.0
 10
159.9106947141071
 20
106.3704396686425
 30
0.0
 10
159.8295781120024
 20
106.7287843212182
 30
0.0
  0
SPLINE
  5
F5
330
1F
100
AcDbEntity
  8
0
  6
Continuous
 62
     7
370
    25
100
AcDbSpline
210
0.0
220
0.0
230
1.0
 70
     8
 71
     3
 72
    12
 73
     8
 74
     0
 42
0.000000001
 43
0.00000001
 40
0.0
 40
0.0
 40
0.0
 40
0.0
 40
0.2500000000000001
 40
0.2500000000000001
 40
0.5000000000000002
 40
0.5000000000000002
 40
1.0
 40
1.0
 40
1.0
 40
1.0
 10
159.8295781120024
 20
97.9663231414684
 30
0.0
 10
159.9106947141071
 20
98.32466779404407
 30
0.0
 10
159.9577246372754
 20
98.6898585494424
 30
0.0
 10
160.0205882388072
 20
99.41864656330644
 30
0.0
 10
160.0360379097244
 20
99.78379415187688
 30
0.0
 10
160.0632215741037
 20
100.8806182648233
 30
0.0
 10
160.0586641791045
 20
101.6135967091861
 30
0.0
 10
160.0586641791045
 20
102.3475537313433
 30
0.0
  0
SPLINE
  5
F6
330
1F
100
AcDbEntity
  8
0
  6
Continuous
 62
     7
370
    25
100
AcDbSpline
210
0.0
220
0.0
230
1.0
 70
     8
 71
     3
 72
    14
 73
    10
 74
     0
 42
0.000000001
 43
0.00000001
 40
0.0
 40
0.0
 40
0.0
 40
0.0
 40
0.25
 40
0.25
 40
0.5
 40
0.5
 40
0.75
 40
0.75
 40
1.0
 40
1.0
 40
1.0
 40
1.0
 10
159.8295781120024
 20
97.9663231414684
 30
0.0
 10
159.8020571242573
 20
97.84474508548269
 30
0.0
 10
159.7821372024209
 20
97.72422034845755
 30
0.0
 10
159.7664701606029
 20
97.49724408934945
 30
0.0
 10
159.7709619924152
 20
97.39027411178327
 30
0.0
 10
159.8022183376987
 20
97.20480856000354
 30
0.0
 10
159.8285909210805
 20
97.12592329888471
 30
0.0
 10
159.8914274722248
 20
97.00528550771162
 30
0.0
 10
159.9274670510849
 20
96.963581317269
 30
0.0
 10
159.9614630544505
 20
96.94786387984742
 30
0.0
  0
SPLINE
  5
F7
330
1F
100
AcDbEntity
  8
0
  6
Continuous
 62
     7
370
    25
100
AcDbSpline
210
0.0
220
0.0
230
1.0
 70
     8
 71
     3
 72
     8
 73
     4
 74
     0
 42
0.000000001
 43
0.00000001
 40
0.0
 40
0.0
 40
0.0
 40
0.0
 40
1.0
 40
1.0
 40
1.0
 40
1.0
 10
160.0586641791045
 20
96.84755373134331
 30
0.0
 10
160.0586641791045
 20
96.88303277818707
 30
0.0
 10
160.0292994720266
 20
96.91650093883663
 30
0.0
 10
159.9614630544505
 20
96.94786387984742
 30
0.0
  0
LINE
  5
F8
330
1F
100
AcDbEntity
  8
0
  6
Continuous
 62
     7
370
    25
100
AcDbLine
 10
160.0586643467
 20
96.8475537611
 30
0.0
 11
160.0586643467
 21
93.3475541188
 31
0.0
  0
LINE
  5
F9
330
1F
100
AcDbEntity
  8
0
  6
Continuous
 62
     7
370
    25
100
AcDbLine
 10
157.5586644026
 20
102.3475537313
 30
0.0
 11
157.5586644026
 21
112.0975539325
 31
0.0
  0
LINE
  5
FA
330
1F
100
AcDbEntity
  8
0
  6
Continuous
 62
     7
370
    25
100
AcDbLine
 10
157.5586644026
 20
92.5975535302
 30
0.0
 11
157.5586644026
 21
102.3475537313
 31
0.0
  0
SPLINE
  5
FB
330
1F
100
AcDbEntity
  8
0
  6
Continuous
 62
     7
370
    25
100
AcDbSpline
210
0.0
220
0.0
230
1.0
 70
     8
 71
     3
 72
    14
 73
    10
 74
     0
 42
0.000000001
 43
0.00000001
 40
0.0
 40
0.0
 40
0.0
 40
0.0
 40
0.2500000000000001
 40
0.2500000000000001
 40
0.5000000000000001
 40
0.5000000000000001
 40
0.7500000000000001
 40
0.7500000000000001
 40
1.0
 40
1.0
 40
1.0
 40
1.0
 10
160.5586641791045
 20
102.3475537313433
 30
0.0
 10
160.5586641791045
 20
101.9710370192563
 30
0.0
 10
160.5590734408241
 20
101.5945009616274
 30
0.0
 10
160.5557620927182
 20
100.8416240627788
 30
0.0
 10
160.5519986072536
 20
100.4652852482634
 30
0.0
 10
160.5262253514738
 20
99.7134701095483
 30
0.0
 10
160.5043072567953
 20
99.33798945189929
 30
0.0
 10
160.4190895936101
 20
98.5889842126306
 30
0.0
 10
160.3557766074592
 20
98.21337629718916
 30
0.0
 10
160.2532160896351
 20
97.84755373134331
 30
0.0
  0
LWPOLYLINE
  5
FC
330
1F
100
AcDbEntity
  8
0
  6
Continuous
 62
     7
370
    25
100
AcDbPolyline
 90
        9
 70
   128
 43
0.0
 10
160.2532162356
 20
97.8475539251
 10
160.1886732529
 20
97.8656485914
 10
160.1252953547
 20
97.8834172948
 10
160.0642271365
 20
97.9005377977
 10
160.0065708185
 20
97.9167022979
 10
159.9533680851
 20
97.9316178946
 10
159.9055786642
 20
97.9450159012
 10
159.8640654261
 20
97.9566546394
 10
159.8295780855
 20
97.9663231647
  0
LINE
  5
FD
330
1F
100
AcDbEntity
  8
0
  6
Continuous
 62
     7
370
    25
100
AcDbLine
 10
160.558663963
 20
102.3475537313
 30
0.0
 11
160.0586643467
 21
102.3475537313
 31
0.0
  0
LWPOLYLINE
  5
FE
330
1F
100
AcDbEntity
  8
0
  6
Continuous
 62
     7
370
    25
100
AcDbPolyline
 90
        9
 70
   128
 43
0.0
 10
175.2877502727
 20
97.9663231647
 10
175.2532629321
 20
97.9566546394
 10
175.211749694
 20
97.9450159012
 10
175.1639602731
 20
97.9316178946
 10
175.1107575397
 20
97.9167022979
 10
175.0531012217
 20
97.9005377977
 10
174.9920330035
 20
97.8834172948
 10
174.9286551053
 20
97.8656485914
 10
174.8641121226
 20
97.8475539251
  0
SPLINE
  5
FF
330
1F
100
AcDbEntity
  8
0
  6
Continuous
 62
     7
370
    25
100
AcDbSpline
210
0.0
220
0.0
230
1.0
 70
     8
 71
     3
 72
    14
 73
    10
 74
     0
 42
0.000000001
 43
0.00000001
 40
0.0
 40
0.0
 40
0.0
 40
0.0
 40
0.2500000000000002
 40
0.2500000000000002
 40
0.5000000000000003
 40
0.5000000000000003
 40
0.7500000000000002
 40
0.7500000000000002
 40
1.0
 40
1.0
 40
1.0
 40
1.0
 10
174.8641122685738
 20
97.84755373134331
 30
0.0
 10
174.7615517507497
 20
98.21337629718916
 30
0.0
 10
174.6982387645988
 20
98.5889842126306
 30
0.0
 10
174.6130211014136
 20
99.3379894518993
 30
0.0
 10
174.5911030067351
 20
99.7134701095483
 30
0.0
 10
174.5653297509554
 20
100.4652852482634
 30
0.0
 10
174.5615662654907
 20
100.8416240627788
 30
0.0
 10
174.5582549173848
 20
101.5945009616274
 30
0.0
 10
174.5586641791045
 20
101.9710370192563
 30
0.0
 10
174.5586641791045
 20
102.3475537313433
 30
0.0
  0
LINE
  5
100
330
1F
100
AcDbEntity
  8
0
  6
Continuous
 62
     7
370
    25
100
AcDbLine
 10
175.0586640115
 20
102.3475537313
 30
0.0
 11
174.5586643952
 21
102.3475537313
 31
0.0
  0
SPLINE
  5
101
330
1F
100
AcDbEntity
  8
0
  6
Continuous
 62
     7
370
    25
100
AcDbSpline
210
0.0
220
0.0
230
1.0
 70
     8
 71
     3
 72
    14
 73
    10
 74
     0
 42
0.000000001
 43
0.00000001
 40
0.0
 40
0.0
 40
0.0
 40
0.0
 40
0.2499999999999999
 40
0.2499999999999999
 40
0.4999999999999999
 40
0.4999999999999999
 40
0.7499999999999999
 40
0.7499999999999999
 40
1.0
 40
1.0
 40
1.0
 40
1.0
 10
174.5586641791045
 20
102.3475537313433
 30
0.0
 10
174.5586641791045
 20
102.7240704434303
 30
0.0
 10
174.5582549173848
 20
103.1006065010592
 30
0.0
 10
174.5615662654907
 20
103.8534833999078
 30
0.0
 10
174.5653297509554
 20
104.2298222144232
 30
0.0
 10
174.5911030067351
 20
104.9816373531383
 30
0.0
 10
174.6130211014136
 20
105.3571180107873
 30
0.0
 10
174.6982387645988
 20
106.106123250056
 30
0.0
 10
174.7615517507497
 20
106.4817311654975
 30
0.0
 10
174.8641122685738
 20
106.8475537313433
 30
0.0
  0
LWPOLYLINE
  5
102
330
1F
100
AcDbEntity
  8
0
  6
Continuous
 62
     7
370
    25
100
AcDbPolyline
 90
        9
 70
   128
 43
0.0
 10
175.2877502727
 20
106.728784298
 10
175.2532629321
 20
106.7384528233
 10
175.211749694
 20
106.7500915615
 10
175.1639602731
 20
106.7634895681
 10
175.1107575397
 20
106.7784051648
 10
175.0531012217
 20
106.794569665
 10
174.9920330035
 20
106.8116901679
 10
174.9286551053
 20
106.8294588713
 10
174.8641121226
 20
106.8475535376
  0
SPLINE
  5
103
330
1F
100
AcDbEntity
  8
0
  6
Continuous
 62
     7
370
    25
100
AcDbSpline
210
0.0
220
0.0
230
1.0
 70
     8
 71
     3
 72
    14
 73
    10
 74
     0
 42
0.000000001
 43
0.00000001
 40
0.0
 40
0.0
 40
0.0
 40
0.0
 40
0.2500000000000001
 40
0.2500000000000001
 40
0.5000000000000001
 40
0.5000000000000001
 40
0.75
 40
0.75
 40
1.0
 40
1.0
 40
1.0
 40
1.0
 10
160.2532160896351
 20
106.8475537313433
 30
0.0
 10
160.3557766074592
 20
106.4817311654975
 30
0.0
 10
160.4190895936101
 20
106.106123250056
 30
0.0
 10
160.5043072567953
 20
105.3571180107873
 30
0.0
 10
160.5262253514738
 20
104.9816373531383
 30
0.0
 10
160.5519986072536
 20
104.2298222144232
 30
0.0
 10
160.5557620927182
 20
103.8534833999078
 30
0.0
 10
160.5590734408241
 20
103.1006065010592
 30
0.0
 10
160.5586641791045
 20
102.7240704434303
 30
0.0
 10
160.5586641791045
 20
102.3475537313433
 30
0.0
  0
LWPOLYLINE
  5
104
330
1F
100
AcDbEntity
  8
0
  6
Continuous
 62
     7
370
    25
100
AcDbPolyline
 90
        9
 70
   128
 43
0.0
 10
160.2532162356
 20
106.8475535376
 10
160.1886732529
 20
106.8294588713
 10
160.1252953547
 20
106.8116901679
 10
160.0642271365
 20
106.794569665
 10
160.0065708185
 20
106.7784051648
 10
159.9533680851
 20
106.7634895681
 10
159.9055786642
 20
106.7500915615
 10
159.8640654261
 20
106.7384528233
 10
159.8295780855
 20
106.728784298
  0
SPLINE
  5
105
330
1F
100
AcDbEntity
  8
0
  6
Continuous
 62
     7
370
    25
100
AcDbSpline
210
0.0
220
0.0
230
1.0
 70
     8
 71
     3
 72
    14
 73
    10
 74
     0
 42
0.000000001
 43
0.00000001
 40
0.0
 40
0.0
 40
0.0
 40
0.0
 40
0.25
 40
0.25
 40
0.5
 40
0.5
 40
0.75
 40
0.75
 40
1.0
 40
1.0
 40
1.0
 40
1.0
 10
160.4290626795659
 20
97.34755373134331
 30
0.0
 10
160.3905871959443
 20
97.34755373134331
 30
0.0
 10
160.3494982744743
 20
97.35834030232652
 30
0.0
 10
160.2702154270337
 20
97.40127208939167
 30
0.0
 10
160.2329325259232
 20
97.43268959769655
 30
0.0
 10
160.1801267666115
 20
97.52400444327277
 30
0.0
 10
160.1681575065178
 20
97.58523492603703
 30
0.0
 10
160.18815929489
 20
97.71609828669276
 30
0.0
 10
160.2176157504423
 20
97.78406240103034
 30
0.0
 10
160.2532160896351
 20
97.84755373134331
 30
0.0
  0
ARC
  5
106
330
1F
100
AcDbEntity
  8
0
  6
Continuous
 62
     7
370
    25
100
AcDbCircle
 10
160.4376114233
 20
96.8641840082
 30
0.0
 40
0.4834454273381097
100
AcDbArc
 50
91.0132315313
 51
170.0324555796
  0
SPLINE
  5
107
330
1F
100
AcDbEntity
  8
0
  6
Continuous
 62
     7
370
    25
100
AcDbSpline
210
0.0
220
0.0
230
1.0
 70
     8
 71
     3
 72
    14
 73
    10
 74
     0
 42
0.000000001
 43
0.00000001
 40
0.0
 40
0.0
 40
0.0
 40
0.0
 40
0.25
 40
0.25
 40
0.5
 40
0.5
 40
0.75
 40
0.75
 40
1.0
 40
1.0
 40
1.0
 40
1.0
 10
174.688265678643
 20
107.3475537313433
 30
0.0
 10
174.7267411622646
 20
107.3475537313433
 30
0.0
 10
174.7678300837346
 20
107.3367671603601
 30
0.0
 10
174.8471129311752
 20
107.2938353732949
 30
0.0
 10
174.8843958322857
 20
107.2624178649901
 30
0.0
 10
174.9372015915974
 20
107.1711030194138
 30
0.0
 10
174.949170851691
 20
107.1098725366496
 30
0.0
 10
174.9291690633189
 20
106.9790091759939
 30
0.0
 10
174.8997126077666
 20
106.9110450616563
 30
0.0
 10
174.8641122685738
 20
106.8475537313433
 30
0.0
  0
ARC
  5
108
330
1F
100
AcDbEntity
  8
0
  6
Continuous
 62
     7
370
    25
100
AcDbCircle
 10
174.6797169349
 20
107.8309234545
 30
0.0
 40
0.4834454273381065
100
AcDbArc
 50
271.0132315313
 51
350.0324555796
  0
SPLINE
  5
109
330
1F
100
AcDbEntity
  8
0
  6
Continuous
 62
     7
370
    25
100
AcDbSpline
210
0.0
220
0.0
230
1.0
 70
     8
 71
     3
 72
    16
 73
    12
 74
     0
 42
0.000000001
 43
0.00000001
 40
0.0
 40
0.0
 40
0.0
 40
0.0
 40
0.2500000000000049
 40
0.2500000000000049
 40
0.3750000000000051
 40
0.3750000000000051
 40
0.5000000000000052
 40
0.5000000000000052
 40
0.7500000000000026
 40
0.7500000000000026
 40
1.0
 40
1.0
 40
1.0
 40
1.0
 10
160.2532160896351
 20
106.8475537313433
 30
0.0
 10
160.2176621601864
 20
106.9109622923215
 30
0.0
 10
160.1883900189577
 20
106.9782295926423
 30
0.0
 10
160.1731774687369
 20
107.0766689037847
 30
0.0
 10
160.1731168005633
 20
107.1091443101399
 30
0.0
 10
160.1833273850406
 20
107.1677695172661
 30
0.0
 10
160.1931107145658
 20
107.1933923288191
 30
0.0
 10
160.2322752630978
 20
107.2616011725146
 30
0.0
 10
160.2701483363711
 20
107.2937639276804
 30
0.0
 10
160.3492213093627
 20
107.3366521467962
 30
0.0
 10
160.3906084419535
 20
107.3475537313433
 30
0.0
 10
160.4290626795659
 20
107.3475537313433
 30
0.0
  0
ARC
  5
10A
330
1F
100
AcDbEntity
  8
0
  6
Continuous
 62
     7
370
    25
100
AcDbCircle
 10
160.4376114233
 20
107.8309234545
 30
0.0
 40
0.4834454273381065
100
AcDbArc
 50
189.9675444204
 51
268.9867684687
  0
ARC
  5
10B
330
1F
100
AcDbEntity
  8
0
  6
Continuous
 62
     7
370
    25
100
AcDbCircle
 10
174.6797169349
 20
96.8641840082
 30
0.0
 40
0.4834454273381097
100
AcDbArc
 50
9.9675444204
 51
88.9867684687
  0
SPLINE
  5
10C
330
1F
100
AcDbEntity
  8
0
  6
Continuous
 62
     7
370
    25
100
AcDbSpline
210
0.0
220
0.0
230
1.0
 70
     8
 71
     3
 72
    16
 73
    12
 74
     0
 42
0.000000001
 43
0.00000001
 40
0.0
 40
0.0
 40
0.0
 40
0.0
 40
0.2499999999999999
 40
0.2499999999999999
 40
0.3750000000000003
 40
0.3750000000000003
 40
0.5000000000000007
 40
0.5000000000000007
 40
0.7500000000000003
 40
0.7500000000000003
 40
1.0
 40
1.0
 40
1.0
 40
1.0
 10
174.8641122685738
 20
97.84755373134331
 30
0.0
 10
174.8996661980225
 20
97.78414517036511
 30
0.0
 10
174.9289383392512
 20
97.7168778700443
 30
0.0
 10
174.9441508894721
 20
97.61843855890196
 30
0.0
 10
174.9442115576456
 20
97.58596315254667
 30
0.0
 10
174.9340009731683
 20
97.52733794542046
 30
0.0
 10
174.9242176436431
 20
97.50171513386748
 30
0.0
 10
174.8850530951111
 20
97.43350629017203
 30
0.0
 10
174.8471800218378
 20
97.40134353500625
 30
0.0
 10
174.7681070488462
 20
97.35845531589037
 30
0.0
 10
174.7267199162554
 20
97.34755373134331
 30
0.0
 10
174.688265678643
 20
97.34755373134331
 30
0.0
  0
LINE
  5
10D
330
1F
100
AcDbEntity
  8
0
  6
Continuous
 62
     7
370
    25
100
AcDbLine
 10
174.6882658477
 20
97.3475538431
 30
0.0
 11
160.4290625105
 21
97.3475538431
 31
0.0
  0
LINE
  5
10E
330
1F
100
AcDbEntity
  8
0
  6
Continuous
 62
     7
370
    25
100
AcDbLine
 10
160.2532162356
 20
97.8475539251
 30
0.0
 11
174.8641121226
 21
97.8475539251
 31
0.0
  0
ARC
  5
10F
330
1F
100
AcDbEntity
  8
0
  6
Continuous
 62
     7
370
    25
100
AcDbCircle
 10
168.7483145879
 20
101.5425075908
 30
0.0
 40
0.7111999999997725
100
AcDbArc
 50
45.0
 51
315.0
  0
LINE
  5
110
330
1F
100
AcDbEntity
  8
0
  6
Continuous
 62
     7
370
    25
100
AcDbLine
 10
169.2512089644
 20
102.0454019254
 30
0.0
 11
169.6244971386
 21
102.4186902451
 31
0.0
  0
ARC
  5
111
330
1F
100
AcDbEntity
  8
0
  6
Continuous
 62
     7
370
    25
100
AcDbCircle
 10
168.7483145879
 20
101.5425075908
 30
0.0
 40
1.239109388553836
100
AcDbArc
 50
45.0
 51
315.0
  0
LINE
  5
112
330
1F
100
AcDbEntity
  8
0
  6
Continuous
 62
     7
370
    25
100
AcDbLine
 10
169.6244971386
 20
100.666324981
 30
0.0
 11
169.2512089644
 21
101.0396132715
 31
0.0
  0
ARC
  5
113
330
1F
100
AcDbEntity
  8
0
  6
Continuous
 62
     7
370
    25
100
AcDbCircle
 10
171.422030265
 20
101.5425075908
 30
0.0
 40
0.711200000000068
100
AcDbArc
 50
200.9248324276
 51
315.0
  0
LINE
  5
114
330
1F
100
AcDbEntity
  8
0
  6
Continuous
 62
     7
370
    25
100
AcDbLine
 10
170.7577341727
 20
101.2885075998
 30
0.0
 11
172.2982127244
 21
101.2885075998
 31
0.0
  0
LINE
  5
115
330
1F
100
AcDbEntity
  8
0
  6
Continuous
 62
     7
370
    25
100
AcDbLine
 10
172.2982127244
 20
101.796507568
 30
0.0
 11
170.7577341727
 21
101.796507568
 31
0.0
  0
ARC
  5
116
330
1F
100
AcDbEntity
  8
0
  6
Continuous
 62
     7
370
    25
100
AcDbCircle
 10
171.422030265
 20
101.5425075908
 30
0.0
 40
0.7112000000000438
100
AcDbArc
 50
45.0
 51
159.0751675723
  0
LINE
  5
117
330
1F
100
AcDbEntity
  8
0
  6
Continuous
 62
     7
370
    25
100
AcDbLine
 10
172.2982127244
 20
100.666324981
 30
0.0
 11
171.9249246667
 21
101.0396132715
 31
0.0
  0
ELLIPSE
  5
118
330
1F
100
AcDbEntity
  8
0
  6
Continuous
 62
     7
370
    25
100
AcDbEllipse
 10
164.5076600414
 20
98.7010268474
 30
0.0
 11
2.293035763987604
 21
-1.065814103640150E-12
 31
0.0
210
0.0
220
0.0
230
1.0
 40
0.9533039403
 41
0.8210019969646011
 42
2.320590656625106
  0
ELLIPSE
  5
119
330
1F
100
AcDbEntity
  8
0
  6
Continuous
 62
     7
370
    25
100
AcDbEllipse
 10
166.116570038
 20
100.3481057438
 30
0.0
 11
0.06784129479237322
 21
0.0
 31
0.0
210
0.0
220
0.0
230
1.0
 40
0.9533039403
 41
3.962594650555405
 42
5.819537698174942
  0
LINE
  5
11A
330
1F
100
AcDbEntity
  8
0
  6
Continuous
 62
     7
370
    25
100
AcDbLine
 10
166.1772491202
 20
100.3191829896
 30
0.0
 11
166.8142640406
 21
101.5337205845
 31
0.0
  0
LINE
  5
11B
330
1F
100
AcDbEntity
  8
0
  6
Continuous
 62
     7
370
    25
100
AcDbLine
 10
166.8142640406
 20
101.5337205845
 30
0.0
 11
166.7809438218
 21
101.5146766677
 31
0.0
  0
ELLIPSE
  5
11C
330
1F
100
AcDbEntity
  8
0
  6
Continuous
 62
     7
370
    25
100
AcDbEllipse
 10
166.5018692653
 20
101.958422646
 30
0.0
 11
0.5427303583402932
 21
3.552713678800501E-13
 31
0.0
210
0.0
220
0.0
230
1.0
 40
0.9533039404
 41
3.470145824142426
 42
5.252469180527922
  0
LINE
  5
11D
330
1F
100
AcDbEntity
  8
0
  6
Continuous
 62
     7
370
    25
100
AcDbLine
 10
165.98816945
 20
101.7914753411
 30
0.0
 11
164.9804457116
 21
104.6094317226
 31
0.0
  0
ELLIPSE
  5
11E
330
1F
100
AcDbEntity
  8
0
  6
Continuous
 62
     7
370
    25
100
AcDbEllipse
 10
164.5076600414
 20
104.3995594825
 30
0.0
 11
0.5215299537176747
 21
0.0
 31
0.0
210
0.0
220
0.0
230
1.0
 40
0.9533039403
 41
0.4357918987553227
 42
2.705800754834428
  0
LINE
  5
11F
330
1F
100
AcDbEntity
  8
0
  6
Continuous
 62
     7
370
    25
100
AcDbLine
 10
164.0348743672
 20
104.6094317226
 30
0.0
 11
163.0273854385
 21
101.79213204
 31
0.0
  0
ELLIPSE
  5
120
330
1F
100
AcDbEntity
  8
0
  6
Continuous
 62
     7
370
    25
100
AcDbEllipse
 10
162.5136856541
 20
101.9590793331
 30
0.0
 11
-0.5427303583406626
 21
3.410605131648481E-13
 31
0.0
210
0.0
220
0.0
230
1.0
 40
0.9533039403
 41
1.047197551196555
 42
2.813039483039229
  0
LINE
  5
121
330
1F
100
AcDbEntity
  8
0
  6
Continuous
 62
     7
370
    25
100
AcDbLine
 10
162.242320555
 20
101.5110090612
 30
0.0
 11
162.20105598
 21
101.5337205845
 31
0.0
  0
LINE
  5
122
330
1F
100
AcDbEntity
  8
0
  6
Continuous
 62
     7
370
    25
100
AcDbLine
 10
162.20105598
 20
101.5337205845
 30
0.0
 11
162.8380708421
 21
100.3191829896
 31
0.0
  0
ELLIPSE
  5
123
330
1F
100
AcDbEntity
  8
0
  6
Continuous
 62
     7
370
    25
100
AcDbEllipse
 10
162.8987500448
 20
100.3481057438
 30
0.0
 11
0.06784129479237322
 21
0.0
 31
0.0
210
0.0
220
0.0
230
1.0
 40
0.9533039403
 41
3.605240262580621
 42
5.462183310227129
  0
LINE
  5
124
330
1F
100
AcDbEntity
  8
0
  6
Continuous
 62
     7
370
    25
100
AcDbLine
 10
174.8641121226
 20
106.8475535376
 30
0.0
 11
160.2532162356
 21
106.8475535376
 31
0.0
  0
LINE
  5
125
330
1F
100
AcDbEntity
  8
0
  6
Continuous
 62
     7
370
    25
100
AcDbLine
 10
171.9249246667
 20
102.0454019254
 30
0.0
 11
172.2982127244
 21
102.4186902451
 31
0.0
  0
ARC
  5
126
330
1F
100
AcDbEntity
  8
0
  6
Continuous
 62
     7
370
    25
100
AcDbCircle
 10
171.422030265
 20
101.5425075908
 30
0.0
 40
1.239109388553867
100
AcDbArc
 50
45.0
 51
315.0
  0
LINE
  5
127
330
1F
100
AcDbEntity
  8
0
  6
Continuous
 62
     7
370
    25
100
AcDbLine
 10
172.2982127244
 20
101.2885075998
 30
0.0
 11
172.2982127244
 21
101.796507568
 31
0.0
  0
LINE
  5
128
330
1F
100
AcDbEntity
  8
0
  6
Continuous
 62
     7
370
    25
100
AcDbLine
 10
160.4290625105
 20
107.3475536196
 30
0.0
 11
174.6882658477
 21
107.3475536196
 31
0.0
  0
ELLIPSE
  5
129
330
1F
100
AcDbEntity
  8
0
  6
Continuous
 62
     7
370
    25
100
AcDbEllipse
 10
164.2647206981
 20
101.8570874812
 30
0.0
 11
0.06784129479237322
 21
0.0
 31
0.0
210
0.0
220
0.0
230
1.0
 40
0.9533039403
 41
2.798568711307392
 42
4.712388980384703
  0
ELLIPSE
  5
12A
330
1F
100
AcDbEntity
  8
0
  6
Continuous
 62
     7
370
    25
100
AcDbEllipse
 10
164.507660043
 20
102.5055535748
 30
0.0
 11
0.06784129479268586
 21
0.0
 31
0.0
210
0.0
220
0.0
230
1.0
 40
0.9533039403
 41
0.343023938558097
 42
2.798568711309076
  0
LINE
  5
12B
330
1F
100
AcDbEntity
  8
0
  6
Continuous
 62
     7
370
    25
100
AcDbLine
 10
164.2647205877
 20
101.7924141143
 30
0.0
 11
164.7505994911
 21
101.7924141143
 31
0.0
  0
LINE
  5
12C
330
1F
100
AcDbEntity
  8
0
  6
Continuous
 62
     7
370
    25
100
AcDbLine
 10
164.4437710779
 20
102.5273055803
 30
0.0
 11
164.2008316262
 21
101.8788394813
 31
0.0
  0
LINE
  5
12D
330
1F
100
AcDbEntity
  8
0
  6
Continuous
 62
     7
370
    25
100
AcDbLine
 10
164.8144884526
 20
101.8788394813
 30
0.0
 11
164.5715490008
 21
102.5273055803
 31
0.0
  0
ELLIPSE
  5
12E
330
1F
100
AcDbEntity
  8
0
  6
Continuous
 62
     7
370
    25
100
AcDbEllipse
 10
164.7505993851
 20
101.8570874812
 30
0.0
 11
-0.06784129479237322
 21
0.0
 31
0.0
210
0.0
220
0.0
230
1.0
 40
0.9533039403
 41
1.570796326794897
 42
3.484616592149797
  0
ARC
  5
12F
330
1F
100
AcDbEntity
  8
0
  6
Continuous
 62
     7
370
    25
100
AcDbCircle
 10
174.5586641791
 20
96.8475537313
 30
0.0
 40
0.5
100
AcDbArc
 50
0.0
 51
90.0
  0
ARC
  5
130
330
1F
100
AcDbEntity
  8
0
  6
Continuous
 62
     7
370
    25
100
AcDbCircle
 10
160.5586641791
 20
96.8475537313
 30
0.0
 40
0.5
100
AcDbArc
 50
90.0
 51
180.0
  0
ARC
  5
131
330
1F
100
AcDbEntity
  8
0
  6
Continuous
 62
     7
370
    25
100
AcDbCircle
 10
174.5586641791
 20
107.8475537313
 30
0.0
 40
0.5
100
AcDbArc
 50
270.0
 51
0.0
  0
ARC
  5
132
330
1F
100
AcDbEntity
  8
0
  6
Continuous
 62
     7
370
    25
100
AcDbCircle
 10
160.5586641791
 20
107.8475537313
 30
0.0
 40
0.5
100
AcDbArc
 50
180.0
 51
270.0
  0
LWPOLYLINE
  5
133
330
1F
100
AcDbEntity
  8
0
  6
Continuous
 62
     7
370
    25
100
AcDbPolyline
 90
        9
 70
   128
 43
0.0
 10
174.5586643952
 20
107.5419984063
 10
174.656209259
 20
107.5478694639
 10
174.7500060151
 20
107.5652572563
 10
174.8364495138
 20
107.5934935598
 10
174.9122177276
 20
107.6314933835
 10
174.9743988762
 20
107.6777959479
 10
175.0206041175
 20
107.7306228927
 10
175.0490569534
 20
107.7879430032
 10
175.0586640115
 20
107.8475537015
  0
LINE
  5
134
330
1F
100
AcDbEntity
  8
0
  6
Continuous
 62
     7
370
    25
100
AcDbLine
 10
174.5586643952
 20
107.3475536196
 30
0.0
 11
174.5586643952
 21
107.5419984063
 31
0.0
  0
LWPOLYLINE
  5
135
330
1F
100
AcDbEntity
  8
0
  6
Continuous
 62
     7
370
    25
100
AcDbPolyline
 90
        9
 70
   128
 43
0.0
 10
160.0586643467
 20
107.8475537015
 10
160.0682714048
 20
107.7879430032
 10
160.0967242407
 20
107.7306228927
 10
160.142929482
 20
107.6777959479
 10
160.2051106306
 20
107.6314933835
 10
160.2808788444
 20
107.5934935598
 10
160.3673223431
 20
107.5652572563
 10
160.4611190992
 20
107.5478694639
 10
160.558663963
 20
107.5419984063
  0
LINE
  5
136
330
1F
100
AcDbEntity
  8
0
  6
Continuous
 62
     7
370
    25
100
AcDbLine
 10
160.558663963
 20
107.3475536196
 30
0.0
 11
160.558663963
 21
107.5419984063
 31
0.0
  0
LWPOLYLINE
  5
137
330
1F
100
AcDbEntity
  8
0
  6
Continuous
 62
     7
370
    25
100
AcDbPolyline
 90
        9
 70
   128
 43
0.0
 10
160.558663963
 20
97.1531090563
 10
160.4611190992
 20
97.1472379988
 10
160.3673223431
 20
97.1298502064
 10
160.2808788444
 20
97.1016139029
 10
160.2051106306
 20
97.0636140792
 10
160.142929482
 20
97.0173115148
 10
160.0967242407
 20
96.96448457
 10
160.0682714048
 20
96.9071644595
 10
160.0586643467
 20
96.8475537611
  0
LINE
  5
138
330
1F
100
AcDbEntity
  8
0
  6
Continuous
 62
     7
370
    25
100
AcDbLine
 10
160.558663963
 20
97.1531090563
 30
0.0
 11
160.558663963
 21
97.3475538431
 31
0.0
  0
LINE
  5
139
330
1F
100
AcDbEntity
  8
0
  6
Continuous
 62
     7
370
    25
100
AcDbLine
 10
174.5586643952
 20
97.1531090563
 30
0.0
 11
160.558663963
 21
97.1531090563
 31
0.0
  0
LINE
  5
13A
330
1F
100
AcDbEntity
  8
0
  6
Continuous
 62
     7
370
    25
100
AcDbLine
 10
174.5586643952
 20
97.1531090563
 30
0.0
 11
174.5586643952
 21
97.3475538431
 31
0.0
  0
LWPOLYLINE
  5
13B
330
1F
100
AcDbEntity
  8
0
  6
Continuous
 62
     7
370
    25
100
AcDbPolyline
 90
        9
 70
   128
 43
0.0
 10
175.0586640115
 20
96.8475537611
 10
175.0490569534
 20
96.9071644595
 10
175.0206041175
 20
96.96448457
 10
174.9743988762
 20
97.0173115148
 10
174.9122177276
 20
97.0636140792
 10
174.8364495138
 20
97.1016139029
 10
174.7500060151
 20
97.1298502064
 10
174.656209259
 20
97.1472379988
 10
174.5586643952
 20
97.1531090563
  0
LINE
  5
13C
330
1F
100
AcDbEntity
  8
0
  6
Continuous
 62
     7
370
    25
100
AcDbLine
 10
160.558663963
 20
107.5419984063
 30
0.0
 11
174.5586643952
 21
107.5419984063
 31
0.0
  0
SPLINE
  5
13D
330
1F
100
AcDbEntity
  8
0
  6
Continuous
 62
     7
370
    25
100
AcDbSpline
210
0.0
220
0.0
230
1.0
 70
    11
 71
     3
 72
    26
 73
    22
 74
     0
 42
0.000000001
 43
0.00000001
 40
0.0
 40
0.0
 40
0.0
 40
0.0
 40
0.125
 40
0.125
 40
0.1875
 40
0.1875
 40
0.25
 40
0.25
 40
0.3125
 40
0.3125
 40
0.375
 40
0.375
 40
0.5
 40
0.5
 40
0.625
 40
0.625
 40
0.75
 40
0.75
 40
0.875
 40
0.875
 40
1.0
 40
1.0
 40
1.0
 40
1.0
 10
168.0719831479528
 20
110.3475537313433
 30
0.0
 10
168.0719831479528
 20
110.4866727625721
 30
0.0
 10
168.0191871768039
 20
110.6224004655476
 30
0.0
 10
167.8777315869266
 20
110.7754192020434
 30
0.0
 10
167.8211776505547
 20
110.8169221030639
 30
0.0
 10
167.6956334991113
 20
110.8741219968576
 30
0.0
 10
167.6264818860032
 20
110.8894059856019
 30
0.0
 10
167.4893235112598
 20
110.8891851118383
 30
0.0
 10
167.4202089284537
 20
110.8736250505506
 30
0.0
 10
167.2954491598226
 20
110.8164192160566
 30
0.0
 10
167.2388180714881
 20
110.7746677887897
 30
0.0
 10
167.0987044449652
 20
110.6228269205062
 30
0.0
 10
167.0453839110185
 20
110.4867745932384
 30
0.0
 10
167.0453065524425
 20
110.208641899535
 30
0.0
 10
167.0989949344641
 20
110.071839889515
 30
0.0
 10
167.2856897487718
 20
109.86977108585
 30
0.0
 10
167.4215709581354
 20
109.8056013261644
 30
0.0
 10
167.6972020921739
 20
109.8060223789654
 30
0.0
 10
167.8321771305876
 20
109.8702910613887
 30
0.0
 10
168.0180246076536
 20
110.0715686126129
 30
0.0
 10
168.0719831479528
 20
110.2084347001145
 30
0.0
 10
168.0719831479528
 20
110.3475537313433
 30
0.0
  0
SPLINE
  5
13E
330
1F
100
AcDbEntity
  8
0
  6
Continuous
 62
     7
370
    25
100
AcDbSpline
210
0.0
220
0.0
230
1.0
 70
    11
 71
     3
 72
    38
 73
    34
 74
     0
 42
0.000000001
 43
0.00000001
 40
0.0
 40
0.0
 40
0.0
 40
0.0
 40
0.0625
 40
0.0625
 40
0.125
 40
0.125
 40
0.1874999999999999
 40
0.1874999999999999
 40
0.2499999999999999
 40
0.2499999999999999
 40
0.3125
 40
0.3125
 40
0.375
 40
0.375
 40
0.4375000000000001
 40
0.4375000000000001
 40
0.5000000000000001
 40
0.5000000000000001
 40
0.5625000000000001
 40
0.5625000000000001
 40
0.6250000000000001
 40
0.6250000000000001
 40
0.6875000000000001
 40
0.6875000000000001
 40
0.75
 40
0.75
 40
0.8125
 40
0.8125
 40
0.875
 40
0.875
 40
0.9375
 40
0.9375
 40
1.0
 40
1.0
 40
1.0
 40
1.0
 10
166.5586641791045
 20
110.3475537313433
 30
0.0
 10
166.5586641791045
 20
110.215167816433
 30
0.0
 10
166.5848127302473
 20
110.0852804899543
 30
0.0
 10
166.6852783997051
 20
109.8432014953684
 30
0.0
 10
166.7595632661017
 20
109.7324201413124
 30
0.0
 10
166.9437124458364
 20
109.5483128612066
 30
0.0
 10
167.0550880684306
 20
109.4738441899107
 30
0.0
 10
167.2956365729645
 20
109.374017013782
 30
0.0
 10
167.4273944689519
 20
109.3476290937086
 30
0.0
 10
167.6887831611158
 20
109.3474787000218
 30
0.0
 10
167.8199552317075
 20
109.3734185204319
 30
0.0
 10
168.0623929177072
 20
109.4737861528571
 30
0.0
 10
168.1724470858568
 20
109.5471750560024
 30
0.0
 10
168.3587004032677
 20
109.7333245228319
 30
0.0
 10
168.4321267311608
 20
109.8433630402319
 30
0.0
 10
168.5324914787897
 20
110.0852457573206
 30
0.0
 10
168.5586127430859
 20
110.2165202758319
 30
0.0
 10
168.5587154605711
 20
110.4778009252044
 30
0.0
 10
168.5324718324774
 20
110.6096163287173
 30
0.0
 10
168.4328034756793
 20
110.8504042467988
 30
0.0
 10
168.3585226837107
 20
110.9617364481968
 30
0.0
 10
168.1743359432772
 20
111.1462666433918
 30
0.0
 10
168.0639123692146
 20
111.2204529726656
 30
0.0
 10
167.8215276539746
 20
111.3212742316358
 30
0.0
 10
167.6916034744082
 20
111.3474484609408
 30
0.0
 10
167.4273133648913
 20
111.3476583709277
 30
0.0
 10
167.2970796062293
 20
111.3215706485645
 30
0.0
 10
167.0551869350586
 20
111.2214222045859
 30
0.0
 10
166.944171009652
 20
111.1471359094208
 30
0.0
 10
166.7600032736719
 20
110.963243809984
 30
0.0
 10
166.6854046021698
 20
110.85191365943
 30
0.0
 10
166.5853537886247
 20
110.6114251196213
 30
0.0
 10
166.5586641791045
 20
110.4799396462536
 30
0.0
 10
166.5586641791045
 20
110.3475537313433
 30
0.0
  0
LINE
  5
13F
330
1F
100
AcDbEntity
  8
0
  6
Continuous
 62
     7
370
    25
100
AcDbLine
 10
186.2037160459
 20
102.3475537313
 30
0.0
 11
186.2037160459
 21
97.5652742436
 31
0.0
  0
LINE
  5
140
330
1F
100
AcDbEntity
  8
0
  6
Continuous
 62
     7
370
    25
100
AcDbLine
 10
186.2037160459
 20
107.129833219
 30
0.0
 11
186.2037160459
 21
102.3475537313
 31
0.0
  0
LINE
  5
141
330
1F
100
AcDbEntity
  8
0
  6
Continuous
 62
     7
370
    25
100
AcDbLine
 10
187.5586637321
 20
106.3475539213
 30
0.0
 11
187.5586637321
 21
98.3475535414
 31
0.0
  0
LINE
  5
142
330
1F
100
AcDbEntity
  8
0
  6
Continuous
 62
     1
370
    25
100
AcDbLine
 10
137.9606069091
 20
109.3677333793
 30
0.0
 11
137.9606069091
 21
95.2671654759
 31
0.0
  0
LINE
  5
143
330
1F
100
AcDbEntity
  8
0
  6
Continuous
 62
     1
370
    25
100
AcDbLine
 10
137.9606069091
 20
109.4279419868
 30
0.0
 11
137.9606069091
 21
109.3677333793
 31
0.0
  0
LINE
  5
144
330
1F
100
AcDbEntity
  8
0
  6
Continuous
 62
     1
370
    25
100
AcDbLine
 10
174.5586643952
 20
107.5419984063
 30
0.0
 11
174.5586643952
 21
110.8475541933
 31
0.0
  0
LINE
  5
145
330
1F
100
AcDbEntity
  8
0
  6
Continuous
 62
     1
370
    25
100
AcDbLine
 10
160.558663963
 20
97.1531090563
 30
0.0
 11
160.558663963
 21
93.8475532694
 31
0.0
  0
LINE
  5
146
330
1F
100
AcDbEntity
  8
0
  6
Continuous
 62
     1
370
    25
100
AcDbLine
 10
160.558663963
 20
110.8475541933
 30
0.0
 11
160.558663963
 21
107.5419984063
 31
0.0
  0
LINE
  5
147
330
1F
100
AcDbEntity
  8
0
  6
Continuous
 62
     1
370
    25
100
AcDbLine
 10
174.5586643952
 20
93.8475532694
 30
0.0
 11
174.5586643952
 21
97.1531090563
 31
0.0
  0
SPLINE
  5
148
330
1F
100
AcDbEntity
  8
0
  6
Continuous
 62
     1
370
    25
100
AcDbSpline
210
0.0
220
0.0
230
1.0
 70
     8
 71
     3
 72
    32
 73
    28
 74
     0
 42
0.000000001
 43
0.00000001
 40
0.0
 40
0.0
 40
0.0
 40
0.0
 40
0.0401450221632395
 40
0.0814946536401461
 40
0.1230108409586373
 40
0.1655335799748644
 40
0.2131026898219141
 40
0.2616870022954625
 40
0.3186512825243805
 40
0.3479268726644023
 40
0.3771976361574257
 40
0.4187548088698845
 40
0.4612652034728578
 40
0.5031787625365712
 40
0.5464778243509152
 40
0.5837150066472543
 40
0.6216789014452945
 40
0.6496079967307147
 40
0.6775412832743115
 40
0.7348752080451525
 40
0.7907587104420757
 40
0.8195305303078511
 40
0.8482972711327345
 40
0.8930422563907552
 40
0.9390687309218955
 40
0.9835429324097366
 40
1.0
 40
1.0
 40
1.0
 40
1.0
 10
173.9586640174269
 20
110.8475541932793
 30
0.0
 10
173.9473453523628
 20
110.8399354899388
 30
0.0
 10
173.9243683893582
 20
110.8244694730712
 30
0.0
 10
173.7396916821568
 20
110.7012493605838
 30
0.0
 10
173.4491116917748
 20
110.5112262932044
 30
0.0
 10
173.0381717298741
 20
110.2506912882083
 30
0.0
 10
172.505539602388
 20
109.9288867816242
 30
0.0
 10
171.8170950023992
 20
109.5430273029423
 30
0.0
 10
171.1251390080622
 20
109.1988583205936
 30
0.0
 10
170.4792204129389
 20
108.9248169756056
 30
0.0
 10
169.8890343794917
 20
108.7077305412775
 30
0.0
 10
169.1811416302397
 20
108.5021808097648
 30
0.0
 10
168.3510446427243
 20
108.352743616894
 30
0.0
 10
167.484249750388
 20
108.3051606146019
 30
0.0
 10
166.6551719896905
 20
108.3686291236959
 30
0.0
 10
165.8794296896731
 20
108.5188545970018
 30
0.0
 10
165.2361129837907
 20
108.7062634269218
 30
0.0
 10
164.6812613895208
 20
108.9081979948051
 30
0.0
 10
164.0445320658995
 20
109.1746295276308
 30
0.0
 10
163.3144309646157
 20
109.5340560013453
 30
0.0
 10
162.6755527015274
 20
109.893022675705
 30
0.0
 10
162.231943243327
 20
110.1581656525359
 30
0.0
 10
161.8770134855718
 20
110.3779141001259
 30
0.0
 10
161.5336907884265
 20
110.5984641578669
 30
0.0
 10
161.2770334496229
 20
110.7680808307312
 30
0.0
 10
161.153955669522
 20
110.8507102972793
 30
0.0
 10
161.1715823425979
 20
110.838884943512
 30
0.0
 10
161.1763431715547
 20
110.8356910063238
 30
0.0
  0
SPLINE
  5
149
330
1F
100
AcDbEntity
  8
0
  6
Continuous
 62
     1
370
    25
100
AcDbSpline
210
0.0
220
0.0
230
1.0
 70
     8
 71
     3
 72
    32
 73
    28
 74
     0
 42
0.000000001
 43
0.00000001
 40
0.0
 40
0.0
 40
0.0
 40
0.0
 40
0.0148226906792131
 40
0.0619098637132524
 40
0.107441930207361
 40
0.1543358599367227
 40
0.1825981457429923
 40
0.2108647537096534
 40
0.2690259400149551
 40
0.3246070973321224
 40
0.353153192844224
 40
0.3816926982230958
 40
0.4179901551069189
 40
0.4550296688023185
 40
0.4953226379373429
 40
0.5372317744694444
 40
0.5776049818603044
 40
0.6191596157379867
 40
0.6475096421015109
 40
0.6758659575040337
 40
0.7341701249556764
 40
0.7822939386362806
 40
0.83136273806024
 40
0.8736469324893739
 40
0.91686816060055
 40
0.9578489931499836
 40
1.0
 40
1.0
 40
1.0
 40
1.0
 10
161.6731697718381
 20
111.33637467905
 30
0.0
 10
161.66922588632
 20
111.339413907357
 30
0.0
 10
161.6527534778884
 20
111.3521078381926
 30
0.0
 10
161.7635266117226
 20
111.2666552783696
 30
0.0
 10
162.0009597784303
 20
111.0864150755251
 30
0.0
 10
162.3137777508981
 20
110.8554199013735
 30
0.0
 10
162.638899842526
 20
110.6241220108057
 30
0.0
 10
163.0449891585251
 20
110.3448653789055
 30
0.0
 10
163.6272141215102
 20
109.9681697920776
 30
0.0
 10
164.3030056160862
 20
109.5850598021217
 30
0.0
 10
164.8895782623751
 20
109.3012447784198
 30
0.0
 10
165.4048399289014
 20
109.0851094558989
 30
0.0
 10
166.0023391055895
 20
108.8842416856301
 30
0.0
 10
166.7084282186007
 20
108.7257555384174
 30
0.0
 10
167.4798018566501
 20
108.6556588218375
 30
0.0
 10
168.2766509443664
 20
108.7039598314196
 30
0.0
 10
169.0525909110054
 20
108.8636614778642
 30
0.0
 10
169.7014865873437
 20
109.0797635601404
 30
0.0
 10
170.2425341286662
 20
109.3080306996746
 30
0.0
 10
170.8402367297573
 20
109.5982460135017
 30
0.0
 10
171.4775827245156
 20
109.962147754715
 30
0.0
 10
172.1169802799238
 20
110.373414344689
 30
0.0
 10
172.6050229395621
 20
110.7120025414475
 30
0.0
 10
172.9868447023889
 20
110.9898858371136
 30
0.0
 10
173.2531637837724
 20
111.1898944117592
 30
0.0
 10
173.4259401789858
 20
111.3222507643648
 30
0.0
 10
173.4476544428404
 20
111.3390403731769
 30
0.0
 10
173.4586644011318
 20
111.3475533439131
 30
0.0
  0
LINE
  5
14A
330
1F
100
AcDbEntity
  8
0
  6
Continuous
 62
     7
370
    25
100
AcDbLine
 10
150.5586632552
 20
168.9000914248
 30
0.0
 11
147.5586646261
 21
167.9000912608
 31
0.0
  0
LINE
  5
14B
330
1F
100
AcDbEntity
  8
0
  6
Continuous
 62
     7
370
    25
100
AcDbLine
 10
147.5586646261
 20
153.9000908287
 30
0.0
 11
150.5586632552
 21
152.9000906648
 31
0.0
  0
LINE
  5
14C
330
1F
100
AcDbEntity
  8
0
  6
Continuous
 62
     7
370
    25
100
AcDbLine
 10
157.5586644026
 20
168.9000914248
 30
0.0
 11
150.5586632552
 21
168.9000914248
 31
0.0
  0
LINE
  5
14D
330
1F
100
AcDbEntity
  8
0
  6
Continuous
 62
     7
370
    25
100
AcDbLine
 10
150.5586632552
 20
152.9000906648
 30
0.0
 11
157.5586644026
 21
152.9000906648
 31
0.0
  0
LINE
  5
14E
330
1F
100
AcDbEntity
  8
0
  6
Continuous
 62
     7
370
    25
100
AcDbLine
 10
147.5586646261
 20
168.9000914248
 30
0.0
 11
142.5586638066
 21
167.9000912608
 31
0.0
  0
LINE
  5
14F
330
1F
100
AcDbEntity
  8
0
  6
Continuous
 62
     7
370
    25
100
AcDbLine
 10
142.5586638066
 20
153.9000908287
 30
0.0
 11
147.5586646261
 21
152.9000906648
 31
0.0
  0
LINE
  5
150
330
1F
100
AcDbEntity
  8
0
  6
Continuous
 62
     7
370
    25
100
AcDbLine
 10
142.5586638066
 20
168.9000914248
 30
0.0
 11
137.9606069091
 21
167.9804793002
 31
0.0
  0
LINE
  5
151
330
1F
100
AcDbEntity
  8
0
  6
Continuous
 62
     7
370
    25
100
AcDbLine
 10
137.9606069091
 20
153.8197027894
 30
0.0
 11
142.5586638066
 21
152.9000906648
 31
0.0
  0
ARC
  5
152
330
1F
100
AcDbEntity
  8
0
  6
Continuous
 62
     7
370
    25
100
AcDbCircle
 10
138.0586641791
 20
154.3099929961
 30
0.0
 40
0.5000000000000063
100
AcDbArc
 50
180.0
 51
258.690067526
  0
ARC
  5
153
330
1F
100
AcDbEntity
  8
0
  6
Continuous
 62
     7
370
    25
100
AcDbCircle
 10
138.0586641791
 20
167.4901890934
 30
0.0
 40
0.5000000000000342
100
AcDbArc
 50
101.309932474
 51
180.0
  0
LINE
  5
154
330
1F
100
AcDbEntity
  8
0
  6
Continuous
 62
     7
370
    25
100
AcDbLine
 10
157.8086639779
 20
150.9000912683
 30
0.0
 11
159.6766977596
 21
150.9000912683
 31
0.0
  0
LINE
  5
155
330
1F
100
AcDbEntity
  8
0
  6
Continuous
 62
     7
370
    25
100
AcDbLine
 10
159.6766977596
 20
170.9000908213
 30
0.0
 11
157.8086639779
 21
170.9000908213
 31
0.0
  0
ARC
  5
156
330
1F
100
AcDbEntity
  8
0
  6
Continuous
 62
     7
370
    25
100
AcDbCircle
 10
176.5586641791
 20
169.9000910448
 30
0.0
 40
1.500000000000014
100
AcDbArc
 50
138.1896851042
 51
180.0
  0
ARC
  5
157
330
1F
100
AcDbEntity
  8
0
  6
Continuous
 62
     7
370
    25
100
AcDbCircle
 10
176.5586641791
 20
151.9000910448
 30
0.0
 40
1.500000000000014
100
AcDbArc
 50
180.0
 51
221.8103148958
  0
LINE
  5
158
330
1F
100
AcDbEntity
  8
0
  6
Continuous
 62
     7
370
    25
100
AcDbLine
 10
177.0586638736
 20
150.9000912683
 30
0.0
 11
177.5586639556
 21
151.4000913502
 31
0.0
  0
LINE
  5
159
330
1F
100
AcDbEntity
  8
0
  6
Continuous
 62
     7
370
    25
100
AcDbLine
 10
177.5586639556
 20
170.4000907393
 30
0.0
 11
177.0586638736
 21
170.9000908213
 31
0.0
  0
LINE
  5
15A
330
1F
100
AcDbEntity
  8
0
  6
Continuous
 62
     7
370
    25
100
AcDbLine
 10
177.0586638736
 20
170.9000908213
 30
0.0
 11
175.4406305986
 21
170.9000908213
 31
0.0
  0
LINE
  5
15B
330
1F
100
AcDbEntity
  8
0
  6
Continuous
 62
     7
370
    25
100
AcDbLine
 10
175.4406305986
 20
150.9000912683
 30
0.0
 11
177.0586638736
 21
150.9000912683
 31
0.0
  0
LINE
  5
15C
330
1F
100
AcDbEntity
  8
0
  6
Continuous
 62
     7
370
    25
100
AcDbLine
 10
157.8086639779
 20
170.9000908213
 30
0.0
 11
157.5586644026
 21
170.6500912459
 31
0.0
  0
LINE
  5
15D
330
1F
100
AcDbEntity
  8
0
  6
Continuous
 62
     7
370
    25
100
AcDbLine
 10
157.5586644026
 20
151.1500908436
 30
0.0
 11
157.8086639779
 21
150.9000912683
 31
0.0
  0
ARC
  5
15E
330
1F
100
AcDbEntity
  8
0
  6
Continuous
 62
     7
370
    25
100
AcDbCircle
 10
158.5586641791
 20
151.9000910448
 30
0.0
 40
1.5
100
AcDbArc
 50
318.1896851042
 51
0.0
  0
ARC
  5
15F
330
1F
100
AcDbEntity
  8
0
  6
Continuous
 62
     7
370
    25
100
AcDbCircle
 10
158.5586641791
 20
169.9000910448
 30
0.0
 40
1.5
100
AcDbArc
 50
0.0
 51
41.8103148958
  0
LINE
  5
160
330
1F
100
AcDbEntity
  8
0
  6
Continuous
 62
     7
370
    25
100
AcDbLine
 10
177.5586639556
 20
155.8476535046
 30
0.0
 11
186.2037160459
 21
156.1178115571
 31
0.0
  0
LINE
  5
161
330
1F
100
AcDbEntity
  8
0
  6
Continuous
 62
     7
370
    25
100
AcDbLine
 10
186.2037160459
 20
165.6823705325
 30
0.0
 11
177.5586639556
 21
165.9525285849
 31
0.0
  0
LINE
  5
162
330
1F
100
AcDbEntity
  8
0
  6
Continuous
 62
     7
370
    25
100
AcDbLine
 10
186.2037160459
 20
156.1178115571
 30
0.0
 11
187.5586637321
 21
156.9000908548
 31
0.0
  0
LINE
  5
163
330
1F
100
AcDbEntity
  8
0
  6
Continuous
 62
     7
370
    25
100
AcDbLine
 10
187.5586637321
 20
164.9000912348
 30
0.0
 11
186.2037160459
 21
165.6823705325
 31
0.0
  0
SPLINE
  5
164
330
1F
100
AcDbEntity
  8
0
  6
Continuous
 62
     7
370
    25
100
AcDbSpline
210
0.0
220
0.0
230
1.0
 70
     8
 71
     3
 72
    15
 73
    11
 74
     0
 42
0.000000001
 43
0.00000001
 40
0.0
 40
0.0
 40
0.0
 40
0.0
 40
0.0081668554937291
 40
0.3321941846999776
 40
0.4756279332062201
 40
0.6866839627273442
 40
0.8457444903091523
 40
0.8967583891412989
 40
0.9909563331444947
 40
1.0
 40
1.0
 40
1.0
 40
1.0
 10
172.6576836804627
 20
162.1500910168365
 30
0.0
 10
172.6581712441438
 20
162.1515284911397
 30
0.0
 10
172.6780033349226
 20
162.2099990499204
 30
0.0
 10
172.7062825284405
 20
162.2944243895247
 30
0.0
 10
172.744112696723
 20
162.4090040186775
 30
0.0
 10
172.7706957095276
 20
162.4903741175103
 30
0.0
 10
172.7878667051685
 20
162.5433937912484
 30
0.0
 10
172.7956829279041
 20
162.5675952856905
 30
0.0
 10
172.7976780136928
 20
162.5737848032527
 30
0.0
 10
172.797743717911
 20
162.5739864741358
 30
0.0
 10
172.7977494734107
 20
162.5740041399226
 30
0.0
  0
ARC
  5
165
330
1F
100
AcDbEntity
  8
0
  6
Continuous
 62
     7
370
    25
100
AcDbCircle
 10
167.5586641791
 20
160.9000910448
 30
0.0
 40
5.250000000000009
100
AcDbArc
 50
13.774146998
 51
166.225853002
  0
SPLINE
  5
166
330
1F
100
AcDbEntity
  8
0
  6
Continuous
 62
     7
370
    25
100
AcDbSpline
210
0.0
220
0.0
230
1.0
 70
     8
 71
     3
 72
    15
 73
    11
 74
     0
 42
0.000000001
 43
0.00000001
 40
0.0
 40
0.0
 40
0.0
 40
0.0
 40
0.0090436668555053
 40
0.1032416108587011
 40
0.1542555096908477
 40
0.3133160372726557
 40
0.5243720667937798
 40
0.6678058153000223
 40
0.9918331445062708
 40
0.9999999999999999
 40
0.9999999999999999
 40
0.9999999999999999
 40
0.9999999999999999
 10
162.3195788847982
 20
162.5740041399226
 30
0.0
 10
162.3195846402978
 20
162.5739864741358
 30
0.0
 10
162.3196503445161
 20
162.5737848032527
 30
0.0
 10
162.3216454303048
 20
162.5675952856905
 30
0.0
 10
162.3294616530404
 20
162.5433937912484
 30
0.0
 10
162.3466326486813
 20
162.4903741175103
 30
0.0
 10
162.3732156614859
 20
162.4090040186775
 30
0.0
 10
162.4110458297684
 20
162.2944243895247
 30
0.0
 10
162.4393250232864
 20
162.2099990499204
 30
0.0
 10
162.4591571140651
 20
162.1515284911397
 30
0.0
 10
162.4596446777462
 20
162.1500910168365
 30
0.0
  0
ARC
  5
167
330
1F
100
AcDbEntity
  8
0
  6
Continuous
 62
     7
370
    25
100
AcDbCircle
 10
167.5586641791
 20
160.9000910448
 30
0.0
 40
5.499999999999993
100
AcDbArc
 50
17.7189318734
 51
162.2810681266
  0
ARC
  5
168
330
1F
100
AcDbEntity
  8
0
  6
Continuous
 62
     7
370
    25
100
AcDbCircle
 10
162.0814386041
 20
162.6500910448
 30
0.0
 40
0.2500000000000213
100
AcDbArc
 50
270.0
 51
342.2810681266
  0
SPLINE
  5
169
330
1F
100
AcDbEntity
  8
0
  6
Continuous
 62
     7
370
    25
100
AcDbSpline
210
0.0
220
0.0
230
1.0
 70
     8
 71
     3
 72
    15
 73
    11
 74
     0
 42
0.000000001
 43
0.00000001
 40
0.0
 40
0.0
 40
0.0
 40
0.0
 40
0.0080845166116213
 40
0.3310110803515837
 40
0.4750334718139839
 40
0.6874373868841556
 40
0.8468378249369453
 40
0.9001014979498858
 40
0.9910465065391931
 40
0.9999999999999999
 40
0.9999999999999999
 40
0.9999999999999999
 40
0.9999999999999999
 10
162.4596446777462
 20
162.1500910168365
 30
0.0
 10
162.4583649073139
 20
162.150906968065
 30
0.0
 10
162.4059662032536
 20
162.1843151371166
 30
0.0
 10
162.3306100837366
 20
162.2331265143831
 30
0.0
 10
162.2286904181703
 20
162.3004979077353
 30
0.0
 10
162.1563006100003
 20
162.3490813855497
 30
0.0
 10
162.1085935637077
 20
162.3815307571608
 30
0.0
 10
162.0870598736549
 20
162.3962413387203
 30
0.0
 10
162.0816292020544
 20
162.3999599299467
 30
0.0
 10
162.0814544348178
 20
162.4000802720454
 30
0.0
 10
162.0814387711464
 20
162.4000910578147
 30
0.0
  0
ARC
  5
16A
330
1F
100
AcDbEntity
  8
0
  6
Continuous
 62
     7
370
    25
100
AcDbCircle
 10
173.0358897542
 20
162.6500910448
 30
0.0
 40
0.2500000000000213
100
AcDbArc
 50
197.7189318734
 51
270.0
  0
SPLINE
  5
16B
330
1F
100
AcDbEntity
  8
0
  6
Continuous
 62
     7
370
    25
100
AcDbSpline
210
0.0
220
0.0
230
1.0
 70
     8
 71
     3
 72
    15
 73
    11
 74
     0
 42
0.000000001
 43
0.00000001
 40
0.0
 40
0.0
 40
0.0
 40
0.0
 40
0.0089534934608068
 40
0.0998985020501141
 40
0.1531621750630547
 40
0.3125626131158444
 40
0.524966528186016
 40
0.6689889196484162
 40
0.9919154833883785
 40
0.9999999999999999
 40
0.9999999999999999
 40
0.9999999999999999
 40
0.9999999999999999
 10
173.0358895870625
 20
162.4000910578147
 30
0.0
 10
173.0358739233911
 20
162.4000802720454
 30
0.0
 10
173.0356991561544
 20
162.3999599299467
 30
0.0
 10
173.0302684845541
 20
162.3962413387203
 30
0.0
 10
173.0087347945012
 20
162.3815307571608
 30
0.0
 10
172.9610277482086
 20
162.3490813855497
 30
0.0
 10
172.8886379400386
 20
162.3004979077353
 30
0.0
 10
172.7867182744723
 20
162.2331265143831
 30
0.0
 10
172.7113621549553
 20
162.1843151371166
 30
0.0
 10
172.658963450895
 20
162.150906968065
 30
0.0
 10
172.6576836804627
 20
162.1500910168365
 30
0.0
  0
SPLINE
  5
16C
330
1F
100
AcDbEntity
  8
0
  6
Continuous
 62
     7
370
    25
100
AcDbSpline
210
0.0
220
0.0
230
1.0
 70
     8
 71
     3
 72
    15
 73
    11
 74
     0
 42
0.000000001
 43
0.00000001
 40
0.0
 40
0.0
 40
0.0
 40
0.0
 40
0.0089534934608068
 40
0.0998985020501141
 40
0.1531621750630547
 40
0.3125626131158444
 40
0.524966528186016
 40
0.6689889196484162
 40
0.9919154833883785
 40
0.9999999999999999
 40
0.9999999999999999
 40
0.9999999999999999
 40
0.9999999999999999
 10
162.0814387711464
 20
159.4000910317376
 30
0.0
 10
162.0814544348178
 20
159.4001018175069
 30
0.0
 10
162.0816292020545
 20
159.4002221596056
 30
0.0
 10
162.0870598736549
 20
159.403940750832
 30
0.0
 10
162.1085935637077
 20
159.4186513323916
 30
0.0
 10
162.1563006100003
 20
159.4511007040026
 30
0.0
 10
162.2286904181703
 20
159.499684181817
 30
0.0
 10
162.3306100837366
 20
159.5670555751692
 30
0.0
 10
162.4059662032537
 20
159.6158669524357
 30
0.0
 10
162.4583649073139
 20
159.6492751214873
 30
0.0
 10
162.4596446777462
 20
159.6500910727158
 30
0.0
  0
SPLINE
  5
16D
330
1F
100
AcDbEntity
  8
0
  6
Continuous
 62
     7
370
    25
100
AcDbSpline
210
0.0
220
0.0
230
1.0
 70
     8
 71
     3
 72
    15
 73
    11
 74
     0
 42
0.000000001
 43
0.00000001
 40
0.0
 40
0.0
 40
0.0
 40
0.0
 40
0.0081668554937291
 40
0.3321941846999776
 40
0.4756279332062201
 40
0.6866839627273442
 40
0.8457444903091523
 40
0.8967583891412989
 40
0.9909563331444947
 40
1.0
 40
1.0
 40
1.0
 40
1.0
 10
162.4596446777462
 20
159.6500910727158
 30
0.0
 10
162.4591571140651
 20
159.6486535984126
 30
0.0
 10
162.4393250232863
 20
159.5901830396319
 30
0.0
 10
162.4110458297684
 20
159.5057577000276
 30
0.0
 10
162.3732156614859
 20
159.3911780708748
 30
0.0
 10
162.3466326486813
 20
159.309807972042
 30
0.0
 10
162.3294616530404
 20
159.2567882983039
 30
0.0
 10
162.3216454303048
 20
159.2325868038618
 30
0.0
 10
162.3196503445161
 20
159.2263972862996
 30
0.0
 10
162.3195846402978
 20
159.2261956154165
 30
0.0
 10
162.3195788847982
 20
159.2261779496297
 30
0.0
  0
ARC
  5
16E
330
1F
100
AcDbEntity
  8
0
  6
Continuous
 62
     7
370
    25
100
AcDbCircle
 10
162.0814386041
 20
159.1500910448
 30
0.0
 40
0.2500000000000213
100
AcDbArc
 50
17.7189318734
 51
90.0
  0
SPLINE
  5
16F
330
1F
100
AcDbEntity
  8
0
  6
Continuous
 62
     7
370
    25
100
AcDbSpline
210
0.0
220
0.0
230
1.0
 70
     8
 71
     3
 72
    15
 73
    11
 74
     0
 42
0.000000001
 43
0.00000001
 40
0.0
 40
0.0
 40
0.0
 40
0.0
 40
0.0090436668555053
 40
0.1032416108587011
 40
0.1542555096908477
 40
0.3133160372726557
 40
0.5243720667937798
 40
0.6678058153000223
 40
0.9918331445062708
 40
0.9999999999999999
 40
0.9999999999999999
 40
0.9999999999999999
 40
0.9999999999999999
 10
172.7977494734107
 20
159.2261779496297
 30
0.0
 10
172.797743717911
 20
159.2261956154165
 30
0.0
 10
172.7976780136928
 20
159.2263972862996
 30
0.0
 10
172.7956829279041
 20
159.2325868038618
 30
0.0
 10
172.7878667051685
 20
159.2567882983039
 30
0.0
 10
172.7706957095276
 20
159.309807972042
 30
0.0
 10
172.744112696723
 20
159.3911780708748
 30
0.0
 10
172.7062825284405
 20
159.5057577000276
 30
0.0
 10
172.6780033349225
 20
159.5901830396319
 30
0.0
 10
172.6581712441438
 20
159.6486535984126
 30
0.0
 10
172.6576836804627
 20
159.6500910727158
 30
0.0
  0
ARC
  5
170
330
1F
100
AcDbEntity
  8
0
  6
Continuous
 62
     7
370
    25
100
AcDbCircle
 10
167.5586641791
 20
160.9000910448
 30
0.0
 40
5.499999999999993
100
AcDbArc
 50
197.7189318734
 51
342.2810681266
  0
ARC
  5
171
330
1F
100
AcDbEntity
  8
0
  6
Continuous
 62
     7
370
    25
100
AcDbCircle
 10
167.5586641791
 20
160.9000910448
 30
0.0
 40
5.250000000000009
100
AcDbArc
 50
193.774146998
 51
346.225853002
  0
SPLINE
  5
172
330
1F
100
AcDbEntity
  8
0
  6
Continuous
 62
     7
370
    25
100
AcDbSpline
210
0.0
220
0.0
230
1.0
 70
     8
 71
     3
 72
    15
 73
    11
 74
     0
 42
0.000000001
 43
0.00000001
 40
0.0
 40
0.0
 40
0.0
 40
0.0
 40
0.0080845166116213
 40
0.3310110803515837
 40
0.4750334718139839
 40
0.6874373868841556
 40
0.8468378249369453
 40
0.9001014979498858
 40
0.9910465065391931
 40
0.9999999999999999
 40
0.9999999999999999
 40
0.9999999999999999
 40
0.9999999999999999
 10
172.6576836804627
 20
159.6500910727158
 30
0.0
 10
172.658963450895
 20
159.6492751214873
 30
0.0
 10
172.7113621549553
 20
159.6158669524357
 30
0.0
 10
172.7867182744723
 20
159.5670555751692
 30
0.0
 10
172.8886379400386
 20
159.499684181817
 30
0.0
 10
172.9610277482086
 20
159.4511007040026
 30
0.0
 10
173.0087347945012
 20
159.4186513323916
 30
0.0
 10
173.0302684845541
 20
159.403940750832
 30
0.0
 10
173.0356991561545
 20
159.4002221596056
 30
0.0
 10
173.0358739233911
 20
159.4001018175069
 30
0.0
 10
173.0358895870625
 20
159.4000910317376
 30
0.0
  0
ARC
  5
173
330
1F
100
AcDbEntity
  8
0
  6
Continuous
 62
     7
370
    25
100
AcDbCircle
 10
173.0358897542
 20
159.1500910448
 30
0.0
 40
0.2500000000000213
100
AcDbArc
 50
90.0
 51
162.2810681266
  0
LINE
  5
174
330
1F
100
AcDbEntity
  8
0
  6
Continuous
 62
     7
370
    25
100
AcDbLine
 10
172.5586640673
 20
161.5000910733
 30
0.0
 11
162.5586642909
 21
161.5000910733
 31
0.0
  0
LINE
  5
175
330
1F
100
AcDbEntity
  8
0
  6
Continuous
 62
     7
370
    25
100
AcDbLine
 10
172.5586640673
 20
160.3000910163
 30
0.0
 11
172.5586640673
 21
161.5000910733
 31
0.0
  0
LINE
  5
176
330
1F
100
AcDbEntity
  8
0
  6
Continuous
 62
     7
370
    25
100
AcDbLine
 10
162.5586642909
 20
160.3000910163
 30
0.0
 11
172.5586640673
 21
160.3000910163
 31
0.0
  0
LINE
  5
177
330
1F
100
AcDbEntity
  8
0
  6
Continuous
 62
     7
370
    25
100
AcDbLine
 10
162.5586642909
 20
161.5000910733
 30
0.0
 11
162.5586642909
 21
160.3000910163
 31
0.0
  0
LINE
  5
178
330
1F
100
AcDbEntity
  8
0
  6
Continuous
 62
     7
370
    25
100
AcDbLine
 10
173.3086641903
 20
162.1500910168
 30
0.0
 11
172.6576836805
 21
162.1500910168
 31
0.0
  0
LINE
  5
179
330
1F
100
AcDbEntity
  8
0
  6
Continuous
 62
     7
370
    25
100
AcDbLine
 10
173.3086641903
 20
159.6500910727
 30
0.0
 11
173.3086641903
 21
162.1500910168
 31
0.0
  0
LINE
  5
17A
330
1F
100
AcDbEntity
  8
0
  6
Continuous
 62
     7
370
    25
100
AcDbLine
 10
172.6576836805
 20
159.6500910727
 30
0.0
 11
173.3086641903
 21
159.6500910727
 31
0.0
  0
LINE
  5
17B
330
1F
100
AcDbEntity
  8
0
  6
Continuous
 62
     7
370
    25
100
AcDbLine
 10
161.8086641679
 20
159.6500910727
 30
0.0
 11
162.4596446777
 21
159.6500910727
 31
0.0
  0
LINE
  5
17C
330
1F
100
AcDbEntity
  8
0
  6
Continuous
 62
     7
370
    25
100
AcDbLine
 10
161.8086641679
 20
162.1500910168
 30
0.0
 11
161.8086641679
 21
159.6500910727
 31
0.0
  0
LINE
  5
17D
330
1F
100
AcDbEntity
  8
0
  6
Continuous
 62
     7
370
    25
100
AcDbLine
 10
162.4596446777
 20
162.1500910168
 30
0.0
 11
161.8086641679
 21
162.1500910168
 31
0.0
  0
ARC
  5
17E
330
1F
100
AcDbEntity
  8
0
  6
Continuous
 62
     7
370
    25
100
AcDbCircle
 10
173.3086641791
 20
162.1500910448
 30
0.0
 40
0.25
100
AcDbArc
 50
0.0
 51
90.0
  0
LINE
  5
17F
330
1F
100
AcDbEntity
  8
0
  6
Continuous
 62
     7
370
    25
100
AcDbLine
 10
173.5586642313
 20
162.1500910168
 30
0.0
 11
173.3086641903
 21
162.1500910168
 31
0.0
  0
LINE
  5
180
330
1F
100
AcDbEntity
  8
0
  6
Continuous
 62
     7
370
    25
100
AcDbLine
 10
173.3086641903
 20
162.1500910168
 30
0.0
 11
173.3086641903
 21
162.4000910578
 31
0.0
  0
LINE
  5
181
330
1F
100
AcDbEntity
  8
0
  6
Continuous
 62
     7
370
    25
100
AcDbLine
 10
173.0358895871
 20
162.4000910578
 30
0.0
 11
173.3086641903
 21
162.4000910578
 31
0.0
  0
LINE
  5
182
330
1F
100
AcDbEntity
  8
0
  6
Continuous
 62
     7
370
    25
100
AcDbLine
 10
161.8086641679
 20
162.4000910578
 30
0.0
 11
161.8086641679
 21
162.1500910168
 31
0.0
  0
LINE
  5
183
330
1F
100
AcDbEntity
  8
0
  6
Continuous
 62
     7
370
    25
100
AcDbLine
 10
161.8086641679
 20
162.1500910168
 30
0.0
 11
161.558664127
 21
162.1500910168
 31
0.0
  0
ARC
  5
184
330
1F
100
AcDbEntity
  8
0
  6
Continuous
 62
     7
370
    25
100
AcDbCircle
 10
161.8086641791
 20
162.1500910448
 30
0.0
 40
0.25
100
AcDbArc
 50
90.0
 51
180.0
  0
LINE
  5
185
330
1F
100
AcDbEntity
  8
0
  6
Continuous
 62
     7
370
    25
100
AcDbLine
 10
161.8086641679
 20
162.4000910578
 30
0.0
 11
162.0814387711
 21
162.4000910578
 31
0.0
  0
LINE
  5
186
330
1F
100
AcDbEntity
  8
0
  6
Continuous
 62
     7
370
    25
100
AcDbLine
 10
161.558664127
 20
159.6500910727
 30
0.0
 11
161.8086641679
 21
159.6500910727
 31
0.0
  0
LINE
  5
187
330
1F
100
AcDbEntity
  8
0
  6
Continuous
 62
     7
370
    25
100
AcDbLine
 10
161.558664127
 20
159.6500910727
 30
0.0
 11
161.558664127
 21
162.1500910168
 31
0.0
  0
LINE
  5
188
330
1F
100
AcDbEntity
  8
0
  6
Continuous
 62
     7
370
    25
100
AcDbLine
 10
173.5586642313
 20
162.1500910168
 30
0.0
 11
173.5586642313
 21
159.6500910727
 31
0.0
  0
LINE
  5
189
330
1F
100
AcDbEntity
  8
0
  6
Continuous
 62
     7
370
    25
100
AcDbLine
 10
173.3086641903
 20
159.6500910727
 30
0.0
 11
173.5586642313
 21
159.6500910727
 31
0.0
  0
LINE
  5
18A
330
1F
100
AcDbEntity
  8
0
  6
Continuous
 62
     7
370
    25
100
AcDbLine
 10
173.3086641903
 20
159.4000910317
 30
0.0
 11
173.3086641903
 21
159.6500910727
 31
0.0
  0
LINE
  5
18B
330
1F
100
AcDbEntity
  8
0
  6
Continuous
 62
     7
370
    25
100
AcDbLine
 10
173.3086641903
 20
159.4000910317
 30
0.0
 11
173.0358895871
 21
159.4000910317
 31
0.0
  0
LINE
  5
18C
330
1F
100
AcDbEntity
  8
0
  6
Continuous
 62
     7
370
    25
100
AcDbLine
 10
162.0814387711
 20
159.4000910317
 30
0.0
 11
161.8086641679
 21
159.4000910317
 31
0.0
  0
LINE
  5
18D
330
1F
100
AcDbEntity
  8
0
  6
Continuous
 62
     7
370
    25
100
AcDbLine
 10
161.8086641679
 20
159.6500910727
 30
0.0
 11
161.8086641679
 21
159.4000910317
 31
0.0
  0
ARC
  5
18E
330
1F
100
AcDbEntity
  8
0
  6
Continuous
 62
     7
370
    25
100
AcDbCircle
 10
173.3086641791
 20
159.6500910448
 30
0.0
 40
0.25
100
AcDbArc
 50
270.0
 51
0.0
  0
ARC
  5
18F
330
1F
100
AcDbEntity
  8
0
  6
Continuous
 62
     7
370
    25
100
AcDbCircle
 10
161.8086641791
 20
159.6500910448
 30
0.0
 40
0.25
100
AcDbArc
 50
180.0
 51
270.0
  0
LINE
  5
190
330
1F
100
AcDbEntity
  8
0
  6
Continuous
 62
     7
370
    25
100
AcDbLine
 10
147.5586646261
 20
157.6283918602
 30
0.0
 11
147.5586646261
 21
164.1717902293
 31
0.0
  0
LINE
  5
191
330
1F
100
AcDbEntity
  8
0
  6
Continuous
 62
     7
370
    25
100
AcDbLine
 10
145.3832273396
 20
157.4000909367
 30
0.0
 11
147.5586646261
 21
157.6283918602
 31
0.0
  0
LINE
  5
192
330
1F
100
AcDbEntity
  8
0
  6
Continuous
 62
     7
370
    25
100
AcDbLine
 10
127.5586650732
 20
157.4000909367
 30
0.0
 11
145.3832273396
 21
157.4000909367
 31
0.0
  0
LINE
  5
193
330
1F
100
AcDbEntity
  8
0
  6
Continuous
 62
     7
370
    25
100
AcDbLine
 10
145.3832273396
 20
164.4000911528
 30
0.0
 11
127.5586650732
 21
164.4000911528
 31
0.0
  0
LINE
  5
194
330
1F
100
AcDbEntity
  8
0
  6
Continuous
 62
     7
370
    25
100
AcDbLine
 10
127.5586650732
 20
164.4000911528
 30
0.0
 11
127.5586650732
 21
157.4000909367
 31
0.0
  0
LINE
  5
195
330
1F
100
AcDbEntity
  8
0
  6
Continuous
 62
     7
370
    25
100
AcDbLine
 10
147.5586646261
 20
164.1717902293
 30
0.0
 11
145.3832273396
 21
164.4000911528
 31
0.0
  0
LINE
  5
196
330
1F
100
AcDbEntity
  8
0
  6
Continuous
 62
     7
370
    25
100
AcDbLine
 10
162.3348618882
 20
162.6211055463
 30
0.0
 11
162.2064529943
 21
162.4369638648
 31
0.0
  0
LINE
  5
197
330
1F
100
AcDbEntity
  8
0
  6
Continuous
 62
     7
370
    25
100
AcDbLine
 10
162.2160204711
 20
159.3548733417
 30
0.0
 11
162.3348618882
 21
159.1790765432
 31
0.0
  0
LINE
  5
198
330
1F
100
AcDbEntity
  8
0
  6
Continuous
 62
     7
370
    25
100
AcDbLine
 10
154.1420944991
 20
163.4808936996
 30
0.0
 11
154.1420944991
 21
158.3192883899
 31
0.0
  0
LWPOLYLINE
  5
199
330
1F
100
AcDbEntity
  8
0
  6
Continuous
 62
     7
370
    25
100
AcDbPolyline
 90
       15
 70
   128
 43
0.0
 10
162.3348618882
 20
159.1790765432
 10
162.0054051305
 20
159.1445017747
 10
161.6251400697
 20
159.1045949517
 10
161.1962539169
 20
159.0595855286
 10
160.7212123486
 20
159.0097324133
 10
160.202746934
 20
158.9553222202
 10
159.6438397678
 20
158.8966678737
 10
159.0477039131
 20
158.8341065125
 10
158.4177675682
 20
158.7679979766
 10
157.7576526466
 20
158.6987224782
 10
157.0711561504
 20
158.6266781578
 10
156.362225956
 20
158.5522794539
 10
155.6349365997
 20
158.4759543093
 10
154.8934715825
 20
158.3981416097
 10
154.1420944991
 20
158.3192883899
  0
LWPOLYLINE
  5
19A
330
1F
100
AcDbEntity
  8
0
  6
Continuous
 62
     7
370
    25
100
AcDbPolyline
 90
       15
 70
   128
 43
0.0
 10
154.1420944991
 20
163.4808936996
 10
154.8934715825
 20
163.4020404799
 10
155.6349365997
 20
163.3242277803
 10
156.362225956
 20
163.2479026357
 10
157.0711561504
 20
163.1735039318
 10
157.7576526466
 20
163.1014596114
 10
158.4177675682
 20
163.032184113
 10
159.0477039131
 20
162.966075577
 10
159.6438397678
 20
162.9035142159
 10
160.202746934
 20
162.8448598694
 10
160.7212123486
 20
162.7904496763
 10
161.1962539169
 20
162.7405965609
 10
161.6251400697
 20
162.6955871379
 10
162.0054051305
 20
162.6556803148
 10
162.3348618882
 20
162.6211055463
  0
LWPOLYLINE
  5
19B
330
1F
100
AcDbEntity
  8
0
  6
Continuous
 62
     7
370
    25
100
AcDbPolyline
 90
       19
 70
   128
 43
0.0
 10
154.1420944991
 20
158.3192883899
 10
153.5869545328
 20
158.2610295063
 10
153.0315724226
 20
158.2027450112
 10
152.4807137462
 20
158.1449352579
 10
151.9391077596
 20
158.0880964083
 10
151.411400831
 20
158.0327164756
 10
150.9021257075
 20
157.979270667
 10
150.4156493607
 20
157.9282174261
 10
149.9561497035
 20
157.8799954058
 10
149.5275718185
 20
157.8350183463
 10
149.1335907045
 20
157.7936720477
 10
148.7775907877
 20
157.756311577
 10
148.4626249435
 20
157.7232577747
 10
148.1913977328
 20
157.6947939956
 10
147.9662393245
 20
157.6711647121
 10
147.789079419
 20
157.6525724867
 10
147.6614379349
 20
157.6391772741
 10
147.58441197
 20
157.6310938598
 10
147.5586646261
 20
157.6283918602
  0
LWPOLYLINE
  5
19C
330
1F
100
AcDbEntity
  8
0
  6
Continuous
 62
     7
370
    25
100
AcDbPolyline
 90
       19
 70
   128
 43
0.0
 10
147.5586646261
 20
164.1717902293
 10
147.58441197
 20
164.1690882297
 10
147.6614379349
 20
164.1610048154
 10
147.789079419
 20
164.1476096028
 10
147.9662393245
 20
164.1290173774
 10
148.1913977328
 20
164.1053880939
 10
148.4626249435
 20
164.0769243149
 10
148.7775907877
 20
164.0438705126
 10
149.1335907045
 20
164.0065100418
 10
149.5275718185
 20
163.9651637433
 10
149.9561497035
 20
163.9201866837
 10
150.4156493607
 20
163.8719646634
 10
150.9021257075
 20
163.8209114225
 10
151.411400831
 20
163.767465614
 10
151.9391077596
 20
163.7120856812
 10
152.4807137462
 20
163.6552468316
 10
153.0315724226
 20
163.5974370783
 10
153.5869545328
 20
163.5391525833
 10
154.1420944991
 20
163.4808936996
  0
ARC
  5
19D
330
1F
100
AcDbEntity
  8
0
  6
Continuous
 62
     7
370
    25
100
AcDbCircle
 10
167.5586641791
 20
160.9000910448
 30
0.0
 40
7.450000000000661
100
AcDbArc
 50
233.0863788866
 51
126.9136211134
  0
ARC
  5
19E
330
1F
100
AcDbEntity
  8
0
  6
Continuous
 62
     7
370
    25
100
AcDbCircle
 10
167.5586641791
 20
160.9000910448
 30
0.0
 40
7.207531252870806
100
AcDbArc
 50
195.3041237151
 51
238.9797515565
  0
ARC
  5
19F
330
1F
100
AcDbEntity
  8
0
  6
Continuous
 62
     7
370
    25
100
AcDbCircle
 10
167.5586641791
 20
160.9000910448
 30
0.0
 40
7.207531252872434
100
AcDbArc
 50
121.0202484435
 51
164.6958762849
  0
ARC
  5
1A0
330
1F
100
AcDbEntity
  8
0
  6
Continuous
 62
     7
370
    25
100
AcDbCircle
 10
145.3832273176
 20
229.4000910448
 30
0.0
 40
65.0
100
AcDbArc
 50
270.0
 51
286.5000949923
  0
ARC
  5
1A1
330
1F
100
AcDbEntity
  8
0
  6
Continuous
 62
     7
370
    25
100
AcDbCircle
 10
145.3832273176
 20
92.4000910448
 30
0.0
 40
64.99999999999999
100
AcDbArc
 50
73.4999050077
 51
90.0
  0
LINE
  5
1A2
330
1F
100
AcDbEntity
  8
0
  6
Continuous
 62
     7
370
    25
100
AcDbLine
 10
150.5586632552
 20
168.9000914248
 30
0.0
 11
150.5586632552
 21
164.6064582655
 31
0.0
  0
LINE
  5
1A3
330
1F
100
AcDbEntity
  8
0
  6
Continuous
 62
     7
370
    25
100
AcDbLine
 10
150.5586632552
 20
157.193723824
 30
0.0
 11
150.5586632552
 21
152.9000906648
 31
0.0
  0
LINE
  5
1A4
330
1F
100
AcDbEntity
  8
0
  6
Continuous
 62
     7
370
    25
100
AcDbLine
 10
147.5586646261
 20
168.9000914248
 30
0.0
 11
147.5586646261
 21
164.4365053998
 31
0.0
  0
LINE
  5
1A5
330
1F
100
AcDbEntity
  8
0
  6
Continuous
 62
     7
370
    25
100
AcDbLine
 10
147.5586646261
 20
157.3636766897
 30
0.0
 11
147.5586646261
 21
152.9000906648
 31
0.0
  0
LINE
  5
1A6
330
1F
100
AcDbEntity
  8
0
  6
Continuous
 62
     7
370
    25
100
AcDbLine
 10
142.5586638066
 20
168.9000914248
 30
0.0
 11
142.5586638066
 21
164.4000911528
 31
0.0
  0
LINE
  5
1A7
330
1F
100
AcDbEntity
  8
0
  6
Continuous
 62
     7
370
    25
100
AcDbLine
 10
142.5586638066
 20
157.4000909367
 30
0.0
 11
142.5586638066
 21
152.9000906648
 31
0.0
  0
LINE
  5
1A8
330
1F
100
AcDbEntity
  8
0
  6
Continuous
 62
     7
370
    25
100
AcDbLine
 10
137.5586648497
 20
164.4000911528
 30
0.0
 11
137.5586648497
 21
167.4901891874
 31
0.0
  0
LINE
  5
1A9
330
1F
100
AcDbEntity
  8
0
  6
Continuous
 62
     7
370
    25
100
AcDbLine
 10
137.5586648497
 20
154.3099929022
 30
0.0
 11
137.5586648497
 21
157.4000909367
 31
0.0
  0
LINE
  5
1AA
330
1F
100
AcDbEntity
  8
0
  6
Continuous
 62
     7
370
    25
100
AcDbLine
 10
159.6766977596
 20
170.9000908213
 30
0.0
 11
159.6766977596
 21
165.991127249
 31
0.0
  0
LINE
  5
1AB
330
1F
100
AcDbEntity
  8
0
  6
Continuous
 62
     7
370
    25
100
AcDbLine
 10
159.6766977596
 20
155.8090548405
 30
0.0
 11
159.6766977596
 21
150.9000912683
 31
0.0
  0
LINE
  5
1AC
330
1F
100
AcDbEntity
  8
0
  6
Continuous
 62
     7
370
    25
100
AcDbLine
 10
157.8086639779
 20
170.9000908213
 30
0.0
 11
157.8086639779
 21
165.5987703616
 31
0.0
  0
LINE
  5
1AD
330
1F
100
AcDbEntity
  8
0
  6
Continuous
 62
     7
370
    25
100
AcDbLine
 10
157.8086639779
 20
156.201411728
 30
0.0
 11
157.8086639779
 21
150.9000912683
 31
0.0
  0
LINE
  5
1AE
330
1F
100
AcDbEntity
  8
0
  6
Continuous
 62
     7
370
    25
100
AcDbLine
 10
175.4406305986
 20
150.9000912683
 30
0.0
 11
175.4406305986
 21
170.9000908213
 31
0.0
  0
SPLINE
  5
1AF
330
1F
100
AcDbEntity
  8
0
  6
Continuous
 62
     7
370
    25
100
AcDbSpline
210
0.0
220
0.0
230
1.0
 70
     8
 71
     3
 72
    12
 73
     8
 74
     0
 42
0.000000001
 43
0.00000001
 40
0.0
 40
0.0
 40
0.0
 40
0.0
 40
0.25
 40
0.25
 40
0.5
 40
0.5
 40
1.0
 40
1.0
 40
1.0
 40
1.0
 10
175.2877502462065
 20
152.1376298650264
 30
0.0
 10
175.2066336441019
 20
152.1031247271663
 30
0.0
 10
175.1596037209335
 20
152.0702796558658
 30
0.0
 10
175.0967401194017
 20
152.0119271276191
 30
0.0
 10
175.0812904484845
 20
151.9862727639905
 30
0.0
 10
175.0541067841052
 20
151.9231735112508
 30
0.0
 10
175.0586641791045
 20
151.9000910447761
 30
0.0
 10
175.0586641791045
 20
151.9000910447761
 30
0.0
  0
SPLINE
  5
1B0
330
1F
100
AcDbEntity
  8
0
  6
Continuous
 62
     7
370
    25
100
AcDbSpline
210
0.0
220
0.0
230
1.0
 70
     8
 71
     3
 72
    14
 73
    10
 74
     0
 42
0.000000001
 43
0.00000001
 40
0.0
 40
0.0
 40
0.0
 40
0.0
 40
0.25
 40
0.25
 40
0.5
 40
0.5
 40
0.75
 40
0.75
 40
1.0
 40
1.0
 40
1.0
 40
1.0
 10
175.2877502462065
 20
152.1376298650264
 30
0.0
 10
175.3152712339516
 20
152.1493366605719
 30
0.0
 10
175.335191155788
 20
152.1813786136535
 30
0.0
 10
175.350858197606
 20
152.2807023643185
 30
0.0
 10
175.3463663657937
 20
152.3485258070992
 30
0.0
 10
175.3151100205101
 20
152.5109674245121
 30
0.0
 10
175.2887374371284
 20
152.6054128212478
 30
0.0
 10
175.2259008859841
 20
152.8136419288443
 30
0.0
 10
175.189861307124
 20
152.9262403217275
 30
0.0
 10
175.1558653037584
 20
153.0459967153276
 30
0.0
  0
SPLINE
  5
1B1
330
1F
100
AcDbEntity
  8
0
  6
Continuous
 62
     7
370
    25
100
AcDbSpline
210
0.0
220
0.0
230
1.0
 70
     8
 71
     3
 72
     8
 73
     4
 74
     0
 42
0.000000001
 43
0.00000001
 40
0.0
 40
0.0
 40
0.0
 40
0.0
 40
1.0
 40
1.0
 40
1.0
 40
1.0
 10
175.0586641791045
 20
153.7761876203886
 30
0.0
 10
175.0586641791045
 20
153.5287581635936
 30
0.0
 10
175.0880288861823
 20
153.2849614146863
 30
0.0
 10
175.1558653037584
 20
153.0459967153276
 30
0.0
  0
LINE
  5
1B2
330
1F
100
AcDbEntity
  8
0
  6
Continuous
 62
     7
370
    25
100
AcDbLine
 10
175.0586640115
 20
153.7761876734
 30
0.0
 11
175.0586640115
 21
168.0239944162
 31
0.0
  0
SPLINE
  5
1B3
330
1F
100
AcDbEntity
  8
0
  6
Continuous
 62
     7
370
    25
100
AcDbSpline
210
0.0
220
0.0
230
1.0
 70
     8
 71
     3
 72
     8
 73
     4
 74
     0
 42
0.000000001
 43
0.00000001
 40
0.0
 40
0.0
 40
0.0
 40
0.0
 40
1.0
 40
1.0
 40
1.0
 40
1.0
 10
175.1558653037584
 20
168.7541853742247
 30
0.0
 10
175.0880288861823
 20
168.515220674866
 30
0.0
 10
175.0586641791045
 20
168.2714239259587
 30
0.0
 10
175.0586641791045
 20
168.0239944691637
 30
0.0
  0
SPLINE
  5
1B4
330
1F
100
AcDbEntity
  8
0
  6
Continuous
 62
     7
370
    25
100
AcDbSpline
210
0.0
220
0.0
230
1.0
 70
     8
 71
     3
 72
    12
 73
     8
 74
     0
 42
0.000000001
 43
0.00000001
 40
0.0
 40
0.0
 40
0.0
 40
0.0
 40
0.4999999999999992
 40
0.4999999999999992
 40
0.7499999999999996
 40
0.7499999999999996
 40
1.0
 40
1.0
 40
1.0
 40
1.0
 10
175.1558653037584
 20
168.7541853742247
 30
0.0
 10
175.2237350637682
 20
168.9932675276728
 30
0.0
 10
175.2997696150219
 20
169.2090376348497
 30
0.0
 10
175.3464142133989
 20
169.4521322275536
 30
0.0
 10
175.3508532099216
 20
169.5197975030297
 30
0.0
 10
175.3351225961287
 20
169.6189506191863
 30
0.0
 10
175.3152421661864
 20
169.6508577937395
 30
0.0
 10
175.2877502462065
 20
169.662552224526
 30
0.0
  0
SPLINE
  5
1B5
330
1F
100
AcDbEntity
  8
0
  6
Continuous
 62
     7
370
    25
100
AcDbSpline
210
0.0
220
0.0
230
1.0
 70
     8
 71
     3
 72
    12
 73
     8
 74
     0
 42
0.000000001
 43
0.00000001
 40
0.0
 40
0.0
 40
0.0
 40
0.0
 40
0.5000000000000002
 40
0.5000000000000002
 40
0.7500000000000001
 40
0.7500000000000001
 40
1.0
 40
1.0
 40
1.0
 40
1.0
 10
175.0586641791045
 20
169.9000910447762
 30
0.0
 10
175.0586641791045
 20
169.9000910447762
 30
0.0
 10
175.0541067841052
 20
169.8770085783015
 30
0.0
 10
175.0812904484845
 20
169.8139093255618
 30
0.0
 10
175.0967401194017
 20
169.7882549619332
 30
0.0
 10
175.1596037209335
 20
169.7299024336865
 30
0.0
 10
175.2066336441019
 20
169.6970573623861
 30
0.0
 10
175.2877502462065
 20
169.662552224526
 30
0.0
  0
LINE
  5
1B6
330
1F
100
AcDbEntity
  8
0
  6
Continuous
 62
     7
370
    25
100
AcDbLine
 10
177.0586638736
 20
150.9000912683
 30
0.0
 11
177.0586638736
 21
170.9000908213
 31
0.0
  0
LINE
  5
1B7
330
1F
100
AcDbEntity
  8
0
  6
Continuous
 62
     7
370
    25
100
AcDbLine
 10
177.5586639556
 20
170.4000907393
 30
0.0
 11
177.5586639556
 21
151.4000913502
 31
0.0
  0
LINE
  5
1B8
330
1F
100
AcDbEntity
  8
0
  6
Continuous
 62
     7
370
    25
100
AcDbLine
 10
157.5586644026
 20
151.1500908436
 30
0.0
 11
157.5586644026
 21
156.2495918387
 31
0.0
  0
LINE
  5
1B9
330
1F
100
AcDbEntity
  8
0
  6
Continuous
 62
     7
370
    25
100
AcDbLine
 10
157.5586644026
 20
165.5505902508
 30
0.0
 11
157.5586644026
 21
170.6500912459
 31
0.0
  0
SPLINE
  5
1BA
330
1F
100
AcDbEntity
  8
0
  6
Continuous
 62
     7
370
    25
100
AcDbSpline
210
0.0
220
0.0
230
1.0
 70
     8
 71
     3
 72
    12
 73
     8
 74
     0
 42
0.000000001
 43
0.00000001
 40
0.0
 40
0.0
 40
0.0
 40
0.0
 40
0.2500000000000001
 40
0.2500000000000001
 40
0.5000000000000001
 40
0.5000000000000001
 40
1.0
 40
1.0
 40
1.0
 40
1.0
 10
159.8295781120024
 20
169.662552224526
 30
0.0
 10
159.9106947141071
 20
169.6970573623861
 30
0.0
 10
159.9577246372754
 20
169.7299024336865
 30
0.0
 10
160.0205882388072
 20
169.7882549619332
 30
0.0
 10
160.0360379097244
 20
169.8139093255618
 30
0.0
 10
160.0632215741037
 20
169.8770085783015
 30
0.0
 10
160.0586641791045
 20
169.9000910447762
 30
0.0
 10
160.0586641791045
 20
169.9000910447762
 30
0.0
  0
SPLINE
  5
1BB
330
1F
100
AcDbEntity
  8
0
  6
Continuous
 62
     7
370
    25
100
AcDbSpline
210
0.0
220
0.0
230
1.0
 70
     8
 71
     3
 72
    14
 73
    10
 74
     0
 42
0.000000001
 43
0.00000001
 40
0.0
 40
0.0
 40
0.0
 40
0.0
 40
0.25
 40
0.25
 40
0.5
 40
0.5
 40
0.75
 40
0.75
 40
1.0
 40
1.0
 40
1.0
 40
1.0
 10
159.8295781120024
 20
169.662552224526
 30
0.0
 10
159.8020571242573
 20
169.6508454289804
 30
0.0
 10
159.7821372024209
 20
169.6188034758988
 30
0.0
 10
159.7664701606029
 20
169.5194797252339
 30
0.0
 10
159.7709619924152
 20
169.4516562824531
 30
0.0
 10
159.8022183376987
 20
169.2892146650402
 30
0.0
 10
159.8285909210805
 20
169.1947692683045
 30
0.0
 10
159.8914274722248
 20
168.986540160708
 30
0.0
 10
159.9274670510849
 20
168.8739417678248
 30
0.0
 10
159.9614630544505
 20
168.7541853742247
 30
0.0
  0
SPLINE
  5
1BC
330
1F
100
AcDbEntity
  8
0
  6
Continuous
 62
     7
370
    25
100
AcDbSpline
210
0.0
220
0.0
230
1.0
 70
     8
 71
     3
 72
     8
 73
     4
 74
     0
 42
0.000000001
 43
0.00000001
 40
0.0
 40
0.0
 40
0.0
 40
0.0
 40
1.0
 40
1.0
 40
1.0
 40
1.0
 10
160.0586641791045
 20
168.0239944691637
 30
0.0
 10
160.0586641791045
 20
168.2714239259587
 30
0.0
 10
160.0292994720266
 20
168.515220674866
 30
0.0
 10
159.9614630544505
 20
168.7541853742247
 30
0.0
  0
LINE
  5
1BD
330
1F
100
AcDbEntity
  8
0
  6
Continuous
 62
     7
370
    25
100
AcDbLine
 10
160.0586643467
 20
168.0239944162
 30
0.0
 11
160.0586643467
 21
166.0784396717
 31
0.0
  0
LINE
  5
1BE
330
1F
100
AcDbEntity
  8
0
  6
Continuous
 62
     7
370
    25
100
AcDbLine
 10
160.0586643467
 20
155.7217424178
 30
0.0
 11
160.0586643467
 21
153.7761876734
 31
0.0
  0
SPLINE
  5
1BF
330
1F
100
AcDbEntity
  8
0
  6
Continuous
 62
     7
370
    25
100
AcDbSpline
210
0.0
220
0.0
230
1.0
 70
     8
 71
     3
 72
     8
 73
     4
 74
     0
 42
0.000000001
 43
0.00000001
 40
0.0
 40
0.0
 40
0.0
 40
0.0
 40
1.0
 40
1.0
 40
1.0
 40
1.0
 10
159.9614630544505
 20
153.0459967153276
 30
0.0
 10
160.0292994720266
 20
153.2849614146863
 30
0.0
 10
160.0586641791045
 20
153.5287581635936
 30
0.0
 10
160.0586641791045
 20
153.7761876203886
 30
0.0
  0
SPLINE
  5
1C0
330
1F
100
AcDbEntity
  8
0
  6
Continuous
 62
     7
370
    25
100
AcDbSpline
210
0.0
220
0.0
230
1.0
 70
     8
 71
     3
 72
    12
 73
     8
 74
     0
 42
0.000000001
 43
0.00000001
 40
0.0
 40
0.0
 40
0.0
 40
0.0
 40
0.4999999999999992
 40
0.4999999999999992
 40
0.7499999999999996
 40
0.7499999999999996
 40
1.0
 40
1.0
 40
1.0
 40
1.0
 10
159.9614630544505
 20
153.0459967153276
 30
0.0
 10
159.8935932944407
 20
152.8069145618795
 30
0.0
 10
159.817558743187
 20
152.5911444547027
 30
0.0
 10
159.77091414481
 20
152.3480498619987
 30
0.0
 10
159.7664751482874
 20
152.2803845865226
 30
0.0
 10
159.7822057620802
 20
152.181231470366
 30
0.0
 10
159.8020861920226
 20
152.1493242958128
 30
0.0
 10
159.8295781120024
 20
152.1376298650264
 30
0.0
  0
SPLINE
  5
1C1
330
1F
100
AcDbEntity
  8
0
  6
Continuous
 62
     7
370
    25
100
AcDbSpline
210
0.0
220
0.0
230
1.0
 70
     8
 71
     3
 72
    12
 73
     8
 74
     0
 42
0.000000001
 43
0.00000001
 40
0.0
 40
0.0
 40
0.0
 40
0.0
 40
0.4999999999999998
 40
0.4999999999999998
 40
0.7499999999999999
 40
0.7499999999999999
 40
1.0
 40
1.0
 40
1.0
 40
1.0
 10
160.0586641791045
 20
151.9000910447761
 30
0.0
 10
160.0586641791045
 20
151.9000910447761
 30
0.0
 10
160.0632215741037
 20
151.9231735112508
 30
0.0
 10
160.0360379097244
 20
151.9862727639905
 30
0.0
 10
160.0205882388072
 20
152.0119271276191
 30
0.0
 10
159.9577246372754
 20
152.0702796558658
 30
0.0
 10
159.9106947141071
 20
152.1031247271663
 30
0.0
 10
159.8295781120024
 20
152.1376298650264
 30
0.0
  0
ARC
  5
1C2
330
1F
100
AcDbEntity
  8
0
  6
Continuous
 62
     7
370
    25
100
AcDbCircle
 10
160.5119819444
 20
168.0829699007
 30
0.0
 40
0.4571377824698378
100
AcDbArc
 50
187.4124053607
 51
275.8611502695
  0
ARC
  5
1C3
330
1F
100
AcDbEntity
  8
0
  6
Continuous
 62
     7
370
    25
100
AcDbCircle
 10
160.5119819444
 20
153.7172121888
 30
0.0
 40
0.4571377824698746
100
AcDbArc
 50
84.1388497305
 51
172.5875946393
  0
ARC
  5
1C4
330
1F
100
AcDbEntity
  8
0
  6
Continuous
 62
     7
370
    25
100
AcDbCircle
 10
174.6053464138
 20
168.0829699007
 30
0.0
 40
0.4571377824698239
100
AcDbArc
 50
264.1388497305
 51
352.5875946393
  0
ARC
  5
1C5
330
1F
100
AcDbEntity
  8
0
  6
Continuous
 62
     7
370
    25
100
AcDbCircle
 10
174.6053464138
 20
153.7172121888
 30
0.0
 40
0.4571377824698804
100
AcDbArc
 50
7.4124053607
 51
95.8611502695
  0
LWPOLYLINE
  5
1C6
330
1F
100
AcDbEntity
  8
0
  6
Continuous
 62
     7
370
    25
100
AcDbPolyline
 90
        9
 70
   128
 43
0.0
 10
159.961463141
 20
168.7541857736
 10
159.9845953311
 20
168.7614035236
 10
160.0207073639
 20
168.7726715954
 10
160.068745448
 20
168.7876612322
 10
160.1273065458
 20
168.8059337811
 10
160.1946798178
 20
168.8269565256
 10
160.2688978451
 20
168.8501147928
 10
160.34779344
 20
168.8747324424
 10
160.4290625105
 20
168.9000914248
  0
SPLINE
  5
1C7
330
1F
100
AcDbEntity
  8
0
  6
Continuous
 62
     7
370
    25
100
AcDbSpline
210
0.0
220
0.0
230
1.0
 70
     8
 71
     3
 72
     8
 73
     4
 74
     0
 42
0.000000001
 43
0.00000001
 40
0.0
 40
0.0
 40
0.0
 40
0.0
 40
1.0
 40
1.0
 40
1.0
 40
1.0
 10
160.4290626795659
 20
168.9000910447762
 30
0.0
 10
160.5180713749543
 20
168.6148352871463
 30
0.0
 10
160.5586641791045
 20
168.3224173372644
 30
0.0
 10
160.5586641791045
 20
168.0239944691637
 30
0.0
  0
LINE
  5
1C8
330
1F
100
AcDbEntity
  8
0
  6
Continuous
 62
     7
370
    25
100
AcDbLine
 10
160.0586643467
 20
168.0239944162
 30
0.0
 11
160.558663963
 21
168.0239944162
 31
0.0
  0
SPLINE
  5
1C9
330
1F
100
AcDbEntity
  8
0
  6
Continuous
 62
     7
370
    25
100
AcDbSpline
210
0.0
220
0.0
230
1.0
 70
     8
 71
     3
 72
     8
 73
     4
 74
     0
 42
0.000000001
 43
0.00000001
 40
0.0
 40
0.0
 40
0.0
 40
0.0
 40
1.0
 40
1.0
 40
1.0
 40
1.0
 10
174.5586641791045
 20
168.0239944691637
 30
0.0
 10
174.5586641791045
 20
168.3224173372644
 30
0.0
 10
174.5992569832546
 20
168.6148352871463
 30
0.0
 10
174.688265678643
 20
168.9000910447762
 30
0.0
  0
LWPOLYLINE
  5
1CA
330
1F
100
AcDbEntity
  8
0
  6
Continuous
 62
     7
370
    25
100
AcDbPolyline
 90
        9
 70
   128
 43
0.0
 10
174.6882658477
 20
168.9000914248
 10
174.7695349182
 20
168.8747324424
 10
174.8484305131
 20
168.8501147928
 10
174.9226485404
 20
168.8269565256
 10
174.9900218124
 20
168.8059337811
 10
175.0485829103
 20
168.7876612322
 10
175.0966209943
 20
168.7726715954
 10
175.1327330271
 20
168.7614035236
 10
175.1558652173
 20
168.7541857736
  0
LINE
  5
1CB
330
1F
100
AcDbEntity
  8
0
  6
Continuous
 62
     7
370
    25
100
AcDbLine
 10
174.5586643952
 20
168.0239944162
 30
0.0
 11
175.0586640115
 21
168.0239944162
 31
0.0
  0
SPLINE
  5
1CC
330
1F
100
AcDbEntity
  8
0
  6
Continuous
 62
     7
370
    25
100
AcDbSpline
210
0.0
220
0.0
230
1.0
 70
     8
 71
     3
 72
     8
 73
     4
 74
     0
 42
0.000000001
 43
0.00000001
 40
0.0
 40
0.0
 40
0.0
 40
0.0
 40
1.0
 40
1.0
 40
1.0
 40
1.0
 10
160.5586641791045
 20
153.7761876203886
 30
0.0
 10
160.5586641791045
 20
153.4777647522879
 30
0.0
 10
160.5180713749543
 20
153.1853468024059
 30
0.0
 10
160.4290626795659
 20
152.9000910447762
 30
0.0
  0
LWPOLYLINE
  5
1CD
330
1F
100
AcDbEntity
  8
0
  6
Continuous
 62
     7
370
    25
100
AcDbPolyline
 90
        9
 70
   128
 43
0.0
 10
160.4290625105
 20
152.9000906648
 10
160.34779344
 20
152.9254496472
 10
160.2688978451
 20
152.9500672968
 10
160.1946798178
 20
152.9732255639
 10
160.1273065458
 20
152.9942483084
 10
160.068745448
 20
153.0125208573
 10
160.0207073639
 20
153.0275104942
 10
159.9845953311
 20
153.038778566
 10
159.961463141
 20
153.0459963159
  0
LINE
  5
1CE
330
1F
100
AcDbEntity
  8
0
  6
Continuous
 62
     7
370
    25
100
AcDbLine
 10
160.0586643467
 20
153.7761876734
 30
0.0
 11
160.558663963
 21
153.7761876734
 31
0.0
  0
LWPOLYLINE
  5
1CF
330
1F
100
AcDbEntity
  8
0
  6
Continuous
 62
     7
370
    25
100
AcDbPolyline
 90
        9
 70
   128
 43
0.0
 10
175.1558652173
 20
153.0459963159
 10
175.1327330271
 20
153.038778566
 10
175.0966209943
 20
153.0275104942
 10
175.0485829103
 20
153.0125208573
 10
174.9900218124
 20
152.9942483084
 10
174.9226485404
 20
152.9732255639
 10
174.8484305131
 20
152.9500672968
 10
174.7695349182
 20
152.9254496472
 10
174.6882658477
 20
152.9000906648
  0
SPLINE
  5
1D0
330
1F
100
AcDbEntity
  8
0
  6
Continuous
 62
     7
370
    25
100
AcDbSpline
210
0.0
220
0.0
230
1.0
 70
     8
 71
     3
 72
     8
 73
     4
 74
     0
 42
0.000000001
 43
0.00000001
 40
0.0
 40
0.0
 40
0.0
 40
0.0
 40
1.0
 40
1.0
 40
1.0
 40
1.0
 10
174.688265678643
 20
152.9000910447762
 30
0.0
 10
174.5992569832546
 20
153.1853468024059
 30
0.0
 10
174.5586641791045
 20
153.4777647522879
 30
0.0
 10
174.5586641791045
 20
153.7761876203886
 30
0.0
  0
LINE
  5
1D1
330
1F
100
AcDbEntity
  8
0
  6
Continuous
 62
     7
370
    25
100
AcDbLine
 10
175.0586640115
 20
153.7761876734
 30
0.0
 11
174.5586643952
 21
153.7761876734
 31
0.0
  0
LINE
  5
1D2
330
1F
100
AcDbEntity
  8
0
  6
Continuous
 62
     7
370
    25
100
AcDbLine
 10
174.5586643952
 20
167.6282219032
 30
0.0
 11
174.5586643952
 21
168.0239944162
 31
0.0
  0
LINE
  5
1D3
330
1F
100
AcDbEntity
  8
0
  6
Continuous
 62
     7
370
    25
100
AcDbLine
 10
160.558663963
 20
167.6282219032
 30
0.0
 11
160.558663963
 21
168.0239944162
 31
0.0
  0
LINE
  5
1D4
330
1F
100
AcDbEntity
  8
0
  6
Continuous
 62
     7
370
    25
100
AcDbLine
 10
160.558663963
 20
153.7761876734
 30
0.0
 11
160.558663963
 21
154.1719601864
 31
0.0
  0
LINE
  5
1D5
330
1F
100
AcDbEntity
  8
0
  6
Continuous
 62
     7
370
    25
100
AcDbLine
 10
174.5586643952
 20
153.7761876734
 30
0.0
 11
174.5586643952
 21
154.1719601864
 31
0.0
  0
ARC
  5
1D6
330
1F
100
AcDbEntity
  8
0
  6
Continuous
 62
     7
370
    25
100
AcDbCircle
 10
160.2570443123
 20
169.8793982227
 30
0.0
 40
0.4793220025378182
100
AcDbArc
 50
206.8978733264
 51
269.5424057934
  0
SPLINE
  5
1D7
330
1F
100
AcDbEntity
  8
0
  6
Continuous
 62
     7
370
    25
100
AcDbSpline
210
0.0
220
0.0
230
1.0
 70
     8
 71
     3
 72
    14
 73
    10
 74
     0
 42
0.000000001
 43
0.00000001
 40
0.0
 40
0.0
 40
0.0
 40
0.0
 40
0.25
 40
0.25
 40
0.5
 40
0.5
 40
0.75
 40
0.75
 40
1.0
 40
1.0
 40
1.0
 40
1.0
 10
160.4290626795659
 20
168.9000910447762
 30
0.0
 10
160.3905871959443
 20
168.9617443090036
 30
0.0
 10
160.3494982744743
 20
169.0199282542766
 30
0.0
 10
160.2702154270337
 20
169.1335935757435
 30
0.0
 10
160.2329325259232
 20
169.1872701744433
 30
0.0
 10
160.1801267666115
 20
169.2872602068899
 30
0.0
 10
160.1681575065178
 20
169.3316647071129
 30
0.0
 10
160.18815929489
 20
169.3877245626067
 30
0.0
 10
160.2176157504423
 20
169.4000910447762
 30
0.0
 10
160.2532160896351
 20
169.4000910447762
 30
0.0
  0
ARC
  5
1D8
330
1F
100
AcDbEntity
  8
0
  6
Continuous
 62
     7
370
    25
100
AcDbCircle
 10
174.8602840459
 20
151.9207838669
 30
0.0
 40
0.4793220025378495
100
AcDbArc
 50
26.8978733264
 51
89.5424057934
  0
SPLINE
  5
1D9
330
1F
100
AcDbEntity
  8
0
  6
Continuous
 62
     7
370
    25
100
AcDbSpline
210
0.0
220
0.0
230
1.0
 70
     8
 71
     3
 72
    14
 73
    10
 74
     0
 42
0.000000001
 43
0.00000001
 40
0.0
 40
0.0
 40
0.0
 40
0.0
 40
0.25
 40
0.25
 40
0.5
 40
0.5
 40
0.75
 40
0.75
 40
1.0
 40
1.0
 40
1.0
 40
1.0
 10
174.688265678643
 20
152.9000910447762
 30
0.0
 10
174.7267411622646
 20
152.8384377805487
 30
0.0
 10
174.7678300837346
 20
152.7802538352758
 30
0.0
 10
174.8471129311752
 20
152.6665885138088
 30
0.0
 10
174.8843958322857
 20
152.6129119151091
 30
0.0
 10
174.9372015915974
 20
152.5129218826624
 30
0.0
 10
174.949170851691
 20
152.4685173824395
 30
0.0
 10
174.9291690633189
 20
152.4124575269456
 30
0.0
 10
174.8997126077666
 20
152.4000910447762
 30
0.0
 10
174.8641122685738
 20
152.4000910447762
 30
0.0
  0
SPLINE
  5
1DA
330
1F
100
AcDbEntity
  8
0
  6
Continuous
 62
     7
370
    25
100
AcDbSpline
210
0.0
220
0.0
230
1.0
 70
     8
 71
     3
 72
    16
 73
    12
 74
     0
 42
0.000000001
 43
0.00000001
 40
0.0
 40
0.0
 40
0.0
 40
0.0
 40
0.2500000000000011
 40
0.2500000000000011
 40
0.3749999999999992
 40
0.3749999999999992
 40
0.4999999999999974
 40
0.4999999999999974
 40
0.7499999999999987
 40
0.7499999999999987
 40
1.0
 40
1.0
 40
1.0
 40
1.0
 10
174.8641122685738
 20
169.4000910447762
 30
0.0
 10
174.8996661980225
 20
169.4000910447762
 30
0.0
 10
174.9289383392512
 20
169.3879592943603
 30
0.0
 10
174.9441508894721
 20
169.3459375880809
 30
0.0
 10
174.9442115576456
 20
169.3277232185744
 30
0.0
 10
174.9340009731683
 20
169.2857862060478
 30
0.0
 10
174.9242176436431
 20
169.2627586425536
 30
0.0
 10
174.8850530951111
 20
169.1883499637815
 30
0.0
 10
174.8471800218378
 20
169.133692087599
 30
0.0
 10
174.7681070488462
 20
169.0203230144203
 30
0.0
 10
174.7267199162554
 20
168.9617102643161
 30
0.0
 10
174.688265678643
 20
168.9000910447762
 30
0.0
  0
ARC
  5
1DB
330
1F
100
AcDbEntity
  8
0
  6
Continuous
 62
     7
370
    25
100
AcDbCircle
 10
174.8602840459
 20
169.8793982227
 30
0.0
 40
0.4793220025378054
100
AcDbArc
 50
270.4575942066
 51
333.1021266736
  0
SPLINE
  5
1DC
330
1F
100
AcDbEntity
  8
0
  6
Continuous
 62
     7
370
    25
100
AcDbSpline
210
0.0
220
0.0
230
1.0
 70
     8
 71
     3
 72
    16
 73
    12
 74
     0
 42
0.000000001
 43
0.00000001
 40
0.0
 40
0.0
 40
0.0
 40
0.0
 40
0.2500000000000049
 40
0.2500000000000049
 40
0.3750000000000051
 40
0.3750000000000051
 40
0.5000000000000052
 40
0.5000000000000052
 40
0.7500000000000026
 40
0.7500000000000026
 40
1.0
 40
1.0
 40
1.0
 40
1.0
 10
160.2532160896351
 20
152.4000910447761
 30
0.0
 10
160.2176621601864
 20
152.4000910447761
 30
0.0
 10
160.1883900189577
 20
152.412222795192
 30
0.0
 10
160.1731774687369
 20
152.4542445014714
 30
0.0
 10
160.1731168005633
 20
152.4724588709779
 30
0.0
 10
160.1833273850406
 20
152.5143958835045
 30
0.0
 10
160.1931107145658
 20
152.5374234469988
 30
0.0
 10
160.2322752630978
 20
152.6118321257708
 30
0.0
 10
160.2701483363711
 20
152.6664900019533
 30
0.0
 10
160.3492213093627
 20
152.779859075132
 30
0.0
 10
160.3906084419535
 20
152.8384718252362
 30
0.0
 10
160.4290626795659
 20
152.9000910447761
 30
0.0
  0
ARC
  5
1DD
330
1F
100
AcDbEntity
  8
0
  6
Continuous
 62
     7
370
    25
100
AcDbCircle
 10
160.2570443123
 20
151.9207838669
 30
0.0
 40
0.4793220025378311
100
AcDbArc
 50
90.4575942066
 51
153.1021266736
  0
LINE
  5
1DE
330
1F
100
AcDbEntity
  8
0
  6
Continuous
 62
     7
370
    25
100
AcDbLine
 10
186.2037160459
 20
165.6823705325
 30
0.0
 11
186.2037160459
 21
156.1178115571
 31
0.0
  0
LINE
  5
1DF
330
1F
100
AcDbEntity
  8
0
  6
Continuous
 62
     7
370
    25
100
AcDbLine
 10
174.6882658477
 20
168.9000914248
 30
0.0
 11
160.4290625105
 21
168.9000914248
 31
0.0
  0
LINE
  5
1E0
330
1F
100
AcDbEntity
  8
0
  6
Continuous
 62
     7
370
    25
100
AcDbLine
 10
160.2532162356
 20
169.4000915067
 30
0.0
 11
174.8641121226
 21
169.4000915067
 31
0.0
  0
LINE
  5
1E1
330
1F
100
AcDbEntity
  8
0
  6
Continuous
 62
     7
370
    25
100
AcDbLine
 10
160.4290625105
 20
152.9000906648
 30
0.0
 11
174.6882658477
 21
152.9000906648
 31
0.0
  0
LINE
  5
1E2
330
1F
100
AcDbEntity
  8
0
  6
Continuous
 62
     7
370
    25
100
AcDbLine
 10
174.8641121226
 20
152.4000905828
 30
0.0
 11
160.2532162356
 21
152.4000905828
 31
0.0
  0
LINE
  5
1E3
330
1F
100
AcDbEntity
  8
0
  6
Continuous
 62
     7
370
    25
100
AcDbLine
 10
187.5586637321
 20
164.9000912348
 30
0.0
 11
187.5586637321
 21
156.9000908548
 31
0.0
  0
ARC
  5
1E4
330
1F
100
AcDbEntity
  8
0
  6
Continuous
 62
     7
370
    25
100
AcDbCircle
 10
160.5586641791
 20
169.9000910448
 30
0.0
 40
0.5
100
AcDbArc
 50
180.0
 51
270.0
  0
ARC
  5
1E5
330
1F
100
AcDbEntity
  8
0
  6
Continuous
 62
     7
370
    25
100
AcDbCircle
 10
174.5586641791
 20
169.9000910448
 30
0.0
 40
0.5
100
AcDbArc
 50
270.0
 51
0.0
  0
ARC
  5
1E6
330
1F
100
AcDbEntity
  8
0
  6
Continuous
 62
     7
370
    25
100
AcDbCircle
 10
174.5586641791
 20
151.9000910448
 30
0.0
 40
0.5
100
AcDbArc
 50
0.0
 51
90.0
  0
ARC
  5
1E7
330
1F
100
AcDbEntity
  8
0
  6
Continuous
 62
     7
370
    25
100
AcDbCircle
 10
160.5586641791
 20
151.9000910448
 30
0.0
 40
0.5
100
AcDbArc
 50
90.0
 51
180.0
  0
LINE
  5
1E8
330
1F
100
AcDbEntity
  8
0
  6
Continuous
 62
     1
370
    25
100
AcDbLine
 10
137.9606069091
 20
157.4000909367
 30
0.0
 11
137.9606069091
 21
153.8197027894
 31
0.0
  0
LINE
  5
1E9
330
1F
100
AcDbEntity
  8
0
  6
Continuous
 62
     1
370
    25
100
AcDbLine
 10
137.9606069091
 20
167.9804793002
 30
0.0
 11
137.9606069091
 21
164.4000911528
 31
0.0
  0
LINE
  5
1EA
330
1F
100
AcDbEntity
  8
0
  6
Continuous
 62
     1
370
    25
100
AcDbLine
 10
160.558663963
 20
167.6282219032
 30
0.0
 11
160.558663963
 21
166.1964033173
 31
0.0
  0
LINE
  5
1EB
330
1F
100
AcDbEntity
  8
0
  6
Continuous
 62
     1
370
    25
100
AcDbLine
 10
160.558663963
 20
155.6037787722
 30
0.0
 11
160.558663963
 21
154.1719601864
 31
0.0
  0
LINE
  5
1EC
330
1F
100
AcDbEntity
  8
0
  6
Continuous
 62
     1
370
    25
100
AcDbLine
 10
174.5586643952
 20
154.1719601864
 30
0.0
 11
174.5586643952
 21
158.3500909528
 31
0.0
  0
LINE
  5
1ED
330
1F
100
AcDbEntity
  8
0
  6
Continuous
 62
     1
370
    25
100
AcDbLine
 10
174.5586643952
 20
163.4500911368
 30
0.0
 11
174.5586643952
 21
167.6282219032
 31
0.0
  0
LINE
  5
1EE
330
1F
100
AcDbEntity
  8
0
  6
Continuous
 62
     1
370
    25
100
AcDbLine
 10
174.5586643952
 20
167.6282219032
 30
0.0
 11
170.7578443016
 21
167.6282219032
 31
0.0
  0
LINE
  5
1EF
330
1F
100
AcDbEntity
  8
0
  6
Continuous
 62
     1
370
    25
100
AcDbLine
 10
164.3594840566
 20
167.6282219032
 30
0.0
 11
160.558663963
 21
167.6282219032
 31
0.0
  0
LINE
  5
1F0
330
1F
100
AcDbEntity
  8
0
  6
Continuous
 62
     1
370
    25
100
AcDbLine
 10
160.558663963
 20
154.1719601864
 30
0.0
 11
164.3594840566
 21
154.1719601864
 31
0.0
  0
LINE
  5
1F1
330
1F
100
AcDbEntity
  8
0
  6
Continuous
 62
     1
370
    25
100
AcDbLine
 10
170.7578443016
 20
154.1719601864
 30
0.0
 11
174.5586643952
 21
154.1719601864
 31
0.0
  0
LINE
  5
1F2
330
1F
100
AcDbEntity
  8
0
  6
Continuous
 62
     1
370
    25
100
AcDbLine
 10
160.558663963
 20
168.0239944162
 30
0.0
 11
165.3786412931
 21
168.0239944162
 31
0.0
  0
LINE
  5
1F3
330
1F
100
AcDbEntity
  8
0
  6
Continuous
 62
     1
370
    25
100
AcDbLine
 10
169.7386870651
 20
168.0239944162
 30
0.0
 11
174.5586643952
 21
168.0239944162
 31
0.0
  0
LINE
  5
1F4
330
1F
100
AcDbEntity
  8
0
  6
Continuous
 62
     1
370
    25
100
AcDbLine
 10
174.5586643952
 20
153.7761876734
 30
0.0
 11
169.7386870651
 21
153.7761876734
 31
0.0
  0
LINE
  5
1F5
330
1F
100
AcDbEntity
  8
0
  6
Continuous
 62
     1
370
    25
100
AcDbLine
 10
165.3786412931
 20
153.7761876734
 30
0.0
 11
160.558663963
 21
153.7761876734
 31
0.0
  0
MTEXT
  5
1F7
330
1F
100
AcDbEntity
  8
0
  6
Continuous
 62
     7
370
     0
100
AcDbMText
 10
179.251780597
 20
142.8085365886
 30
0.0
 40
3.5
 41
0.0
 71
     1
 72
     1
  1
BH-1116N
  7
SLDTEXTSTYLE0
 73
     1
 44
1.0
  0
ARC
  5
1F8
330
1F
100
AcDbEntity
  8
0
  6
Continuous
 62
     7
370
    25
100
AcDbCircle
 10
224.929861194
 20
129.4475537313
 30
0.0
 40
0.25
100
AcDbArc
 50
0.0
 51
90.0
  0
ARC
  5
1F9
330
1F
100
AcDbEntity
  8
0
  6
Continuous
 62
     7
370
    25
100
AcDbCircle
 10
214.429861194
 20
129.4475537313
 30
0.0
 40
0.25
100
AcDbArc
 50
90.0
 51
180.0
  0
LINE
  5
1FA
330
1F
100
AcDbEntity
  8
0
  6
Continuous
 62
     7
370
    25
100
AcDbLine
 10
225.1798611642
 20
128.8475534184
 30
0.0
 11
225.1798611642
 21
129.4475542618
 31
0.0
  0
LINE
  5
1FB
330
1F
100
AcDbEntity
  8
0
  6
Continuous
 62
     7
370
    25
100
AcDbLine
 10
214.1798612238
 20
129.4475542618
 30
0.0
 11
214.1798612238
 21
128.8475534184
 31
0.0
  0
LINE
  5
1FC
330
1F
100
AcDbEntity
  8
0
  6
Continuous
 62
     7
370
    25
100
AcDbLine
 10
227.1298611113
 20
120.8475539698
 30
0.0
 11
225.1798611642
 21
128.8475534184
 31
0.0
  0
LINE
  5
1FD
330
1F
100
AcDbEntity
  8
0
  6
Continuous
 62
     7
370
    25
100
AcDbLine
 10
214.1798612238
 20
128.8475534184
 30
0.0
 11
212.2298612767
 21
120.8475539698
 31
0.0
  0
LINE
  5
1FE
330
1F
100
AcDbEntity
  8
0
  6
Continuous
 62
     7
370
    25
100
AcDbLine
 10
212.2298612767
 20
120.8475539698
 30
0.0
 11
212.679860978
 21
112.8475535898
 31
0.0
  0
LINE
  5
1FF
330
1F
100
AcDbEntity
  8
0
  6
Continuous
 62
     7
370
    25
100
AcDbLine
 10
226.6798614101
 20
112.8475535898
 30
0.0
 11
227.1298611113
 21
120.8475539698
 31
0.0
  0
LINE
  5
200
330
1F
100
AcDbEntity
  8
0
  6
Continuous
 62
     7
370
    25
100
AcDbLine
 10
225.5798614161
 20
110.4215858741
 30
0.0
 11
225.5798614161
 21
112.8475535898
 31
0.0
  0
LINE
  5
201
330
1F
100
AcDbEntity
  8
0
  6
Continuous
 62
     7
370
    25
100
AcDbLine
 10
213.779860972
 20
112.8475535898
 30
0.0
 11
213.779860972
 21
111.3456478579
 31
0.0
  0
ARC
  5
202
330
1F
100
AcDbEntity
  8
0
  6
Continuous
 62
     7
370
    25
100
AcDbCircle
 10
213.979861194
 20
110.8892961617
 30
0.0
 40
0.4999999999999851
100
AcDbArc
 50
113.64497808
 51
180.007858636
  0
LINE
  5
203
330
1F
100
AcDbEntity
  8
0
  6
Continuous
 62
     7
370
    25
100
AcDbLine
 10
220.9298611661
 20
128.8475534184
 30
0.0
 11
220.9298611661
 21
129.4475542618
 31
0.0
  0
LINE
  5
204
330
1F
100
AcDbEntity
  8
0
  6
Continuous
 62
     7
370
    25
100
AcDbLine
 10
220.9298611661
 20
129.4475542618
 30
0.0
 11
221.1798612071
 21
129.4475542618
 31
0.0
  0
LINE
  5
205
330
1F
100
AcDbEntity
  8
0
  6
Continuous
 62
     7
370
    25
100
AcDbLine
 10
221.1798612071
 20
129.4475542618
 30
0.0
 11
221.1798612071
 21
128.8475534184
 31
0.0
  0
LINE
  5
206
330
1F
100
AcDbEntity
  8
0
  6
Continuous
 62
     7
370
    25
100
AcDbLine
 10
221.1798612071
 20
128.8475534184
 30
0.0
 11
220.9298611661
 21
128.8475534184
 31
0.0
  0
LINE
  5
207
330
1F
100
AcDbEntity
  8
0
  6
Continuous
 62
     7
370
    25
100
AcDbLine
 10
220.9298611661
 20
129.4475542618
 30
0.0
 11
220.9298611661
 21
129.6975529058
 31
0.0
  0
ARC
  5
208
330
1F
100
AcDbEntity
  8
0
  6
Continuous
 62
     7
370
    25
100
AcDbCircle
 10
220.929861194
 20
129.4475537313
 30
0.0
 40
0.25
100
AcDbArc
 50
0.0
 51
90.0
  0
LINE
  5
209
330
1F
100
AcDbEntity
  8
0
  6
Continuous
 62
     7
370
    25
100
AcDbLine
 10
218.429861222
 20
129.4475542618
 30
0.0
 11
218.429861222
 21
128.8475534184
 31
0.0
  0
LINE
  5
20A
330
1F
100
AcDbEntity
  8
0
  6
Continuous
 62
     7
370
    25
100
AcDbLine
 10
220.9298611661
 20
129.4475542618
 30
0.0
 11
218.429861222
 21
129.4475542618
 31
0.0
  0
LINE
  5
20B
330
1F
100
AcDbEntity
  8
0
  6
Continuous
 62
     7
370
    25
100
AcDbLine
 10
218.429861222
 20
128.8475534184
 30
0.0
 11
220.9298611661
 21
128.8475534184
 31
0.0
  0
LINE
  5
20C
330
1F
100
AcDbEntity
  8
0
  6
Continuous
 62
     7
370
    25
100
AcDbLine
 10
218.429861222
 20
129.6975529058
 30
0.0
 11
218.429861222
 21
129.4475542618
 31
0.0
  0
LINE
  5
20D
330
1F
100
AcDbEntity
  8
0
  6
Continuous
 62
     7
370
    25
100
AcDbLine
 10
218.429861222
 20
129.6975529058
 30
0.0
 11
220.9298611661
 21
129.6975529058
 31
0.0
  0
LINE
  5
20E
330
1F
100
AcDbEntity
  8
0
  6
Continuous
 62
     7
370
    25
100
AcDbLine
 10
218.179861181
 20
129.4475542618
 30
0.0
 11
218.429861222
 21
129.4475542618
 31
0.0
  0
ARC
  5
20F
330
1F
100
AcDbEntity
  8
0
  6
Continuous
 62
     7
370
    25
100
AcDbCircle
 10
218.429861194
 20
129.4475537313
 30
0.0
 40
0.25
100
AcDbArc
 50
90.0
 51
180.0
  0
LINE
  5
210
330
1F
100
AcDbEntity
  8
0
  6
Continuous
 62
     7
370
    25
100
AcDbLine
 10
218.179861181
 20
128.8475534184
 30
0.0
 11
218.179861181
 21
129.4475542618
 31
0.0
  0
LINE
  5
211
330
1F
100
AcDbEntity
  8
0
  6
Continuous
 62
     7
370
    25
100
AcDbLine
 10
218.429861222
 20
128.8475534184
 30
0.0
 11
218.179861181
 21
128.8475534184
 31
0.0
  0
SPLINE
  5
212
330
1F
100
AcDbEntity
  8
0
  6
Continuous
 62
     7
370
    25
100
AcDbSpline
210
0.0
220
0.0
230
1.0
 70
     8
 71
     3
 72
    15
 73
    11
 74
     0
 42
0.000000001
 43
0.00000001
 40
0.0
 40
0.0
 40
0.0
 40
0.0
 40
0.0090436668555053
 40
0.1032416108587011
 40
0.1542555096908477
 40
0.3133160372726557
 40
0.5243720667937798
 40
0.6678058153000223
 40
0.9918331445062708
 40
0.9999999999999999
 40
0.9999999999999999
 40
0.9999999999999999
 40
0.9999999999999999
 10
218.0059480988834
 20
129.4475542618246
 30
0.0
 10
218.0059657646701
 20
129.4492349423296
 30
0.0
 10
218.0061674355532
 20
129.4684214255828
 30
0.0
 10
218.0123569531154
 20
129.4971154097167
 30
0.0
 10
218.0365584475575
 20
129.5477921184552
 30
0.0
 10
218.0895781212957
 20
129.6056676853335
 30
0.0
 10
218.1709482201285
 20
129.6505357810153
 30
0.0
 10
218.2855278492812
 20
129.6878936209562
 30
0.0
 10
218.3699531888855
 20
129.6974528895271
 30
0.0
 10
218.4284237476662
 20
129.6975505059597
 30
0.0
 10
218.4298612219695
 20
129.697552905819
 30
0.0
  0
LINE
  5
213
330
1F
100
AcDbEntity
  8
0
  6
Continuous
 62
     7
370
    25
100
AcDbLine
 10
218.0059480989
 20
129.4475542618
 30
0.0
 11
218.179861181
 21
129.4475542618
 31
0.0
  0
LINE
  5
214
330
1F
100
AcDbEntity
  8
0
  6
Continuous
 62
     7
370
    25
100
AcDbLine
 10
221.1798612071
 20
129.4475542618
 30
0.0
 11
221.3537742892
 21
129.4475542618
 31
0.0
  0
SPLINE
  5
215
330
1F
100
AcDbEntity
  8
0
  6
Continuous
 62
     7
370
    25
100
AcDbSpline
210
0.0
220
0.0
230
1.0
 70
     8
 71
     3
 72
    15
 73
    11
 74
     0
 42
0.000000001
 43
0.00000001
 40
0.0
 40
0.0
 40
0.0
 40
0.0
 40
0.0081668554937291
 40
0.3321941846999776
 40
0.4756279332062201
 40
0.6866839627273442
 40
0.8457444903091523
 40
0.8967583891412989
 40
0.9909563331444947
 40
1.0
 40
1.0
 40
1.0
 40
1.0
 10
220.9298611660901
 20
129.697552905819
 30
0.0
 10
220.9312986403934
 20
129.6975505059597
 30
0.0
 10
220.9897691991741
 20
129.6974528895271
 30
0.0
 10
221.0741945387784
 20
129.6878936209562
 30
0.0
 10
221.1887741679311
 20
129.6505357810153
 30
0.0
 10
221.2701442667639
 20
129.6056676853335
 30
0.0
 10
221.323163940502
 20
129.5477921184552
 30
0.0
 10
221.3473654349441
 20
129.4971154097167
 30
0.0
 10
221.3535549525064
 20
129.4684214255828
 30
0.0
 10
221.3537566233895
 20
129.4492349423296
 30
0.0
 10
221.3537742891762
 20
129.4475542618246
 30
0.0
  0
LINE
  5
216
330
1F
100
AcDbEntity
  8
0
  6
Continuous
 62
     7
370
    25
100
AcDbLine
 10
221.3537742892
 20
129.4475542618
 30
0.0
 11
221.3537742892
 21
128.8475534184
 31
0.0
  0
LINE
  5
217
330
1F
100
AcDbEntity
  8
0
  6
Continuous
 62
     7
370
    25
100
AcDbLine
 10
221.3537742892
 20
128.8475534184
 30
0.0
 11
221.1798612071
 21
128.8475534184
 31
0.0
  0
LINE
  5
218
330
1F
100
AcDbEntity
  8
0
  6
Continuous
 62
     7
370
    25
100
AcDbLine
 10
218.0059480989
 20
128.8475534184
 30
0.0
 11
218.0059480989
 21
129.4475542618
 31
0.0
  0
LINE
  5
219
330
1F
100
AcDbEntity
  8
0
  6
Continuous
 62
     7
370
    25
100
AcDbLine
 10
218.179861181
 20
128.8475534184
 30
0.0
 11
218.0059480989
 21
128.8475534184
 31
0.0
  0
LINE
  5
21A
330
1F
100
AcDbEntity
  8
0
  6
Continuous
 62
     7
370
    25
100
AcDbLine
 10
220.9298611661
 20
129.6975529058
 30
0.0
 11
224.9298611232
 21
129.6975529058
 31
0.0
  0
LINE
  5
21B
330
1F
100
AcDbEntity
  8
0
  6
Continuous
 62
     7
370
    25
100
AcDbLine
 10
214.4298612648
 20
129.6975529058
 30
0.0
 11
218.429861222
 21
129.6975529058
 31
0.0
  0
LINE
  5
21C
330
1F
100
AcDbEntity
  8
0
  6
Continuous
 62
     7
370
    25
100
AcDbLine
 10
221.3537742892
 20
128.8475534184
 30
0.0
 11
225.1798611642
 21
128.8475534184
 31
0.0
  0
LINE
  5
21D
330
1F
100
AcDbEntity
  8
0
  6
Continuous
 62
     7
370
    25
100
AcDbLine
 10
214.1798612238
 20
128.8475534184
 30
0.0
 11
218.0059480989
 21
128.8475534184
 31
0.0
  0
LINE
  5
21E
330
1F
100
AcDbEntity
  8
0
  6
Continuous
 62
     7
370
    25
100
AcDbLine
 10
219.0798611655
 20
129.7075534476
 30
0.0
 11
220.2798612225
 21
129.7075534476
 31
0.0
  0
LINE
  5
21F
330
1F
100
AcDbEntity
  8
0
  6
Continuous
 62
     7
370
    25
100
AcDbLine
 10
220.2798612225
 20
129.6975529058
 30
0.0
 11
220.2798612225
 21
129.7075534476
 31
0.0
  0
LINE
  5
220
330
1F
100
AcDbEntity
  8
0
  6
Continuous
 62
     7
370
    25
100
AcDbLine
 10
219.0798611655
 20
129.6975529058
 30
0.0
 11
219.0798611655
 21
129.7075534476
 31
0.0
  0
LINE
  5
221
330
1F
100
AcDbEntity
  8
0
  6
Continuous
 62
     7
370
    25
100
AcDbLine
 10
212.2298612767
 20
120.8475539698
 30
0.0
 11
227.1298611113
 21
120.8475539698
 31
0.0
  0
LINE
  5
222
330
1F
100
AcDbEntity
  8
0
  6
Continuous
 62
     7
370
    25
100
AcDbLine
 10
212.679860978
 20
112.8475535898
 30
0.0
 11
226.6798614101
 21
112.8475535898
 31
0.0
  0
LINE
  5
223
330
1F
100
AcDbEntity
  8
0
  6
Continuous
 62
     7
370
    25
100
AcDbLine
 10
222.9515603786
 20
130.8475537462
 30
0.0
 11
222.9515603786
 21
129.6975529058
 31
0.0
  0
LINE
  5
224
330
1F
100
AcDbEntity
  8
0
  6
Continuous
 62
     7
370
    25
100
AcDbLine
 10
222.9515603786
 20
130.8475537462
 30
0.0
 11
223.1798613021
 21
130.8475537462
 31
0.0
  0
LINE
  5
225
330
1F
100
AcDbEntity
  8
0
  6
Continuous
 62
     7
370
    25
100
AcDbLine
 10
223.1798613021
 20
129.6975529058
 30
0.0
 11
223.1798613021
 21
130.8475537462
 31
0.0
  0
LINE
  5
226
330
1F
100
AcDbEntity
  8
0
  6
Continuous
 62
     7
370
    25
100
AcDbLine
 10
216.179861086
 20
130.8475537462
 30
0.0
 11
216.179861086
 21
129.6975529058
 31
0.0
  0
LINE
  5
227
330
1F
100
AcDbEntity
  8
0
  6
Continuous
 62
     7
370
    25
100
AcDbLine
 10
216.179861086
 20
130.8475537462
 30
0.0
 11
216.4081620095
 21
130.8475537462
 31
0.0
  0
LINE
  5
228
330
1F
100
AcDbEntity
  8
0
  6
Continuous
 62
     7
370
    25
100
AcDbLine
 10
216.4081620095
 20
130.8475537462
 30
0.0
 11
216.4081620095
 21
129.6975529058
 31
0.0
  0
LINE
  5
229
330
1F
100
AcDbEntity
  8
0
  6
Continuous
 62
     7
370
    25
100
AcDbLine
 10
216.4081620095
 20
130.8475537462
 30
0.0
 11
222.9515603786
 21
130.8475537462
 31
0.0
  0
CIRCLE
  5
22A
330
1F
100
AcDbEntity
  8
0
  6
Continuous
 62
     7
370
    25
100
AcDbCircle
 10
219.679861194
 20
102.3475537313
 30
0.0
 40
4.782279626857616
  0
CIRCLE
  5
22B
330
1F
100
AcDbEntity
  8
0
  6
Continuous
 62
     7
370
    25
100
AcDbCircle
 10
219.679861194
 20
102.3475537313
 30
0.0
 40
4.0
  0
CIRCLE
  5
22C
330
1F
100
AcDbEntity
  8
0
  6
Continuous
 62
     7
370
    25
100
AcDbCircle
 10
219.679861194
 20
102.3475537313
 30
0.0
 40
3.200000000000017
  0
CIRCLE
  5
22D
330
1F
100
AcDbEntity
  8
0
  6
Continuous
 62
     7
370
    25
100
AcDbCircle
 10
219.679861194
 20
102.3475537313
 30
0.0
 40
3.0
  0
CIRCLE
  5
22E
330
1F
100
AcDbEntity
  8
0
  6
Continuous
 62
     7
370
    25
100
AcDbCircle
 10
219.679861194
 20
102.3475537313
 30
0.0
 40
5.052437499999996
  0
CIRCLE
  5
22F
330
1F
100
AcDbEntity
  8
0
  6
Continuous
 62
     7
370
    25
100
AcDbCircle
 10
219.679861194
 20
102.3475537313
 30
0.0
 40
9.999999999999972
  0
CIRCLE
  5
230
330
1F
100
AcDbEntity
  8
0
  6
Continuous
 62
     7
370
    25
100
AcDbCircle
 10
219.679861194
 20
102.3475537313
 30
0.0
 40
9.499999999999972
  0
SPLINE
  5
231
330
1F
100
AcDbEntity
  8
0
  6
Continuous
 62
     7
370
    25
100
AcDbSpline
210
0.0
220
0.0
230
1.0
 70
     8
 71
     3
 72
    13
 73
     9
 74
     0
 42
0.000000001
 43
0.00000001
 40
0.0
 40
0.0
 40
0.0
 40
0.0
 40
0.0709001864317471
 40
0.2985329260907166
 40
0.5283502676383272
 40
0.7606230766575048
 40
0.9918194481407943
 40
1.0
 40
1.0
 40
1.0
 40
1.0
 10
213.8621293516312
 20
110.4585472731204
 30
0.0
 10
213.8620447708933
 20
110.4930762147994
 30
0.0
 10
213.8616886345214
 20
110.6384640693735
 30
0.0
 10
213.8425882686288
 20
110.8781386990446
 30
0.0
 10
213.8132607924905
 20
111.1376095470288
 30
0.0
 10
213.788547359298
 20
111.2967513850733
 30
0.0
 10
213.777009019689
 20
111.3647987727947
 30
0.0
 10
213.780072014485
 20
111.3462807010748
 30
0.0
 10
213.7801766903553
 20
111.3456478579254
 30
0.0
  0
SPLINE
  5
232
330
1F
100
AcDbEntity
  8
0
  6
Continuous
 62
     7
370
    25
100
AcDbSpline
210
0.0
220
0.0
230
1.0
 70
    24
 71
     3
 72
    14
 73
    10
 74
     0
 42
0.000000001
 43
0.00000001
 40
0.0
 40
0.0
 40
0.0
 40
0.0
 40
0.0686783537768138
 40
0.2932170497282056
 40
0.2935200239703272
 40
0.5073355948525435
 40
0.7069536501822122
 40
0.9001970470938867
 40
1.0
 40
1.0
 40
1.0
 40
1.0
 10
213.4798610159609
 20
110.3475541113229
 30
0.0
 10
213.4798610159609
 20
110.3664063073059
 30
0.0
 10
213.4798610159609
 20
110.4468943356734
 30
0.0
 10
213.4798610159611
 20
110.526578904012
 30
0.0
 10
213.4798610159608
 20
110.6357982815279
 30
0.0
 10
213.479861015961
 20
110.7324884105655
 30
0.0
 10
213.4798610159609
 20
110.834073246949
 30
0.0
 10
213.4798610159609
 20
110.8876245587188
 30
0.0
 10
213.4798610159609
 20
110.883417864854
 30
0.0
 10
213.4798610159609
 20
110.8819851888628
 30
0.0
  0
SPLINE
  5
233
330
1F
100
AcDbEntity
  8
0
  6
Continuous
 62
     7
370
    25
100
AcDbSpline
210
0.0
220
0.0
230
1.0
 70
    24
 71
     3
 72
     9
 73
     5
 74
     0
 42
0.000000001
 43
0.00000001
 40
0.0
 40
0.0
 40
0.0
 40
0.0
 40
0.3143285051886555
 40
1.0
 40
1.0
 40
1.0
 40
1.0
 10
213.4798610159609
 20
110.1621315120073
 30
0.0
 10
213.4798610159609
 20
110.1803147823161
 30
0.0
 10
213.4798610159609
 20
110.2381627662205
 30
0.0
 10
213.4798610159609
 20
110.3030575843622
 30
0.0
 10
213.4798610159609
 20
110.3475541113229
 30
0.0
  0
LINE
  5
234
330
1F
100
AcDbEntity
  8
0
  6
Continuous
 62
     1
370
    25
100
AcDbLine
 10
225.1798611642
 20
129.4475542618
 30
0.0
 11
221.3537742892
 21
129.4475542618
 31
0.0
  0
LINE
  5
235
330
1F
100
AcDbEntity
  8
0
  6
Continuous
 62
     1
370
    25
100
AcDbLine
 10
218.0059480989
 20
129.4475542618
 30
0.0
 11
214.1798612238
 21
129.4475542618
 31
0.0
  0
ENDSEC
  0
SECTION
  2
OBJECTS
  0
DICTIONARY
  5
C
330
0
100
AcDbDictionary
281
     1
  3
ACAD_GROUP
350
D
  3
ACAD_LAYOUT
350
1A
  3
ACAD_MLINESTYLE
350
17
  3
ACAD_PLOTSETTINGS
350
19
  3
ACAD_PLOTSTYLENAME
350
E
  3
ACAD_SCALELIST
350
47
  0
DICTIONARY
  5
D
102
{ACAD_REACTORS
330
C
102
}
330
C
100
AcDbDictionary
281
     1
  0
DICTIONARY
  5
1A
102
{ACAD_REACTORS
330
C
102
}
330
C
100
AcDbDictionary
281
     1
  3
Layout1
350
1E
  3
Layout2
350
26
  3
Model
350
22
  0
DICTIONARY
  5
17
102
{ACAD_REACTORS
330
C
102
}
330
C
100
AcDbDictionary
281
     1
  3
Standard
350
18
  0
DICTIONARY
  5
19
102
{ACAD_REACTORS
330
C
102
}
330
C
100
AcDbDictionary
281
     1
  0
ACDBDICTIONARYWDFLT
  5
E
102
{ACAD_REACTORS
330
C
102
}
330
C
100
AcDbDictionary
281
     1
  3
Normal
350
F
100
AcDbDictionaryWithDefault
340
F
  0
DICTIONARY
  5
47
102
{ACAD_REACTORS
330
C
102
}
330
C
100
AcDbDictionary
281
     1
  3
A0
350
48
  3
A1
350
49
  3
A2
350
4A
  3
A3
350
4B
  3
A4
350
4C
  3
A5
350
4D
  3
A6
350
4E
  3
A7
350
4F
  3
A8
350
50
  3
A9
350
51
  3
B0
350
52
  3
B1
350
53
  3
B2
350
54
  3
B3
350
55
  3
B4
350
56
  3
B5
350
57
  3
B6
350
58
  3
B7
350
59
  3
B8
350
5A
  3
B9
350
5B
  3
C0
350
5C
  3
C1
350
5D
  3
C2
350
5E
  3
C3
350
5F
  3
C4
350
60
  3
C5
350
61
  3
C6
350
62
  3
C7
350
63
  3
C8
350
64
  3
C9
350
65
  3
D0
350
66
  3
D1
350
67
  3
D2
350
68
  0
LAYOUT
  5
1E
102
{ACAD_REACTORS
330
1A
102
}
330
1A
100
AcDbPlotSettings
  1

  2
none_device
  4

  6

 40
0.0
 41
0.0
 42
0.0
 43
0.0
 44
0.0
 45
0.0
 46
0.0
 47
0.0
 48
0.0
 49
0.0
140
0.0
141
0.0
142
1.0
143
1.0
 70
   688
 72
     1
 73
     0
 74
     5
  7

 75
    16
147
1.0
148
0.0
149
0.0
100
AcDbLayout
  1
Layout1
 70
     1
 71
     1
 10
0.0
 20
0.0
 11
420.0
 21
297.0
 12
0.0
 22
0.0
 32
0.0
 14
1.0000000000E+20
 24
1.0000000000E+20
 34
1.0000000000E+20
 15
-1.0000000000E+20
 25
-1.0000000000E+20
 35
-1.0000000000E+20
146
0.0
 13
0.0
 23
0.0
 33
0.0
 16
1.0
 26
0.0
 36
0.0
 17
0.0
 27
1.0
 37
0.0
 76
     0
330
1B
  0
LAYOUT
  5
26
102
{ACAD_REACTORS
330
1A
102
}
330
1A
100
AcDbPlotSettings
  1

  2
none_device
  4

  6

 40
0.0
 41
0.0
 42
0.0
 43
0.0
 44
0.0
 45
0.0
 46
0.0
 47
0.0
 48
0.0
 49
0.0
140
0.0
141
0.0
142
1.0
143
1.0
 70
   688
 72
     1
 73
     0
 74
     5
  7

 75
    16
147
1.0
148
0.0
149
0.0
100
AcDbLayout
  1
Layout2
 70
     1
 71
     2
 10
0.0
 20
0.0
 11
0.0
 21
0.0
 12
0.0
 22
0.0
 32
0.0
 14
0.0
 24
0.0
 34
0.0
 15
0.0
 25
0.0
 35
0.0
146
0.0
 13
0.0
 23
0.0
 33
0.0
 16
1.0
 26
0.0
 36
0.0
 17
0.0
 27
1.0
 37
0.0
 76
     0
330
23
  0
LAYOUT
  5
22
102
{ACAD_REACTORS
330
1A
102
}
330
1A
100
AcDbPlotSettings
  1

  2
none_device
  4
Letter_(8.50_x_11.00_Inches)
  6

 40
6.35
 41
6.35
 42
6.35000508
 43
6.35000508
 44
215.9
 45
279.4
 46
0.0
 47
0.0
 48
0.0
 49
0.0
140
0.0
141
0.0
142
1.0
143
1.0
 70
  1712
 72
     1
 73
     0
 74
     0
  7

 75
     0
147
1.0
148
0.0
149
0.0
100
AcDbLayout
  1
Model
 70
     1
 71
     0
 10
0.0
 20
0.0
 11
431.8
 21
279.4
 12
0.0
 22
0.0
 32
0.0
 14
0.0
 24
0.0
 34
0.0
 15
431.8
 25
279.4
 35
0.0
146
0.0
 13
0.0
 23
0.0
 33
0.0
 16
1.0
 26
0.0
 36
0.0
 17
0.0
 27
1.0
 37
0.0
 76
     0
330
1F
331
29
  0
MLINESTYLE
  5
18
102
{ACAD_REACTORS
330
17
102
}
330
17
100
AcDbMlineStyle
  2
Standard
 70
     0
  3

 62
   256
 51
90.0
 52
90.0
 71
     2
 49
0.5
 62
   256
  6
BYLAYER
 49
-0.5
 62
   256
  6
BYLAYER
  0
ACDBPLACEHOLDER
  5
F
102
{ACAD_REACTORS
330
E
102
}
330
E
  0
SCALE
  5
48
102
{ACAD_REACTORS
330
47
102
}
330
47
100
AcDbScale
 70
     0
300
1:1
140
1.0
141
1.0
290
     1
  0
SCALE
  5
49
102
{ACAD_REACTORS
330
47
102
}
330
47
100
AcDbScale
 70
     0
300
1:2
140
1.0
141
2.0
290
     0
  0
SCALE
  5
4A
102
{ACAD_REACTORS
330
47
102
}
330
47
100
AcDbScale
 70
     0
300
1:4
140
1.0
141
4.0
290
     0
  0
SCALE
  5
4B
102
{ACAD_REACTORS
330
47
102
}
330
47
100
AcDbScale
 70
     0
300
1:5
140
1.0
141
5.0
290
     0
  0
SCALE
  5
4C
102
{ACAD_REACTORS
330
47
102
}
330
47
100
AcDbScale
 70
     0
300
1:8
140
1.0
141
8.0
290
     0
  0
SCALE
  5
4D
102
{ACAD_REACTORS
330
47
102
}
330
47
100
AcDbScale
 70
     0
300
1:10
140
1.0
141
10.0
290
     0
  0
SCALE
  5
4E
102
{ACAD_REACTORS
330
47
102
}
330
47
100
AcDbScale
 70
     0
300
1:16
140
1.0
141
16.0
290
     0
  0
SCALE
  5
4F
102
{ACAD_REACTORS
330
47
102
}
330
47
100
AcDbScale
 70
     0
300
1:20
140
1.0
141
20.0
290
     0
  0
SCALE
  5
50
102
{ACAD_REACTORS
330
47
102
}
330
47
100
AcDbScale
 70
     0
300
1:30
140
1.0
141
30.0
290
     0
  0
SCALE
  5
51
102
{ACAD_REACTORS
330
47
102
}
330
47
100
AcDbScale
 70
     0
300
1:40
140
1.0
141
40.0
290
     0
  0
SCALE
  5
52
102
{ACAD_REACTORS
330
47
102
}
330
47
100
AcDbScale
 70
     0
300
1:50
140
1.0
141
50.0
290
     0
  0
SCALE
  5
53
102
{ACAD_REACTORS
330
47
102
}
330
47
100
AcDbScale
 70
     0
300
1:100
140
1.0
141
100.0
290
     0
  0
SCALE
  5
54
102
{ACAD_REACTORS
330
47
102
}
330
47
100
AcDbScale
 70
     0
300
2:1
140
2.0
141
1.0
290
     0
  0
SCALE
  5
55
102
{ACAD_REACTORS
330
47
102
}
330
47
100
AcDbScale
 70
     0
300
4:1
140
4.0
141
1.0
290
     0
  0
SCALE
  5
56
102
{ACAD_REACTORS
330
47
102
}
330
47
100
AcDbScale
 70
     0
300
8:1
140
8.0
141
1.0
290
     0
  0
SCALE
  5
57
102
{ACAD_REACTORS
330
47
102
}
330
47
100
AcDbScale
 70
     0
300
10:1
140
10.0
141
1.0
290
     0
  0
SCALE
  5
58
102
{ACAD_REACTORS
330
47
102
}
330
47
100
AcDbScale
 70
     0
300
100:1
140
100.0
141
1.0
290
     0
  0
SCALE
  5
59
102
{ACAD_REACTORS
330
47
102
}
330
47
100
AcDbScale
 70
     0
300
1/128" = 1'-0"
140
0.0078125
141
12.0
290
     0
  0
SCALE
  5
5A
102
{ACAD_REACTORS
330
47
102
}
330
47
100
AcDbScale
 70
     0
300
1/64" = 1'-0"
140
0.015625
141
12.0
290
     0
  0
SCALE
  5
5B
102
{ACAD_REACTORS
330
47
102
}
330
47
100
AcDbScale
 70
     0
300
1/32" = 1'-0"
140
0.03125
141
12.0
290
     0
  0
SCALE
  5
5C
102
{ACAD_REACTORS
330
47
102
}
330
47
100
AcDbScale
 70
     0
300
1/16" = 1'-0"
140
0.0625
141
12.0
290
     0
  0
SCALE
  5
5D
102
{ACAD_REACTORS
330
47
102
}
330
47
100
AcDbScale
 70
     0
300
3/32" = 1'-0"
140
0.09375
141
12.0
290
     0
  0
SCALE
  5
5E
102
{ACAD_REACTORS
330
47
102
}
330
47
100
AcDbScale
 70
     0
300
1/8" = 1'-0"
140
0.125
141
12.0
290
     0
  0
SCALE
  5
5F
102
{ACAD_REACTORS
330
47
102
}
330
47
100
AcDbScale
 70
     0
300
3/16" = 1'-0"
140
0.1875
141
12.0
290
     0
  0
SCALE
  5
60
102
{ACAD_REACTORS
330
47
102
}
330
47
100
AcDbScale
 70
     0
300
1/4" = 1'-0"
140
0.25
141
12.0
290
     0
  0
SCALE
  5
61
102
{ACAD_REACTORS
330
47
102
}
330
47
100
AcDbScale
 70
     0
300
3/8" = 1'-0"
140
0.375
141
12.0
290
     0
  0
SCALE
  5
62
102
{ACAD_REACTORS
330
47
102
}
330
47
100
AcDbScale
 70
     0
300
1/2" = 1'-0"
140
0.5
141
12.0
290
     0
  0
SCALE
  5
63
102
{ACAD_REACTORS
330
47
102
}
330
47
100
AcDbScale
 70
     0
300
3/4" = 1'-0"
140
0.75
141
12.0
290
     0
  0
SCALE
  5
64
102
{ACAD_REACTORS
330
47
102
}
330
47
100
AcDbScale
 70
     0
300
1" = 1'-0"
140
1.0
141
12.0
290
     0
  0
SCALE
  5
65
102
{ACAD_REACTORS
330
47
102
}
330
47
100
AcDbScale
 70
     0
300
1-1/2" = 1'-0"
140
1.5
141
12.0
290
     0
  0
SCALE
  5
66
102
{ACAD_REACTORS
330
47
102
}
330
47
100
AcDbScale
 70
     0
300
3" = 1'-0"
140
3.0
141
12.0
290
     0
  0
SCALE
  5
67
102
{ACAD_REACTORS
330
47
102
}
330
47
100
AcDbScale
 70
     0
300
6" = 1'-0"
140
6.0
141
12.0
290
     0
  0
SCALE
  5
68
102
{ACAD_REACTORS
330
47
102
}
330
47
100
AcDbScale
 70
     0
300
1'-0" = 1'-0"
140
12.0
141
12.0
290
     0
  0
ENDSEC
  0
EOF
