  0
SECTION
  2
HEADER
  9
$ACADVER
  1
AC1015
  9
$ACADMAINTVER
 70
     6
  9
$DWGCODEPAGE
  3
DOS932
  9
$INSBASE
 10
0.0
 20
0.0
 30
0.0
  9
$EXTMIN
 10
0.0
 20
0.0
 30
0.0
  9
$EXTMAX
 10
148.5
 20
105.0
 30
0.0
  9
$LIMMIN
 10
0.0
 20
0.0
  9
$LIMMAX
 10
148.5
 20
105.0
  9
$ORTHOMODE
 70
     0
  9
$REGENMODE
 70
     1
  9
$FILLMODE
 70
     1
  9
$QTEXTMODE
 70
     0
  9
$MIRRTEXT
 70
     1
  9
$LTSCALE
 40
0.5
  9
$ATTMODE
 70
     1
  9
$TEXTSIZE
 40
1.75
  9
$TRACEWID
 40
1.0
  9
$TEXTSTYLE
  7
Standard
  9
$CLAYER
  8
0
  9
$CELTYPE
  6
ByLayer
  9
$CECOLOR
 62
   256
  9
$CELTSCALE
 40
1.0
  9
$DISPSILH
 70
     0
  9
$DIMSCALE
 40
1.0
  9
$DIMASZ
 40
1.778
  9
$DIMEXO
 40
0.5
  9
$DIMDLI
 40
3.75
  9
$DIMRND
 40
0.0
  9
$DIMDLE
 40
0.0
  9
$DIMEXE
 40
0.5
  9
$DIMTP
 40
0.0
  9
$DIMTM
 40
0.0
  9
$DIMTXT
 40
1.75
  9
$DIMCEN
 40
2.5
  9
$DIMTSZ
 40
0.0
  9
$DIMTOL
 70
     0
  9
$DIMLIM
 70
     0
  9
$DIMTIH
 70
     1
  9
$DIMTOH
 70
     1
  9
$DIMSE1
 70
     0
  9
$DIMSE2
 70
     0
  9
$DIMTAD
 70
     1
  9
$DIMZIN
 70
     1
  9
$DIMBLK
  1

  9
$DIMASO
 70
     1
  9
$DIMSHO
 70
     1
  9
$DIMPOST
  1

  9
$DIMAPOST
  1

  9
$DIMALT
 70
     0
  9
$DIMALTD
 70
     3
  9
$DIMALTF
 40
0.0393700787
  9
$DIMLFAC
 40
1.0
  9
$DIMTOFL
 70
     1
  9
$DIMTVP
 40
0.0
  9
$DIMTIX
 70
     0
  9
$DIMSOXD
 70
     0
  9
$DIMSAH
 70
     0
  9
$DIMBLK1
  1

  9
$DIMBLK2
  1

  9
$DIMSTYLE
  2
ISO-25
  9
$DIMCLRD
 70
     0
  9
$DIMCLRE
 70
     0
  9
$DIMCLRT
 70
     0
  9
$DIMTFAC
 40
1.0
  9
$DIMGAP
 40
0.762
  9
$DIMJUST
 70
     0
  9
$DIMSD1
 70
     0
  9
$DIMSD2
 70
     0
  9
$DIMTOLJ
 70
     0
  9
$DIMTZIN
 70
     1
  9
$DIMALTZ
 70
     0
  9
$DIMALTTZ
 70
     0
  9
$DIMUPT
 70
     0
  9
$DIMDEC
 70
     2
  9
$DIMTDEC
 70
     2
  9
$DIMALTU
 70
     2
  9
$DIMALTTD
 70
     3
  9
$DIMTXSTY
  7
Standard
  9
$DIMAUNIT
 70
     0
  9
$DIMADEC
 70
     2
  9
$DIMALTRND
 40
0.0
  9
$DIMAZIN
 70
     0
  9
$DIMDSEP
 70
    44
  9
$DIMATFIT
 70
     3
  9
$DIMFRAC
 70
     0
  9
$DIMLDRBLK
  1

  9
$DIMLUNIT
 70
     2
  9
$DIMLWD
 70
    -2
  9
$DIMLWE
 70
    -2
  9
$DIMTMOVE
 70
     0
  9
$LUNITS
 70
     2
  9
$LUPREC
 70
     2
  9
$SKETCHINC
 40
1.0
  9
$FILLETRAD
 40
10.0
  9
$AUNITS
 70
     0
  9
$AUPREC
 70
     2
  9
$MENU
  1
.
  9
$ELEVATION
 40
0.0
  9
$PELEVATION
 40
0.0
  9
$THICKNESS
 40
0.0
  9
$LIMCHECK
 70
     0
  9
$CHAMFERA
 40
0.0
  9
$CHAMFERB
 40
0.0
  9
$CHAMFERC
 40
0.0
  9
$CHAMFERD
 40
0.0
  9
$SKPOLY
 70
     0
  9
$TDCREATE
 40
2459241.625865393
  9
$TDUCREATE
 40
2459241.250865393
  9
$TDUPDATE
 40
2459241.625865891
  9
$TDUUPDATE
 40
2459241.250865891
  9
$TDINDWG
 40
0.0000000116
  9
$TDUSRTIMER
 40
0.0000000116
  9
$USRTIMER
 70
     1
  9
$ANGBASE
 50
0.0
  9
$ANGDIR
 70
     0
  9
$PDMODE
 70
     0
  9
$PDSIZE
 40
-1.0
  9
$PLINEWID
 40
0.0
  9
$SPLFRAME
 70
     0
  9
$SPLINETYPE
 70
     6
  9
$SPLINESEGS
 70
     8
  9
$HANDSEED
  5
133
  9
$SURFTAB1
 70
     6
  9
$SURFTAB2
 70
     6
  9
$SURFTYPE
 70
     6
  9
$SURFU
 70
     6
  9
$SURFV
 70
     6
  9
$UCSBASE
  2

  9
$UCSNAME
  2

  9
$UCSORG
 10
0.0
 20
0.0
 30
0.0
  9
$UCSXDIR
 10
1.0
 20
0.0
 30
0.0
  9
$UCSYDIR
 10
0.0
 20
1.0
 30
0.0
  9
$UCSORTHOREF
  2

  9
$UCSORTHOVIEW
 70
     0
  9
$UCSORGTOP
 10
0.0
 20
0.0
 30
0.0
  9
$UCSORGBOTTOM
 10
0.0
 20
0.0
 30
0.0
  9
$UCSORGLEFT
 10
0.0
 20
0.0
 30
0.0
  9
$UCSORGRIGHT
 10
0.0
 20
0.0
 30
0.0
  9
$UCSORGFRONT
 10
0.0
 20
0.0
 30
0.0
  9
$UCSORGBACK
 10
0.0
 20
0.0
 30
0.0
  9
$PUCSBASE
  2

  9
$PUCSNAME
  2

  9
$PUCSORG
 10
0.0
 20
0.0
 30
0.0
  9
$PUCSXDIR
 10
1.0
 20
0.0
 30
0.0
  9
$PUCSYDIR
 10
0.0
 20
1.0
 30
0.0
  9
$PUCSORTHOREF
  2

  9
$PUCSORTHOVIEW
 70
     0
  9
$PUCSORGTOP
 10
0.0
 20
0.0
 30
0.0
  9
$PUCSORGBOTTOM
 10
0.0
 20
0.0
 30
0.0
  9
$PUCSORGLEFT
 10
0.0
 20
0.0
 30
0.0
  9
$PUCSORGRIGHT
 10
0.0
 20
0.0
 30
0.0
  9
$PUCSORGFRONT
 10
0.0
 20
0.0
 30
0.0
  9
$PUCSORGBACK
 10
0.0
 20
0.0
 30
0.0
  9
$USERI1
 70
     0
  9
$USERI2
 70
     0
  9
$USERI3
 70
     0
  9
$USERI4
 70
     0
  9
$USERI5
 70
     0
  9
$USERR1
 40
0.0
  9
$USERR2
 40
0.0
  9
$USERR3
 40
0.0
  9
$USERR4
 40
0.0
  9
$USERR5
 40
0.0
  9
$WORLDVIEW
 70
     1
  9
$SHADEDGE
 70
     3
  9
$SHADEDIF
 70
    70
  9
$TILEMODE
 70
     1
  9
$MAXACTVP
 70
    64
  9
$PINSBASE
 10
0.0
 20
0.0
 30
0.0
  9
$PLIMCHECK
 70
     0
  9
$PEXTMIN
 10
1.0000000000E+20
 20
1.0000000000E+20
 30
1.0000000000E+20
  9
$PEXTMAX
 10
-1.0000000000E+20
 20
-1.0000000000E+20
 30
-1.0000000000E+20
  9
$PLIMMIN
 10
0.0
 20
0.0
  9
$PLIMMAX
 10
420.0
 20
297.0
  9
$UNITMODE
 70
     0
  9
$VISRETAIN
 70
     1
  9
$PLINEGEN
 70
     0
  9
$PSLTSCALE
 70
     1
  9
$TREEDEPTH
 70
  3020
  9
$CMLSTYLE
  2
Standard
  9
$CMLJUST
 70
     0
  9
$CMLSCALE
 40
20.0
  9
$PROXYGRAPHICS
 70
     1
  9
$MEASUREMENT
 70
     1
  9
$CELWEIGHT
370
    -1
  9
$ENDCAPS
280
     0
  9
$JOINSTYLE
280
     0
  9
$LWDISPLAY
290
     1
  9
$INSUNITS
 70
     4
  9
$HYPERLINKBASE
  1

  9
$STYLESHEET
  1

  9
$XEDIT
290
     1
  9
$CEPSNTYPE
380
     0
  9
$PSTYLEMODE
290
     1
  9
$FINGERPRINTGUID
  2
{8DD2C6B9-7CEF-4864-A3DB-126C5E6DECF4}
  9
$VERSIONGUID
  2
{FAEB1C32-E019-11D5-929B-00C0DF256EC4}
  9
$EXTNAMES
290
     1
  9
$PSVPSCALE
 40
0.0
  9
$OLESTARTUP
290
     0
  0
ENDSEC
  0
SECTION
  2
CLASSES
  0
CLASS
  1
ACDBDICTIONARYWDFLT
  2
AcDbDictionaryWithDefault
  3
ObjectDBX Classes
 90
        0
280
     0
281
     0
  0
CLASS
  1
VISUALSTYLE
  2
AcDbVisualStyle
  3
ObjectDBX Classes
 90
     4095
280
     0
281
     0
  0
CLASS
  1
MATERIAL
  2
AcDbMaterial
  3
ObjectDBX Classes
 90
     1153
280
     0
281
     0
  0
CLASS
  1
SCALE
  2
AcDbScale
  3
ObjectDBX Classes
 90
     1153
280
     0
281
     0
  0
CLASS
  1
TABLESTYLE
  2
AcDbTableStyle
  3
ObjectDBX Classes
 90
     4095
280
     0
281
     0
  0
CLASS
  1
MLEADERSTYLE
  2
AcDbMLeaderStyle
  3
ACDB_MLEADERSTYLE_CLASS
 90
     4095
280
     0
281
     0
  0
CLASS
  1
SUN
  2
AcDbSun
  3
SCENEOE
 90
     1153
280
     0
281
     0
  0
CLASS
  1
ACDBPLACEHOLDER
  2
AcDbPlaceHolder
  3
ObjectDBX Classes
 90
        0
280
     0
281
     0
  0
CLASS
  1
LAYOUT
  2
AcDbLayout
  3
ObjectDBX Classes
 90
        0
280
     0
281
     0
  0
ENDSEC
  0
SECTION
  2
TABLES
  0
TABLE
  2
VPORT
  5
8
330
0
100
AcDbSymbolTable
 70
     1
  0
VPORT
  5
29
330
8
100
AcDbSymbolTableRecord
100
AcDbViewportTableRecord
  2
*Active
 70
     0
 10
0.0
 20
0.0
 11
1.0
 21
1.0
 12
74.25
 22
52.5
 13
0.0
 23
0.0
 14
10.0
 24
10.0
 15
10.0
 25
10.0
 16
0.0
 26
0.0
 36
1.0
 17
0.0
 27
0.0
 37
0.0
 40
105.0
 41
1.4142857143
 42
50.0
 43
0.0
 44
0.0
 50
0.0
 51
0.0
 71
     0
 72
  2000
 73
     1
 74
     3
 75
     0
 76
     0
 77
     0
 78
     0
281
     0
 65
     1
110
0.0
120
0.0
130
0.0
111
1.0
121
0.0
131
0.0
112
0.0
122
1.0
132
0.0
 79
     0
146
0.0
  0
ENDTAB
  0
TABLE
  2
LTYPE
  5
5
330
0
100
AcDbSymbolTable
 70
     6
  0
LTYPE
  5
14
330
5
100
AcDbSymbolTableRecord
100
AcDbLinetypeTableRecord
  2
ByBlock
 70
     0
  3

 72
    65
 73
     0
 40
0.0
  0
LTYPE
  5
15
330
5
100
AcDbSymbolTableRecord
100
AcDbLinetypeTableRecord
  2
ByLayer
 70
     0
  3

 72
    65
 73
     0
 40
0.0
  0
LTYPE
  5
16
330
5
100
AcDbSymbolTableRecord
100
AcDbLinetypeTableRecord
  2
Continuous
 70
     0
  3
Solid line
 72
    65
 73
     0
 40
0.0
  0
LTYPE
  5
6E
330
5
100
AcDbSymbolTableRecord
100
AcDbLinetypeTableRecord
  2
HIDDEN
 70
     0
  3
Hidden __ __ __ __ __ __ __ __ __ __ __ __ __ __
 72
    65
 73
     2
 40
1.905
 49
1.27
 74
     0
 49
-0.635
 74
     0
  0
LTYPE
  5
6F
330
5
100
AcDbSymbolTableRecord
100
AcDbLinetypeTableRecord
  2
PHANTOM
 70
     0
  3
Phantom ______  __  __  ______  __  __  ______
 72
    65
 73
     6
 40
12.7
 49
6.35
 74
     0
 49
-1.27
 74
     0
 49
1.27
 74
     0
 49
-1.27
 74
     0
 49
1.27
 74
     0
 49
-1.27
 74
     0
  0
LTYPE
  5
70
330
5
100
AcDbSymbolTableRecord
100
AcDbLinetypeTableRecord
  2
CENTER
 70
     0
  3
Center ____ _ ____ _ ____ _ ____ _ ____ _ ____
 72
    65
 73
     4
 40
10.16
 49
6.35
 74
     0
 49
-1.27
 74
     0
 49
1.27
 74
     0
 49
-1.27
 74
     0
  0
LTYPE
  5
71
330
5
100
AcDbSymbolTableRecord
100
AcDbLinetypeTableRecord
  2
CENTERX2
 70
     0
  3
Center (2x) ________  __  ________  __  _____
 72
    65
 73
     4
 40
20.32
 49
12.7
 74
     0
 49
-2.54
 74
     0
 49
2.54
 74
     0
 49
-2.54
 74
     0
  0
LTYPE
  5
72
330
5
100
AcDbSymbolTableRecord
100
AcDbLinetypeTableRecord
  2
DOT2
 70
     0
  3
Dot (.5x) ........................................
 72
    65
 73
     2
 40
0.635
 49
0.0
 74
     0
 49
-0.635
 74
     0
  0
ENDTAB
  0
TABLE
  2
LAYER
  5
2
330
0
100
AcDbSymbolTable
 70
     1
  0
LAYER
  5
10
330
2
100
AcDbSymbolTableRecord
100
AcDbLayerTableRecord
  2
0
 70
     0
 62
     7
  6
Continuous
370
    -3
390
F
  0
ENDTAB
  0
TABLE
  2
STYLE
  5
3
330
0
100
AcDbSymbolTable
 70
     2
  0
STYLE
  5
11
330
3
100
AcDbSymbolTableRecord
100
AcDbTextStyleTableRecord
  2
Standard
 70
     0
 40
0.0
 41
1.0
 50
0.0
 71
     0
 42
1.75
  3
txt
  4
bigfont
  0
STYLE
  5
73
330
3
100
AcDbSymbolTableRecord
100
AcDbTextStyleTableRecord
  2
SLDTEXTSTYLE0
 70
     0
 40
0.0
 41
0.75
 50
0.0
 71
     0
 42
1.75
  3
TXT
  4
bigfont
  0
ENDTAB
  0
TABLE
  2
VIEW
  5
6
330
0
100
AcDbSymbolTable
 70
     0
  0
ENDTAB
  0
TABLE
  2
UCS
  5
7
330
0
100
AcDbSymbolTable
 70
     0
  0
ENDTAB
  0
TABLE
  2
APPID
  5
9
330
0
100
AcDbSymbolTable
 70
     1
  0
APPID
  5
12
330
9
100
AcDbSymbolTableRecord
100
AcDbRegAppTableRecord
  2
ACAD
 70
     0
  0
ENDTAB
  0
TABLE
  2
DIMSTYLE
  5
A
330
0
100
AcDbSymbolTable
 70
     1
100
AcDbDimStyleTable
  0
DIMSTYLE
105
27
330
A
100
AcDbSymbolTableRecord
100
AcDbDimStyleTableRecord
  2
ISO-25
 70
     0
 41
2.5
 42
0.625
 43
3.75
 44
1.25
 73
     0
 74
     0
 77
     1
 78
     8
140
2.5
141
2.5
143
0.0393700787
147
0.625
171
     3
172
     1
178
     0
271
     2
272
     2
274
     3
278
    44
283
     0
284
     8
340
11
  0
ENDTAB
  0
TABLE
  2
BLOCK_RECORD
  5
1
330
0
100
AcDbSymbolTable
 70
     1
  0
BLOCK_RECORD
  5
1F
330
1
100
AcDbSymbolTableRecord
100
AcDbBlockTableRecord
  2
*Model_Space
340
22
  0
BLOCK_RECORD
  5
1B
330
1
100
AcDbSymbolTableRecord
100
AcDbBlockTableRecord
  2
*Paper_Space
340
1E
  0
BLOCK_RECORD
  5
23
330
1
100
AcDbSymbolTableRecord
100
AcDbBlockTableRecord
  2
*Paper_Space0
340
26
  0
ENDTAB
  0
ENDSEC
  0
SECTION
  2
BLOCKS
  0
BLOCK
  5
20
330
1F
100
AcDbEntity
  8
0
100
AcDbBlockBegin
  2
*Model_Space
 70
     0
 10
0.0
 20
0.0
 30
0.0
  3
*Model_Space
  1

  0
ENDBLK
  5
21
330
1F
100
AcDbEntity
  8
0
100
AcDbBlockEnd
  0
BLOCK
  5
1C
330
1B
100
AcDbEntity
 67
     1
  8
0
100
AcDbBlockBegin
  2
*Paper_Space
 70
     0
 10
0.0
 20
0.0
 30
0.0
  3
*Paper_Space
  1

  0
ENDBLK
  5
1D
330
1B
100
AcDbEntity
 67
     1
  8
0
100
AcDbBlockEnd
  0
BLOCK
  5
24
330
23
100
AcDbEntity
  8
0
100
AcDbBlockBegin
  2
*Paper_Space0
 70
     0
 10
0.0
 20
0.0
 30
0.0
  3
*Paper_Space0
  1

  0
ENDBLK
  5
25
330
23
100
AcDbEntity
  8
0
100
AcDbBlockEnd
  0
ENDSEC
  0
SECTION
  2
ENTITIES
  0
MTEXT
  5
74
330
1F
100
AcDbEntity
  8
0
  6
Continuous
 62
     7
370
     0
100
AcDbMText
 10
67.9345208845
 20
55.387615874
 30
0.0
 40
1.75
 41
0.0
 71
     1
 72
     1
  1
AT-1022R
  7
SLDTEXTSTYLE0
 73
     1
 44
1.0
  0
LINE
  5
75
330
1F
100
AcDbEntity
  8
0
  6
Continuous
 62
     7
370
    25
100
AcDbLine
 10
49.2511056511
 20
46.7663017506
 30
0.0
 11
39.3398933049
 21
46.4565763648
 31
0.0
  0
LINE
  5
76
330
1F
100
AcDbEntity
  8
0
  6
Continuous
 62
     7
370
    25
100
AcDbLine
 10
39.3398933049
 20
33.5446521364
 30
0.0
 11
49.2511056511
 21
33.2349267506
 31
0.0
  0
LINE
  5
77
330
1F
100
AcDbEntity
  8
0
  6
Continuous
 62
     7
370
    25
100
AcDbLine
 10
54.2511056511
 20
33.2349267506
 30
0.0
 11
64.1623179973
 21
33.5446521364
 31
0.0
  0
LINE
  5
78
330
1F
100
AcDbEntity
  8
0
  6
Continuous
 62
     7
370
    25
100
AcDbLine
 10
64.1623179973
 20
46.4565763648
 30
0.0
 11
54.2511056511
 21
46.7663017506
 31
0.0
  0
LINE
  5
79
330
1F
100
AcDbEntity
  8
0
  6
Continuous
 62
     7
370
    25
100
AcDbLine
 10
39.3398933049
 20
46.4565763648
 30
0.0
 11
37.2511056511
 21
45.2506142506
 31
0.0
  0
LINE
  5
7A
330
1F
100
AcDbEntity
  8
0
  6
Continuous
 62
     7
370
    25
100
AcDbLine
 10
37.2511056511
 20
34.7506142506
 30
0.0
 11
39.3398933049
 21
33.5446521364
 31
0.0
  0
LINE
  5
7B
330
1F
100
AcDbEntity
  8
0
  6
Continuous
 62
     7
370
    25
100
AcDbLine
 10
64.1623179973
 20
33.5446521364
 30
0.0
 11
66.2511056511
 21
34.7506142506
 31
0.0
  0
LINE
  5
7C
330
1F
100
AcDbEntity
  8
0
  6
Continuous
 62
     7
370
    25
100
AcDbLine
 10
66.2511056511
 20
45.2506142506
 30
0.0
 11
64.1623179973
 21
46.4565763648
 31
0.0
  0
LINE
  5
7D
330
1F
100
AcDbEntity
  8
0
  6
Continuous
 62
     7
370
    25
100
AcDbLine
 10
50.4816350121
 20
33.9384364241
 30
0.0
 11
50.4816350121
 21
33.9297761701
 31
0.0
  0
LINE
  5
7E
330
1F
100
AcDbEntity
  8
0
  6
Continuous
 62
     7
370
    25
100
AcDbLine
 10
49.2511056511
 20
33.0006142506
 30
0.0
 11
49.8763204334
 21
31.917710482
 31
0.0
  0
LINE
  5
7F
330
1F
100
AcDbEntity
  8
0
  6
Continuous
 62
     7
370
    25
100
AcDbLine
 10
53.6258908688
 20
31.917710482
 30
0.0
 11
54.2511056511
 21
33.0006142506
 31
0.0
  0
LINE
  5
80
330
1F
100
AcDbEntity
  8
0
  6
Continuous
 62
     7
370
    25
100
AcDbLine
 10
49.8763204334
 20
48.0835180193
 30
0.0
 11
49.2511056511
 21
47.0006142506
 31
0.0
  0
LINE
  5
81
330
1F
100
AcDbEntity
  8
0
  6
Continuous
 62
     7
370
    25
100
AcDbLine
 10
54.2511056511
 20
47.0006142506
 30
0.0
 11
53.6258908688
 21
48.0835180193
 31
0.0
  0
LINE
  5
82
330
1F
100
AcDbEntity
  8
0
  6
Continuous
 62
     7
370
    25
100
AcDbLine
 10
50.168263384
 20
39.7126142506
 30
0.0
 11
52.472263384
 21
39.7126142506
 31
0.0
  0
LINE
  5
83
330
1F
100
AcDbEntity
  8
0
  6
Continuous
 62
     7
370
    25
100
AcDbLine
 10
50.168263384
 20
40.0006142506
 30
0.0
 11
50.168263384
 21
39.7126142506
 31
0.0
  0
LINE
  5
84
330
1F
100
AcDbEntity
  8
0
  6
Continuous
 62
     7
370
    25
100
AcDbLine
 10
50.168263384
 20
40.2886142506
 30
0.0
 11
50.168263384
 21
40.0006142506
 31
0.0
  0
LINE
  5
85
330
1F
100
AcDbEntity
  8
0
  6
Continuous
 62
     7
370
    25
100
AcDbLine
 10
52.472263384
 20
40.2886142506
 30
0.0
 11
50.168263384
 21
40.2886142506
 31
0.0
  0
LINE
  5
86
330
1F
100
AcDbEntity
  8
0
  6
Continuous
 62
     7
370
    25
100
AcDbLine
 10
52.472263384
 20
40.6918142506
 30
0.0
 11
52.472263384
 21
40.2886142506
 31
0.0
  0
LINE
  5
87
330
1F
100
AcDbEntity
  8
0
  6
Continuous
 62
     7
370
    25
100
AcDbLine
 10
53.624263384
 20
40.0006142506
 30
0.0
 11
52.472263384
 21
40.6918142506
 31
0.0
  0
LINE
  5
88
330
1F
100
AcDbEntity
  8
0
  6
Continuous
 62
     7
370
    25
100
AcDbLine
 10
52.472263384
 20
39.3094142506
 30
0.0
 11
53.624263384
 21
40.0006142506
 31
0.0
  0
LINE
  5
89
330
1F
100
AcDbEntity
  8
0
  6
Continuous
 62
     7
370
    25
100
AcDbLine
 10
52.472263384
 20
39.7126142506
 30
0.0
 11
52.472263384
 21
39.3094142506
 31
0.0
  0
SPLINE
  5
8A
330
1F
100
AcDbEntity
  8
0
  6
Continuous
 62
     7
370
    25
100
AcDbSpline
210
0.0
220
0.0
230
1.0
 70
     8
 71
     3
 72
    10
 73
     6
 74
     0
 42
0.000000001
 43
0.00000001
 40
0.0
 40
0.0
 40
0.0
 40
0.0
 40
0.5
 40
0.5
 40
1.0
 40
1.0
 40
1.0
 40
1.0
 10
49.87632043344441
 20
31.91771048195942
 30
0.0
 10
49.68546921978812
 20
32.24827448069831
 30
0.0
 10
49.52823609863148
 20
32.58125314231679
 30
0.0
 10
49.31069206150321
 20
33.254172028024
 30
0.0
 10
49.25110565110562
 20
33.59416429066059
 30
0.0
 10
49.25110565110562
 20
33.93843642412318
 30
0.0
  0
SPLINE
  5
8B
330
1F
100
AcDbEntity
  8
0
  6
Continuous
 62
     7
370
    25
100
AcDbSpline
210
0.0
220
0.0
230
1.0
 70
     8
 71
     3
 72
    12
 73
     8
 74
     0
 42
0.000000001
 43
0.00000001
 40
0.0
 40
0.0
 40
0.0
 40
0.0
 40
0.2499999999999999
 40
0.2499999999999999
 40
0.4999999999999998
 40
0.4999999999999998
 40
1.0
 40
1.0
 40
1.0
 40
1.0
 10
49.25110565110562
 20
33.93843642412318
 30
0.0
 10
49.25110565110562
 20
34.10992897091941
 30
0.0
 10
49.26588340956611
 20
34.28219057485173
 30
0.0
 10
49.32307161056136
 20
34.62295997962357
 30
0.0
 10
49.36542708028419
 20
34.79220494538759
 30
0.0
 10
49.52878765515682
 20
35.29693390706841
 30
0.0
 10
49.68594570464728
 20
35.62942366353273
 30
0.0
 10
49.87632043344465
 20
35.95916236628693
 30
0.0
  0
LINE
  5
8C
330
1F
100
AcDbEntity
  8
0
  6
Continuous
 62
     7
370
    25
100
AcDbLine
 10
49.8763204334
 20
35.9591623663
 30
0.0
 11
53.6258908688
 21
35.9591623663
 31
0.0
  0
SPLINE
  5
8D
330
1F
100
AcDbEntity
  8
0
  6
Continuous
 62
     7
370
    25
100
AcDbSpline
210
0.0
220
0.0
230
1.0
 70
     8
 71
     3
 72
    12
 73
     8
 74
     0
 42
0.000000001
 43
0.00000001
 40
0.0
 40
0.0
 40
0.0
 40
0.0
 40
0.2499999999999999
 40
0.2499999999999999
 40
0.4999999999999998
 40
0.4999999999999998
 40
1.0
 40
1.0
 40
1.0
 40
1.0
 10
54.25110565110562
 20
33.93843642412318
 30
0.0
 10
54.25110565110562
 20
34.10992897091941
 30
0.0
 10
54.23632789264513
 20
34.28219057485173
 30
0.0
 10
54.17913969164988
 20
34.62295997962357
 30
0.0
 10
54.13678422192704
 20
34.79220494538759
 30
0.0
 10
53.97342364705442
 20
35.29693390706841
 30
0.0
 10
53.81626559756396
 20
35.62942366353273
 30
0.0
 10
53.62589086876658
 20
35.95916236628693
 30
0.0
  0
SPLINE
  5
8E
330
1F
100
AcDbEntity
  8
0
  6
Continuous
 62
     7
370
    25
100
AcDbSpline
210
0.0
220
0.0
230
1.0
 70
     8
 71
     3
 72
    10
 73
     6
 74
     0
 42
0.000000001
 43
0.00000001
 40
0.0
 40
0.0
 40
0.0
 40
0.0
 40
0.5
 40
0.5
 40
1.0
 40
1.0
 40
1.0
 40
1.0
 10
53.62589086876683
 20
31.91771048195942
 30
0.0
 10
53.81674208242313
 20
32.24827448069831
 30
0.0
 10
53.97397520357976
 20
32.58125314231679
 30
0.0
 10
54.19151924070803
 20
33.254172028024
 30
0.0
 10
54.25110565110562
 20
33.59416429066059
 30
0.0
 10
54.25110565110562
 20
33.93843642412318
 30
0.0
  0
LINE
  5
8F
330
1F
100
AcDbEntity
  8
0
  6
Continuous
 62
     7
370
    25
100
AcDbLine
 10
49.8763204334
 20
31.917710482
 30
0.0
 11
53.6258908688
 21
31.917710482
 31
0.0
  0
ARC
  5
90
330
1F
100
AcDbEntity
  8
0
  6
Continuous
 62
     7
370
    25
100
AcDbCircle
 10
53.1278042704
 20
34.0151223391
 30
0.0
 40
0.4728116131975906
100
AcDbArc
 50
189.3341081815
 51
255.0062639575
  0
LINE
  5
91
330
1F
100
AcDbEntity
  8
0
  6
Continuous
 62
     7
370
    25
100
AcDbLine
 10
53.0054815505
 20
34.3184648332
 30
0.0
 11
52.2686917777
 21
34.5046011969
 31
0.0
  0
ARC
  5
92
330
1F
100
AcDbEntity
  8
0
  6
Continuous
 62
     7
370
    25
100
AcDbCircle
 10
52.2435061622
 20
34.4283758604
 30
0.0
 40
0.1221907667722845
100
AcDbArc
 50
285.6398166458
 51
347.3872570693
  0
LINE
  5
93
330
1F
100
AcDbEntity
  8
0
  6
Continuous
 62
     7
370
    25
100
AcDbLine
 10
52.2764474596
 20
34.3107091514
 30
0.0
 11
50.6477542777
 21
34.0625273332
 31
0.0
  0
LWPOLYLINE
  5
94
330
1F
100
AcDbEntity
  8
0
  6
Continuous
 62
     7
370
    25
100
AcDbPolyline
 90
        5
 70
   128
 43
0.0
 10
50.6477542777
 20
34.0625273332
 10
50.5800335574
 20
34.0422970726
 10
50.5269974662
 20
34.0130980882
 10
50.4932258528
 20
33.9774518126
 10
50.4816350121
 20
33.9384364241
  0
ARC
  5
95
330
1F
100
AcDbEntity
  8
0
  6
Continuous
 62
     7
370
    25
100
AcDbCircle
 10
52.2376208149
 20
33.497336565
 30
0.0
 40
0.1288667425950806
100
AcDbArc
 50
283.9520180691
 51
346.1637414111
  0
SPLINE
  5
96
330
1F
100
AcDbEntity
  8
0
  6
Continuous
 62
     7
370
    25
100
AcDbSpline
210
0.0
220
0.0
230
1.0
 70
     8
 71
     3
 72
    10
 73
     6
 74
     0
 42
0.000000001
 43
0.00000001
 40
0.0
 40
0.0
 40
0.0
 40
0.0
 40
0.5
 40
0.5
 40
1.0
 40
1.0
 40
1.0
 40
1.0
 10
53.62589086876635
 20
35.9591623662869
 30
0.0
 10
53.81582038903038
 20
36.61709752419588
 30
0.0
 10
53.97483603281415
 20
37.29002658310947
 30
0.0
 10
54.19230491647788
 20
38.63850441714177
 30
0.0
 10
54.25110565110562
 20
39.31703339661085
 30
0.0
 10
54.25110565110562
 20
40.0006142506143
 30
0.0
  0
LINE
  5
97
330
1F
100
AcDbEntity
  8
0
  6
Continuous
 62
     7
370
    25
100
AcDbLine
 10
54.2511056511
 20
33.9384364241
 30
0.0
 11
54.2511056511
 21
40.0006142506
 31
0.0
  0
SPLINE
  5
98
330
1F
100
AcDbEntity
  8
0
  6
Continuous
 62
     7
370
    25
100
AcDbSpline
210
0.0
220
0.0
230
1.0
 70
     8
 71
     3
 72
    10
 73
     6
 74
     0
 42
0.000000001
 43
0.00000001
 40
0.0
 40
0.0
 40
0.0
 40
0.0
 40
0.5
 40
0.5
 40
1.0
 40
1.0
 40
1.0
 40
1.0
 10
49.8763204334449
 20
35.9591623662869
 30
0.0
 10
49.68639091318086
 20
36.61709752419588
 30
0.0
 10
49.52737526939709
 20
37.29002658310947
 30
0.0
 10
49.30990638573336
 20
38.63850441714177
 30
0.0
 10
49.25110565110562
 20
39.31703339661085
 30
0.0
 10
49.25110565110562
 20
40.0006142506143
 30
0.0
  0
SPLINE
  5
99
330
1F
100
AcDbEntity
  8
0
  6
Continuous
 62
     7
370
    25
100
AcDbSpline
210
0.0
220
0.0
230
1.0
 70
     8
 71
     3
 72
    10
 73
     6
 74
     0
 42
0.000000001
 43
0.00000001
 40
0.0
 40
0.0
 40
0.0
 40
0.0
 40
0.5
 40
0.5
 40
1.0
 40
1.0
 40
1.0
 40
1.0
 10
49.25110565110562
 20
40.0006142506143
 30
0.0
 10
49.25110565110562
 20
40.68468701172343
 30
0.0
 10
49.31156962335726
 20
41.37758429339033
 30
0.0
 10
49.53058968800276
 20
42.72648422574601
 30
0.0
 10
49.68763349113963
 20
43.38843539334658
 30
0.0
 10
49.87632043344491
 20
44.04206613494169
 30
0.0
  0
LINE
  5
9A
330
1F
100
AcDbEntity
  8
0
  6
Continuous
 62
     7
370
    25
100
AcDbLine
 10
49.8763204334
 20
44.0420661349
 30
0.0
 11
53.6258908688
 21
44.0420661349
 31
0.0
  0
SPLINE
  5
9B
330
1F
100
AcDbEntity
  8
0
  6
Continuous
 62
     7
370
    25
100
AcDbSpline
210
0.0
220
0.0
230
1.0
 70
     8
 71
     3
 72
    10
 73
     6
 74
     0
 42
0.000000001
 43
0.00000001
 40
0.0
 40
0.0
 40
0.0
 40
0.0
 40
0.5
 40
0.5
 40
1.0
 40
1.0
 40
1.0
 40
1.0
 10
54.25110565110562
 20
40.0006142506143
 30
0.0
 10
54.25110565110562
 20
40.68468701172343
 30
0.0
 10
54.19064167885398
 20
41.37758429339033
 30
0.0
 10
53.97162161420848
 20
42.72648422574601
 30
0.0
 10
53.81457781107161
 20
43.38843539334658
 30
0.0
 10
53.62589086876633
 20
44.04206613494169
 30
0.0
  0
LINE
  5
9C
330
1F
100
AcDbEntity
  8
0
  6
Continuous
 62
     7
370
    25
100
AcDbLine
 10
49.2511056511
 20
33.9384364241
 30
0.0
 11
49.2511056511
 21
40.0006142506
 31
0.0
  0
SPLINE
  5
9D
330
1F
100
AcDbEntity
  8
0
  6
Continuous
 62
     7
370
    25
100
AcDbSpline
210
0.0
220
0.0
230
1.0
 70
     8
 71
     3
 72
    10
 73
     6
 74
     0
 42
0.000000001
 43
0.00000001
 40
0.0
 40
0.0
 40
0.0
 40
0.0
 40
0.5
 40
0.5
 40
1.0
 40
1.0
 40
1.0
 40
1.0
 10
53.62589086876683
 20
44.04206613494166
 30
0.0
 10
53.81674208242313
 20
44.37263013368054
 30
0.0
 10
53.97397520357975
 20
44.705608795299
 30
0.0
 10
54.19151924070802
 20
45.37852768100618
 30
0.0
 10
54.25110565110561
 20
45.71851994364278
 30
0.0
 10
54.25110565110561
 20
46.06279207710534
 30
0.0
  0
LINE
  5
9E
330
1F
100
AcDbEntity
  8
0
  6
Continuous
 62
     7
370
    25
100
AcDbLine
 10
54.2511056511
 20
40.0006142506
 30
0.0
 11
54.2511056511
 21
46.0627920771
 31
0.0
  0
LINE
  5
9F
330
1F
100
AcDbEntity
  8
0
  6
Continuous
 62
     7
370
    25
100
AcDbLine
 10
49.2511056511
 20
40.0006142506
 30
0.0
 11
49.2511056511
 21
46.0627920771
 31
0.0
  0
SPLINE
  5
A0
330
1F
100
AcDbEntity
  8
0
  6
Continuous
 62
     7
370
    25
100
AcDbSpline
210
0.0
220
0.0
230
1.0
 70
     8
 71
     3
 72
    10
 73
     6
 74
     0
 42
0.000000001
 43
0.00000001
 40
0.0
 40
0.0
 40
0.0
 40
0.0
 40
0.5
 40
0.5
 40
1.0
 40
1.0
 40
1.0
 40
1.0
 10
49.87632043344441
 20
44.04206613494166
 30
0.0
 10
49.68546921978812
 20
44.37263013368054
 30
0.0
 10
49.52823609863149
 20
44.705608795299
 30
0.0
 10
49.31069206150323
 20
45.37852768100618
 30
0.0
 10
49.25110565110563
 20
45.71851994364278
 30
0.0
 10
49.25110565110563
 20
46.06279207710534
 30
0.0
  0
SPLINE
  5
A1
330
1F
100
AcDbEntity
  8
0
  6
Continuous
 62
     7
370
    25
100
AcDbSpline
210
0.0
220
0.0
230
1.0
 70
     8
 71
     3
 72
    12
 73
     8
 74
     0
 42
0.000000001
 43
0.00000001
 40
0.0
 40
0.0
 40
0.0
 40
0.0
 40
0.2499999999999999
 40
0.2499999999999999
 40
0.4999999999999998
 40
0.4999999999999998
 40
1.0
 40
1.0
 40
1.0
 40
1.0
 10
49.25110565110563
 20
46.06279207710534
 30
0.0
 10
49.25110565110563
 20
46.23428462390157
 30
0.0
 10
49.26588340956613
 20
46.40654622783388
 30
0.0
 10
49.32307161056138
 20
46.74731563260569
 30
0.0
 10
49.3654270802842
 20
46.91656059836972
 30
0.0
 10
49.52878765515682
 20
47.42128956005052
 30
0.0
 10
49.68594570464729
 20
47.75377931651484
 30
0.0
 10
49.87632043344465
 20
48.08351801926901
 30
0.0
  0
LINE
  5
A2
330
1F
100
AcDbEntity
  8
0
  6
Continuous
 62
     7
370
    25
100
AcDbLine
 10
49.8763204334
 20
48.0835180193
 30
0.0
 11
53.6258908688
 21
48.0835180193
 31
0.0
  0
SPLINE
  5
A3
330
1F
100
AcDbEntity
  8
0
  6
Continuous
 62
     7
370
    25
100
AcDbSpline
210
0.0
220
0.0
230
1.0
 70
     8
 71
     3
 72
    12
 73
     8
 74
     0
 42
0.000000001
 43
0.00000001
 40
0.0
 40
0.0
 40
0.0
 40
0.0
 40
0.2499999999999999
 40
0.2499999999999999
 40
0.4999999999999998
 40
0.4999999999999998
 40
1.0
 40
1.0
 40
1.0
 40
1.0
 10
54.25110565110561
 20
46.06279207710534
 30
0.0
 10
54.25110565110561
 20
46.23428462390157
 30
0.0
 10
54.23632789264511
 20
46.40654622783388
 30
0.0
 10
54.17913969164987
 20
46.74731563260569
 30
0.0
 10
54.13678422192704
 20
46.91656059836972
 30
0.0
 10
53.97342364705442
 20
47.42128956005052
 30
0.0
 10
53.81626559756396
 20
47.75377931651484
 30
0.0
 10
53.62589086876658
 20
48.08351801926901
 30
0.0
  0
LINE
  5
A4
330
1F
100
AcDbEntity
  8
0
  6
Continuous
 62
     7
370
    25
100
AcDbLine
 10
39.3398933049
 20
33.5446521364
 30
0.0
 11
39.3398933049
 21
46.4565763648
 31
0.0
  0
LINE
  5
A5
330
1F
100
AcDbEntity
  8
0
  6
Continuous
 62
     7
370
    25
100
AcDbLine
 10
64.1623179973
 20
40.0006142506
 30
0.0
 11
64.1623179973
 21
46.4565763648
 31
0.0
  0
LINE
  5
A6
330
1F
100
AcDbEntity
  8
0
  6
Continuous
 62
     7
370
    25
100
AcDbLine
 10
64.1623179973
 20
33.5446521364
 30
0.0
 11
64.1623179973
 21
40.0006142506
 31
0.0
  0
LINE
  5
A7
330
1F
100
AcDbEntity
  8
0
  6
Continuous
 62
     7
370
    25
100
AcDbLine
 10
37.2511056511
 20
40.0006142506
 30
0.0
 11
37.2511056511
 21
45.2506142506
 31
0.0
  0
LINE
  5
A8
330
1F
100
AcDbEntity
  8
0
  6
Continuous
 62
     7
370
    25
100
AcDbLine
 10
37.2511056511
 20
34.7506142506
 30
0.0
 11
37.2511056511
 21
40.0006142506
 31
0.0
  0
LINE
  5
A9
330
1F
100
AcDbEntity
  8
0
  6
Continuous
 62
     7
370
    25
100
AcDbLine
 10
66.2511056511
 20
40.0006142506
 30
0.0
 11
66.2511056511
 21
45.2506142506
 31
0.0
  0
LINE
  5
AA
330
1F
100
AcDbEntity
  8
0
  6
Continuous
 62
     7
370
    25
100
AcDbLine
 10
66.2511056511
 20
34.7506142506
 30
0.0
 11
66.2511056511
 21
40.0006142506
 31
0.0
  0
LINE
  5
AB
330
1F
100
AcDbEntity
  8
0
  6
Continuous
 62
     7
370
    25
100
AcDbLine
 10
52.2764474596
 20
34.3020488974
 30
0.0
 11
50.6477542777
 21
34.0538670792
 31
0.0
  0
LWPOLYLINE
  5
AC
330
1F
100
AcDbEntity
  8
0
  6
Continuous
 62
     7
370
    25
100
AcDbPolyline
 90
        9
 70
   128
 43
0.0
 10
52.2686917777
 20
34.4959409428
 10
52.3075439185
 20
34.4764043016
 10
52.3370316498
 20
34.4531304755
 10
52.3557607301
 20
34.4272198995
 10
52.3628456093
 20
34.39989768
 10
52.3579512994
 20
34.3724556686
 10
52.3413092136
 20
34.3461913809
 10
52.3137062247
 20
34.3223466476
 10
52.2764474596
 20
34.3020488974
  0
LINE
  5
AD
330
1F
100
AcDbEntity
  8
0
  6
Continuous
 62
     7
370
    25
100
AcDbLine
 10
53.0054815505
 20
34.3098045792
 30
0.0
 11
52.2686917777
 21
34.4959409428
 31
0.0
  0
LWPOLYLINE
  5
AE
330
1F
100
AcDbEntity
  8
0
  6
Continuous
 62
     7
370
    25
100
AcDbPolyline
 90
       11
 70
   128
 43
0.0
 10
53.0054815505
 20
33.549747761
 10
52.8864415594
 20
33.6116884445
 10
52.7900909858
 20
33.6828110139
 10
52.7192110749
 20
33.7610624529
 10
52.6758478387
 20
33.8441839638
 10
52.6612529956
 20
33.9297761701
 10
52.6758478387
 20
34.0153683764
 10
52.7192110749
 20
34.0984898873
 10
52.7900909858
 20
34.1767413263
 10
52.8864415594
 20
34.2478638957
 10
53.0054815505
 20
34.3098045792
  0
LINE
  5
AF
330
1F
100
AcDbEntity
  8
0
  6
Continuous
 62
     7
370
    25
100
AcDbLine
 10
52.2686917777
 20
33.3636113974
 30
0.0
 11
53.0054815505
 21
33.549747761
 31
0.0
  0
LWPOLYLINE
  5
B0
330
1F
100
AcDbEntity
  8
0
  6
Continuous
 62
     7
370
    25
100
AcDbPolyline
 90
        9
 70
   128
 43
0.0
 10
52.2764474596
 20
33.5575034428
 10
52.3137062247
 20
33.5372056926
 10
52.3413092136
 20
33.5133609592
 10
52.3579512994
 20
33.4870966716
 10
52.3628456093
 20
33.4596546602
 10
52.3557607301
 20
33.4323324406
 10
52.3370316498
 20
33.4064218647
 10
52.3075439185
 20
33.3831480385
 10
52.2686917777
 20
33.3636113974
  0
LINE
  5
B1
330
1F
100
AcDbEntity
  8
0
  6
Continuous
 62
     7
370
    25
100
AcDbLine
 10
50.6477542777
 20
33.805685261
 30
0.0
 11
52.2764474596
 21
33.5575034428
 31
0.0
  0
LWPOLYLINE
  5
B2
330
1F
100
AcDbEntity
  8
0
  6
Continuous
 62
     7
370
    25
100
AcDbPolyline
 90
        9
 70
   128
 43
0.0
 10
50.6477542777
 20
34.0538670792
 10
50.5800335574
 20
34.0336368186
 10
50.5269974662
 20
34.0044378342
 10
50.4932258528
 20
33.9687915585
 10
50.4816350121
 20
33.9297761701
 10
50.4932258528
 20
33.8907607816
 10
50.5269974662
 20
33.855114506
 10
50.5800335574
 20
33.8259155216
 10
50.6477542777
 20
33.805685261
  0
LINE
  5
B3
330
1F
100
AcDbEntity
  8
0
  6
Continuous
 62
     7
370
    25
100
AcDbLine
 10
51.4834289937
 20
33.9297761701
 30
0.0
 11
51.9817315505
 21
33.8538443519
 31
0.0
  0
LINE
  5
B4
330
1F
100
AcDbEntity
  8
0
  6
Continuous
 62
     7
370
    25
100
AcDbLine
 10
51.9817315505
 20
33.8538443519
 30
0.0
 11
51.9817315505
 21
34.0057079883
 31
0.0
  0
LINE
  5
B5
330
1F
100
AcDbEntity
  8
0
  6
Continuous
 62
     7
370
    25
100
AcDbLine
 10
51.9817315505
 20
34.0057079883
 30
0.0
 11
51.4834289937
 21
33.9297761701
 31
0.0
  0
LINE
  5
B6
330
1F
100
AcDbEntity
  8
0
  6
Continuous
 62
     7
370
    25
100
AcDbLine
 10
52.2764474596
 20
34.3107091514
 30
0.0
 11
52.2764474596
 21
34.3020488974
 31
0.0
  0
LINE
  5
B7
330
1F
100
AcDbEntity
  8
0
  6
Continuous
 62
     7
370
    25
100
AcDbLine
 10
52.2686917777
 20
34.5046011969
 30
0.0
 11
52.2686917777
 21
34.4959409428
 31
0.0
  0
LINE
  5
B8
330
1F
100
AcDbEntity
  8
0
  6
Continuous
 62
     7
370
    25
100
AcDbLine
 10
53.0054815505
 20
34.3184648332
 30
0.0
 11
53.0054815505
 21
34.3098045792
 31
0.0
  0
LINE
  5
B9
330
1F
100
AcDbEntity
  8
0
  6
Continuous
 62
     7
370
    25
100
AcDbLine
 10
53.0054815505
 20
33.558408015
 30
0.0
 11
53.0054815505
 21
33.549747761
 31
0.0
  0
LINE
  5
BA
330
1F
100
AcDbEntity
  8
0
  6
Continuous
 62
     7
370
    25
100
AcDbLine
 10
50.6477542777
 20
34.0625273332
 30
0.0
 11
50.6477542777
 21
34.0538670792
 31
0.0
  0
LINE
  5
BB
330
1F
100
AcDbEntity
  8
0
  6
Continuous
 62
     7
370
    25
100
AcDbLine
 10
51.5118454522
 20
33.9341062971
 30
0.0
 11
51.9817315505
 21
33.8625046059
 31
0.0
  0
LINE
  5
BC
330
1F
100
AcDbEntity
  8
0
  6
Continuous
 62
     7
370
    25
100
AcDbLine
 10
49.2511056511
 20
33.0006142506
 30
0.0
 11
49.2511056511
 21
33.9384364241
 31
0.0
  0
LINE
  5
BD
330
1F
100
AcDbEntity
  8
0
  6
Continuous
 62
     7
370
    25
100
AcDbLine
 10
54.2511056511
 20
33.0006142506
 30
0.0
 11
54.2511056511
 21
33.9384364241
 31
0.0
  0
LINE
  5
BE
330
1F
100
AcDbEntity
  8
0
  6
Continuous
 62
     7
370
    25
100
AcDbLine
 10
49.2511056511
 20
46.0627920771
 30
0.0
 11
49.2511056511
 21
47.0006142506
 31
0.0
  0
LINE
  5
BF
330
1F
100
AcDbEntity
  8
0
  6
Continuous
 62
     7
370
    25
100
AcDbLine
 10
54.2511056511
 20
46.0627920771
 30
0.0
 11
54.2511056511
 21
47.0006142506
 31
0.0
  0
LINE
  5
C0
330
1F
100
AcDbEntity
  8
0
  6
Continuous
 62
     7
370
    25
100
AcDbLine
 10
52.2686917777
 20
33.3722716514
 30
0.0
 11
52.2686917777
 21
33.3636113974
 31
0.0
  0
LINE
  5
C1
330
1F
100
AcDbEntity
  8
0
  6
Continuous
 62
     7
370
     0
100
AcDbLine
 10
38.1163313737
 20
45.7501525544
 30
0.0
 11
48.7511056511
 21
46.0824892506
 31
0.0
  0
LINE
  5
C2
330
1F
100
AcDbEntity
  8
0
  6
Continuous
 62
     7
370
     0
100
AcDbLine
 10
38.1163313737
 20
34.2510759468
 30
0.0
 11
48.7511056511
 21
33.9187392506
 31
0.0
  0
LINE
  5
C3
330
1F
100
AcDbEntity
  8
0
  6
Continuous
 62
     7
370
     0
100
AcDbLine
 10
48.7511056511
 20
33.2505517506
 30
0.0
 11
48.7511056511
 21
46.7506767506
 31
0.0
  0
LINE
  5
C4
330
1F
100
AcDbEntity
  8
0
  6
Continuous
 62
     7
370
     0
100
AcDbLine
 10
65.3858799285
 20
34.2510759468
 30
0.0
 11
54.7511056511
 21
33.9187392506
 31
0.0
  0
LINE
  5
C5
330
1F
100
AcDbEntity
  8
0
  6
Continuous
 62
     7
370
     0
100
AcDbLine
 10
65.3858799285
 20
45.7501525544
 30
0.0
 11
54.7511056511
 21
46.0824892506
 31
0.0
  0
LINE
  5
C6
330
1F
100
AcDbEntity
  8
0
  6
Continuous
 62
     7
370
     0
100
AcDbLine
 10
54.7511056511
 20
46.7506767506
 30
0.0
 11
54.7511056511
 21
33.2505517506
 31
0.0
  0
LINE
  5
C7
330
1F
100
AcDbEntity
  8
0
  6
Continuous
 62
     7
370
    25
100
AcDbLine
 10
54.2511056511
 20
63.2334525491
 30
0.0
 11
64.1623179973
 21
63.543177935
 31
0.0
  0
LINE
  5
C8
330
1F
100
AcDbEntity
  8
0
  6
Continuous
 62
     7
370
    25
100
AcDbLine
 10
64.1623179973
 20
76.4551021633
 30
0.0
 11
54.2511056511
 21
76.7648275491
 31
0.0
  0
LINE
  5
C9
330
1F
100
AcDbEntity
  8
0
  6
Continuous
 62
     7
370
    25
100
AcDbLine
 10
49.2511056511
 20
76.7648275491
 30
0.0
 11
39.3398933049
 21
76.4551021633
 31
0.0
  0
LINE
  5
CA
330
1F
100
AcDbEntity
  8
0
  6
Continuous
 62
     7
370
    25
100
AcDbLine
 10
39.3398933049
 20
63.543177935
 30
0.0
 11
49.2511056511
 21
63.2334525491
 31
0.0
  0
LINE
  5
CB
330
1F
100
AcDbEntity
  8
0
  6
Continuous
 62
     7
370
    25
100
AcDbLine
 10
39.3398933049
 20
76.4551021633
 30
0.0
 11
37.2511056511
 21
75.2491400491
 31
0.0
  0
LINE
  5
CC
330
1F
100
AcDbEntity
  8
0
  6
Continuous
 62
     7
370
    25
100
AcDbLine
 10
37.2511056511
 20
64.7491400491
 30
0.0
 11
39.3398933049
 21
63.543177935
 31
0.0
  0
LINE
  5
CD
330
1F
100
AcDbEntity
  8
0
  6
Continuous
 62
     7
370
    25
100
AcDbLine
 10
64.1623179973
 20
63.543177935
 30
0.0
 11
66.2511056511
 21
64.7491400491
 31
0.0
  0
LINE
  5
CE
330
1F
100
AcDbEntity
  8
0
  6
Continuous
 62
     7
370
    25
100
AcDbLine
 10
66.2511056511
 20
75.2491400491
 30
0.0
 11
64.1623179973
 21
76.4551021633
 31
0.0
  0
SPLINE
  5
CF
330
1F
100
AcDbEntity
  8
0
  6
Continuous
 62
     7
370
    25
100
AcDbSpline
210
0.0
220
0.0
230
1.0
 70
     8
 71
     3
 72
    10
 73
     6
 74
     0
 42
0.000000001
 43
0.00000001
 40
0.0
 40
0.0
 40
0.0
 40
0.0
 40
0.5
 40
0.5
 40
1.0
 40
1.0
 40
1.0
 40
1.0
 10
49.87632043344441
 20
69.99914004913995
 30
0.0
 10
49.68546921978812
 20
70.57169369010883
 30
0.0
 10
49.52823609863148
 20
71.1484296498683
 30
0.0
 10
49.31069206150321
 20
72.31395934928581
 30
0.0
 10
49.25110565110562
 20
72.9028432223527
 30
0.0
 10
49.25110565110562
 20
73.49914004914001
 30
0.0
  0
SPLINE
  5
D0
330
1F
100
AcDbEntity
  8
0
  6
Continuous
 62
     7
370
    25
100
AcDbSpline
210
0.0
220
0.0
230
1.0
 70
     8
 71
     3
 72
    12
 73
     8
 74
     0
 42
0.000000001
 43
0.00000001
 40
0.0
 40
0.0
 40
0.0
 40
0.0
 40
0.25
 40
0.25
 40
0.5
 40
0.5
 40
1.0
 40
1.0
 40
1.0
 40
1.0
 10
49.25110565110562
 20
73.49914004914001
 30
0.0
 10
49.25110565110562
 20
73.79617385331046
 30
0.0
 10
49.26588340956611
 20
74.09453970351454
 30
0.0
 10
49.32307161056136
 20
74.68476962624435
 30
0.0
 10
49.36542708028419
 20
74.9779105058729
 30
0.0
 10
49.52878765515682
 20
75.85212671155556
 30
0.0
 10
49.68594570464729
 20
76.42801586274796
 30
0.0
 10
49.87632043344465
 20
76.99914004914007
 30
0.0
  0
LINE
  5
D1
330
1F
100
AcDbEntity
  8
0
  6
Continuous
 62
     7
370
    25
100
AcDbLine
 10
49.8763204334
 20
76.9991400491
 30
0.0
 11
53.6258908688
 21
76.9991400491
 31
0.0
  0
SPLINE
  5
D2
330
1F
100
AcDbEntity
  8
0
  6
Continuous
 62
     7
370
    25
100
AcDbSpline
210
0.0
220
0.0
230
1.0
 70
     8
 71
     3
 72
    12
 73
     8
 74
     0
 42
0.000000001
 43
0.00000001
 40
0.0
 40
0.0
 40
0.0
 40
0.0
 40
0.25
 40
0.25
 40
0.5
 40
0.5
 40
1.0
 40
1.0
 40
1.0
 40
1.0
 10
54.25110565110562
 20
73.49914004914001
 30
0.0
 10
54.25110565110562
 20
73.79617385331046
 30
0.0
 10
54.23632789264513
 20
74.09453970351454
 30
0.0
 10
54.17913969164988
 20
74.68476962624435
 30
0.0
 10
54.13678422192705
 20
74.9779105058729
 30
0.0
 10
53.97342364705442
 20
75.85212671155556
 30
0.0
 10
53.81626559756396
 20
76.42801586274796
 30
0.0
 10
53.62589086876658
 20
76.99914004914007
 30
0.0
  0
SPLINE
  5
D3
330
1F
100
AcDbEntity
  8
0
  6
Continuous
 62
     7
370
    25
100
AcDbSpline
210
0.0
220
0.0
230
1.0
 70
     8
 71
     3
 72
    10
 73
     6
 74
     0
 42
0.000000001
 43
0.00000001
 40
0.0
 40
0.0
 40
0.0
 40
0.0
 40
0.5
 40
0.5
 40
1.0
 40
1.0
 40
1.0
 40
1.0
 10
53.62589086876683
 20
69.99914004913995
 30
0.0
 10
53.81674208242313
 20
70.57169369010883
 30
0.0
 10
53.97397520357976
 20
71.1484296498683
 30
0.0
 10
54.19151924070803
 20
72.31395934928581
 30
0.0
 10
54.25110565110562
 20
72.9028432223527
 30
0.0
 10
54.25110565110562
 20
73.49914004914001
 30
0.0
  0
LINE
  5
D4
330
1F
100
AcDbEntity
  8
0
  6
Continuous
 62
     7
370
    25
100
AcDbLine
 10
49.8763204334
 20
69.9991400491
 30
0.0
 11
53.6258908688
 21
69.9991400491
 31
0.0
  0
LINE
  5
D5
330
1F
100
AcDbEntity
  8
0
  6
Continuous
 62
     7
370
    25
100
AcDbLine
 10
49.2511056511
 20
66.4991400491
 30
0.0
 11
49.2511056511
 21
73.4991400491
 31
0.0
  0
SPLINE
  5
D6
330
1F
100
AcDbEntity
  8
0
  6
Continuous
 62
     7
370
    25
100
AcDbSpline
210
0.0
220
0.0
230
1.0
 70
     8
 71
     3
 72
    12
 73
     8
 74
     0
 42
0.000000001
 43
0.00000001
 40
0.0
 40
0.0
 40
0.0
 40
0.0
 40
0.2499999999999999
 40
0.2499999999999999
 40
0.4999999999999998
 40
0.4999999999999998
 40
1.0
 40
1.0
 40
1.0
 40
1.0
 10
49.25110565110563
 20
66.49914004914004
 30
0.0
 10
49.25110565110563
 20
66.79617385331048
 30
0.0
 10
49.26588340956613
 20
67.09453970351454
 30
0.0
 10
49.32307161056138
 20
67.68476962624436
 30
0.0
 10
49.3654270802842
 20
67.9779105058729
 30
0.0
 10
49.52878765515682
 20
68.85212671155556
 30
0.0
 10
49.68594570464729
 20
69.42801586274796
 30
0.0
 10
49.87632043344465
 20
69.99914004914005
 30
0.0
  0
SPLINE
  5
D7
330
1F
100
AcDbEntity
  8
0
  6
Continuous
 62
     7
370
    25
100
AcDbSpline
210
0.0
220
0.0
230
1.0
 70
     8
 71
     3
 72
    12
 73
     8
 74
     0
 42
0.000000001
 43
0.00000001
 40
0.0
 40
0.0
 40
0.0
 40
0.0
 40
0.2499999999999999
 40
0.2499999999999999
 40
0.4999999999999998
 40
0.4999999999999998
 40
1.0
 40
1.0
 40
1.0
 40
1.0
 10
54.25110565110561
 20
66.49914004914004
 30
0.0
 10
54.25110565110561
 20
66.79617385331048
 30
0.0
 10
54.23632789264511
 20
67.09453970351454
 30
0.0
 10
54.17913969164987
 20
67.68476962624436
 30
0.0
 10
54.13678422192704
 20
67.9779105058729
 30
0.0
 10
53.97342364705442
 20
68.85212671155556
 30
0.0
 10
53.81626559756396
 20
69.42801586274796
 30
0.0
 10
53.62589086876658
 20
69.99914004914005
 30
0.0
  0
LINE
  5
D8
330
1F
100
AcDbEntity
  8
0
  6
Continuous
 62
     7
370
    25
100
AcDbLine
 10
54.2511056511
 20
66.4991400491
 30
0.0
 11
54.2511056511
 21
73.4991400491
 31
0.0
  0
SPLINE
  5
D9
330
1F
100
AcDbEntity
  8
0
  6
Continuous
 62
     7
370
    25
100
AcDbSpline
210
0.0
220
0.0
230
1.0
 70
     8
 71
     3
 72
    10
 73
     6
 74
     0
 42
0.000000001
 43
0.00000001
 40
0.0
 40
0.0
 40
0.0
 40
0.0
 40
0.5
 40
0.5
 40
1.0
 40
1.0
 40
1.0
 40
1.0
 10
49.87632043344441
 20
62.99914004914
 30
0.0
 10
49.68546921978812
 20
63.57169369010887
 30
0.0
 10
49.52823609863149
 20
64.14842964986835
 30
0.0
 10
49.31069206150323
 20
65.31395934928584
 30
0.0
 10
49.25110565110563
 20
65.90284322235273
 30
0.0
 10
49.25110565110563
 20
66.49914004914004
 30
0.0
  0
SPLINE
  5
DA
330
1F
100
AcDbEntity
  8
0
  6
Continuous
 62
     7
370
    25
100
AcDbSpline
210
0.0
220
0.0
230
1.0
 70
     8
 71
     3
 72
    10
 73
     6
 74
     0
 42
0.000000001
 43
0.00000001
 40
0.0
 40
0.0
 40
0.0
 40
0.0
 40
0.5
 40
0.5
 40
1.0
 40
1.0
 40
1.0
 40
1.0
 10
53.62589086876683
 20
62.99914004914
 30
0.0
 10
53.81674208242313
 20
63.57169369010887
 30
0.0
 10
53.97397520357975
 20
64.14842964986835
 30
0.0
 10
54.19151924070802
 20
65.31395934928584
 30
0.0
 10
54.25110565110561
 20
65.90284322235273
 30
0.0
 10
54.25110565110561
 20
66.49914004914004
 30
0.0
  0
LINE
  5
DB
330
1F
100
AcDbEntity
  8
0
  6
Continuous
 62
     7
370
    25
100
AcDbLine
 10
49.8763204334
 20
62.9991400491
 30
0.0
 11
53.6258908688
 21
62.9991400491
 31
0.0
  0
LINE
  5
DC
330
1F
100
AcDbEntity
  8
0
  6
Continuous
 62
     7
370
    25
100
AcDbLine
 10
64.1623179973
 20
63.543177935
 30
0.0
 11
64.1623179973
 21
76.4551021633
 31
0.0
  0
LINE
  5
DD
330
1F
100
AcDbEntity
  8
0
  6
Continuous
 62
     7
370
    25
100
AcDbLine
 10
39.3398933049
 20
63.543177935
 30
0.0
 11
39.3398933049
 21
76.4551021633
 31
0.0
  0
LINE
  5
DE
330
1F
100
AcDbEntity
  8
0
  6
Continuous
 62
     7
370
    25
100
AcDbLine
 10
37.2511056511
 20
64.7491400491
 30
0.0
 11
37.2511056511
 21
75.2491400491
 31
0.0
  0
LINE
  5
DF
330
1F
100
AcDbEntity
  8
0
  6
Continuous
 62
     7
370
    25
100
AcDbLine
 10
66.2511056511
 20
64.7491400491
 30
0.0
 11
66.2511056511
 21
75.2491400491
 31
0.0
  0
SPLINE
  5
E0
330
1F
100
AcDbEntity
  8
0
  6
Continuous
 62
     7
370
    25
100
AcDbSpline
210
0.0
220
0.0
230
1.0
 70
    24
 71
     3
 72
    10
 73
     6
 74
     0
 42
0.000000001
 43
0.00000001
 40
0.0
 40
0.0
 40
0.0
 40
0.0
 40
0.5
 40
0.5
 40
1.0
 40
1.0
 40
1.0
 40
1.0
 10
49.25110565110562
 20
76.99914004914002
 30
0.0
 10
49.25110565110562
 20
76.99914004914002
 30
0.0
 10
49.31156962335656
 20
76.99914004914002
 30
0.0
 10
49.53058968800264
 20
76.99914004914002
 30
0.0
 10
49.68763349113981
 20
76.99914004914002
 30
0.0
 10
49.87632043344491
 20
76.99914004914004
 30
0.0
  0
LINE
  5
E1
330
1F
100
AcDbEntity
  8
0
  6
Continuous
 62
     7
370
    25
100
AcDbLine
 10
49.2511056511
 20
73.4991400491
 30
0.0
 11
49.2511056511
 21
76.9991400491
 31
0.0
  0
SPLINE
  5
E2
330
1F
100
AcDbEntity
  8
0
  6
Continuous
 62
     7
370
    25
100
AcDbSpline
210
0.0
220
0.0
230
1.0
 70
    24
 71
     3
 72
    10
 73
     6
 74
     0
 42
0.000000001
 43
0.00000001
 40
0.0
 40
0.0
 40
0.0
 40
0.0
 40
0.5
 40
0.5
 40
1.0
 40
1.0
 40
1.0
 40
1.0
 10
54.25110565110562
 20
76.99914004914002
 30
0.0
 10
54.25110565110562
 20
76.99914004914002
 30
0.0
 10
54.19064167885467
 20
76.99914004914002
 30
0.0
 10
53.9716216142086
 20
76.99914004914002
 30
0.0
 10
53.81457781107144
 20
76.99914004914002
 30
0.0
 10
53.62589086876633
 20
76.99914004914004
 30
0.0
  0
LINE
  5
E3
330
1F
100
AcDbEntity
  8
0
  6
Continuous
 62
     7
370
    25
100
AcDbLine
 10
54.2511056511
 20
73.4991400491
 30
0.0
 11
54.2511056511
 21
76.9991400491
 31
0.0
  0
SPLINE
  5
E4
330
1F
100
AcDbEntity
  8
0
  6
Continuous
 62
     7
370
    25
100
AcDbSpline
210
0.0
220
0.0
230
1.0
 70
    24
 71
     3
 72
    10
 73
     6
 74
     0
 42
0.000000001
 43
0.00000001
 40
0.0
 40
0.0
 40
0.0
 40
0.0
 40
0.5
 40
0.5
 40
1.0
 40
1.0
 40
1.0
 40
1.0
 10
54.25110565110562
 20
62.99914004914001
 30
0.0
 10
54.25110565110562
 20
62.99914004914002
 30
0.0
 10
54.19064167885398
 20
62.99914004914002
 30
0.0
 10
53.97162161420848
 20
62.99914004914003
 30
0.0
 10
53.81457781107161
 20
62.99914004914005
 30
0.0
 10
53.62589086876633
 20
62.99914004914005
 30
0.0
  0
LINE
  5
E5
330
1F
100
AcDbEntity
  8
0
  6
Continuous
 62
     7
370
    25
100
AcDbLine
 10
54.2511056511
 20
62.9991400491
 30
0.0
 11
54.2511056511
 21
66.4991400491
 31
0.0
  0
SPLINE
  5
E6
330
1F
100
AcDbEntity
  8
0
  6
Continuous
 62
     7
370
    25
100
AcDbSpline
210
0.0
220
0.0
230
1.0
 70
    24
 71
     3
 72
    10
 73
     6
 74
     0
 42
0.000000001
 43
0.00000001
 40
0.0
 40
0.0
 40
0.0
 40
0.0
 40
0.5
 40
0.5
 40
1.0
 40
1.0
 40
1.0
 40
1.0
 10
49.25110565110562
 20
62.99914004914001
 30
0.0
 10
49.25110565110562
 20
62.99914004914002
 30
0.0
 10
49.31156962335726
 20
62.99914004914002
 30
0.0
 10
49.53058968800276
 20
62.99914004914003
 30
0.0
 10
49.68763349113963
 20
62.99914004914005
 30
0.0
 10
49.87632043344491
 20
62.99914004914005
 30
0.0
  0
LINE
  5
E7
330
1F
100
AcDbEntity
  8
0
  6
Continuous
 62
     7
370
    25
100
AcDbLine
 10
49.2511056511
 20
62.9991400491
 30
0.0
 11
49.2511056511
 21
66.4991400491
 31
0.0
  0
LINE
  5
E8
330
1F
100
AcDbEntity
  8
0
  6
Continuous
 62
     7
370
    25
100
AcDbLine
 10
53.624263384
 20
62.9991400491
 30
0.0
 11
53.624263384
 21
62.9891400491
 31
0.0
  0
LINE
  5
E9
330
1F
100
AcDbEntity
  8
0
  6
Continuous
 62
     7
370
    25
100
AcDbLine
 10
53.624263384
 20
62.9891400491
 30
0.0
 11
52.472263384
 21
62.9891400491
 31
0.0
  0
LINE
  5
EA
330
1F
100
AcDbEntity
  8
0
  6
Continuous
 62
     7
370
    25
100
AcDbLine
 10
52.472263384
 20
62.9991400491
 30
0.0
 11
52.472263384
 21
62.9891400491
 31
0.0
  0
LINE
  5
EB
330
1F
100
AcDbEntity
  8
0
  6
Continuous
 62
     7
370
    25
100
AcDbLine
 10
53.624263384
 20
77.0091400491
 30
0.0
 11
53.624263384
 21
76.9991400491
 31
0.0
  0
LINE
  5
EC
330
1F
100
AcDbEntity
  8
0
  6
Continuous
 62
     7
370
    25
100
AcDbLine
 10
52.472263384
 20
77.0091400491
 30
0.0
 11
52.472263384
 21
76.9991400491
 31
0.0
  0
LINE
  5
ED
330
1F
100
AcDbEntity
  8
0
  6
Continuous
 62
     7
370
    25
100
AcDbLine
 10
53.624263384
 20
77.0091400491
 30
0.0
 11
52.472263384
 21
77.0091400491
 31
0.0
  0
LINE
  5
EE
330
1F
100
AcDbEntity
  8
0
  6
Continuous
 62
     7
370
    25
100
AcDbLine
 10
50.168263384
 20
62.9991400491
 30
0.0
 11
50.168263384
 21
62.9891400491
 31
0.0
  0
LINE
  5
EF
330
1F
100
AcDbEntity
  8
0
  6
Continuous
 62
     7
370
    25
100
AcDbLine
 10
52.472263384
 20
62.9891400491
 30
0.0
 11
50.168263384
 21
62.9891400491
 31
0.0
  0
LINE
  5
F0
330
1F
100
AcDbEntity
  8
0
  6
Continuous
 62
     7
370
    25
100
AcDbLine
 10
50.168263384
 20
77.0091400491
 30
0.0
 11
50.168263384
 21
76.9991400491
 31
0.0
  0
LINE
  5
F1
330
1F
100
AcDbEntity
  8
0
  6
Continuous
 62
     7
370
    25
100
AcDbLine
 10
52.472263384
 20
77.0091400491
 30
0.0
 11
50.168263384
 21
77.0091400491
 31
0.0
  0
LINE
  5
F2
330
1F
100
AcDbEntity
  8
0
  6
Continuous
 62
     7
370
     0
100
AcDbLine
 10
38.1163313737
 20
75.748678353
 30
0.0
 11
48.7511056511
 21
76.0810150491
 31
0.0
  0
LINE
  5
F3
330
1F
100
AcDbEntity
  8
0
  6
Continuous
 62
     7
370
     0
100
AcDbLine
 10
38.1163313737
 20
64.2496017453
 30
0.0
 11
48.7511056511
 21
63.9172650491
 31
0.0
  0
LINE
  5
F4
330
1F
100
AcDbEntity
  8
0
  6
Continuous
 62
     7
370
     0
100
AcDbLine
 10
48.7511056511
 20
63.2490775491
 30
0.0
 11
48.7511056511
 21
76.7492025491
 31
0.0
  0
LINE
  5
F5
330
1F
100
AcDbEntity
  8
0
  6
Continuous
 62
     7
370
     0
100
AcDbLine
 10
65.3858799285
 20
64.2496017453
 30
0.0
 11
54.7511056511
 21
63.9172650491
 31
0.0
  0
LINE
  5
F6
330
1F
100
AcDbEntity
  8
0
  6
Continuous
 62
     7
370
     0
100
AcDbLine
 10
65.3858799285
 20
75.748678353
 30
0.0
 11
54.7511056511
 21
76.0810150491
 31
0.0
  0
LINE
  5
F7
330
1F
100
AcDbEntity
  8
0
  6
Continuous
 62
     7
370
     0
100
AcDbLine
 10
54.7511056511
 20
76.7492025491
 30
0.0
 11
54.7511056511
 21
63.2490775491
 31
0.0
  0
SPLINE
  5
F8
330
1F
100
AcDbEntity
  8
0
  6
Continuous
 62
     7
370
    25
100
AcDbSpline
210
0.0
220
0.0
230
1.0
 70
     8
 71
     3
 72
    11
 73
     7
 74
     0
 42
0.000000001
 43
0.00000001
 40
0.0
 40
0.0
 40
0.0
 40
0.0
 40
0.339328108395379
 40
0.6627635452430509
 40
0.965666215104058
 40
1.0
 40
1.0
 40
1.0
 40
1.0
 10
90.0521085239198
 20
42.38758572413538
 30
0.0
 10
89.92294310993013
 20
42.36817102685894
 30
0.0
 10
89.67066183531543
 20
42.33025093336122
 30
0.0
 10
89.32328175637063
 20
42.19789547408937
 30
0.0
 10
89.09366450197429
 20
42.08589289138162
 30
0.0
 10
88.9899534360163
 20
42.00849415647284
 30
0.0
 10
88.9793946919075
 20
42.00061425061423
 30
0.0
  0
SPLINE
  5
F9
330
1F
100
AcDbEntity
  8
0
  6
Continuous
 62
     7
370
    25
100
AcDbSpline
210
0.0
220
0.0
230
1.0
 70
     8
 71
     3
 72
    12
 73
     8
 74
     0
 42
0.000000001
 43
0.00000001
 40
0.0
 40
0.0
 40
0.0
 40
0.0
 40
0.2060913665511247
 40
0.4356549810290228
 40
0.660849793960821
 40
0.8864145390536722
 40
1.0
 40
1.0
 40
1.0
 40
1.0
 10
89.51863515598635
 20
37.73496126093977
 30
0.0
 10
89.6241638678632
 20
37.70198341063978
 30
0.0
 10
89.8472402137582
 20
37.63227178231081
 30
0.0
 10
90.20159980143097
 20
37.59376201120914
 30
0.0
 10
90.56610793784886
 20
37.60757876692006
 30
0.0
 10
90.86684326947602
 20
37.65705561221052
 30
0.0
 10
91.0370227581091
 20
37.72117204860222
 30
0.0
 10
91.09401790455394
 20
37.7426454101161
 30
0.0
  0
SPLINE
  5
FA
330
1F
100
AcDbEntity
  8
0
  6
Continuous
 62
     7
370
    25
100
AcDbSpline
210
0.0
220
0.0
230
1.0
 70
     8
 71
     3
 72
    13
 73
     9
 74
     0
 42
0.000000001
 43
0.00000001
 40
0.0
 40
0.0
 40
0.0
 40
0.0
 40
0.0008446908672806
 40
0.2121419680578455
 40
0.4257610601636372
 40
0.6391498943458775
 40
0.8497717707376182
 40
1.0
 40
1.0
 40
1.0
 40
1.0
 10
91.62829395473597
 20
42.00061425061423
 30
0.0
 10
91.62790742085848
 20
42.00091452529075
 30
0.0
 10
91.53083041829099
 20
42.076327748403
 30
0.0
 10
91.30655654021044
 20
42.18594057680716
 30
0.0
 10
90.96155870372473
 20
42.3195846265551
 30
0.0
 10
90.59740571392521
 20
42.39042039690617
 30
0.0
 10
90.26332724587668
 20
42.41119145552659
 30
0.0
 10
90.0557151059263
 20
42.38353789928393
 30
0.0
 10
89.96928252999123
 20
42.37202523870257
 30
0.0
  0
LINE
  5
FB
330
1F
100
AcDbEntity
  8
0
  6
Continuous
 62
     7
370
    25
100
AcDbLine
 10
89.3200186798
 20
38.0006142506
 30
0.0
 11
91.2836668239
 21
38.0006142506
 31
0.0
  0
LINE
  5
FC
330
1F
100
AcDbEntity
  8
0
  6
Continuous
 62
     7
370
    25
100
AcDbLine
 10
93.2104736285
 20
42.0006142506
 30
0.0
 11
87.3932118752
 21
42.0006142506
 31
0.0
  0
CIRCLE
  5
FD
330
1F
100
AcDbEntity
  8
0
  6
Continuous
 62
     7
370
    25
100
AcDbCircle
 10
90.3018427518
 20
40.0006142506
 30
0.0
 40
1.050000000000004
  0
LWPOLYLINE
  5
FE
330
1F
100
AcDbEntity
  8
0
  6
Continuous
 62
     7
370
    25
100
AcDbPolyline
 90
        3
 70
   128
 43
0.0
 10
88.5653937828
 20
37.0774746751
 10
88.3205347079
 20
37.2375691126
 10
88.1549105903
 20
37.3641995841
  0
ARC
  5
FF
330
1F
100
AcDbEntity
  8
0
  6
Continuous
 62
     7
370
    25
100
AcDbCircle
 10
90.3018427518
 20
40.0006142506
 30
0.0
 40
3.4
100
AcDbArc
 50
36.0318790725
 51
143.9681209275
  0
ARC
  5
100
330
1F
100
AcDbEntity
  8
0
  6
Continuous
 62
     7
370
    25
100
AcDbCircle
 10
90.3018427518
 20
40.0006142506
 30
0.0
 40
3.399999999999998
100
AcDbArc
 50
293.2242231052
 51
309.1572290849
  0
ARC
  5
101
330
1F
100
AcDbEntity
  8
0
  6
Continuous
 62
     7
370
    25
100
AcDbCircle
 10
90.3018427518
 20
40.0006142506
 30
0.0
 40
3.399999999999998
100
AcDbArc
 50
257.0192307692
 51
282.9807692308
  0
LWPOLYLINE
  5
102
330
1F
100
AcDbEntity
  8
0
  6
Continuous
 62
     7
370
    25
100
AcDbPolyline
 90
        3
 70
   128
 43
0.0
 10
88.9611191881
 20
36.8761206395
 10
88.8231089185
 20
36.9390221403
 10
88.5653937828
 20
37.0774746751
  0
LWPOLYLINE
  5
103
330
1F
100
AcDbEntity
  8
0
  6
Continuous
 62
     7
370
    25
100
AcDbPolyline
 90
        3
 70
   128
 43
0.0
 10
88.6179801755
 20
37.1659986503
 10
88.3773347529
 20
37.323543512
 10
88.1891237089
 20
37.4694372471
  0
ARC
  5
104
330
1F
100
AcDbEntity
  8
0
  6
Continuous
 62
     7
370
    25
100
AcDbCircle
 10
90.3018427518
 20
40.0006142506
 30
0.0
 40
3.297034846243787
100
AcDbArc
 50
37.3444727065
 51
142.6555272935
  0
ARC
  5
105
330
1F
100
AcDbEntity
  8
0
  6
Continuous
 62
     7
370
    25
100
AcDbCircle
 10
90.3018427518
 20
40.0006142506
 30
0.0
 40
3.29703484624379
100
AcDbArc
 50
292.5304255979
 51
309.8510265922
  0
ARC
  5
106
330
1F
100
AcDbEntity
  8
0
  6
Continuous
 62
     7
370
    25
100
AcDbCircle
 10
90.3018427518
 20
40.0006142506
 30
0.0
 40
3.297034846243783
100
AcDbArc
 50
257.0192307692
 51
282.9807692308
  0
LWPOLYLINE
  5
107
330
1F
100
AcDbEntity
  8
0
  6
Continuous
 62
     7
370
    25
100
AcDbPolyline
 90
        3
 70
   128
 43
0.0
 10
89.0385047769
 20
36.9552216752
 10
88.871440809
 20
37.030026925
 10
88.6179801755
 20
37.1659986503
  0
LWPOLYLINE
  5
108
330
1F
100
AcDbEntity
  8
0
  6
Continuous
 62
     7
370
    25
100
AcDbPolyline
 90
        3
 70
   128
 43
0.0
 10
88.6179801755
 20
37.1659986503
 10
88.3773347529
 20
37.323543512
 10
88.1891237089
 20
37.4694372471
  0
LWPOLYLINE
  5
109
330
1F
100
AcDbEntity
  8
0
  6
Continuous
 62
     7
370
    25
100
AcDbPolyline
 90
        3
 70
   128
 43
0.0
 10
89.0385047769
 20
36.9552216752
 10
88.871440809
 20
37.030026925
 10
88.6179801755
 20
37.1659986503
  0
ARC
  5
10A
330
1F
100
AcDbEntity
  8
0
  6
Continuous
 62
     7
370
    25
100
AcDbCircle
 10
88.7807311527
 20
42.0432569345
 30
0.0
 40
1.31717984169327
100
AcDbArc
 50
358.1447690516
 51
15.1539596524
  0
SPLINE
  5
10B
330
1F
100
AcDbEntity
  8
0
  6
Continuous
 62
     7
370
    25
100
AcDbSpline
210
0.0
220
0.0
230
1.0
 70
     8
 71
     3
 72
    10
 73
     6
 74
     0
 42
0.000000001
 43
0.00000001
 40
0.0
 40
0.0
 40
0.0
 40
0.0
 40
0.3563379147024834
 40
0.6896044473531172
 40
1.0
 40
1.0
 40
1.0
 40
1.0
 10
90.0521085239198
 20
42.38758572413538
 30
0.0
 10
89.9196787982269
 20
42.36665105372133
 30
0.0
 10
89.66339361488954
 20
42.32613714480019
 30
0.0
 10
89.3087917323377
 20
42.19183255801197
 30
0.0
 10
89.10390553156041
 20
42.06282570392727
 30
0.0
 10
89.00510249970158
 20
42.00061425061423
 30
0.0
  0
LINE
  5
10C
330
1F
100
AcDbEntity
  8
0
  6
Continuous
 62
     7
370
    25
100
AcDbLine
 10
90.0925949827
 20
42.0006142506
 30
0.0
 11
90.0521085239
 21
42.3875857241
 31
0.0
  0
CIRCLE
  5
10D
330
1F
100
AcDbEntity
  8
0
  6
Continuous
 62
     7
370
    25
100
AcDbCircle
 10
90.3018427518
 20
40.0006142506
 30
0.0
 40
0.7500000000000046
  0
CIRCLE
  5
10E
330
1F
100
AcDbEntity
  8
0
  6
Continuous
 62
     7
370
    25
100
AcDbCircle
 10
90.3018427518
 20
40.0006142506
 30
0.0
 40
0.9999999999999986
  0
ARC
  5
10F
330
1F
100
AcDbEntity
  8
0
  6
Continuous
 62
     7
370
    25
100
AcDbCircle
 10
90.3018427518
 20
40.0006142506
 30
0.0
 40
2.999999999999998
100
AcDbArc
 50
41.8103148958
 51
138.1896851042
  0
ARC
  5
110
330
1F
100
AcDbEntity
  8
0
  6
Continuous
 62
     7
370
    25
100
AcDbCircle
 10
90.3018427518
 20
40.0006142506
 30
0.0
 40
3.000000000000005
100
AcDbArc
 50
230.3273709203
 51
247.2911768896
  0
ARC
  5
111
330
1F
100
AcDbEntity
  8
0
  6
Continuous
 62
     7
370
    25
100
AcDbCircle
 10
90.3018427518
 20
40.0006142506
 30
0.0
 40
3.000000000000006
100
AcDbArc
 50
257.0041462437
 51
282.9958537563
  0
ARC
  5
112
330
1F
100
AcDbEntity
  8
0
  6
Continuous
 62
     7
370
    25
100
AcDbCircle
 10
90.3018427518
 20
40.0006142506
 30
0.0
 40
3.000000000000004
100
AcDbArc
 50
292.7088231104
 51
309.6726290797
  0
LINE
  5
113
330
1F
100
AcDbEntity
  8
0
  6
Continuous
 62
     7
370
    25
100
AcDbLine
 10
91.2115699675
 20
36.0541099249
 30
0.0
 11
90.9846406095
 21
37.0385563367
 31
0.0
  0
ARC
  5
114
330
1F
100
AcDbEntity
  8
0
  6
Continuous
 62
     7
370
    25
100
AcDbCircle
 10
91.959086122
 20
37.2631803405
 30
0.0
 40
1.000000000000006
100
AcDbArc
 50
58.7441432592
 51
192.9807692308
  0
ARC
  5
115
330
1F
100
AcDbEntity
  8
0
  6
Continuous
 62
     7
370
    25
100
AcDbCircle
 10
92.8670922491
 20
38.7591833062
 30
0.0
 40
0.7499999999999992
100
AcDbArc
 50
238.7441432592
 51
335.4568329348
  0
ARC
  5
116
330
1F
100
AcDbEntity
  8
0
  6
Continuous
 62
     7
370
    25
100
AcDbCircle
 10
90.3018427518
 20
39.9305697251
 30
0.0
 40
3.570044525465106
100
AcDbArc
 50
335.4568329348
 51
204.5431670652
  0
ARC
  5
117
330
1F
100
AcDbEntity
  8
0
  6
Continuous
 62
     7
370
    25
100
AcDbCircle
 10
87.7365932546
 20
38.7591833062
 30
0.0
 40
0.7499999999999992
100
AcDbArc
 50
204.5431670652
 51
301.2558567408
  0
ARC
  5
118
330
1F
100
AcDbEntity
  8
0
  6
Continuous
 62
     7
370
    25
100
AcDbCircle
 10
88.6445993817
 20
37.2631803405
 30
0.0
 40
1.000000000000006
100
AcDbArc
 50
347.0192307692
 51
121.2558567408
  0
LINE
  5
119
330
1F
100
AcDbEntity
  8
0
  6
Continuous
 62
     7
370
    25
100
AcDbLine
 10
89.6190448942
 20
37.0385563367
 30
0.0
 11
89.3921155361
 21
36.0541099249
 31
0.0
  0
CIRCLE
  5
11A
330
1F
100
AcDbEntity
  8
0
  6
Continuous
 62
     7
370
    25
100
AcDbCircle
 10
88.6445993817
 20
37.2631803405
 30
0.0
 40
0.5
  0
CIRCLE
  5
11B
330
1F
100
AcDbEntity
  8
0
  6
Continuous
 62
     7
370
    25
100
AcDbCircle
 10
91.959086122
 20
37.2631803405
 30
0.0
 40
0.5
  0
CIRCLE
  5
11C
330
1F
100
AcDbEntity
  8
0
  6
Continuous
 62
     7
370
    25
100
AcDbCircle
 10
90.3018427518
 20
40.0006142506
 30
0.0
 40
6.455962114180096
  0
CIRCLE
  5
11D
330
1F
100
AcDbEntity
  8
0
  6
Continuous
 62
     7
370
    25
100
AcDbCircle
 10
90.3018427518
 20
40.0006142506
 30
0.0
 40
5.250000000000014
  0
CIRCLE
  5
11E
330
1F
100
AcDbEntity
  8
0
  6
Continuous
 62
     7
370
    25
100
AcDbCircle
 10
90.3018427518
 20
40.0006142506
 30
0.0
 40
4.300000000000011
  0
CIRCLE
  5
11F
330
1F
100
AcDbEntity
  8
0
  6
Continuous
 62
     7
370
    25
100
AcDbCircle
 10
90.3018427518
 20
40.0006142506
 30
0.0
 40
4.050000000000004
  0
CIRCLE
  5
120
330
1F
100
AcDbEntity
  8
0
  6
Continuous
 62
     7
370
    25
100
AcDbCircle
 10
90.3018427518
 20
40.0006142506
 30
0.0
 40
6.765687499999999
  0
ARC
  5
121
330
1F
100
AcDbEntity
  8
0
  6
Continuous
 62
     7
370
    25
100
AcDbCircle
 10
90.3018427518
 20
40.0006142506
 30
0.0
 40
7.000000000000006
100
AcDbArc
 50
240.0
 51
300.0
  0
ARC
  5
122
330
1F
100
AcDbEntity
  8
0
  6
Continuous
 62
     7
370
    25
100
AcDbCircle
 10
90.3018427518
 20
40.0006142506
 30
0.0
 40
7.000000000000014
100
AcDbArc
 50
180.0
 51
240.0
  0
ARC
  5
123
330
1F
100
AcDbEntity
  8
0
  6
Continuous
 62
     7
370
    25
100
AcDbCircle
 10
90.3018427518
 20
40.0006142506
 30
0.0
 40
7.000000000000014
100
AcDbArc
 50
120.0
 51
180.0
  0
ARC
  5
124
330
1F
100
AcDbEntity
  8
0
  6
Continuous
 62
     7
370
    25
100
AcDbCircle
 10
90.3018427518
 20
40.0006142506
 30
0.0
 40
7.000000000000006
100
AcDbArc
 50
60.0
 51
120.0
  0
ARC
  5
125
330
1F
100
AcDbEntity
  8
0
  6
Continuous
 62
     7
370
    25
100
AcDbCircle
 10
90.3018427518
 20
40.0006142506
 30
0.0
 40
7.0
100
AcDbArc
 50
0.0
 51
60.0
  0
ARC
  5
126
330
1F
100
AcDbEntity
  8
0
  6
Continuous
 62
     7
370
    25
100
AcDbCircle
 10
90.3018427518
 20
40.0006142506
 30
0.0
 40
7.0
100
AcDbArc
 50
300.0
 51
0.0
  0
SPLINE
  5
127
330
1F
100
AcDbEntity
  8
0
  6
Continuous
 62
     7
370
    25
100
AcDbSpline
210
0.0
220
0.0
230
1.0
 70
    24
 71
     3
 72
    12
 73
     8
 74
     0
 42
0.000000001
 43
0.00000001
 40
0.0
 40
0.0
 40
0.0
 40
0.0
 40
0.25
 40
0.25
 40
0.5
 40
0.5
 40
1.0
 40
1.0
 40
1.0
 40
1.0
 10
93.80184275184271
 20
46.06279207710529
 30
0.0
 10
94.09887655601317
 20
45.89129953030907
 30
0.0
 10
94.39724240621723
 20
45.71903792637676
 30
0.0
 10
94.98747232894704
 20
45.37826852160492
 30
0.0
 10
95.28061320857559
 20
45.2090235558409
 30
0.0
 10
96.15482941425823
 20
44.70429459416009
 30
0.0
 10
96.73071856545066
 20
44.37180483769576
 30
0.0
 10
97.30184275184276
 20
44.04206613494158
 30
0.0
  0
SPLINE
  5
128
330
1F
100
AcDbEntity
  8
0
  6
Continuous
 62
     7
370
    25
100
AcDbSpline
210
0.0
220
0.0
230
1.0
 70
    24
 71
     3
 72
    10
 73
     6
 74
     0
 42
0.000000001
 43
0.00000001
 40
0.0
 40
0.0
 40
0.0
 40
0.0
 40
0.5
 40
0.5
 40
1.0
 40
1.0
 40
1.0
 40
1.0
 10
97.30184275184271
 20
40.0006142506142
 30
0.0
 10
97.30184275184271
 20
40.68468701171799
 30
0.0
 10
97.30184275184271
 20
41.37758429338513
 30
0.0
 10
97.30184275184271
 20
42.72648422574594
 30
0.0
 10
97.30184275184273
 20
43.38843539334709
 30
0.0
 10
97.30184275184273
 20
44.0420661349416
 30
0.0
  0
SPLINE
  5
129
330
1F
100
AcDbEntity
  8
0
  6
Continuous
 62
     7
370
    25
100
AcDbSpline
210
0.0
220
0.0
230
1.0
 70
    24
 71
     3
 72
    10
 73
     6
 74
     0
 42
0.000000001
 43
0.00000001
 40
0.0
 40
0.0
 40
0.0
 40
0.0
 40
0.5
 40
0.5
 40
1.0
 40
1.0
 40
1.0
 40
1.0
 10
97.3018427518427
 20
35.95916236628681
 30
0.0
 10
97.3018427518427
 20
36.61709752419766
 30
0.0
 10
97.3018427518427
 20
37.29002658311286
 30
0.0
 10
97.3018427518427
 20
38.63850441714491
 30
0.0
 10
97.3018427518427
 20
39.31703339661293
 30
0.0
 10
97.30184275184271
 20
40.0006142506142
 30
0.0
  0
SPLINE
  5
12A
330
1F
100
AcDbEntity
  8
0
  6
Continuous
 62
     7
370
    25
100
AcDbSpline
210
0.0
220
0.0
230
1.0
 70
    24
 71
     3
 72
    10
 73
     6
 74
     0
 42
0.000000001
 43
0.00000001
 40
0.0
 40
0.0
 40
0.0
 40
0.0
 40
0.5
 40
0.5
 40
1.0
 40
1.0
 40
1.0
 40
1.0
 10
97.30184275184276
 20
35.95916236628685
 30
0.0
 10
96.72928911087386
 20
35.62859836754796
 30
0.0
 10
96.15255315111439
 20
35.2956197059295
 30
0.0
 10
94.98702345169688
 20
34.62270082022231
 30
0.0
 10
94.39813957863
 20
34.28270855758571
 30
0.0
 10
93.80184275184267
 20
33.93843642412313
 30
0.0
  0
SPLINE
  5
12B
330
1F
100
AcDbEntity
  8
0
  6
Continuous
 62
     7
370
    25
100
AcDbSpline
210
0.0
220
0.0
230
1.0
 70
    24
 71
     3
 72
    12
 73
     8
 74
     0
 42
0.000000001
 43
0.00000001
 40
0.0
 40
0.0
 40
0.0
 40
0.0
 40
0.2499999999999999
 40
0.2499999999999999
 40
0.4999999999999998
 40
0.4999999999999998
 40
1.0
 40
1.0
 40
1.0
 40
1.0
 10
86.80184275184273
 20
46.06279207710534
 30
0.0
 10
87.09887655601317
 20
46.23428462390157
 30
0.0
 10
87.39724240621725
 20
46.40654622783388
 30
0.0
 10
87.98747232894705
 20
46.74731563260569
 30
0.0
 10
88.2806132085756
 20
46.91656059836972
 30
0.0
 10
89.15482941425824
 20
47.42128956005052
 30
0.0
 10
89.73071856545064
 20
47.75377931651484
 30
0.0
 10
90.30184275184274
 20
48.08351801926901
 30
0.0
  0
SPLINE
  5
12C
330
1F
100
AcDbEntity
  8
0
  6
Continuous
 62
     7
370
    25
100
AcDbSpline
210
0.0
220
0.0
230
1.0
 70
    24
 71
     3
 72
    10
 73
     6
 74
     0
 42
0.000000001
 43
0.00000001
 40
0.0
 40
0.0
 40
0.0
 40
0.0
 40
0.5
 40
0.5
 40
1.0
 40
1.0
 40
1.0
 40
1.0
 10
90.30184275184266
 20
48.08351801926903
 30
0.0
 10
90.87439639281153
 20
47.75295402053014
 30
0.0
 10
91.45113235257101
 20
47.41997535891167
 30
0.0
 10
92.6166620519885
 20
46.74705647320447
 30
0.0
 10
93.20554592505539
 20
46.40706421056787
 30
0.0
 10
93.80184275184271
 20
46.06279207710529
 30
0.0
  0
SPLINE
  5
12D
330
1F
100
AcDbEntity
  8
0
  6
Continuous
 62
     7
370
    25
100
AcDbSpline
210
0.0
220
0.0
230
1.0
 70
    24
 71
     3
 72
    10
 73
     6
 74
     0
 42
0.000000001
 43
0.00000001
 40
0.0
 40
0.0
 40
0.0
 40
0.0
 40
0.5
 40
0.5
 40
1.0
 40
1.0
 40
1.0
 40
1.0
 10
90.30184275184271
 20
31.91771048195942
 30
0.0
 10
89.72928911087382
 20
32.24827448069831
 30
0.0
 10
89.15255315111435
 20
32.58125314231679
 30
0.0
 10
87.98702345169686
 20
33.254172028024
 30
0.0
 10
87.39813957862998
 20
33.59416429066059
 30
0.0
 10
86.80184275184266
 20
33.93843642412318
 30
0.0
  0
SPLINE
  5
12E
330
1F
100
AcDbEntity
  8
0
  6
Continuous
 62
     7
370
    25
100
AcDbSpline
210
0.0
220
0.0
230
1.0
 70
    24
 71
     3
 72
    12
 73
     8
 74
     0
 42
0.000000001
 43
0.00000001
 40
0.0
 40
0.0
 40
0.0
 40
0.0
 40
0.25
 40
0.25
 40
0.5
 40
0.5
 40
1.0
 40
1.0
 40
1.0
 40
1.0
 10
93.80184275184267
 20
33.93843642412313
 30
0.0
 10
93.50480894767223
 20
33.76694387732692
 30
0.0
 10
93.20644309746815
 20
33.5946822733946
 30
0.0
 10
92.61621317473833
 20
33.25391286862278
 30
0.0
 10
92.3230722951098
 20
33.08466790285876
 30
0.0
 10
91.44885608942712
 20
32.57993894117794
 30
0.0
 10
90.87296693823473
 20
32.24744918471362
 30
0.0
 10
90.30184275184261
 20
31.91771048195944
 30
0.0
  0
SPLINE
  5
12F
330
1F
100
AcDbEntity
  8
0
  6
Continuous
 62
     7
370
    25
100
AcDbSpline
210
0.0
220
0.0
230
1.0
 70
    24
 71
     3
 72
    10
 73
     6
 74
     0
 42
0.000000001
 43
0.00000001
 40
0.0
 40
0.0
 40
0.0
 40
0.0
 40
0.5
 40
0.5
 40
1.0
 40
1.0
 40
1.0
 40
1.0
 10
83.30184275184266
 20
35.9591623662869
 30
0.0
 10
83.30184275184267
 20
36.61709752419588
 30
0.0
 10
83.30184275184267
 20
37.29002658310947
 30
0.0
 10
83.30184275184268
 20
38.63850441714177
 30
0.0
 10
83.3018427518427
 20
39.31703339661085
 30
0.0
 10
83.3018427518427
 20
40.0006142506143
 30
0.0
  0
SPLINE
  5
130
330
1F
100
AcDbEntity
  8
0
  6
Continuous
 62
     7
370
    25
100
AcDbSpline
210
0.0
220
0.0
230
1.0
 70
    24
 71
     3
 72
    12
 73
     8
 74
     0
 42
0.000000001
 43
0.00000001
 40
0.0
 40
0.0
 40
0.0
 40
0.0
 40
0.2499999999999999
 40
0.2499999999999999
 40
0.4999999999999998
 40
0.4999999999999998
 40
1.0
 40
1.0
 40
1.0
 40
1.0
 10
86.80184275184266
 20
33.93843642412318
 30
0.0
 10
86.5048089476722
 20
34.10992897091941
 30
0.0
 10
86.20644309746814
 20
34.28219057485173
 30
0.0
 10
85.61621317473835
 20
34.62295997962357
 30
0.0
 10
85.3230722951098
 20
34.79220494538759
 30
0.0
 10
84.44885608942714
 20
35.29693390706841
 30
0.0
 10
83.87296693823474
 20
35.62942366353273
 30
0.0
 10
83.30184275184263
 20
35.95916236628693
 30
0.0
  0
SPLINE
  5
131
330
1F
100
AcDbEntity
  8
0
  6
Continuous
 62
     7
370
    25
100
AcDbSpline
210
0.0
220
0.0
230
1.0
 70
    24
 71
     3
 72
    10
 73
     6
 74
     0
 42
0.000000001
 43
0.00000001
 40
0.0
 40
0.0
 40
0.0
 40
0.0
 40
0.5
 40
0.5
 40
1.0
 40
1.0
 40
1.0
 40
1.0
 10
83.30184275184268
 20
44.04206613494166
 30
0.0
 10
83.87439639281156
 20
44.37263013368054
 30
0.0
 10
84.45113235257104
 20
44.705608795299
 30
0.0
 10
85.61666205198854
 20
45.37852768100618
 30
0.0
 10
86.20554592505542
 20
45.71851994364278
 30
0.0
 10
86.80184275184273
 20
46.06279207710534
 30
0.0
  0
SPLINE
  5
132
330
1F
100
AcDbEntity
  8
0
  6
Continuous
 62
     7
370
    25
100
AcDbSpline
210
0.0
220
0.0
230
1.0
 70
    24
 71
     3
 72
    10
 73
     6
 74
     0
 42
0.000000001
 43
0.00000001
 40
0.0
 40
0.0
 40
0.0
 40
0.0
 40
0.5
 40
0.5
 40
1.0
 40
1.0
 40
1.0
 40
1.0
 10
83.3018427518427
 20
40.0006142506143
 30
0.0
 10
83.30184275184271
 20
40.68468701172343
 30
0.0
 10
83.30184275184271
 20
41.37758429339033
 30
0.0
 10
83.30184275184273
 20
42.72648422574601
 30
0.0
 10
83.30184275184274
 20
43.38843539334658
 30
0.0
 10
83.30184275184274
 20
44.04206613494169
 30
0.0
  0
ENDSEC
  0
SECTION
  2
OBJECTS
  0
DICTIONARY
  5
C
330
0
100
AcDbDictionary
281
     1
  3
ACAD_GROUP
350
D
  3
ACAD_LAYOUT
350
1A
  3
ACAD_MLINESTYLE
350
17
  3
ACAD_PLOTSETTINGS
350
19
  3
ACAD_PLOTSTYLENAME
350
E
  3
ACAD_SCALELIST
350
47
  0
DICTIONARY
  5
D
102
{ACAD_REACTORS
330
C
102
}
330
C
100
AcDbDictionary
281
     1
  0
DICTIONARY
  5
1A
102
{ACAD_REACTORS
330
C
102
}
330
C
100
AcDbDictionary
281
     1
  3
Layout1
350
1E
  3
Layout2
350
26
  3
Model
350
22
  0
DICTIONARY
  5
17
102
{ACAD_REACTORS
330
C
102
}
330
C
100
AcDbDictionary
281
     1
  3
Standard
350
18
  0
DICTIONARY
  5
19
102
{ACAD_REACTORS
330
C
102
}
330
C
100
AcDbDictionary
281
     1
  0
ACDBDICTIONARYWDFLT
  5
E
102
{ACAD_REACTORS
330
C
102
}
330
C
100
AcDbDictionary
281
     1
  3
Normal
350
F
100
AcDbDictionaryWithDefault
340
F
  0
DICTIONARY
  5
47
102
{ACAD_REACTORS
330
C
102
}
330
C
100
AcDbDictionary
281
     1
  3
A0
350
48
  3
A1
350
49
  3
A2
350
4A
  3
A3
350
4B
  3
A4
350
4C
  3
A5
350
4D
  3
A6
350
4E
  3
A7
350
4F
  3
A8
350
50
  3
A9
350
51
  3
B0
350
52
  3
B1
350
53
  3
B2
350
54
  3
B3
350
55
  3
B4
350
56
  3
B5
350
57
  3
B6
350
58
  3
B7
350
59
  3
B8
350
5A
  3
B9
350
5B
  3
C0
350
5C
  3
C1
350
5D
  3
C2
350
5E
  3
C3
350
5F
  3
C4
350
60
  3
C5
350
61
  3
C6
350
62
  3
C7
350
63
  3
C8
350
64
  3
C9
350
65
  3
D0
350
66
  3
D1
350
67
  3
D2
350
68
  0
LAYOUT
  5
1E
102
{ACAD_REACTORS
330
1A
102
}
330
1A
100
AcDbPlotSettings
  1

  2
none_device
  4

  6

 40
0.0
 41
0.0
 42
0.0
 43
0.0
 44
0.0
 45
0.0
 46
0.0
 47
0.0
 48
0.0
 49
0.0
140
0.0
141
0.0
142
1.0
143
1.0
 70
   688
 72
     1
 73
     0
 74
     5
  7

 75
    16
147
1.0
148
0.0
149
0.0
100
AcDbLayout
  1
Layout1
 70
     1
 71
     1
 10
0.0
 20
0.0
 11
420.0
 21
297.0
 12
0.0
 22
0.0
 32
0.0
 14
1.0000000000E+20
 24
1.0000000000E+20
 34
1.0000000000E+20
 15
-1.0000000000E+20
 25
-1.0000000000E+20
 35
-1.0000000000E+20
146
0.0
 13
0.0
 23
0.0
 33
0.0
 16
1.0
 26
0.0
 36
0.0
 17
0.0
 27
1.0
 37
0.0
 76
     0
330
1B
  0
LAYOUT
  5
26
102
{ACAD_REACTORS
330
1A
102
}
330
1A
100
AcDbPlotSettings
  1

  2
none_device
  4

  6

 40
0.0
 41
0.0
 42
0.0
 43
0.0
 44
0.0
 45
0.0
 46
0.0
 47
0.0
 48
0.0
 49
0.0
140
0.0
141
0.0
142
1.0
143
1.0
 70
   688
 72
     1
 73
     0
 74
     5
  7

 75
    16
147
1.0
148
0.0
149
0.0
100
AcDbLayout
  1
Layout2
 70
     1
 71
     2
 10
0.0
 20
0.0
 11
0.0
 21
0.0
 12
0.0
 22
0.0
 32
0.0
 14
0.0
 24
0.0
 34
0.0
 15
0.0
 25
0.0
 35
0.0
146
0.0
 13
0.0
 23
0.0
 33
0.0
 16
1.0
 26
0.0
 36
0.0
 17
0.0
 27
1.0
 37
0.0
 76
     0
330
23
  0
LAYOUT
  5
22
102
{ACAD_REACTORS
330
1A
102
}
330
1A
100
AcDbPlotSettings
  1

  2
none_device
  4
Letter_(8.50_x_11.00_Inches)
  6

 40
6.35
 41
6.35
 42
6.35000508
 43
6.35000508
 44
215.9
 45
279.4
 46
0.0
 47
0.0
 48
0.0
 49
0.0
140
0.0
141
0.0
142
1.0
143
1.0
 70
  1712
 72
     1
 73
     0
 74
     0
  7

 75
     0
147
1.0
148
0.0
149
0.0
100
AcDbLayout
  1
Model
 70
     1
 71
     0
 10
0.0
 20
0.0
 11
148.5
 21
105.0
 12
0.0
 22
0.0
 32
0.0
 14
0.0
 24
0.0
 34
0.0
 15
148.5
 25
105.0
 35
0.0
146
0.0
 13
0.0
 23
0.0
 33
0.0
 16
1.0
 26
0.0
 36
0.0
 17
0.0
 27
1.0
 37
0.0
 76
     0
330
1F
331
29
  0
MLINESTYLE
  5
18
102
{ACAD_REACTORS
330
17
102
}
330
17
100
AcDbMlineStyle
  2
Standard
 70
     0
  3

 62
   256
 51
90.0
 52
90.0
 71
     2
 49
0.5
 62
   256
  6
BYLAYER
 49
-0.5
 62
   256
  6
BYLAYER
  0
ACDBPLACEHOLDER
  5
F
102
{ACAD_REACTORS
330
E
102
}
330
E
  0
SCALE
  5
48
102
{ACAD_REACTORS
330
47
102
}
330
47
100
AcDbScale
 70
     0
300
1:1
140
1.0
141
1.0
290
     1
  0
SCALE
  5
49
102
{ACAD_REACTORS
330
47
102
}
330
47
100
AcDbScale
 70
     0
300
1:2
140
1.0
141
2.0
290
     0
  0
SCALE
  5
4A
102
{ACAD_REACTORS
330
47
102
}
330
47
100
AcDbScale
 70
     0
300
1:4
140
1.0
141
4.0
290
     0
  0
SCALE
  5
4B
102
{ACAD_REACTORS
330
47
102
}
330
47
100
AcDbScale
 70
     0
300
1:5
140
1.0
141
5.0
290
     0
  0
SCALE
  5
4C
102
{ACAD_REACTORS
330
47
102
}
330
47
100
AcDbScale
 70
     0
300
1:8
140
1.0
141
8.0
290
     0
  0
SCALE
  5
4D
102
{ACAD_REACTORS
330
47
102
}
330
47
100
AcDbScale
 70
     0
300
1:10
140
1.0
141
10.0
290
     0
  0
SCALE
  5
4E
102
{ACAD_REACTORS
330
47
102
}
330
47
100
AcDbScale
 70
     0
300
1:16
140
1.0
141
16.0
290
     0
  0
SCALE
  5
4F
102
{ACAD_REACTORS
330
47
102
}
330
47
100
AcDbScale
 70
     0
300
1:20
140
1.0
141
20.0
290
     0
  0
SCALE
  5
50
102
{ACAD_REACTORS
330
47
102
}
330
47
100
AcDbScale
 70
     0
300
1:30
140
1.0
141
30.0
290
     0
  0
SCALE
  5
51
102
{ACAD_REACTORS
330
47
102
}
330
47
100
AcDbScale
 70
     0
300
1:40
140
1.0
141
40.0
290
     0
  0
SCALE
  5
52
102
{ACAD_REACTORS
330
47
102
}
330
47
100
AcDbScale
 70
     0
300
1:50
140
1.0
141
50.0
290
     0
  0
SCALE
  5
53
102
{ACAD_REACTORS
330
47
102
}
330
47
100
AcDbScale
 70
     0
300
1:100
140
1.0
141
100.0
290
     0
  0
SCALE
  5
54
102
{ACAD_REACTORS
330
47
102
}
330
47
100
AcDbScale
 70
     0
300
2:1
140
2.0
141
1.0
290
     0
  0
SCALE
  5
55
102
{ACAD_REACTORS
330
47
102
}
330
47
100
AcDbScale
 70
     0
300
4:1
140
4.0
141
1.0
290
     0
  0
SCALE
  5
56
102
{ACAD_REACTORS
330
47
102
}
330
47
100
AcDbScale
 70
     0
300
8:1
140
8.0
141
1.0
290
     0
  0
SCALE
  5
57
102
{ACAD_REACTORS
330
47
102
}
330
47
100
AcDbScale
 70
     0
300
10:1
140
10.0
141
1.0
290
     0
  0
SCALE
  5
58
102
{ACAD_REACTORS
330
47
102
}
330
47
100
AcDbScale
 70
     0
300
100:1
140
100.0
141
1.0
290
     0
  0
SCALE
  5
59
102
{ACAD_REACTORS
330
47
102
}
330
47
100
AcDbScale
 70
     0
300
1/128" = 1'-0"
140
0.0078125
141
12.0
290
     0
  0
SCALE
  5
5A
102
{ACAD_REACTORS
330
47
102
}
330
47
100
AcDbScale
 70
     0
300
1/64" = 1'-0"
140
0.015625
141
12.0
290
     0
  0
SCALE
  5
5B
102
{ACAD_REACTORS
330
47
102
}
330
47
100
AcDbScale
 70
     0
300
1/32" = 1'-0"
140
0.03125
141
12.0
290
     0
  0
SCALE
  5
5C
102
{ACAD_REACTORS
330
47
102
}
330
47
100
AcDbScale
 70
     0
300
1/16" = 1'-0"
140
0.0625
141
12.0
290
     0
  0
SCALE
  5
5D
102
{ACAD_REACTORS
330
47
102
}
330
47
100
AcDbScale
 70
     0
300
3/32" = 1'-0"
140
0.09375
141
12.0
290
     0
  0
SCALE
  5
5E
102
{ACAD_REACTORS
330
47
102
}
330
47
100
AcDbScale
 70
     0
300
1/8" = 1'-0"
140
0.125
141
12.0
290
     0
  0
SCALE
  5
5F
102
{ACAD_REACTORS
330
47
102
}
330
47
100
AcDbScale
 70
     0
300
3/16" = 1'-0"
140
0.1875
141
12.0
290
     0
  0
SCALE
  5
60
102
{ACAD_REACTORS
330
47
102
}
330
47
100
AcDbScale
 70
     0
300
1/4" = 1'-0"
140
0.25
141
12.0
290
     0
  0
SCALE
  5
61
102
{ACAD_REACTORS
330
47
102
}
330
47
100
AcDbScale
 70
     0
300
3/8" = 1'-0"
140
0.375
141
12.0
290
     0
  0
SCALE
  5
62
102
{ACAD_REACTORS
330
47
102
}
330
47
100
AcDbScale
 70
     0
300
1/2" = 1'-0"
140
0.5
141
12.0
290
     0
  0
SCALE
  5
63
102
{ACAD_REACTORS
330
47
102
}
330
47
100
AcDbScale
 70
     0
300
3/4" = 1'-0"
140
0.75
141
12.0
290
     0
  0
SCALE
  5
64
102
{ACAD_REACTORS
330
47
102
}
330
47
100
AcDbScale
 70
     0
300
1" = 1'-0"
140
1.0
141
12.0
290
     0
  0
SCALE
  5
65
102
{ACAD_REACTORS
330
47
102
}
330
47
100
AcDbScale
 70
     0
300
1-1/2" = 1'-0"
140
1.5
141
12.0
290
     0
  0
SCALE
  5
66
102
{ACAD_REACTORS
330
47
102
}
330
47
100
AcDbScale
 70
     0
300
3" = 1'-0"
140
3.0
141
12.0
290
     0
  0
SCALE
  5
67
102
{ACAD_REACTORS
330
47
102
}
330
47
100
AcDbScale
 70
     0
300
6" = 1'-0"
140
6.0
141
12.0
290
     0
  0
SCALE
  5
68
102
{ACAD_REACTORS
330
47
102
}
330
47
100
AcDbScale
 70
     0
300
1'-0" = 1'-0"
140
12.0
141
12.0
290
     0
  0
ENDSEC
  0
EOF
