  0
SECTION
  2
HEADER
  9
$ACADVER
  1
AC1015
  9
$ACADMAINTVER
 70
     6
  9
$DWGCODEPAGE
  3
DOS932
  9
$INSBASE
 10
0.0
 20
0.0
 30
0.0
  9
$EXTMIN
 10
0.0
 20
0.0
 30
0.0
  9
$EXTMAX
 10
148.5
 20
105.0
 30
0.0
  9
$LIMMIN
 10
0.0
 20
0.0
  9
$LIMMAX
 10
148.5
 20
105.0
  9
$ORTHOMODE
 70
     0
  9
$REGENMODE
 70
     1
  9
$FILLMODE
 70
     1
  9
$QTEXTMODE
 70
     0
  9
$MIRRTEXT
 70
     1
  9
$LTSCALE
 40
0.5
  9
$ATTMODE
 70
     1
  9
$TEXTSIZE
 40
1.75
  9
$TRACEWID
 40
1.0
  9
$TEXTSTYLE
  7
Standard
  9
$CLAYER
  8
0
  9
$CELTYPE
  6
ByLayer
  9
$CECOLOR
 62
   256
  9
$CELTSCALE
 40
1.0
  9
$DISPSILH
 70
     0
  9
$DIMSCALE
 40
1.0
  9
$DIMASZ
 40
1.778
  9
$DIMEXO
 40
0.5
  9
$DIMDLI
 40
3.75
  9
$DIMRND
 40
0.0
  9
$DIMDLE
 40
0.0
  9
$DIMEXE
 40
0.5
  9
$DIMTP
 40
0.0
  9
$DIMTM
 40
0.0
  9
$DIMTXT
 40
1.75
  9
$DIMCEN
 40
2.5
  9
$DIMTSZ
 40
0.0
  9
$DIMTOL
 70
     0
  9
$DIMLIM
 70
     0
  9
$DIMTIH
 70
     1
  9
$DIMTOH
 70
     1
  9
$DIMSE1
 70
     0
  9
$DIMSE2
 70
     0
  9
$DIMTAD
 70
     1
  9
$DIMZIN
 70
     1
  9
$DIMBLK
  1

  9
$DIMASO
 70
     1
  9
$DIMSHO
 70
     1
  9
$DIMPOST
  1

  9
$DIMAPOST
  1

  9
$DIMALT
 70
     0
  9
$DIMALTD
 70
     3
  9
$DIMALTF
 40
0.0393700787
  9
$DIMLFAC
 40
1.0
  9
$DIMTOFL
 70
     1
  9
$DIMTVP
 40
0.0
  9
$DIMTIX
 70
     0
  9
$DIMSOXD
 70
     0
  9
$DIMSAH
 70
     0
  9
$DIMBLK1
  1

  9
$DIMBLK2
  1

  9
$DIMSTYLE
  2
ISO-25
  9
$DIMCLRD
 70
     0
  9
$DIMCLRE
 70
     0
  9
$DIMCLRT
 70
     0
  9
$DIMTFAC
 40
1.0
  9
$DIMGAP
 40
0.762
  9
$DIMJUST
 70
     0
  9
$DIMSD1
 70
     0
  9
$DIMSD2
 70
     0
  9
$DIMTOLJ
 70
     0
  9
$DIMTZIN
 70
     1
  9
$DIMALTZ
 70
     0
  9
$DIMALTTZ
 70
     0
  9
$DIMUPT
 70
     0
  9
$DIMDEC
 70
     2
  9
$DIMTDEC
 70
     2
  9
$DIMALTU
 70
     2
  9
$DIMALTTD
 70
     3
  9
$DIMTXSTY
  7
Standard
  9
$DIMAUNIT
 70
     0
  9
$DIMADEC
 70
     2
  9
$DIMALTRND
 40
0.0
  9
$DIMAZIN
 70
     0
  9
$DIMDSEP
 70
    44
  9
$DIMATFIT
 70
     3
  9
$DIMFRAC
 70
     0
  9
$DIMLDRBLK
  1

  9
$DIMLUNIT
 70
     2
  9
$DIMLWD
 70
    -2
  9
$DIMLWE
 70
    -2
  9
$DIMTMOVE
 70
     0
  9
$LUNITS
 70
     2
  9
$LUPREC
 70
     2
  9
$SKETCHINC
 40
1.0
  9
$FILLETRAD
 40
10.0
  9
$AUNITS
 70
     0
  9
$AUPREC
 70
     2
  9
$MENU
  1
.
  9
$ELEVATION
 40
0.0
  9
$PELEVATION
 40
0.0
  9
$THICKNESS
 40
0.0
  9
$LIMCHECK
 70
     0
  9
$CHAMFERA
 40
0.0
  9
$CHAMFERB
 40
0.0
  9
$CHAMFERC
 40
0.0
  9
$CHAMFERD
 40
0.0
  9
$SKPOLY
 70
     0
  9
$TDCREATE
 40
2459241.625011898
  9
$TDUCREATE
 40
2459241.250011898
  9
$TDUPDATE
 40
2459241.625012338
  9
$TDUUPDATE
 40
2459241.250012338
  9
$TDINDWG
 40
0.0000000116
  9
$TDUSRTIMER
 40
0.0000000116
  9
$USRTIMER
 70
     1
  9
$ANGBASE
 50
0.0
  9
$ANGDIR
 70
     0
  9
$PDMODE
 70
     0
  9
$PDSIZE
 40
-1.0
  9
$PLINEWID
 40
0.0
  9
$SPLFRAME
 70
     0
  9
$SPLINETYPE
 70
     6
  9
$SPLINESEGS
 70
     8
  9
$HANDSEED
  5
122
  9
$SURFTAB1
 70
     6
  9
$SURFTAB2
 70
     6
  9
$SURFTYPE
 70
     6
  9
$SURFU
 70
     6
  9
$SURFV
 70
     6
  9
$UCSBASE
  2

  9
$UCSNAME
  2

  9
$UCSORG
 10
0.0
 20
0.0
 30
0.0
  9
$UCSXDIR
 10
1.0
 20
0.0
 30
0.0
  9
$UCSYDIR
 10
0.0
 20
1.0
 30
0.0
  9
$UCSORTHOREF
  2

  9
$UCSORTHOVIEW
 70
     0
  9
$UCSORGTOP
 10
0.0
 20
0.0
 30
0.0
  9
$UCSORGBOTTOM
 10
0.0
 20
0.0
 30
0.0
  9
$UCSORGLEFT
 10
0.0
 20
0.0
 30
0.0
  9
$UCSORGRIGHT
 10
0.0
 20
0.0
 30
0.0
  9
$UCSORGFRONT
 10
0.0
 20
0.0
 30
0.0
  9
$UCSORGBACK
 10
0.0
 20
0.0
 30
0.0
  9
$PUCSBASE
  2

  9
$PUCSNAME
  2

  9
$PUCSORG
 10
0.0
 20
0.0
 30
0.0
  9
$PUCSXDIR
 10
1.0
 20
0.0
 30
0.0
  9
$PUCSYDIR
 10
0.0
 20
1.0
 30
0.0
  9
$PUCSORTHOREF
  2

  9
$PUCSORTHOVIEW
 70
     0
  9
$PUCSORGTOP
 10
0.0
 20
0.0
 30
0.0
  9
$PUCSORGBOTTOM
 10
0.0
 20
0.0
 30
0.0
  9
$PUCSORGLEFT
 10
0.0
 20
0.0
 30
0.0
  9
$PUCSORGRIGHT
 10
0.0
 20
0.0
 30
0.0
  9
$PUCSORGFRONT
 10
0.0
 20
0.0
 30
0.0
  9
$PUCSORGBACK
 10
0.0
 20
0.0
 30
0.0
  9
$USERI1
 70
     0
  9
$USERI2
 70
     0
  9
$USERI3
 70
     0
  9
$USERI4
 70
     0
  9
$USERI5
 70
     0
  9
$USERR1
 40
0.0
  9
$USERR2
 40
0.0
  9
$USERR3
 40
0.0
  9
$USERR4
 40
0.0
  9
$USERR5
 40
0.0
  9
$WORLDVIEW
 70
     1
  9
$SHADEDGE
 70
     3
  9
$SHADEDIF
 70
    70
  9
$TILEMODE
 70
     1
  9
$MAXACTVP
 70
    64
  9
$PINSBASE
 10
0.0
 20
0.0
 30
0.0
  9
$PLIMCHECK
 70
     0
  9
$PEXTMIN
 10
1.0000000000E+20
 20
1.0000000000E+20
 30
1.0000000000E+20
  9
$PEXTMAX
 10
-1.0000000000E+20
 20
-1.0000000000E+20
 30
-1.0000000000E+20
  9
$PLIMMIN
 10
0.0
 20
0.0
  9
$PLIMMAX
 10
420.0
 20
297.0
  9
$UNITMODE
 70
     0
  9
$VISRETAIN
 70
     1
  9
$PLINEGEN
 70
     0
  9
$PSLTSCALE
 70
     1
  9
$TREEDEPTH
 70
  3020
  9
$CMLSTYLE
  2
Standard
  9
$CMLJUST
 70
     0
  9
$CMLSCALE
 40
20.0
  9
$PROXYGRAPHICS
 70
     1
  9
$MEASUREMENT
 70
     1
  9
$CELWEIGHT
370
    -1
  9
$ENDCAPS
280
     0
  9
$JOINSTYLE
280
     0
  9
$LWDISPLAY
290
     1
  9
$INSUNITS
 70
     4
  9
$HYPERLINKBASE
  1

  9
$STYLESHEET
  1

  9
$XEDIT
290
     1
  9
$CEPSNTYPE
380
     0
  9
$PSTYLEMODE
290
     1
  9
$FINGERPRINTGUID
  2
{D98B0817-2DFA-4725-9BB3-65F91109F724}
  9
$VERSIONGUID
  2
{FAEB1C32-E019-11D5-929B-00C0DF256EC4}
  9
$EXTNAMES
290
     1
  9
$PSVPSCALE
 40
0.0
  9
$OLESTARTUP
290
     0
  0
ENDSEC
  0
SECTION
  2
CLASSES
  0
CLASS
  1
ACDBDICTIONARYWDFLT
  2
AcDbDictionaryWithDefault
  3
ObjectDBX Classes
 90
        0
280
     0
281
     0
  0
CLASS
  1
VISUALSTYLE
  2
AcDbVisualStyle
  3
ObjectDBX Classes
 90
     4095
280
     0
281
     0
  0
CLASS
  1
MATERIAL
  2
AcDbMaterial
  3
ObjectDBX Classes
 90
     1153
280
     0
281
     0
  0
CLASS
  1
SCALE
  2
AcDbScale
  3
ObjectDBX Classes
 90
     1153
280
     0
281
     0
  0
CLASS
  1
TABLESTYLE
  2
AcDbTableStyle
  3
ObjectDBX Classes
 90
     4095
280
     0
281
     0
  0
CLASS
  1
MLEADERSTYLE
  2
AcDbMLeaderStyle
  3
ACDB_MLEADERSTYLE_CLASS
 90
     4095
280
     0
281
     0
  0
CLASS
  1
SUN
  2
AcDbSun
  3
SCENEOE
 90
     1153
280
     0
281
     0
  0
CLASS
  1
ACDBPLACEHOLDER
  2
AcDbPlaceHolder
  3
ObjectDBX Classes
 90
        0
280
     0
281
     0
  0
CLASS
  1
LAYOUT
  2
AcDbLayout
  3
ObjectDBX Classes
 90
        0
280
     0
281
     0
  0
ENDSEC
  0
SECTION
  2
TABLES
  0
TABLE
  2
VPORT
  5
8
330
0
100
AcDbSymbolTable
 70
     1
  0
VPORT
  5
29
330
8
100
AcDbSymbolTableRecord
100
AcDbViewportTableRecord
  2
*Active
 70
     0
 10
0.0
 20
0.0
 11
1.0
 21
1.0
 12
74.25
 22
52.5
 13
0.0
 23
0.0
 14
10.0
 24
10.0
 15
10.0
 25
10.0
 16
0.0
 26
0.0
 36
1.0
 17
0.0
 27
0.0
 37
0.0
 40
105.0
 41
1.4142857143
 42
50.0
 43
0.0
 44
0.0
 50
0.0
 51
0.0
 71
     0
 72
  2000
 73
     1
 74
     3
 75
     0
 76
     0
 77
     0
 78
     0
281
     0
 65
     1
110
0.0
120
0.0
130
0.0
111
1.0
121
0.0
131
0.0
112
0.0
122
1.0
132
0.0
 79
     0
146
0.0
  0
ENDTAB
  0
TABLE
  2
LTYPE
  5
5
330
0
100
AcDbSymbolTable
 70
     6
  0
LTYPE
  5
14
330
5
100
AcDbSymbolTableRecord
100
AcDbLinetypeTableRecord
  2
ByBlock
 70
     0
  3

 72
    65
 73
     0
 40
0.0
  0
LTYPE
  5
15
330
5
100
AcDbSymbolTableRecord
100
AcDbLinetypeTableRecord
  2
ByLayer
 70
     0
  3

 72
    65
 73
     0
 40
0.0
  0
LTYPE
  5
16
330
5
100
AcDbSymbolTableRecord
100
AcDbLinetypeTableRecord
  2
Continuous
 70
     0
  3
Solid line
 72
    65
 73
     0
 40
0.0
  0
LTYPE
  5
6E
330
5
100
AcDbSymbolTableRecord
100
AcDbLinetypeTableRecord
  2
HIDDEN
 70
     0
  3
Hidden __ __ __ __ __ __ __ __ __ __ __ __ __ __
 72
    65
 73
     2
 40
1.905
 49
1.27
 74
     0
 49
-0.635
 74
     0
  0
LTYPE
  5
6F
330
5
100
AcDbSymbolTableRecord
100
AcDbLinetypeTableRecord
  2
PHANTOM
 70
     0
  3
Phantom ______  __  __  ______  __  __  ______
 72
    65
 73
     6
 40
12.7
 49
6.35
 74
     0
 49
-1.27
 74
     0
 49
1.27
 74
     0
 49
-1.27
 74
     0
 49
1.27
 74
     0
 49
-1.27
 74
     0
  0
LTYPE
  5
70
330
5
100
AcDbSymbolTableRecord
100
AcDbLinetypeTableRecord
  2
CENTER
 70
     0
  3
Center ____ _ ____ _ ____ _ ____ _ ____ _ ____
 72
    65
 73
     4
 40
10.16
 49
6.35
 74
     0
 49
-1.27
 74
     0
 49
1.27
 74
     0
 49
-1.27
 74
     0
  0
LTYPE
  5
71
330
5
100
AcDbSymbolTableRecord
100
AcDbLinetypeTableRecord
  2
CENTERX2
 70
     0
  3
Center (2x) ________  __  ________  __  _____
 72
    65
 73
     4
 40
20.32
 49
12.7
 74
     0
 49
-2.54
 74
     0
 49
2.54
 74
     0
 49
-2.54
 74
     0
  0
LTYPE
  5
72
330
5
100
AcDbSymbolTableRecord
100
AcDbLinetypeTableRecord
  2
DOT2
 70
     0
  3
Dot (.5x) ........................................
 72
    65
 73
     2
 40
0.635
 49
0.0
 74
     0
 49
-0.635
 74
     0
  0
ENDTAB
  0
TABLE
  2
LAYER
  5
2
330
0
100
AcDbSymbolTable
 70
     1
  0
LAYER
  5
10
330
2
100
AcDbSymbolTableRecord
100
AcDbLayerTableRecord
  2
0
 70
     0
 62
     7
  6
Continuous
370
    -3
390
F
  0
ENDTAB
  0
TABLE
  2
STYLE
  5
3
330
0
100
AcDbSymbolTable
 70
     2
  0
STYLE
  5
11
330
3
100
AcDbSymbolTableRecord
100
AcDbTextStyleTableRecord
  2
Standard
 70
     0
 40
0.0
 41
1.0
 50
0.0
 71
     0
 42
1.75
  3
txt
  4
bigfont
  0
STYLE
  5
73
330
3
100
AcDbSymbolTableRecord
100
AcDbTextStyleTableRecord
  2
SLDTEXTSTYLE0
 70
     0
 40
0.0
 41
0.75
 50
0.0
 71
     0
 42
1.75
  3
TXT
  4
bigfont
  0
ENDTAB
  0
TABLE
  2
VIEW
  5
6
330
0
100
AcDbSymbolTable
 70
     0
  0
ENDTAB
  0
TABLE
  2
UCS
  5
7
330
0
100
AcDbSymbolTable
 70
     0
  0
ENDTAB
  0
TABLE
  2
APPID
  5
9
330
0
100
AcDbSymbolTable
 70
     1
  0
APPID
  5
12
330
9
100
AcDbSymbolTableRecord
100
AcDbRegAppTableRecord
  2
ACAD
 70
     0
  0
ENDTAB
  0
TABLE
  2
DIMSTYLE
  5
A
330
0
100
AcDbSymbolTable
 70
     1
100
AcDbDimStyleTable
  0
DIMSTYLE
105
27
330
A
100
AcDbSymbolTableRecord
100
AcDbDimStyleTableRecord
  2
ISO-25
 70
     0
 41
2.5
 42
0.625
 43
3.75
 44
1.25
 73
     0
 74
     0
 77
     1
 78
     8
140
2.5
141
2.5
143
0.0393700787
147
0.625
171
     3
172
     1
178
     0
271
     2
272
     2
274
     3
278
    44
283
     0
284
     8
340
11
  0
ENDTAB
  0
TABLE
  2
BLOCK_RECORD
  5
1
330
0
100
AcDbSymbolTable
 70
     1
  0
BLOCK_RECORD
  5
1F
330
1
100
AcDbSymbolTableRecord
100
AcDbBlockTableRecord
  2
*Model_Space
340
22
  0
BLOCK_RECORD
  5
1B
330
1
100
AcDbSymbolTableRecord
100
AcDbBlockTableRecord
  2
*Paper_Space
340
1E
  0
BLOCK_RECORD
  5
23
330
1
100
AcDbSymbolTableRecord
100
AcDbBlockTableRecord
  2
*Paper_Space0
340
26
  0
ENDTAB
  0
ENDSEC
  0
SECTION
  2
BLOCKS
  0
BLOCK
  5
20
330
1F
100
AcDbEntity
  8
0
100
AcDbBlockBegin
  2
*Model_Space
 70
     0
 10
0.0
 20
0.0
 30
0.0
  3
*Model_Space
  1

  0
ENDBLK
  5
21
330
1F
100
AcDbEntity
  8
0
100
AcDbBlockEnd
  0
BLOCK
  5
1C
330
1B
100
AcDbEntity
 67
     1
  8
0
100
AcDbBlockBegin
  2
*Paper_Space
 70
     0
 10
0.0
 20
0.0
 30
0.0
  3
*Paper_Space
  1

  0
ENDBLK
  5
1D
330
1B
100
AcDbEntity
 67
     1
  8
0
100
AcDbBlockEnd
  0
BLOCK
  5
24
330
23
100
AcDbEntity
  8
0
100
AcDbBlockBegin
  2
*Paper_Space0
 70
     0
 10
0.0
 20
0.0
 30
0.0
  3
*Paper_Space0
  1

  0
ENDBLK
  5
25
330
23
100
AcDbEntity
  8
0
100
AcDbBlockEnd
  0
ENDSEC
  0
SECTION
  2
ENTITIES
  0
MTEXT
  5
74
330
1F
100
AcDbEntity
  8
0
  6
Continuous
 62
     7
370
     0
100
AcDbMText
 10
59.9085995086
 20
45.6512522376
 30
0.0
 40
1.75
 41
0.0
 71
     1
 72
     1
  1
AT-1011R
  7
SLDTEXTSTYLE0
 73
     1
 44
1.0
  0
LINE
  5
75
330
1F
100
AcDbEntity
  8
0
  6
Continuous
 62
     7
370
    25
100
AcDbLine
 10
49.6444296782
 20
31.3260145214
 30
0.0
 11
49.6460687961
 21
31.3620972138
 31
0.0
  0
LINE
  5
76
330
1F
100
AcDbEntity
  8
0
  6
Continuous
 62
     7
370
    25
100
AcDbLine
 10
48.9658328439
 20
24.3886272366
 30
0.0
 11
49.6460687961
 21
25.5668304668
 31
0.0
  0
LINE
  5
77
330
1F
100
AcDbEntity
  8
0
  6
Continuous
 62
     7
370
    25
100
AcDbLine
 10
49.6460687961
 20
37.0668304668
 30
0.0
 11
48.9658328439
 21
38.2450336971
 31
0.0
  0
LINE
  5
78
330
1F
100
AcDbEntity
  8
0
  6
Continuous
 62
     7
370
    25
100
AcDbLine
 10
45.3263047482
 20
38.2450336971
 30
0.0
 11
44.6460687961
 21
37.0668304668
 31
0.0
  0
LINE
  5
79
330
1F
100
AcDbEntity
  8
0
  6
Continuous
 62
     7
370
    25
100
AcDbLine
 10
44.6460687961
 20
25.5668304668
 30
0.0
 11
45.3263047482
 21
24.3886272366
 31
0.0
  0
LINE
  5
7A
330
1F
100
AcDbEntity
  8
0
  6
Continuous
 62
     7
370
    25
100
AcDbLine
 10
44.6460687961
 20
36.3380179668
 30
0.0
 11
37.0010168555
 21
36.0991100937
 31
0.0
  0
LINE
  5
7B
330
1F
100
AcDbEntity
  8
0
  6
Continuous
 62
     7
370
    25
100
AcDbLine
 10
37.0010168555
 20
26.53455084
 30
0.0
 11
44.6460687961
 21
26.2956429668
 31
0.0
  0
LINE
  5
7C
330
1F
100
AcDbEntity
  8
0
  6
Continuous
 62
     7
370
    25
100
AcDbLine
 10
49.6460687961
 20
26.2956429668
 30
0.0
 11
57.2911207366
 21
26.53455084
 31
0.0
  0
LINE
  5
7D
330
1F
100
AcDbEntity
  8
0
  6
Continuous
 62
     7
370
    25
100
AcDbLine
 10
57.2911207366
 20
36.0991100937
 30
0.0
 11
49.6460687961
 21
36.3380179668
 31
0.0
  0
LINE
  5
7E
330
1F
100
AcDbEntity
  8
0
  6
Continuous
 62
     7
370
    25
100
AcDbLine
 10
57.2911207366
 20
26.53455084
 30
0.0
 11
58.6460687961
 21
27.3168304668
 31
0.0
  0
LINE
  5
7F
330
1F
100
AcDbEntity
  8
0
  6
Continuous
 62
     7
370
    25
100
AcDbLine
 10
58.6460687961
 20
35.3168304668
 30
0.0
 11
57.2911207366
 21
36.0991100937
 31
0.0
  0
LINE
  5
80
330
1F
100
AcDbEntity
  8
0
  6
Continuous
 62
     7
370
    25
100
AcDbLine
 10
37.0010168555
 20
36.0991100937
 30
0.0
 11
35.6460687961
 21
35.3168304668
 31
0.0
  0
LINE
  5
81
330
1F
100
AcDbEntity
  8
0
  6
Continuous
 62
     7
370
    25
100
AcDbLine
 10
35.6460687961
 20
27.3168304668
 30
0.0
 11
37.0010168555
 21
26.53455084
 31
0.0
  0
LINE
  5
82
330
1F
100
AcDbEntity
  8
0
  6
Continuous
 62
     7
370
    25
100
AcDbLine
 10
45.876598157
 20
26.1206780441
 30
0.0
 11
45.876598157
 21
26.1120177901
 31
0.0
  0
LINE
  5
83
330
1F
100
AcDbEntity
  8
0
  6
Continuous
 62
     7
370
    25
100
AcDbLine
 10
45.563226529
 20
31.6048304668
 30
0.0
 11
45.563226529
 21
31.3168304668
 31
0.0
  0
LINE
  5
84
330
1F
100
AcDbEntity
  8
0
  6
Continuous
 62
     7
370
    25
100
AcDbLine
 10
47.867226529
 20
31.6048304668
 30
0.0
 11
45.563226529
 21
31.6048304668
 31
0.0
  0
LINE
  5
85
330
1F
100
AcDbEntity
  8
0
  6
Continuous
 62
     7
370
    25
100
AcDbLine
 10
47.867226529
 20
32.0080304668
 30
0.0
 11
47.867226529
 21
31.6048304668
 31
0.0
  0
LINE
  5
86
330
1F
100
AcDbEntity
  8
0
  6
Continuous
 62
     7
370
    25
100
AcDbLine
 10
49.019226529
 20
31.3168304668
 30
0.0
 11
47.867226529
 21
32.0080304668
 31
0.0
  0
LINE
  5
87
330
1F
100
AcDbEntity
  8
0
  6
Continuous
 62
     7
370
    25
100
AcDbLine
 10
47.867226529
 20
30.6256304668
 30
0.0
 11
49.019226529
 21
31.3168304668
 31
0.0
  0
LINE
  5
88
330
1F
100
AcDbEntity
  8
0
  6
Continuous
 62
     7
370
    25
100
AcDbLine
 10
45.563226529
 20
31.0288304668
 30
0.0
 11
47.867226529
 21
31.0288304668
 31
0.0
  0
LINE
  5
89
330
1F
100
AcDbEntity
  8
0
  6
Continuous
 62
     7
370
    25
100
AcDbLine
 10
45.563226529
 20
31.3168304668
 30
0.0
 11
45.563226529
 21
31.0288304668
 31
0.0
  0
LINE
  5
8A
330
1F
100
AcDbEntity
  8
0
  6
Continuous
 62
     7
370
    25
100
AcDbLine
 10
47.867226529
 20
31.0288304668
 30
0.0
 11
47.867226529
 21
30.6256304668
 31
0.0
  0
SPLINE
  5
8B
330
1F
100
AcDbEntity
  8
0
  6
Continuous
 62
     7
370
    25
100
AcDbSpline
210
0.0
220
0.0
230
1.0
 70
     8
 71
     3
 72
    14
 73
    10
 74
     0
 42
0.000000001
 43
0.00000001
 40
0.0
 40
0.0
 40
0.0
 40
0.0
 40
0.4999999999999998
 40
0.4999999999999998
 40
0.6249999999999998
 40
0.6249999999999998
 40
0.7499999999999999
 40
0.7499999999999999
 40
1.0
 40
1.0
 40
1.0
 40
1.0
 10
45.32630474822784
 20
24.3886272365549
 30
0.0
 10
44.99974284985174
 20
24.95424903635844
 30
0.0
 10
44.79115869833421
 20
25.52834488449534
 30
0.0
 10
44.79022091384584
 20
26.26462493741947
 30
0.0
 10
44.80274702023587
 20
26.41257354926654
 30
0.0
 10
44.85159206101114
 20
26.70523155854518
 30
0.0
 10
44.8878614390684
 20
26.85057938843634
 30
0.0
 10
45.02791413972754
 20
27.28403515565133
 30
0.0
 10
45.16282028411344
 20
27.56956545359792
 30
0.0
 10
45.32630474822813
 20
27.85272885169272
 30
0.0
  0
LINE
  5
8C
330
1F
100
AcDbEntity
  8
0
  6
Continuous
 62
     7
370
    25
100
AcDbLine
 10
45.3263047482
 20
27.8527288517
 30
0.0
 11
48.9658328439
 21
27.8527288517
 31
0.0
  0
SPLINE
  5
8D
330
1F
100
AcDbEntity
  8
0
  6
Continuous
 62
     7
370
    25
100
AcDbSpline
210
0.0
220
0.0
230
1.0
 70
     8
 71
     3
 72
    14
 73
    10
 74
     0
 42
0.000000001
 43
0.00000001
 40
0.0
 40
0.0
 40
0.0
 40
0.0
 40
0.4999999999999998
 40
0.4999999999999998
 40
0.6249999999999998
 40
0.6249999999999998
 40
0.7499999999999999
 40
0.7499999999999999
 40
1.0
 40
1.0
 40
1.0
 40
1.0
 10
48.96583284390969
 20
24.3886272365549
 30
0.0
 10
49.29239474228579
 20
24.95424903635844
 30
0.0
 10
49.50097889380332
 20
25.52834488449534
 30
0.0
 10
49.50191667829169
 20
26.26462493741947
 30
0.0
 10
49.48939057190166
 20
26.41257354926654
 30
0.0
 10
49.4405455311264
 20
26.70523155854518
 30
0.0
 10
49.40427615306913
 20
26.85057938843634
 30
0.0
 10
49.26422345240999
 20
27.28403515565133
 30
0.0
 10
49.12931730802409
 20
27.56956545359792
 30
0.0
 10
48.96583284390941
 20
27.85272885169272
 30
0.0
  0
LINE
  5
8E
330
1F
100
AcDbEntity
  8
0
  6
Continuous
 62
     7
370
    25
100
AcDbLine
 10
45.3263047482
 20
24.3886272366
 30
0.0
 11
48.9658328439
 21
24.3886272366
 31
0.0
  0
ARC
  5
8F
330
1F
100
AcDbEntity
  8
0
  6
Continuous
 62
     7
370
    25
100
AcDbCircle
 10
48.5309906845
 20
26.2048125707
 30
0.0
 40
0.482171635562572
100
AcDbArc
 50
190.0490286562
 51
254.2913434828
  0
LINE
  5
90
330
1F
100
AcDbEntity
  8
0
  6
Continuous
 62
     7
370
    25
100
AcDbLine
 10
48.4004446954
 20
26.5007064532
 30
0.0
 11
47.6636549227
 21
26.6868428169
 31
0.0
  0
ARC
  5
91
330
1F
100
AcDbEntity
  8
0
  6
Continuous
 62
     7
370
    25
100
AcDbCircle
 10
47.6384693072
 20
26.6106174804
 30
0.0
 40
0.1221907667718244
100
AcDbArc
 50
285.6398166457
 51
347.3872570698
  0
LINE
  5
92
330
1F
100
AcDbEntity
  8
0
  6
Continuous
 62
     7
370
    25
100
AcDbLine
 10
47.6714106045
 20
26.4929507714
 30
0.0
 11
46.0427174227
 21
26.2447689532
 31
0.0
  0
LWPOLYLINE
  5
93
330
1F
100
AcDbEntity
  8
0
  6
Continuous
 62
     7
370
    25
100
AcDbPolyline
 90
        5
 70
   128
 43
0.0
 10
46.0427174227
 20
26.2447689532
 10
45.9749967024
 20
26.2245386926
 10
45.9219606112
 20
26.1953397082
 10
45.8881889978
 20
26.1596934326
 10
45.876598157
 20
26.1206780441
  0
ARC
  5
94
330
1F
100
AcDbEntity
  8
0
  6
Continuous
 62
     7
370
    25
100
AcDbCircle
 10
47.6325839598
 20
25.679578185
 30
0.0
 40
0.1288667425937663
100
AcDbArc
 50
283.9520180689
 51
346.1637414123
  0
SPLINE
  5
95
330
1F
100
AcDbEntity
  8
0
  6
Continuous
 62
     7
370
    25
100
AcDbSpline
210
0.0
220
0.0
230
1.0
 70
     8
 71
     3
 72
    14
 73
    10
 74
     0
 42
0.000000001
 43
0.00000001
 40
0.0
 40
0.0
 40
0.0
 40
0.0
 40
0.5
 40
0.5
 40
0.625
 40
0.625
 40
0.75
 40
0.75
 40
1.0
 40
1.0
 40
1.0
 40
1.0
 10
48.9658328439097
 20
34.78093208196817
 30
0.0
 10
49.2923947422858
 20
35.34655388177171
 30
0.0
 10
49.50097889380332
 20
35.92064972990861
 30
0.0
 10
49.50191667829169
 20
36.65692978283273
 30
0.0
 10
49.48939057190166
 20
36.80487839467982
 30
0.0
 10
49.4405455311264
 20
37.09753640395844
 30
0.0
 10
49.40427615306913
 20
37.24288423384961
 30
0.0
 10
49.26422345240999
 20
37.6763400010646
 30
0.0
 10
49.12931730802409
 20
37.9618702990112
 30
0.0
 10
48.96583284390941
 20
38.24503369710599
 30
0.0
  0
SPLINE
  5
96
330
1F
100
AcDbEntity
  8
0
  6
Continuous
 62
     7
370
    25
100
AcDbSpline
210
0.0
220
0.0
230
1.0
 70
     8
 71
     3
 72
    14
 73
    10
 74
     0
 42
0.000000001
 43
0.00000001
 40
0.0
 40
0.0
 40
0.0
 40
0.0
 40
0.25
 40
0.25
 40
0.5
 40
0.5
 40
0.75
 40
0.75
 40
1.0
 40
1.0
 40
1.0
 40
1.0
 10
48.96583284390913
 20
27.85272885169269
 30
0.0
 10
49.12865836290269
 20
28.41677299502391
 30
0.0
 10
49.26502001945575
 20
28.99383922611883
 30
0.0
 10
49.45144701963238
 20
30.15022651298014
 30
0.0
 10
49.50180005053802
 20
30.73202118569171
 30
0.0
 10
49.5016622633803
 20
31.90408317875177
 30
0.0
 10
49.44982229280013
 20
32.49776341295505
 30
0.0
 10
49.26208038526187
 20
33.65369992435688
 30
0.0
 10
49.12750048837357
 20
34.22089893366338
 30
0.0
 10
48.96583284390912
 20
34.78093208196821
 30
0.0
  0
LINE
  5
97
330
1F
100
AcDbEntity
  8
0
  6
Continuous
 62
     7
370
    25
100
AcDbLine
 10
49.6460687961
 20
31.3168304668
 30
0.0
 11
49.6460687961
 21
37.0668304668
 31
0.0
  0
LINE
  5
98
330
1F
100
AcDbEntity
  8
0
  6
Continuous
 62
     7
370
    25
100
AcDbLine
 10
49.6460687961
 20
25.5668304668
 30
0.0
 11
49.6460687961
 21
31.3168304668
 31
0.0
  0
SPLINE
  5
99
330
1F
100
AcDbEntity
  8
0
  6
Continuous
 62
     7
370
    25
100
AcDbSpline
210
0.0
220
0.0
230
1.0
 70
     8
 71
     3
 72
    14
 73
    10
 74
     0
 42
0.000000001
 43
0.00000001
 40
0.0
 40
0.0
 40
0.0
 40
0.0
 40
0.25
 40
0.25
 40
0.5
 40
0.5
 40
0.75
 40
0.75
 40
1.0
 40
1.0
 40
1.0
 40
1.0
 10
45.3263047482284
 20
27.85272885169269
 30
0.0
 10
45.16347922923484
 20
28.41677299502391
 30
0.0
 10
45.02711757268178
 20
28.99383922611883
 30
0.0
 10
44.84069057250515
 20
30.15022651298014
 30
0.0
 10
44.79033754159951
 20
30.73202118569171
 30
0.0
 10
44.79047532875722
 20
31.90408317875177
 30
0.0
 10
44.8423152993374
 20
32.49776341295505
 30
0.0
 10
45.03005720687565
 20
33.65369992435688
 30
0.0
 10
45.16463710376397
 20
34.22089893366338
 30
0.0
 10
45.32630474822842
 20
34.78093208196821
 30
0.0
  0
SPLINE
  5
9A
330
1F
100
AcDbEntity
  8
0
  6
Continuous
 62
     7
370
    25
100
AcDbSpline
210
0.0
220
0.0
230
1.0
 70
     8
 71
     3
 72
    14
 73
    10
 74
     0
 42
0.000000001
 43
0.00000001
 40
0.0
 40
0.0
 40
0.0
 40
0.0
 40
0.5
 40
0.5
 40
0.625
 40
0.625
 40
0.75
 40
0.75
 40
1.0
 40
1.0
 40
1.0
 40
1.0
 10
45.32630474822783
 20
34.78093208196817
 30
0.0
 10
44.99974284985174
 20
35.34655388177171
 30
0.0
 10
44.79115869833421
 20
35.92064972990861
 30
0.0
 10
44.79022091384584
 20
36.65692978283273
 30
0.0
 10
44.80274702023587
 20
36.80487839467982
 30
0.0
 10
44.85159206101114
 20
37.09753640395844
 30
0.0
 10
44.8878614390684
 20
37.24288423384961
 30
0.0
 10
45.02791413972754
 20
37.6763400010646
 30
0.0
 10
45.16282028411344
 20
37.9618702990112
 30
0.0
 10
45.32630474822813
 20
38.24503369710599
 30
0.0
  0
LINE
  5
9B
330
1F
100
AcDbEntity
  8
0
  6
Continuous
 62
     7
370
    25
100
AcDbLine
 10
44.6460687961
 20
31.3168304668
 30
0.0
 11
44.6460687961
 21
37.0668304668
 31
0.0
  0
LINE
  5
9C
330
1F
100
AcDbEntity
  8
0
  6
Continuous
 62
     7
370
    25
100
AcDbLine
 10
44.6460687961
 20
25.5668304668
 30
0.0
 11
44.6460687961
 21
31.3168304668
 31
0.0
  0
LINE
  5
9D
330
1F
100
AcDbEntity
  8
0
  6
Continuous
 62
     7
370
    25
100
AcDbLine
 10
45.3263047482
 20
34.780932082
 30
0.0
 11
48.9658328439
 21
34.780932082
 31
0.0
  0
LINE
  5
9E
330
1F
100
AcDbEntity
  8
0
  6
Continuous
 62
     7
370
    25
100
AcDbLine
 10
45.3263047482
 20
38.2450336971
 30
0.0
 11
48.9658328439
 21
38.2450336971
 31
0.0
  0
LINE
  5
9F
330
1F
100
AcDbEntity
  8
0
  6
Continuous
 62
     7
370
    25
100
AcDbLine
 10
37.0010168555
 20
26.53455084
 30
0.0
 11
37.0010168555
 21
36.0991100937
 31
0.0
  0
LINE
  5
A0
330
1F
100
AcDbEntity
  8
0
  6
Continuous
 62
     7
370
    25
100
AcDbLine
 10
57.2911207366
 20
26.53455084
 30
0.0
 11
57.2911207366
 21
36.0991100937
 31
0.0
  0
LINE
  5
A1
330
1F
100
AcDbEntity
  8
0
  6
Continuous
 62
     7
370
    25
100
AcDbLine
 10
58.6460687961
 20
31.3168304668
 30
0.0
 11
58.6460687961
 21
35.3168304668
 31
0.0
  0
LINE
  5
A2
330
1F
100
AcDbEntity
  8
0
  6
Continuous
 62
     7
370
    25
100
AcDbLine
 10
58.6460687961
 20
27.3168304668
 30
0.0
 11
58.6460687961
 21
31.3168304668
 31
0.0
  0
LINE
  5
A3
330
1F
100
AcDbEntity
  8
0
  6
Continuous
 62
     7
370
    25
100
AcDbLine
 10
35.6460687961
 20
31.3168304668
 30
0.0
 11
35.6460687961
 21
35.3168304668
 31
0.0
  0
LINE
  5
A4
330
1F
100
AcDbEntity
  8
0
  6
Continuous
 62
     7
370
    25
100
AcDbLine
 10
35.6460687961
 20
27.3168304668
 30
0.0
 11
35.6460687961
 21
31.3168304668
 31
0.0
  0
LINE
  5
A5
330
1F
100
AcDbEntity
  8
0
  6
Continuous
 62
     7
370
    25
100
AcDbLine
 10
47.6714106045
 20
26.4842905174
 30
0.0
 11
46.0427174227
 21
26.2361086992
 31
0.0
  0
LWPOLYLINE
  5
A6
330
1F
100
AcDbEntity
  8
0
  6
Continuous
 62
     7
370
    25
100
AcDbPolyline
 90
        9
 70
   128
 43
0.0
 10
47.6636549227
 20
26.6781825628
 10
47.7025070635
 20
26.6586459216
 10
47.7319947948
 20
26.6353720955
 10
47.7507238751
 20
26.6094615195
 10
47.7578087542
 20
26.5821393
 10
47.7529144443
 20
26.5546972886
 10
47.7362723586
 20
26.5284330009
 10
47.7086693696
 20
26.5045882676
 10
47.6714106045
 20
26.4842905174
  0
LINE
  5
A7
330
1F
100
AcDbEntity
  8
0
  6
Continuous
 62
     7
370
    25
100
AcDbLine
 10
48.4004446954
 20
26.4920461992
 30
0.0
 11
47.6636549227
 21
26.6781825628
 31
0.0
  0
LWPOLYLINE
  5
A8
330
1F
100
AcDbEntity
  8
0
  6
Continuous
 62
     7
370
    25
100
AcDbPolyline
 90
       13
 70
   128
 43
0.0
 10
48.4004446954
 20
25.731989381
 10
48.2997542276
 20
25.7829171212
 10
48.2144638166
 20
25.8404467984
 10
48.1462844341
 20
25.9034243361
 10
48.0965837952
 20
25.9705863709
 10
48.0663589216
 20
26.0405855964
 10
48.0562161405
 20
26.1120177901
 10
48.0663589216
 20
26.1834499838
 10
48.0965837952
 20
26.2534492092
 10
48.1462844341
 20
26.3206112441
 10
48.2144638166
 20
26.3835887818
 10
48.2997542276
 20
26.4411184589
 10
48.4004446954
 20
26.4920461992
  0
LINE
  5
A9
330
1F
100
AcDbEntity
  8
0
  6
Continuous
 62
     7
370
    25
100
AcDbLine
 10
47.6636549227
 20
25.5458530174
 30
0.0
 11
48.4004446954
 21
25.731989381
 31
0.0
  0
LWPOLYLINE
  5
AA
330
1F
100
AcDbEntity
  8
0
  6
Continuous
 62
     7
370
    25
100
AcDbPolyline
 90
        9
 70
   128
 43
0.0
 10
47.6714106045
 20
25.7397450628
 10
47.7086693696
 20
25.7194473126
 10
47.7362723586
 20
25.6956025792
 10
47.7529144443
 20
25.6693382916
 10
47.7578087542
 20
25.6418962802
 10
47.7507238751
 20
25.6145740606
 10
47.7319947948
 20
25.5886634847
 10
47.7025070635
 20
25.5653896585
 10
47.6636549227
 20
25.5458530174
  0
LINE
  5
AB
330
1F
100
AcDbEntity
  8
0
  6
Continuous
 62
     7
370
    25
100
AcDbLine
 10
46.0427174227
 20
25.987926881
 30
0.0
 11
47.6714106045
 21
25.7397450628
 31
0.0
  0
LWPOLYLINE
  5
AC
330
1F
100
AcDbEntity
  8
0
  6
Continuous
 62
     7
370
    25
100
AcDbPolyline
 90
        9
 70
   128
 43
0.0
 10
46.0427174227
 20
26.2361086992
 10
45.9749967024
 20
26.2158784386
 10
45.9219606112
 20
26.1866794542
 10
45.8881889978
 20
26.1510331785
 10
45.876598157
 20
26.1120177901
 10
45.8881889978
 20
26.0730024016
 10
45.9219606112
 20
26.037356126
 10
45.9749967024
 20
26.0081571416
 10
46.0427174227
 20
25.987926881
  0
LINE
  5
AD
330
1F
100
AcDbEntity
  8
0
  6
Continuous
 62
     7
370
    25
100
AcDbLine
 10
46.8783921386
 20
26.1120177901
 30
0.0
 11
47.3766946954
 21
26.0360859719
 31
0.0
  0
LINE
  5
AE
330
1F
100
AcDbEntity
  8
0
  6
Continuous
 62
     7
370
    25
100
AcDbLine
 10
47.3766946954
 20
26.0360859719
 30
0.0
 11
47.3766946954
 21
26.1879496083
 31
0.0
  0
LINE
  5
AF
330
1F
100
AcDbEntity
  8
0
  6
Continuous
 62
     7
370
    25
100
AcDbLine
 10
47.3766946954
 20
26.1879496083
 30
0.0
 11
46.8783921386
 21
26.1120177901
 31
0.0
  0
LINE
  5
B0
330
1F
100
AcDbEntity
  8
0
  6
Continuous
 62
     7
370
    25
100
AcDbLine
 10
47.6636549227
 20
26.6868428169
 30
0.0
 11
47.6636549227
 21
26.6781825628
 31
0.0
  0
LINE
  5
B1
330
1F
100
AcDbEntity
  8
0
  6
Continuous
 62
     7
370
    25
100
AcDbLine
 10
48.4004446954
 20
26.5007064532
 30
0.0
 11
48.4004446954
 21
26.4920461992
 31
0.0
  0
LINE
  5
B2
330
1F
100
AcDbEntity
  8
0
  6
Continuous
 62
     7
370
    25
100
AcDbLine
 10
47.6714106045
 20
26.4929507714
 30
0.0
 11
47.6714106045
 21
26.4842905174
 31
0.0
  0
LINE
  5
B3
330
1F
100
AcDbEntity
  8
0
  6
Continuous
 62
     7
370
    25
100
AcDbLine
 10
48.4004446954
 20
25.740649635
 30
0.0
 11
48.4004446954
 21
25.731989381
 31
0.0
  0
LINE
  5
B4
330
1F
100
AcDbEntity
  8
0
  6
Continuous
 62
     7
370
    25
100
AcDbLine
 10
46.0427174227
 20
26.2447689532
 30
0.0
 11
46.0427174227
 21
26.2361086992
 31
0.0
  0
LINE
  5
B5
330
1F
100
AcDbEntity
  8
0
  6
Continuous
 62
     7
370
    25
100
AcDbLine
 10
46.9068085972
 20
26.1163479171
 30
0.0
 11
47.3766946954
 21
26.0447462259
 31
0.0
  0
LINE
  5
B6
330
1F
100
AcDbEntity
  8
0
  6
Continuous
 62
     7
370
    25
100
AcDbLine
 10
47.6636549227
 20
25.5545132714
 30
0.0
 11
47.6636549227
 21
25.5458530174
 31
0.0
  0
LINE
  5
B7
330
1F
100
AcDbEntity
  8
0
  6
Continuous
 62
     7
370
     0
100
AcDbLine
 10
36.0867532028
 20
35.5712597277
 30
0.0
 11
44.1460687961
 21
35.82311334
 31
0.0
  0
LINE
  5
B8
330
1F
100
AcDbEntity
  8
0
  6
Continuous
 62
     7
370
     0
100
AcDbLine
 10
36.0867532028
 20
27.062401206
 30
0.0
 11
44.1460687961
 21
26.8105475937
 31
0.0
  0
LINE
  5
B9
330
1F
100
AcDbEntity
  8
0
  6
Continuous
 62
     7
370
     0
100
AcDbLine
 10
44.1460687961
 20
26.3112679668
 30
0.0
 11
44.1460687961
 21
36.3223929668
 31
0.0
  0
LINE
  5
BA
330
1F
100
AcDbEntity
  8
0
  6
Continuous
 62
     7
370
     0
100
AcDbLine
 10
58.2053843893
 20
27.062401206
 30
0.0
 11
50.1460687961
 21
26.8105475937
 31
0.0
  0
LINE
  5
BB
330
1F
100
AcDbEntity
  8
0
  6
Continuous
 62
     7
370
     0
100
AcDbLine
 10
58.2053843893
 20
35.5712597277
 30
0.0
 11
50.1460687961
 21
35.82311334
 31
0.0
  0
LINE
  5
BC
330
1F
100
AcDbEntity
  8
0
  6
Continuous
 62
     7
370
     0
100
AcDbLine
 10
50.1460687961
 20
36.3223929668
 30
0.0
 11
50.1460687961
 21
26.3112679668
 31
0.0
  0
LINE
  5
BD
330
1F
100
AcDbEntity
  8
0
  6
Continuous
 62
     7
370
    25
100
AcDbLine
 10
49.5017312288
 20
54.6574938575
 30
0.0
 11
49.6460687961
 21
54.9074938575
 31
0.0
  0
LINE
  5
BE
330
1F
100
AcDbEntity
  8
0
  6
Continuous
 62
     7
370
    25
100
AcDbLine
 10
49.6460687961
 20
66.4074938575
 30
0.0
 11
49.5017312288
 21
66.6574938575
 31
0.0
  0
LINE
  5
BF
330
1F
100
AcDbEntity
  8
0
  6
Continuous
 62
     7
370
    25
100
AcDbLine
 10
44.7904063634
 20
66.6574938575
 30
0.0
 11
44.6460687961
 21
66.4074938575
 31
0.0
  0
LINE
  5
C0
330
1F
100
AcDbEntity
  8
0
  6
Continuous
 62
     7
370
    25
100
AcDbLine
 10
44.6460687961
 20
54.9074938575
 30
0.0
 11
44.7904063634
 21
54.6574938575
 31
0.0
  0
LINE
  5
C1
330
1F
100
AcDbEntity
  8
0
  6
Continuous
 62
     7
370
    25
100
AcDbLine
 10
49.6460687961
 20
55.6363063575
 30
0.0
 11
57.2911207366
 21
55.8752142306
 31
0.0
  0
LINE
  5
C2
330
1F
100
AcDbEntity
  8
0
  6
Continuous
 62
     7
370
    25
100
AcDbLine
 10
57.2911207366
 20
65.4397734844
 30
0.0
 11
49.6460687961
 21
65.6786813575
 31
0.0
  0
LINE
  5
C3
330
1F
100
AcDbEntity
  8
0
  6
Continuous
 62
     7
370
    25
100
AcDbLine
 10
44.6460687961
 20
65.6786813575
 30
0.0
 11
37.0010168555
 21
65.4397734844
 31
0.0
  0
LINE
  5
C4
330
1F
100
AcDbEntity
  8
0
  6
Continuous
 62
     7
370
    25
100
AcDbLine
 10
37.0010168555
 20
55.8752142306
 30
0.0
 11
44.6460687961
 21
55.6363063575
 31
0.0
  0
LINE
  5
C5
330
1F
100
AcDbEntity
  8
0
  6
Continuous
 62
     7
370
    25
100
AcDbLine
 10
37.0010168555
 20
65.4397734844
 30
0.0
 11
35.6460687961
 21
64.6574938575
 31
0.0
  0
LINE
  5
C6
330
1F
100
AcDbEntity
  8
0
  6
Continuous
 62
     7
370
    25
100
AcDbLine
 10
35.6460687961
 20
56.6574938575
 30
0.0
 11
37.0010168555
 21
55.8752142306
 31
0.0
  0
LINE
  5
C7
330
1F
100
AcDbEntity
  8
0
  6
Continuous
 62
     7
370
    25
100
AcDbLine
 10
57.2911207366
 20
55.8752142306
 30
0.0
 11
58.6460687961
 21
56.6574938575
 31
0.0
  0
LINE
  5
C8
330
1F
100
AcDbEntity
  8
0
  6
Continuous
 62
     7
370
    25
100
AcDbLine
 10
58.6460687961
 20
64.6574938575
 30
0.0
 11
57.2911207366
 21
65.4397734844
 31
0.0
  0
SPLINE
  5
C9
330
1F
100
AcDbEntity
  8
0
  6
Continuous
 62
     7
370
    25
100
AcDbSpline
210
0.0
220
0.0
230
1.0
 70
     8
 71
     3
 72
    14
 73
    10
 74
     0
 42
0.000000001
 43
0.00000001
 40
0.0
 40
0.0
 40
0.0
 40
0.0
 40
0.5
 40
0.5
 40
0.625
 40
0.625
 40
0.75
 40
0.75
 40
1.0
 40
1.0
 40
1.0
 40
1.0
 10
48.9658328439097
 20
54.65749385749376
 30
0.0
 10
49.2923947422858
 20
55.63717955262204
 30
0.0
 10
49.50097889380332
 20
56.63154273000951
 30
0.0
 10
49.50191667829169
 20
57.9068171902736
 30
0.0
 10
49.48939057190166
 20
58.16307170290202
 30
0.0
 10
49.4405455311264
 20
58.66997024421457
 30
0.0
 10
49.40427615306913
 20
58.92172007035595
 30
0.0
 10
49.26422345240999
 20
59.67248748200605
 30
0.0
 10
49.12931730802409
 20
60.16704046514983
 30
0.0
 10
48.96583284390941
 20
60.65749385749388
 30
0.0
  0
SPLINE
  5
CA
330
1F
100
AcDbEntity
  8
0
  6
Continuous
 62
     7
370
    25
100
AcDbSpline
210
0.0
220
0.0
230
1.0
 70
     8
 71
     3
 72
    14
 73
    10
 74
     0
 42
0.000000001
 43
0.00000001
 40
0.0
 40
0.0
 40
0.0
 40
0.0
 40
0.5000000000000004
 40
0.5000000000000004
 40
0.6250000000000003
 40
0.6250000000000003
 40
0.7500000000000002
 40
0.7500000000000002
 40
1.0
 40
1.0
 40
1.0
 40
1.0
 10
48.96583284390969
 20
60.65749385749376
 30
0.0
 10
49.29239474228579
 20
61.63717955262204
 30
0.0
 10
49.50097889380332
 20
62.63154273000949
 30
0.0
 10
49.50191667829169
 20
63.90681719027359
 30
0.0
 10
49.48939057190166
 20
64.16307170290202
 30
0.0
 10
49.4405455311264
 20
64.66997024421457
 30
0.0
 10
49.40427615306913
 20
64.92172007035595
 30
0.0
 10
49.26422345240999
 20
65.67248748200606
 30
0.0
 10
49.12931730802409
 20
66.16704046514984
 30
0.0
 10
48.96583284390941
 20
66.65749385749388
 30
0.0
  0
SPLINE
  5
CB
330
1F
100
AcDbEntity
  8
0
  6
Continuous
 62
     7
370
    25
100
AcDbSpline
210
0.0
220
0.0
230
1.0
 70
    24
 71
     3
 72
    12
 73
     8
 74
     0
 42
0.000000001
 43
0.00000001
 40
0.0
 40
0.0
 40
0.0
 40
0.0
 40
0.1880253120428926
 40
0.3763842211174426
 40
0.5660442119492779
 40
0.7562934666065987
 40
1.0
 40
1.0
 40
1.0
 40
1.0
 10
48.96583284390912
 20
66.65749385749383
 30
0.0
 10
49.02471707731192
 20
66.65749385749383
 30
0.0
 10
49.14259001731455
 20
66.65749385749383
 30
0.0
 10
49.2860587133579
 20
66.65749385749383
 30
0.0
 10
49.39796549425492
 20
66.65749385749383
 30
0.0
 10
49.48316191261151
 20
66.65749385749383
 30
0.0
 10
49.49445990432992
 20
66.65749385749383
 30
0.0
 10
49.50080477740644
 20
66.65749385749383
 30
0.0
  0
SPLINE
  5
CC
330
1F
100
AcDbEntity
  8
0
  6
Continuous
 62
     7
370
    25
100
AcDbSpline
210
0.0
220
0.0
230
1.0
 70
    24
 71
     3
 72
    12
 73
     8
 74
     0
 42
0.000000001
 43
0.00000001
 40
0.0
 40
0.0
 40
0.0
 40
0.0
 40
0.243703728367678
 40
0.4314572578929176
 40
0.6198238033248513
 40
0.8097206484289886
 40
1.0
 40
1.0
 40
1.0
 40
1.0
 10
49.49961045142602
 20
54.65749385749383
 30
0.0
 10
49.49378923382969
 20
54.65749385749383
 30
0.0
 10
49.48348325041889
 20
54.65749385749383
 30
0.0
 10
49.39883366275117
 20
54.65749385749383
 30
0.0
 10
49.28802892791269
 20
54.65749385749383
 30
0.0
 10
49.14440048698832
 20
54.65749385749383
 30
0.0
 10
49.02539530314215
 20
54.65749385749383
 30
0.0
 10
48.96583284390912
 20
54.65749385749383
 30
0.0
  0
LINE
  5
CD
330
1F
100
AcDbEntity
  8
0
  6
Continuous
 62
     7
370
    25
100
AcDbLine
 10
49.6460687961
 20
54.9074938575
 30
0.0
 11
49.6460687961
 21
66.4074938575
 31
0.0
  0
SPLINE
  5
CE
330
1F
100
AcDbEntity
  8
0
  6
Continuous
 62
     7
370
    25
100
AcDbSpline
210
0.0
220
0.0
230
1.0
 70
     8
 71
     3
 72
    14
 73
    10
 74
     0
 42
0.000000001
 43
0.00000001
 40
0.0
 40
0.0
 40
0.0
 40
0.0
 40
0.5000000000000004
 40
0.5000000000000004
 40
0.6250000000000003
 40
0.6250000000000003
 40
0.7500000000000002
 40
0.7500000000000002
 40
1.0
 40
1.0
 40
1.0
 40
1.0
 10
45.32630474822784
 20
60.65749385749376
 30
0.0
 10
44.99974284985174
 20
61.63717955262204
 30
0.0
 10
44.79115869833421
 20
62.63154273000949
 30
0.0
 10
44.79022091384584
 20
63.90681719027359
 30
0.0
 10
44.80274702023587
 20
64.16307170290202
 30
0.0
 10
44.85159206101113
 20
64.66997024421457
 30
0.0
 10
44.8878614390684
 20
64.92172007035595
 30
0.0
 10
45.02791413972754
 20
65.67248748200606
 30
0.0
 10
45.16282028411344
 20
66.16704046514984
 30
0.0
 10
45.32630474822813
 20
66.65749385749388
 30
0.0
  0
LINE
  5
CF
330
1F
100
AcDbEntity
  8
0
  6
Continuous
 62
     7
370
    25
100
AcDbLine
 10
45.3263047482
 20
66.6574938575
 30
0.0
 11
48.9658328439
 21
66.6574938575
 31
0.0
  0
LINE
  5
D0
330
1F
100
AcDbEntity
  8
0
  6
Continuous
 62
     7
370
    25
100
AcDbLine
 10
45.3263047482
 20
60.6574938575
 30
0.0
 11
48.9658328439
 21
60.6574938575
 31
0.0
  0
SPLINE
  5
D1
330
1F
100
AcDbEntity
  8
0
  6
Continuous
 62
     7
370
    25
100
AcDbSpline
210
0.0
220
0.0
230
1.0
 70
    24
 71
     3
 72
    12
 73
     8
 74
     0
 42
0.000000001
 43
0.00000001
 40
0.0
 40
0.0
 40
0.0
 40
0.0
 40
0.243703728367678
 40
0.4314572578929176
 40
0.6198238033248513
 40
0.8097206484289886
 40
1.0
 40
1.0
 40
1.0
 40
1.0
 10
44.79252714071151
 20
54.65749385749383
 30
0.0
 10
44.79834835830783
 20
54.65749385749383
 30
0.0
 10
44.80865434171865
 20
54.65749385749383
 30
0.0
 10
44.89330392938636
 20
54.65749385749383
 30
0.0
 10
45.00410866422484
 20
54.65749385749383
 30
0.0
 10
45.14773710514922
 20
54.65749385749383
 30
0.0
 10
45.26674228899537
 20
54.65749385749383
 30
0.0
 10
45.32630474822842
 20
54.65749385749383
 30
0.0
  0
SPLINE
  5
D2
330
1F
100
AcDbEntity
  8
0
  6
Continuous
 62
     7
370
    25
100
AcDbSpline
210
0.0
220
0.0
230
1.0
 70
    24
 71
     3
 72
    12
 73
     8
 74
     0
 42
0.000000001
 43
0.00000001
 40
0.0
 40
0.0
 40
0.0
 40
0.0
 40
0.1880253120428926
 40
0.3763842211174426
 40
0.5660442119492779
 40
0.7562934666065987
 40
1.0
 40
1.0
 40
1.0
 40
1.0
 10
45.32630474822842
 20
66.65749385749383
 30
0.0
 10
45.26742051482562
 20
66.65749385749383
 30
0.0
 10
45.14954757482298
 20
66.65749385749383
 30
0.0
 10
45.00607887877963
 20
66.65749385749383
 30
0.0
 10
44.89417209788262
 20
66.65749385749383
 30
0.0
 10
44.80897567952602
 20
66.65749385749383
 30
0.0
 10
44.79767768780761
 20
66.65749385749383
 30
0.0
 10
44.79133281473109
 20
66.65749385749383
 30
0.0
  0
SPLINE
  5
D3
330
1F
100
AcDbEntity
  8
0
  6
Continuous
 62
     7
370
    25
100
AcDbSpline
210
0.0
220
0.0
230
1.0
 70
     8
 71
     3
 72
    14
 73
    10
 74
     0
 42
0.000000001
 43
0.00000001
 40
0.0
 40
0.0
 40
0.0
 40
0.0
 40
0.5
 40
0.5
 40
0.625
 40
0.625
 40
0.75
 40
0.75
 40
1.0
 40
1.0
 40
1.0
 40
1.0
 10
45.32630474822783
 20
54.65749385749376
 30
0.0
 10
44.99974284985174
 20
55.63717955262204
 30
0.0
 10
44.79115869833421
 20
56.63154273000951
 30
0.0
 10
44.79022091384584
 20
57.9068171902736
 30
0.0
 10
44.80274702023587
 20
58.16307170290202
 30
0.0
 10
44.85159206101114
 20
58.66997024421457
 30
0.0
 10
44.8878614390684
 20
58.92172007035595
 30
0.0
 10
45.02791413972754
 20
59.67248748200605
 30
0.0
 10
45.16282028411344
 20
60.16704046514983
 30
0.0
 10
45.32630474822813
 20
60.65749385749388
 30
0.0
  0
LINE
  5
D4
330
1F
100
AcDbEntity
  8
0
  6
Continuous
 62
     7
370
    25
100
AcDbLine
 10
44.6460687961
 20
54.9074938575
 30
0.0
 11
44.6460687961
 21
66.4074938575
 31
0.0
  0
LINE
  5
D5
330
1F
100
AcDbEntity
  8
0
  6
Continuous
 62
     7
370
    25
100
AcDbLine
 10
45.3263047482
 20
54.6574938575
 30
0.0
 11
48.9658328439
 21
54.6574938575
 31
0.0
  0
LINE
  5
D6
330
1F
100
AcDbEntity
  8
0
  6
Continuous
 62
     7
370
    25
100
AcDbLine
 10
57.2911207366
 20
55.8752142306
 30
0.0
 11
57.2911207366
 21
65.4397734844
 31
0.0
  0
LINE
  5
D7
330
1F
100
AcDbEntity
  8
0
  6
Continuous
 62
     7
370
    25
100
AcDbLine
 10
37.0010168555
 20
60.6574938575
 30
0.0
 11
37.0010168555
 21
65.4397734844
 31
0.0
  0
LINE
  5
D8
330
1F
100
AcDbEntity
  8
0
  6
Continuous
 62
     7
370
    25
100
AcDbLine
 10
37.0010168555
 20
55.8752142306
 30
0.0
 11
37.0010168555
 21
60.6574938575
 31
0.0
  0
LINE
  5
D9
330
1F
100
AcDbEntity
  8
0
  6
Continuous
 62
     7
370
    25
100
AcDbLine
 10
35.6460687961
 20
56.6574938575
 30
0.0
 11
35.6460687961
 21
64.6574938575
 31
0.0
  0
LINE
  5
DA
330
1F
100
AcDbEntity
  8
0
  6
Continuous
 62
     7
370
    25
100
AcDbLine
 10
58.6460687961
 20
56.6574938575
 30
0.0
 11
58.6460687961
 21
64.6574938575
 31
0.0
  0
LINE
  5
DB
330
1F
100
AcDbEntity
  8
0
  6
Continuous
 62
     7
370
    25
100
AcDbLine
 10
47.867226529
 20
66.6674938575
 30
0.0
 11
47.867226529
 21
66.6574938575
 31
0.0
  0
LINE
  5
DC
330
1F
100
AcDbEntity
  8
0
  6
Continuous
 62
     7
370
    25
100
AcDbLine
 10
48.9648391488
 20
66.6674938575
 30
0.0
 11
47.867226529
 21
66.6674938575
 31
0.0
  0
LINE
  5
DD
330
1F
100
AcDbEntity
  8
0
  6
Continuous
 62
     7
370
    25
100
AcDbLine
 10
48.9648391488
 20
54.6474938575
 30
0.0
 11
47.867226529
 21
54.6474938575
 31
0.0
  0
LINE
  5
DE
330
1F
100
AcDbEntity
  8
0
  6
Continuous
 62
     7
370
    25
100
AcDbLine
 10
47.867226529
 20
54.6574938575
 30
0.0
 11
47.867226529
 21
54.6474938575
 31
0.0
  0
LINE
  5
DF
330
1F
100
AcDbEntity
  8
0
  6
Continuous
 62
     7
370
    25
100
AcDbLine
 10
45.563226529
 20
66.6674938575
 30
0.0
 11
45.563226529
 21
66.6574938575
 31
0.0
  0
LINE
  5
E0
330
1F
100
AcDbEntity
  8
0
  6
Continuous
 62
     7
370
    25
100
AcDbLine
 10
47.867226529
 20
66.6674938575
 30
0.0
 11
45.563226529
 21
66.6674938575
 31
0.0
  0
LINE
  5
E1
330
1F
100
AcDbEntity
  8
0
  6
Continuous
 62
     7
370
    25
100
AcDbLine
 10
45.563226529
 20
54.6574938575
 30
0.0
 11
45.563226529
 21
54.6474938575
 31
0.0
  0
LINE
  5
E2
330
1F
100
AcDbEntity
  8
0
  6
Continuous
 62
     7
370
    25
100
AcDbLine
 10
47.867226529
 20
54.6474938575
 30
0.0
 11
45.563226529
 21
54.6474938575
 31
0.0
  0
LINE
  5
E3
330
1F
100
AcDbEntity
  8
0
  6
Continuous
 62
     7
370
     0
100
AcDbLine
 10
36.0867532028
 20
64.9119231183
 30
0.0
 11
44.1460687961
 21
65.1637767306
 31
0.0
  0
LINE
  5
E4
330
1F
100
AcDbEntity
  8
0
  6
Continuous
 62
     7
370
     0
100
AcDbLine
 10
36.0867532028
 20
56.4030645966
 30
0.0
 11
44.1460687961
 21
56.1512109844
 31
0.0
  0
LINE
  5
E5
330
1F
100
AcDbEntity
  8
0
  6
Continuous
 62
     7
370
     0
100
AcDbLine
 10
44.1460687961
 20
55.6519313575
 30
0.0
 11
44.1460687961
 21
65.6630563575
 31
0.0
  0
LINE
  5
E6
330
1F
100
AcDbEntity
  8
0
  6
Continuous
 62
     7
370
     0
100
AcDbLine
 10
58.2053843893
 20
56.4030645966
 30
0.0
 11
50.1460687961
 21
56.1512109844
 31
0.0
  0
LINE
  5
E7
330
1F
100
AcDbEntity
  8
0
  6
Continuous
 62
     7
370
     0
100
AcDbLine
 10
58.2053843893
 20
64.9119231183
 30
0.0
 11
50.1460687961
 21
65.1637767306
 31
0.0
  0
LINE
  5
E8
330
1F
100
AcDbEntity
  8
0
  6
Continuous
 62
     7
370
     0
100
AcDbLine
 10
50.1460687961
 20
65.6630563575
 30
0.0
 11
50.1460687961
 21
55.6519313575
 31
0.0
  0
LINE
  5
E9
330
1F
100
AcDbEntity
  8
0
  6
Continuous
 62
     7
370
    25
100
AcDbLine
 10
81.2835698649
 20
33.0141780748
 30
0.0
 11
81.2475220619
 21
33.0280931959
 31
0.0
  0
SPLINE
  5
EA
330
1F
100
AcDbEntity
  8
0
  6
Continuous
 62
     7
370
    25
100
AcDbSpline
210
0.0
220
0.0
230
1.0
 70
     8
 71
     3
 72
    16
 73
    12
 74
     0
 42
0.000000001
 43
0.00000001
 40
0.0
 40
0.0
 40
0.0
 40
0.0
 40
0.0543856587566676
 40
0.2149841157695659
 40
0.3643164132729365
 40
0.5010696048578639
 40
0.6245010971211944
 40
0.7343384564743195
 40
0.8306584310409825
 40
0.9391660135611204
 40
1.0
 40
1.0
 40
1.0
 40
1.0
 10
81.03789989658134
 20
33.07990940531177
 30
0.0
 10
81.01029162345674
 20
33.08648104985797
 30
0.0
 10
80.90115733472501
 20
33.11245847155727
 30
0.0
 10
80.70992119580704
 20
33.12076395052287
 30
0.0
 10
80.47720607833594
 20
33.10837601829849
 30
0.0
 10
80.266764150716
 20
33.06853758675733
 30
0.0
 10
80.08206560992248
 20
33.01178248058982
 30
0.0
 10
79.92342690032163
 20
32.94489092755852
 30
0.0
 10
79.7787560090764
 20
32.86730001170978
 30
0.0
 10
79.66150231351756
 20
32.79278213187399
 30
0.0
 10
79.59307557210597
 20
32.73690402569851
 30
0.0
 10
79.56849406217503
 20
32.71683046683045
 30
0.0
  0
SPLINE
  5
EB
330
1F
100
AcDbEntity
  8
0
  6
Continuous
 62
     7
370
    25
100
AcDbSpline
210
0.0
220
0.0
230
1.0
 70
     8
 71
     3
 72
    10
 73
     6
 74
     0
 42
0.000000001
 43
0.00000001
 40
0.0
 40
0.0
 40
0.0
 40
0.0
 40
0.079332809570338
 40
0.6967934290302197
 40
0.9999999999999999
 40
0.9999999999999999
 40
0.9999999999999999
 40
0.9999999999999999
 10
79.69177202958798
 20
29.82623009370272
 30
0.0
 10
79.70043658240846
 20
29.81958027310473
 30
0.0
 10
79.77653880926127
 20
29.76117377871739
 30
0.0
 10
79.89992371647125
 20
29.69608260814858
 30
0.0
 10
80.01907660591087
 20
29.65303475286593
 30
0.0
 10
80.05831764697727
 20
29.63885765095165
 30
0.0
  0
SPLINE
  5
EC
330
1F
100
AcDbEntity
  8
0
  6
Continuous
 62
     7
370
    25
100
AcDbSpline
210
0.0
220
0.0
230
1.0
 70
     8
 71
     3
 72
    11
 73
     7
 74
     0
 42
0.000000001
 43
0.00000001
 40
0.0
 40
0.0
 40
0.0
 40
0.0
 40
0.2011714241427068
 40
0.5085917637511485
 40
0.8177248199965717
 40
1.0
 40
1.0
 40
1.0
 40
1.0
 10
80.26704528850009
 20
29.57337181436815
 30
0.0
 10
80.32383357810342
 20
29.55927712611
 30
0.0
 10
80.4674029567707
 20
29.52364362402947
 30
0.0
 10
80.70572914094883
 20
29.51219513715585
 30
0.0
 10
80.93858591239173
 20
29.52514005726566
 30
0.0
 10
81.07693167249035
 20
29.56092429654052
 30
0.0
 10
81.12824745530502
 20
29.57419753490726
 30
0.0
  0
SPLINE
  5
ED
330
1F
100
AcDbEntity
  8
0
  6
Continuous
 62
     7
370
    25
100
AcDbSpline
210
0.0
220
0.0
230
1.0
 70
     8
 71
     3
 72
    10
 73
     6
 74
     0
 42
0.000000001
 43
0.00000001
 40
0.0
 40
0.0
 40
0.0
 40
0.0
 40
0.3684470101328496
 40
0.99529386290339
 40
1.0
 40
1.0
 40
1.0
 40
1.0
 10
81.33919447299856
 20
29.6403232858977
 30
0.0
 10
81.38614799284893
 20
29.65798944731768
 30
0.0
 10
81.51298454970399
 20
29.70571143055761
 30
0.0
 10
81.63480655508666
 20
29.77100442152801
 30
0.0
 10
81.70262607888684
 20
29.82401593152484
 30
0.0
 10
81.70313144895388
 20
29.82441095686356
 30
0.0
  0
SPLINE
  5
EE
330
1F
100
AcDbEntity
  8
0
  6
Continuous
 62
     7
370
    25
100
AcDbSpline
210
0.0
220
0.0
230
1.0
 70
     8
 71
     3
 72
    11
 73
     7
 74
     0
 42
0.000000001
 43
0.00000001
 40
0.0
 40
0.0
 40
0.0
 40
0.0
 40
0.0984305493069453
 40
0.504162411084658
 40
0.902167626027301
 40
1.0
 40
1.0
 40
1.0
 40
1.0
 10
81.822798019536
 20
32.71683046683045
 30
0.0
 10
81.80718141458378
 20
32.73078861509168
 30
0.0
 10
81.72719298354176
 20
32.80228241179609
 30
0.0
 10
81.56012080653754
 20
32.898955567563
 30
0.0
 10
81.38843952035288
 20
32.98677968143092
 30
0.0
 10
81.28679172593378
 20
33.01509039689513
 30
0.0
 10
81.26673587446263
 20
33.02067630761398
 30
0.0
  0
SPLINE
  5
EF
330
1F
100
AcDbEntity
  8
0
  6
Continuous
 62
     7
370
    25
100
AcDbSpline
210
0.0
220
0.0
230
1.0
 70
     8
 71
     3
 72
     9
 73
     5
 74
     0
 42
0.000000001
 43
0.00000001
 40
0.0
 40
0.0
 40
0.0
 40
0.0
 40
0.8197076565769187
 40
1.0
 40
1.0
 40
1.0
 40
1.0
 10
81.33470618700981
 20
32.77995148832156
 30
0.0
 10
81.37275795735489
 20
32.76569985449738
 30
0.0
 10
81.4191791052358
 20
32.74831361476932
 30
0.0
 10
81.46067116037473
 20
32.72163958937696
 30
0.0
 10
81.46815186022917
 20
32.71683046683045
 30
0.0
  0
SPLINE
  5
F0
330
1F
100
AcDbEntity
  8
0
  6
Continuous
 62
     7
370
    25
100
AcDbSpline
210
0.0
220
0.0
230
1.0
 70
     8
 71
     3
 72
    14
 73
    10
 74
     0
 42
0.000000001
 43
0.00000001
 40
0.0
 40
0.0
 40
0.0
 40
0.0
 40
0.0485895368121627
 40
0.2257266339824774
 40
0.4059724940807444
 40
0.5873964600501814
 40
0.7680294024129006
 40
0.9459024710525317
 40
1.0
 40
1.0
 40
1.0
 40
1.0
 10
81.46486602419135
 20
29.91683046683046
 30
0.0
 10
81.44659556958676
 20
29.90572216595423
 30
0.0
 10
81.36171869094582
 20
29.85411765332532
 30
0.0
 10
81.19307522691321
 20
29.79118776287367
 30
0.0
 10
80.96324317043239
 20
29.73277877286374
 30
0.0
 10
80.7244808152904
 20
29.71081387532995
 30
0.0
 10
80.48733261671525
 20
29.72623975611016
 30
0.0
 10
80.30722577318897
 20
29.75817391510205
 30
0.0
 10
80.21187024215759
 20
29.79462543123153
 30
0.0
 10
80.18963251610985
 20
29.80312623680562
 30
0.0
  0
SPLINE
  5
F1
330
1F
100
AcDbEntity
  8
0
  6
Continuous
 62
     7
370
    25
100
AcDbSpline
210
0.0
220
0.0
230
1.0
 70
     8
 71
     3
 72
    14
 73
    10
 74
     0
 42
0.000000001
 43
0.00000001
 40
0.0
 40
0.0
 40
0.0
 40
0.0
 40
0.0199693591199749
 40
0.1513025771032395
 40
0.2974005551818115
 40
0.4574286121567164
 40
0.62971976422861
 40
0.8117052077421582
 40
1.0
 40
1.0
 40
1.0
 40
1.0
 10
79.92532169453501
 20
32.71683046683045
 30
0.0
 10
79.93395026973239
 20
32.72208356602587
 30
0.0
 10
79.99932671252404
 20
32.76188491574725
 30
0.0
 10
80.1391079095568
 20
32.81983876873436
 30
0.0
 10
80.35072813426555
 20
32.88508007107139
 30
0.0
 10
80.59133666246963
 20
32.91999301931655
 30
0.0
 10
80.85213717141774
 20
32.91640176909423
 30
0.0
 10
81.12460815650736
 20
32.86946669875552
 30
0.0
 10
81.29800857275518
 20
32.79744185160715
 30
0.0
 10
81.38618609939738
 20
32.76081579836142
 30
0.0
  0
LINE
  5
F2
330
1F
100
AcDbEntity
  8
0
  6
Continuous
 62
     7
370
    25
100
AcDbLine
 10
78.0816558562
 20
29.9168304668
 30
0.0
 11
79.4437803344
 21
29.9168304668
 31
0.0
  0
LINE
  5
F3
330
1F
100
AcDbEntity
  8
0
  6
Continuous
 62
     7
370
    25
100
AcDbLine
 10
80.105912321
 20
29.9168304668
 30
0.0
 11
81.2881908731
 21
29.9168304668
 31
0.0
  0
LINE
  5
F4
330
1F
100
AcDbEntity
  8
0
  6
Continuous
 62
     7
370
    25
100
AcDbLine
 10
81.9503228597
 20
29.9168304668
 30
0.0
 11
83.3124473379
 21
29.9168304668
 31
0.0
  0
LINE
  5
F5
330
1F
100
AcDbEntity
  8
0
  6
Continuous
 62
     7
370
    25
100
AcDbLine
 10
83.2051189524
 20
32.7168304668
 30
0.0
 11
78.1889842417
 21
32.7168304668
 31
0.0
  0
CIRCLE
  5
F6
330
1F
100
AcDbEntity
  8
0
  6
Continuous
 62
     7
370
    25
100
AcDbCircle
 10
80.6970515971
 20
31.3168304668
 30
0.0
 40
0.8500000000000014
  0
ARC
  5
F7
330
1F
100
AcDbEntity
  8
0
  6
Continuous
 62
     7
370
    25
100
AcDbCircle
 10
80.6970515971
 20
31.3168304668
 30
0.0
 40
2.22762787699504
100
AcDbArc
 50
38.9374214514
 51
141.0625785486
  0
LWPOLYLINE
  5
F8
330
1F
100
AcDbEntity
  8
0
  6
Continuous
 62
     7
370
    25
100
AcDbPolyline
 90
        3
 70
   128
 43
0.0
 10
82.4297737209
 20
29.9168304668
 10
82.3234152578
 20
29.7945731951
 10
82.2315666977
 20
29.7020272701
  0
ARC
  5
F9
330
1F
100
AcDbEntity
  8
0
  6
Continuous
 62
     7
370
    25
100
AcDbCircle
 10
80.6970515971
 20
31.3168304668
 30
0.0
 40
2.22762787699504
100
AcDbArc
 50
292.1519905411
 51
302.7645722923
  0
ARC
  5
FA
330
1F
100
AcDbEntity
  8
0
  6
Continuous
 62
     7
370
    25
100
AcDbCircle
 10
80.6970515971
 20
31.3168304668
 30
0.0
 40
2.227627876995035
100
AcDbArc
 50
257.0192307692
 51
282.9807692308
  0
ARC
  5
FB
330
1F
100
AcDbEntity
  8
0
  6
Continuous
 62
     7
370
    25
100
AcDbCircle
 10
80.6970515971
 20
31.3168304668
 30
0.0
 40
2.227627876995034
100
AcDbArc
 50
237.2354277077
 51
247.8480094589
  0
LWPOLYLINE
  5
FC
330
1F
100
AcDbEntity
  8
0
  6
Continuous
 62
     7
370
    25
100
AcDbPolyline
 90
        3
 70
   128
 43
0.0
 10
79.1625364964
 20
29.7020272701
 10
79.0991330276
 20
29.7647408419
 10
78.9643294732
 20
29.9168304668
  0
ARC
  5
FD
330
1F
100
AcDbEntity
  8
0
  6
Continuous
 62
     7
370
    25
100
AcDbCircle
 10
80.6970515971
 20
31.3168304668
 30
0.0
 40
2.300000000000003
100
AcDbArc
 50
37.4952497646
 51
142.5047502354
  0
ARC
  5
FE
330
1F
100
AcDbEntity
  8
0
  6
Continuous
 62
     7
370
    25
100
AcDbCircle
 10
80.6970515971
 20
31.3168304668
 30
0.0
 40
2.300000000000001
100
AcDbArc
 50
314.2820700178
 51
322.5047502354
  0
ARC
  5
FF
330
1F
100
AcDbEntity
  8
0
  6
Continuous
 62
     7
370
    25
100
AcDbCircle
 10
80.6970515971
 20
31.3168304668
 30
0.0
 40
2.300000000000003
100
AcDbArc
 50
257.0192307692
 51
282.9807692308
  0
ARC
  5
100
330
1F
100
AcDbEntity
  8
0
  6
Continuous
 62
     7
370
    25
100
AcDbCircle
 10
80.6970515971
 20
31.3168304668
 30
0.0
 40
2.300000000000001
100
AcDbArc
 50
217.4952497646
 51
225.7179299822
  0
ARC
  5
101
330
1F
100
AcDbEntity
  8
0
  6
Continuous
 62
     7
370
    25
100
AcDbCircle
 10
80.6543479677
 20
33.2208861967
 30
0.0
 40
0.8644372866342729
100
AcDbArc
 50
327.8444580799
 51
341.1304068413
  0
SPLINE
  5
102
330
1F
100
AcDbEntity
  8
0
  6
Continuous
 62
     7
370
    25
100
AcDbSpline
210
0.0
220
0.0
230
1.0
 70
     8
 71
     3
 72
    16
 73
    12
 74
     0
 42
0.000000001
 43
0.00000001
 40
0.0
 40
0.0
 40
0.0
 40
0.0
 40
0.1032999525045556
 40
0.2066017358718164
 40
0.3099053889653962
 40
0.4132110342501001
 40
0.5586630570178396
 40
0.7083472687801365
 40
0.8532639206685524
 40
0.9620402166581623
 40
1.0
 40
1.0
 40
1.0
 40
1.0
 10
81.4723279121906
 20
32.94131396480279
 30
0.0
 10
81.41107753370312
 20
32.96809402288514
 30
0.0
 10
81.28857569114166
 20
33.02165461369296
 30
0.0
 10
81.09466525538086
 20
33.0745787206322
 30
0.0
 10
80.89649721628706
 20
33.10627936425373
 30
0.0
 10
80.66855748547904
 20
33.11547290391385
 30
0.0
 10
80.4112073556389
 20
33.08940529184103
 30
0.0
 10
80.13515784479956
 20
33.01383125632348
 30
0.0
 10
79.89988825067768
 20
32.90000132451384
 30
0.0
 10
79.73915448075599
 20
32.79884706106847
 30
0.0
 10
79.67010065090166
 20
32.73368700114935
 30
0.0
 10
79.65223682060078
 20
32.71683046683045
 30
0.0
  0
SPLINE
  5
103
330
1F
100
AcDbEntity
  8
0
  6
Continuous
 62
     7
370
    25
100
AcDbSpline
210
0.0
220
0.0
230
1.0
 70
     8
 71
     3
 72
    13
 73
     9
 74
     0
 42
0.000000001
 43
0.00000001
 40
0.0
 40
0.0
 40
0.0
 40
0.0
 40
0.0632444414146171
 40
0.2774714756716362
 40
0.4854510226687706
 40
0.7017268924977751
 40
0.8493596927668156
 40
1.0
 40
1.0
 40
1.0
 40
1.0
 10
79.85767469627322
 20
32.71683046683045
 30
0.0
 10
79.88652551745515
 20
32.73381278288478
 30
0.0
 10
80.01310233193293
 20
32.80831906660743
 30
0.0
 10
80.26193004866559
 20
32.88406705598214
 30
0.0
 10
80.59681760406791
 20
32.93415514792265
 30
0.0
 10
80.90098682998355
 20
32.914666040611
 30
0.0
 10
81.16746122448014
 20
32.85419556218226
 30
0.0
 10
81.3127893567839
 20
32.79215091967791
 30
0.0
 10
81.38618609939738
 20
32.76081579836142
 30
0.0
  0
LINE
  5
104
330
1F
100
AcDbEntity
  8
0
  6
Continuous
 62
     7
370
    25
100
AcDbLine
 10
81.3861860994
 20
32.7608157984
 30
0.0
 11
81.4723279122
 21
32.9413139648
 31
0.0
  0
CIRCLE
  5
105
330
1F
100
AcDbEntity
  8
0
  6
Continuous
 62
     7
370
    25
100
AcDbCircle
 10
80.6970515971
 20
31.3168304668
 30
0.0
 40
0.4999999999999993
  0
CIRCLE
  5
106
330
1F
100
AcDbEntity
  8
0
  6
Continuous
 62
     7
370
    25
100
AcDbCircle
 10
80.6970515971
 20
31.3168304668
 30
0.0
 40
0.749999999999999
  0
ARC
  5
107
330
1F
100
AcDbEntity
  8
0
  6
Continuous
 62
     7
370
    25
100
AcDbCircle
 10
80.6970515971
 20
31.3168304668
 30
0.0
 40
2.200000000000007
100
AcDbArc
 50
39.5211963586
 51
140.4788036414
  0
LWPOLYLINE
  5
108
330
1F
100
AcDbEntity
  8
0
  6
Continuous
 62
     7
370
    25
100
AcDbPolyline
 90
        3
 70
   128
 43
0.0
 10
78.9999953222
 20
29.9168304668
 10
79.1254940644
 20
29.7772828315
 10
79.188490645
 20
29.7155048116
  0
ARC
  5
109
330
1F
100
AcDbEntity
  8
0
  6
Continuous
 62
     7
370
    25
100
AcDbCircle
 10
80.6970515971
 20
31.3168304668
 30
0.0
 40
2.200000000000008
100
AcDbArc
 50
236.4310723344
 51
248.6523648322
  0
ARC
  5
10A
330
1F
100
AcDbEntity
  8
0
  6
Continuous
 62
     7
370
    25
100
AcDbCircle
 10
80.6970515971
 20
31.3168304668
 30
0.0
 40
2.200000000000004
100
AcDbArc
 50
257.0192307692
 51
282.9807692308
  0
ARC
  5
10B
330
1F
100
AcDbEntity
  8
0
  6
Continuous
 62
     7
370
    25
100
AcDbCircle
 10
80.6970515971
 20
31.3168304668
 30
0.0
 40
2.200000000000006
100
AcDbArc
 50
291.3476351678
 51
303.5689276656
  0
LWPOLYLINE
  5
10C
330
1F
100
AcDbEntity
  8
0
  6
Continuous
 62
     7
370
    25
100
AcDbPolyline
 90
        3
 70
   128
 43
0.0
 10
82.2056125491
 20
29.7155048116
 10
82.3463905271
 20
29.8609180059
 10
82.3941078719
 20
29.9168304668
  0
LINE
  5
10D
330
1F
100
AcDbEntity
  8
0
  6
Continuous
 62
     7
370
    25
100
AcDbLine
 10
81.3933860091
 20
28.296049378
 30
0.0
 11
81.1320341101
 21
29.4298248459
 31
0.0
  0
ARC
  5
10E
330
1F
100
AcDbEntity
  8
0
  6
Continuous
 62
     7
370
    25
100
AcDbCircle
 10
81.6192568664
 20
29.5421368479
 30
0.0
 40
0.5
100
AcDbArc
 50
43.587901362
 51
192.9807692308
  0
ARC
  5
10F
330
1F
100
AcDbEntity
  8
0
  6
Continuous
 62
     7
370
    25
100
AcDbCircle
 10
82.6333013189
 20
30.5073901039
 30
0.0
 40
0.9000000000000057
100
AcDbArc
 50
223.587901362
 51
341.1015410482
  0
ARC
  5
110
330
1F
100
AcDbEntity
  8
0
  6
Continuous
 62
     7
370
    25
100
AcDbCircle
 10
80.6970515971
 20
31.1702583744
 30
0.0
 40
2.946572092424949
100
AcDbArc
 50
341.1015410482
 51
198.8984589518
  0
ARC
  5
111
330
1F
100
AcDbEntity
  8
0
  6
Continuous
 62
     7
370
    25
100
AcDbCircle
 10
78.7608018752
 20
30.5073901039
 30
0.0
 40
0.9000000000000009
100
AcDbArc
 50
198.8984589518
 51
316.412098638
  0
ARC
  5
112
330
1F
100
AcDbEntity
  8
0
  6
Continuous
 62
     7
370
    25
100
AcDbCircle
 10
79.7748463277
 20
29.5421368479
 30
0.0
 40
0.5
100
AcDbArc
 50
347.0192307692
 51
136.412098638
  0
LINE
  5
113
330
1F
100
AcDbEntity
  8
0
  6
Continuous
 62
     7
370
    25
100
AcDbLine
 10
80.262069084
 20
29.4298248459
 30
0.0
 11
80.000717185
 21
28.296049378
 31
0.0
  0
CIRCLE
  5
114
330
1F
100
AcDbEntity
  8
0
  6
Continuous
 62
     7
370
    25
100
AcDbCircle
 10
79.7748463277
 20
29.5421368479
 30
0.0
 40
0.2999999999999972
  0
CIRCLE
  5
115
330
1F
100
AcDbEntity
  8
0
  6
Continuous
 62
     7
370
    25
100
AcDbCircle
 10
81.6192568664
 20
29.5421368479
 30
0.0
 40
0.2999999999999829
  0
CIRCLE
  5
116
330
1F
100
AcDbEntity
  8
0
  6
Continuous
 62
     7
370
    25
100
AcDbCircle
 10
80.6970515971
 20
31.3168304668
 30
0.0
 40
4.782279626857608
  0
CIRCLE
  5
117
330
1F
100
AcDbEntity
  8
0
  6
Continuous
 62
     7
370
    25
100
AcDbCircle
 10
80.6970515971
 20
31.3168304668
 30
0.0
 40
4.0
  0
CIRCLE
  5
118
330
1F
100
AcDbEntity
  8
0
  6
Continuous
 62
     7
370
    25
100
AcDbCircle
 10
80.6970515971
 20
31.3168304668
 30
0.0
 40
3.300000000000001
  0
CIRCLE
  5
119
330
1F
100
AcDbEntity
  8
0
  6
Continuous
 62
     7
370
    25
100
AcDbCircle
 10
80.6970515971
 20
31.3168304668
 30
0.0
 40
3.100000000000009
  0
CIRCLE
  5
11A
330
1F
100
AcDbEntity
  8
0
  6
Continuous
 62
     7
370
    25
100
AcDbCircle
 10
80.6970515971
 20
31.3168304668
 30
0.0
 40
5.021187499999996
  0
SPLINE
  5
11B
330
1F
100
AcDbEntity
  8
0
  6
Continuous
 62
     7
370
    25
100
AcDbSpline
210
0.0
220
0.0
230
1.0
 70
    24
 71
     3
 72
    14
 73
    10
 74
     0
 42
0.000000001
 43
0.00000001
 40
0.0
 40
0.0
 40
0.0
 40
0.0
 40
0.5
 40
0.5
 40
0.625
 40
0.625
 40
0.75
 40
0.75
 40
1.0
 40
1.0
 40
1.0
 40
1.0
 10
74.69705159705148
 20
34.78093208196817
 30
0.0
 10
75.67673729217978
 20
35.34655388177171
 30
0.0
 10
76.67110046956722
 20
35.92064972990861
 30
0.0
 10
77.94637492983132
 20
36.65692978283273
 30
0.0
 10
78.20262944245974
 20
36.80487839467982
 30
0.0
 10
78.70952798377229
 20
37.09753640395844
 30
0.0
 10
78.96127780991365
 20
37.24288423384961
 30
0.0
 10
79.71204522156377
 20
37.6763400010646
 30
0.0
 10
80.20659820470756
 20
37.9618702990112
 30
0.0
 10
80.6970515970516
 20
38.24503369710599
 30
0.0
  0
SPLINE
  5
11C
330
1F
100
AcDbEntity
  8
0
  6
Continuous
 62
     7
370
    25
100
AcDbSpline
210
0.0
220
0.0
230
1.0
 70
    24
 71
     3
 72
    14
 73
    10
 74
     0
 42
0.000000001
 43
0.00000001
 40
0.0
 40
0.0
 40
0.0
 40
0.0
 40
0.5000000000000004
 40
0.5000000000000004
 40
0.6250000000000003
 40
0.6250000000000003
 40
0.7500000000000002
 40
0.7500000000000002
 40
1.0
 40
1.0
 40
1.0
 40
1.0
 10
80.69705159705148
 20
38.24503369710601
 30
0.0
 10
81.67673729217977
 20
37.67941189730247
 30
0.0
 10
82.67110046956722
 20
37.10531604916557
 30
0.0
 10
83.94637492983131
 20
36.36903599624144
 30
0.0
 10
84.20262944245974
 20
36.22108738439436
 30
0.0
 10
84.70952798377229
 20
35.92842937511573
 30
0.0
 10
84.96127780991367
 20
35.78308154522457
 30
0.0
 10
85.71204522156378
 20
35.34962577800957
 30
0.0
 10
86.20659820470755
 20
35.06409548006298
 30
0.0
 10
86.6970515970516
 20
34.78093208196818
 30
0.0
  0
SPLINE
  5
11D
330
1F
100
AcDbEntity
  8
0
  6
Continuous
 62
     7
370
    25
100
AcDbSpline
210
0.0
220
0.0
230
1.0
 70
    24
 71
     3
 72
    14
 73
    10
 74
     0
 42
0.000000001
 43
0.00000001
 40
0.0
 40
0.0
 40
0.0
 40
0.0
 40
0.25
 40
0.25
 40
0.5
 40
0.5
 40
0.75
 40
0.75
 40
1.0
 40
1.0
 40
1.0
 40
1.0
 10
86.69705159705155
 20
27.85272885169269
 30
0.0
 10
86.69705159705155
 20
28.41677299502378
 30
0.0
 10
86.69705159705155
 20
28.99383922611866
 30
0.0
 10
86.69705159705155
 20
30.15022651298116
 30
0.0
 10
86.69705159705155
 20
30.73202118569366
 30
0.0
 10
86.69705159705155
 20
31.90408317875642
 30
0.0
 10
86.69705159705155
 20
32.49776341295915
 30
0.0
 10
86.69705159705155
 20
33.65369992435797
 30
0.0
 10
86.69705159705155
 20
34.22089893366371
 30
0.0
 10
86.69705159705155
 20
34.78093208196821
 30
0.0
  0
SPLINE
  5
11E
330
1F
100
AcDbEntity
  8
0
  6
Continuous
 62
     7
370
    25
100
AcDbSpline
210
0.0
220
0.0
230
1.0
 70
    24
 71
     3
 72
    14
 73
    10
 74
     0
 42
0.000000001
 43
0.00000001
 40
0.0
 40
0.0
 40
0.0
 40
0.0
 40
0.4999999999999999
 40
0.4999999999999999
 40
0.6249999999999999
 40
0.6249999999999999
 40
0.7499999999999998
 40
0.7499999999999998
 40
1.0
 40
1.0
 40
1.0
 40
1.0
 10
86.69705159705163
 20
27.85272885169274
 30
0.0
 10
85.71736590192334
 20
27.28710705188919
 30
0.0
 10
84.72300272453589
 20
26.7130112037523
 30
0.0
 10
83.44772826427179
 20
25.97673115082817
 30
0.0
 10
83.19147375164336
 20
25.82878253898109
 30
0.0
 10
82.68457521033082
 20
25.53612452970246
 30
0.0
 10
82.43282538418944
 20
25.3907766998113
 30
0.0
 10
81.68205797253933
 20
24.95732093259631
 30
0.0
 10
81.18750498939555
 20
24.67179063464972
 30
0.0
 10
80.69705159705151
 20
24.38862723655492
 30
0.0
  0
SPLINE
  5
11F
330
1F
100
AcDbEntity
  8
0
  6
Continuous
 62
     7
370
    25
100
AcDbSpline
210
0.0
220
0.0
230
1.0
 70
    24
 71
     3
 72
    14
 73
    10
 74
     0
 42
0.000000001
 43
0.00000001
 40
0.0
 40
0.0
 40
0.0
 40
0.0
 40
0.4999999999999998
 40
0.4999999999999998
 40
0.6249999999999998
 40
0.6249999999999998
 40
0.7499999999999999
 40
0.7499999999999999
 40
1.0
 40
1.0
 40
1.0
 40
1.0
 10
80.69705159705163
 20
24.3886272365549
 30
0.0
 10
79.71736590192334
 20
24.95424903635844
 30
0.0
 10
78.72300272453589
 20
25.52834488449534
 30
0.0
 10
77.44772826427179
 20
26.26462493741947
 30
0.0
 10
77.19147375164337
 20
26.41257354926654
 30
0.0
 10
76.68457521033082
 20
26.70523155854518
 30
0.0
 10
76.43282538418944
 20
26.85057938843634
 30
0.0
 10
75.68205797253933
 20
27.28403515565133
 30
0.0
 10
75.18750498939555
 20
27.56956545359792
 30
0.0
 10
74.69705159705151
 20
27.85272885169272
 30
0.0
  0
SPLINE
  5
120
330
1F
100
AcDbEntity
  8
0
  6
Continuous
 62
     7
370
    25
100
AcDbSpline
210
0.0
220
0.0
230
1.0
 70
    24
 71
     3
 72
    14
 73
    10
 74
     0
 42
0.000000001
 43
0.00000001
 40
0.0
 40
0.0
 40
0.0
 40
0.0
 40
0.25
 40
0.25
 40
0.5
 40
0.5
 40
0.75
 40
0.75
 40
1.0
 40
1.0
 40
1.0
 40
1.0
 10
74.69705159705154
 20
27.85272885169269
 30
0.0
 10
74.69705159705154
 20
28.41677299502391
 30
0.0
 10
74.69705159705154
 20
28.99383922611883
 30
0.0
 10
74.69705159705154
 20
30.15022651298014
 30
0.0
 10
74.69705159705155
 20
30.73202118569171
 30
0.0
 10
74.69705159705154
 20
31.90408317875177
 30
0.0
 10
74.69705159705155
 20
32.49776341295505
 30
0.0
 10
74.69705159705155
 20
33.65369992435688
 30
0.0
 10
74.69705159705155
 20
34.22089893366338
 30
0.0
 10
74.69705159705155
 20
34.78093208196821
 30
0.0
  0
CIRCLE
  5
121
330
1F
100
AcDbEntity
  8
0
  6
Continuous
 62
     7
370
    25
100
AcDbCircle
 10
80.6970515971
 20
31.3168304668
 30
0.0
 40
5.750000000000014
  0
ENDSEC
  0
SECTION
  2
OBJECTS
  0
DICTIONARY
  5
C
330
0
100
AcDbDictionary
281
     1
  3
ACAD_GROUP
350
D
  3
ACAD_LAYOUT
350
1A
  3
ACAD_MLINESTYLE
350
17
  3
ACAD_PLOTSETTINGS
350
19
  3
ACAD_PLOTSTYLENAME
350
E
  3
ACAD_SCALELIST
350
47
  0
DICTIONARY
  5
D
102
{ACAD_REACTORS
330
C
102
}
330
C
100
AcDbDictionary
281
     1
  0
DICTIONARY
  5
1A
102
{ACAD_REACTORS
330
C
102
}
330
C
100
AcDbDictionary
281
     1
  3
Layout1
350
1E
  3
Layout2
350
26
  3
Model
350
22
  0
DICTIONARY
  5
17
102
{ACAD_REACTORS
330
C
102
}
330
C
100
AcDbDictionary
281
     1
  3
Standard
350
18
  0
DICTIONARY
  5
19
102
{ACAD_REACTORS
330
C
102
}
330
C
100
AcDbDictionary
281
     1
  0
ACDBDICTIONARYWDFLT
  5
E
102
{ACAD_REACTORS
330
C
102
}
330
C
100
AcDbDictionary
281
     1
  3
Normal
350
F
100
AcDbDictionaryWithDefault
340
F
  0
DICTIONARY
  5
47
102
{ACAD_REACTORS
330
C
102
}
330
C
100
AcDbDictionary
281
     1
  3
A0
350
48
  3
A1
350
49
  3
A2
350
4A
  3
A3
350
4B
  3
A4
350
4C
  3
A5
350
4D
  3
A6
350
4E
  3
A7
350
4F
  3
A8
350
50
  3
A9
350
51
  3
B0
350
52
  3
B1
350
53
  3
B2
350
54
  3
B3
350
55
  3
B4
350
56
  3
B5
350
57
  3
B6
350
58
  3
B7
350
59
  3
B8
350
5A
  3
B9
350
5B
  3
C0
350
5C
  3
C1
350
5D
  3
C2
350
5E
  3
C3
350
5F
  3
C4
350
60
  3
C5
350
61
  3
C6
350
62
  3
C7
350
63
  3
C8
350
64
  3
C9
350
65
  3
D0
350
66
  3
D1
350
67
  3
D2
350
68
  0
LAYOUT
  5
1E
102
{ACAD_REACTORS
330
1A
102
}
330
1A
100
AcDbPlotSettings
  1

  2
none_device
  4

  6

 40
0.0
 41
0.0
 42
0.0
 43
0.0
 44
0.0
 45
0.0
 46
0.0
 47
0.0
 48
0.0
 49
0.0
140
0.0
141
0.0
142
1.0
143
1.0
 70
   688
 72
     1
 73
     0
 74
     5
  7

 75
    16
147
1.0
148
0.0
149
0.0
100
AcDbLayout
  1
Layout1
 70
     1
 71
     1
 10
0.0
 20
0.0
 11
420.0
 21
297.0
 12
0.0
 22
0.0
 32
0.0
 14
1.0000000000E+20
 24
1.0000000000E+20
 34
1.0000000000E+20
 15
-1.0000000000E+20
 25
-1.0000000000E+20
 35
-1.0000000000E+20
146
0.0
 13
0.0
 23
0.0
 33
0.0
 16
1.0
 26
0.0
 36
0.0
 17
0.0
 27
1.0
 37
0.0
 76
     0
330
1B
  0
LAYOUT
  5
26
102
{ACAD_REACTORS
330
1A
102
}
330
1A
100
AcDbPlotSettings
  1

  2
none_device
  4

  6

 40
0.0
 41
0.0
 42
0.0
 43
0.0
 44
0.0
 45
0.0
 46
0.0
 47
0.0
 48
0.0
 49
0.0
140
0.0
141
0.0
142
1.0
143
1.0
 70
   688
 72
     1
 73
     0
 74
     5
  7

 75
    16
147
1.0
148
0.0
149
0.0
100
AcDbLayout
  1
Layout2
 70
     1
 71
     2
 10
0.0
 20
0.0
 11
0.0
 21
0.0
 12
0.0
 22
0.0
 32
0.0
 14
0.0
 24
0.0
 34
0.0
 15
0.0
 25
0.0
 35
0.0
146
0.0
 13
0.0
 23
0.0
 33
0.0
 16
1.0
 26
0.0
 36
0.0
 17
0.0
 27
1.0
 37
0.0
 76
     0
330
23
  0
LAYOUT
  5
22
102
{ACAD_REACTORS
330
1A
102
}
330
1A
100
AcDbPlotSettings
  1

  2
none_device
  4
Letter_(8.50_x_11.00_Inches)
  6

 40
6.35
 41
6.35
 42
6.35000508
 43
6.35000508
 44
215.9
 45
279.4
 46
0.0
 47
0.0
 48
0.0
 49
0.0
140
0.0
141
0.0
142
1.0
143
1.0
 70
  1712
 72
     1
 73
     0
 74
     0
  7

 75
     0
147
1.0
148
0.0
149
0.0
100
AcDbLayout
  1
Model
 70
     1
 71
     0
 10
0.0
 20
0.0
 11
148.5
 21
105.0
 12
0.0
 22
0.0
 32
0.0
 14
0.0
 24
0.0
 34
0.0
 15
148.5
 25
105.0
 35
0.0
146
0.0
 13
0.0
 23
0.0
 33
0.0
 16
1.0
 26
0.0
 36
0.0
 17
0.0
 27
1.0
 37
0.0
 76
     0
330
1F
331
29
  0
MLINESTYLE
  5
18
102
{ACAD_REACTORS
330
17
102
}
330
17
100
AcDbMlineStyle
  2
Standard
 70
     0
  3

 62
   256
 51
90.0
 52
90.0
 71
     2
 49
0.5
 62
   256
  6
BYLAYER
 49
-0.5
 62
   256
  6
BYLAYER
  0
ACDBPLACEHOLDER
  5
F
102
{ACAD_REACTORS
330
E
102
}
330
E
  0
SCALE
  5
48
102
{ACAD_REACTORS
330
47
102
}
330
47
100
AcDbScale
 70
     0
300
1:1
140
1.0
141
1.0
290
     1
  0
SCALE
  5
49
102
{ACAD_REACTORS
330
47
102
}
330
47
100
AcDbScale
 70
     0
300
1:2
140
1.0
141
2.0
290
     0
  0
SCALE
  5
4A
102
{ACAD_REACTORS
330
47
102
}
330
47
100
AcDbScale
 70
     0
300
1:4
140
1.0
141
4.0
290
     0
  0
SCALE
  5
4B
102
{ACAD_REACTORS
330
47
102
}
330
47
100
AcDbScale
 70
     0
300
1:5
140
1.0
141
5.0
290
     0
  0
SCALE
  5
4C
102
{ACAD_REACTORS
330
47
102
}
330
47
100
AcDbScale
 70
     0
300
1:8
140
1.0
141
8.0
290
     0
  0
SCALE
  5
4D
102
{ACAD_REACTORS
330
47
102
}
330
47
100
AcDbScale
 70
     0
300
1:10
140
1.0
141
10.0
290
     0
  0
SCALE
  5
4E
102
{ACAD_REACTORS
330
47
102
}
330
47
100
AcDbScale
 70
     0
300
1:16
140
1.0
141
16.0
290
     0
  0
SCALE
  5
4F
102
{ACAD_REACTORS
330
47
102
}
330
47
100
AcDbScale
 70
     0
300
1:20
140
1.0
141
20.0
290
     0
  0
SCALE
  5
50
102
{ACAD_REACTORS
330
47
102
}
330
47
100
AcDbScale
 70
     0
300
1:30
140
1.0
141
30.0
290
     0
  0
SCALE
  5
51
102
{ACAD_REACTORS
330
47
102
}
330
47
100
AcDbScale
 70
     0
300
1:40
140
1.0
141
40.0
290
     0
  0
SCALE
  5
52
102
{ACAD_REACTORS
330
47
102
}
330
47
100
AcDbScale
 70
     0
300
1:50
140
1.0
141
50.0
290
     0
  0
SCALE
  5
53
102
{ACAD_REACTORS
330
47
102
}
330
47
100
AcDbScale
 70
     0
300
1:100
140
1.0
141
100.0
290
     0
  0
SCALE
  5
54
102
{ACAD_REACTORS
330
47
102
}
330
47
100
AcDbScale
 70
     0
300
2:1
140
2.0
141
1.0
290
     0
  0
SCALE
  5
55
102
{ACAD_REACTORS
330
47
102
}
330
47
100
AcDbScale
 70
     0
300
4:1
140
4.0
141
1.0
290
     0
  0
SCALE
  5
56
102
{ACAD_REACTORS
330
47
102
}
330
47
100
AcDbScale
 70
     0
300
8:1
140
8.0
141
1.0
290
     0
  0
SCALE
  5
57
102
{ACAD_REACTORS
330
47
102
}
330
47
100
AcDbScale
 70
     0
300
10:1
140
10.0
141
1.0
290
     0
  0
SCALE
  5
58
102
{ACAD_REACTORS
330
47
102
}
330
47
100
AcDbScale
 70
     0
300
100:1
140
100.0
141
1.0
290
     0
  0
SCALE
  5
59
102
{ACAD_REACTORS
330
47
102
}
330
47
100
AcDbScale
 70
     0
300
1/128" = 1'-0"
140
0.0078125
141
12.0
290
     0
  0
SCALE
  5
5A
102
{ACAD_REACTORS
330
47
102
}
330
47
100
AcDbScale
 70
     0
300
1/64" = 1'-0"
140
0.015625
141
12.0
290
     0
  0
SCALE
  5
5B
102
{ACAD_REACTORS
330
47
102
}
330
47
100
AcDbScale
 70
     0
300
1/32" = 1'-0"
140
0.03125
141
12.0
290
     0
  0
SCALE
  5
5C
102
{ACAD_REACTORS
330
47
102
}
330
47
100
AcDbScale
 70
     0
300
1/16" = 1'-0"
140
0.0625
141
12.0
290
     0
  0
SCALE
  5
5D
102
{ACAD_REACTORS
330
47
102
}
330
47
100
AcDbScale
 70
     0
300
3/32" = 1'-0"
140
0.09375
141
12.0
290
     0
  0
SCALE
  5
5E
102
{ACAD_REACTORS
330
47
102
}
330
47
100
AcDbScale
 70
     0
300
1/8" = 1'-0"
140
0.125
141
12.0
290
     0
  0
SCALE
  5
5F
102
{ACAD_REACTORS
330
47
102
}
330
47
100
AcDbScale
 70
     0
300
3/16" = 1'-0"
140
0.1875
141
12.0
290
     0
  0
SCALE
  5
60
102
{ACAD_REACTORS
330
47
102
}
330
47
100
AcDbScale
 70
     0
300
1/4" = 1'-0"
140
0.25
141
12.0
290
     0
  0
SCALE
  5
61
102
{ACAD_REACTORS
330
47
102
}
330
47
100
AcDbScale
 70
     0
300
3/8" = 1'-0"
140
0.375
141
12.0
290
     0
  0
SCALE
  5
62
102
{ACAD_REACTORS
330
47
102
}
330
47
100
AcDbScale
 70
     0
300
1/2" = 1'-0"
140
0.5
141
12.0
290
     0
  0
SCALE
  5
63
102
{ACAD_REACTORS
330
47
102
}
330
47
100
AcDbScale
 70
     0
300
3/4" = 1'-0"
140
0.75
141
12.0
290
     0
  0
SCALE
  5
64
102
{ACAD_REACTORS
330
47
102
}
330
47
100
AcDbScale
 70
     0
300
1" = 1'-0"
140
1.0
141
12.0
290
     0
  0
SCALE
  5
65
102
{ACAD_REACTORS
330
47
102
}
330
47
100
AcDbScale
 70
     0
300
1-1/2" = 1'-0"
140
1.5
141
12.0
290
     0
  0
SCALE
  5
66
102
{ACAD_REACTORS
330
47
102
}
330
47
100
AcDbScale
 70
     0
300
3" = 1'-0"
140
3.0
141
12.0
290
     0
  0
SCALE
  5
67
102
{ACAD_REACTORS
330
47
102
}
330
47
100
AcDbScale
 70
     0
300
6" = 1'-0"
140
6.0
141
12.0
290
     0
  0
SCALE
  5
68
102
{ACAD_REACTORS
330
47
102
}
330
47
100
AcDbScale
 70
     0
300
1'-0" = 1'-0"
140
12.0
141
12.0
290
     0
  0
ENDSEC
  0
EOF
