  0
SECTION
  2
HEADER
  9
$ACADVER
  1
AC1015
  9
$ACADMAINTVER
 70
     6
  9
$DWGCODEPAGE
  3
DOS932
  9
$INSBASE
 10
0.0
 20
0.0
 30
0.0
  9
$EXTMIN
 10
0.0
 20
0.0
 30
0.0
  9
$EXTMAX
 10
431.8
 20
279.4
 30
0.0
  9
$LIMMIN
 10
0.0
 20
0.0
  9
$LIMMAX
 10
431.8
 20
279.4
  9
$ORTHOMODE
 70
     0
  9
$REGENMODE
 70
     1
  9
$FILLMODE
 70
     1
  9
$QTEXTMODE
 70
     0
  9
$MIRRTEXT
 70
     1
  9
$LTSCALE
 40
1.0
  9
$ATTMODE
 70
     1
  9
$TEXTSIZE
 40
3.5
  9
$TRACEWID
 40
1.0
  9
$TEXTSTYLE
  7
Standard
  9
$CLAYER
  8
0
  9
$CELTYPE
  6
ByLayer
  9
$CECOLOR
 62
   256
  9
$CELTSCALE
 40
1.0
  9
$DISPSILH
 70
     0
  9
$DIMSCALE
 40
1.0
  9
$DIMASZ
 40
3.302
  9
$DIMEXO
 40
1.0
  9
$DIMDLI
 40
3.75
  9
$DIMRND
 40
0.0
  9
$DIMDLE
 40
0.0
  9
$DIMEXE
 40
1.0
  9
$DIMTP
 40
0.0
  9
$DIMTM
 40
0.0
  9
$DIMTXT
 40
3.5
  9
$DIMCEN
 40
2.5
  9
$DIMTSZ
 40
0.0
  9
$DIMTOL
 70
     0
  9
$DIMLIM
 70
     0
  9
$DIMTIH
 70
     1
  9
$DIMTOH
 70
     1
  9
$DIMSE1
 70
     0
  9
$DIMSE2
 70
     0
  9
$DIMTAD
 70
     1
  9
$DIMZIN
 70
     1
  9
$DIMBLK
  1

  9
$DIMASO
 70
     1
  9
$DIMSHO
 70
     1
  9
$DIMPOST
  1

  9
$DIMAPOST
  1

  9
$DIMALT
 70
     0
  9
$DIMALTD
 70
     3
  9
$DIMALTF
 40
0.0393700787
  9
$DIMLFAC
 40
1.0
  9
$DIMTOFL
 70
     1
  9
$DIMTVP
 40
0.0
  9
$DIMTIX
 70
     0
  9
$DIMSOXD
 70
     0
  9
$DIMSAH
 70
     0
  9
$DIMBLK1
  1

  9
$DIMBLK2
  1

  9
$DIMSTYLE
  2
ISO-25
  9
$DIMCLRD
 70
     0
  9
$DIMCLRE
 70
     0
  9
$DIMCLRT
 70
     0
  9
$DIMTFAC
 40
1.0
  9
$DIMGAP
 40
1.524
  9
$DIMJUST
 70
     0
  9
$DIMSD1
 70
     0
  9
$DIMSD2
 70
     0
  9
$DIMTOLJ
 70
     0
  9
$DIMTZIN
 70
     1
  9
$DIMALTZ
 70
     0
  9
$DIMALTTZ
 70
     0
  9
$DIMUPT
 70
     0
  9
$DIMDEC
 70
     2
  9
$DIMTDEC
 70
     2
  9
$DIMALTU
 70
     2
  9
$DIMALTTD
 70
     3
  9
$DIMTXSTY
  7
Standard
  9
$DIMAUNIT
 70
     0
  9
$DIMADEC
 70
     2
  9
$DIMALTRND
 40
0.0
  9
$DIMAZIN
 70
     0
  9
$DIMDSEP
 70
    44
  9
$DIMATFIT
 70
     3
  9
$DIMFRAC
 70
     0
  9
$DIMLDRBLK
  1

  9
$DIMLUNIT
 70
     2
  9
$DIMLWD
 70
    -2
  9
$DIMLWE
 70
    -2
  9
$DIMTMOVE
 70
     0
  9
$LUNITS
 70
     2
  9
$LUPREC
 70
     2
  9
$SKETCHINC
 40
1.0
  9
$FILLETRAD
 40
10.0
  9
$AUNITS
 70
     0
  9
$AUPREC
 70
     2
  9
$MENU
  1
.
  9
$ELEVATION
 40
0.0
  9
$PELEVATION
 40
0.0
  9
$THICKNESS
 40
0.0
  9
$LIMCHECK
 70
     0
  9
$CHAMFERA
 40
0.0
  9
$CHAMFERB
 40
0.0
  9
$CHAMFERC
 40
0.0
  9
$CHAMFERD
 40
0.0
  9
$SKPOLY
 70
     0
  9
$TDCREATE
 40
2459229.407970509
  9
$TDUCREATE
 40
2459229.032970509
  9
$TDUPDATE
 40
2459229.407971227
  9
$TDUUPDATE
 40
2459229.032971227
  9
$TDINDWG
 40
0.0000000116
  9
$TDUSRTIMER
 40
0.0000000116
  9
$USRTIMER
 70
     1
  9
$ANGBASE
 50
0.0
  9
$ANGDIR
 70
     0
  9
$PDMODE
 70
     0
  9
$PDSIZE
 40
-1.0
  9
$PLINEWID
 40
0.0
  9
$SPLFRAME
 70
     0
  9
$SPLINETYPE
 70
     6
  9
$SPLINESEGS
 70
     8
  9
$HANDSEED
  5
1FF
  9
$SURFTAB1
 70
     6
  9
$SURFTAB2
 70
     6
  9
$SURFTYPE
 70
     6
  9
$SURFU
 70
     6
  9
$SURFV
 70
     6
  9
$UCSBASE
  2

  9
$UCSNAME
  2

  9
$UCSORG
 10
0.0
 20
0.0
 30
0.0
  9
$UCSXDIR
 10
1.0
 20
0.0
 30
0.0
  9
$UCSYDIR
 10
0.0
 20
1.0
 30
0.0
  9
$UCSORTHOREF
  2

  9
$UCSORTHOVIEW
 70
     0
  9
$UCSORGTOP
 10
0.0
 20
0.0
 30
0.0
  9
$UCSORGBOTTOM
 10
0.0
 20
0.0
 30
0.0
  9
$UCSORGLEFT
 10
0.0
 20
0.0
 30
0.0
  9
$UCSORGRIGHT
 10
0.0
 20
0.0
 30
0.0
  9
$UCSORGFRONT
 10
0.0
 20
0.0
 30
0.0
  9
$UCSORGBACK
 10
0.0
 20
0.0
 30
0.0
  9
$PUCSBASE
  2

  9
$PUCSNAME
  2

  9
$PUCSORG
 10
0.0
 20
0.0
 30
0.0
  9
$PUCSXDIR
 10
1.0
 20
0.0
 30
0.0
  9
$PUCSYDIR
 10
0.0
 20
1.0
 30
0.0
  9
$PUCSORTHOREF
  2

  9
$PUCSORTHOVIEW
 70
     0
  9
$PUCSORGTOP
 10
0.0
 20
0.0
 30
0.0
  9
$PUCSORGBOTTOM
 10
0.0
 20
0.0
 30
0.0
  9
$PUCSORGLEFT
 10
0.0
 20
0.0
 30
0.0
  9
$PUCSORGRIGHT
 10
0.0
 20
0.0
 30
0.0
  9
$PUCSORGFRONT
 10
0.0
 20
0.0
 30
0.0
  9
$PUCSORGBACK
 10
0.0
 20
0.0
 30
0.0
  9
$USERI1
 70
     0
  9
$USERI2
 70
     0
  9
$USERI3
 70
     0
  9
$USERI4
 70
     0
  9
$USERI5
 70
     0
  9
$USERR1
 40
0.0
  9
$USERR2
 40
0.0
  9
$USERR3
 40
0.0
  9
$USERR4
 40
0.0
  9
$USERR5
 40
0.0
  9
$WORLDVIEW
 70
     1
  9
$SHADEDGE
 70
     3
  9
$SHADEDIF
 70
    70
  9
$TILEMODE
 70
     1
  9
$MAXACTVP
 70
    64
  9
$PINSBASE
 10
0.0
 20
0.0
 30
0.0
  9
$PLIMCHECK
 70
     0
  9
$PEXTMIN
 10
1.0000000000E+20
 20
1.0000000000E+20
 30
1.0000000000E+20
  9
$PEXTMAX
 10
-1.0000000000E+20
 20
-1.0000000000E+20
 30
-1.0000000000E+20
  9
$PLIMMIN
 10
0.0
 20
0.0
  9
$PLIMMAX
 10
420.0
 20
297.0
  9
$UNITMODE
 70
     0
  9
$VISRETAIN
 70
     1
  9
$PLINEGEN
 70
     0
  9
$PSLTSCALE
 70
     1
  9
$TREEDEPTH
 70
  3020
  9
$CMLSTYLE
  2
Standard
  9
$CMLJUST
 70
     0
  9
$CMLSCALE
 40
20.0
  9
$PROXYGRAPHICS
 70
     1
  9
$MEASUREMENT
 70
     1
  9
$CELWEIGHT
370
    -1
  9
$ENDCAPS
280
     0
  9
$JOINSTYLE
280
     0
  9
$LWDISPLAY
290
     1
  9
$INSUNITS
 70
     4
  9
$HYPERLINKBASE
  1

  9
$STYLESHEET
  1

  9
$XEDIT
290
     1
  9
$CEPSNTYPE
380
     0
  9
$PSTYLEMODE
290
     1
  9
$FINGERPRINTGUID
  2
{95977C6F-43B1-4668-B256-8101843BC91C}
  9
$VERSIONGUID
  2
{FAEB1C32-E019-11D5-929B-00C0DF256EC4}
  9
$EXTNAMES
290
     1
  9
$PSVPSCALE
 40
0.0
  9
$OLESTARTUP
290
     0
  0
ENDSEC
  0
SECTION
  2
CLASSES
  0
CLASS
  1
ACDBDICTIONARYWDFLT
  2
AcDbDictionaryWithDefault
  3
ObjectDBX Classes
 90
        0
280
     0
281
     0
  0
CLASS
  1
VISUALSTYLE
  2
AcDbVisualStyle
  3
ObjectDBX Classes
 90
     4095
280
     0
281
     0
  0
CLASS
  1
MATERIAL
  2
AcDbMaterial
  3
ObjectDBX Classes
 90
     1153
280
     0
281
     0
  0
CLASS
  1
SCALE
  2
AcDbScale
  3
ObjectDBX Classes
 90
     1153
280
     0
281
     0
  0
CLASS
  1
TABLESTYLE
  2
AcDbTableStyle
  3
ObjectDBX Classes
 90
     4095
280
     0
281
     0
  0
CLASS
  1
MLEADERSTYLE
  2
AcDbMLeaderStyle
  3
ACDB_MLEADERSTYLE_CLASS
 90
     4095
280
     0
281
     0
  0
CLASS
  1
SUN
  2
AcDbSun
  3
SCENEOE
 90
     1153
280
     0
281
     0
  0
CLASS
  1
ACDBPLACEHOLDER
  2
AcDbPlaceHolder
  3
ObjectDBX Classes
 90
        0
280
     0
281
     0
  0
CLASS
  1
LAYOUT
  2
AcDbLayout
  3
ObjectDBX Classes
 90
        0
280
     0
281
     0
  0
ENDSEC
  0
SECTION
  2
TABLES
  0
TABLE
  2
VPORT
  5
8
330
0
100
AcDbSymbolTable
 70
     1
  0
VPORT
  5
29
330
8
100
AcDbSymbolTableRecord
100
AcDbViewportTableRecord
  2
*Active
 70
     0
 10
0.0
 20
0.0
 11
1.0
 21
1.0
 12
215.9
 22
139.7
 13
0.0
 23
0.0
 14
10.0
 24
10.0
 15
10.0
 25
10.0
 16
0.0
 26
0.0
 36
1.0
 17
0.0
 27
0.0
 37
0.0
 40
279.4
 41
1.5454545455
 42
50.0
 43
0.0
 44
0.0
 50
0.0
 51
0.0
 71
     0
 72
  2000
 73
     1
 74
     3
 75
     0
 76
     0
 77
     0
 78
     0
281
     0
 65
     1
110
0.0
120
0.0
130
0.0
111
1.0
121
0.0
131
0.0
112
0.0
122
1.0
132
0.0
 79
     0
146
0.0
  0
ENDTAB
  0
TABLE
  2
LTYPE
  5
5
330
0
100
AcDbSymbolTable
 70
     6
  0
LTYPE
  5
14
330
5
100
AcDbSymbolTableRecord
100
AcDbLinetypeTableRecord
  2
ByBlock
 70
     0
  3

 72
    65
 73
     0
 40
0.0
  0
LTYPE
  5
15
330
5
100
AcDbSymbolTableRecord
100
AcDbLinetypeTableRecord
  2
ByLayer
 70
     0
  3

 72
    65
 73
     0
 40
0.0
  0
LTYPE
  5
16
330
5
100
AcDbSymbolTableRecord
100
AcDbLinetypeTableRecord
  2
Continuous
 70
     0
  3
Solid line
 72
    65
 73
     0
 40
0.0
  0
LTYPE
  5
6E
330
5
100
AcDbSymbolTableRecord
100
AcDbLinetypeTableRecord
  2
HIDDEN
 70
     0
  3
Hidden __ __ __ __ __ __ __ __ __ __ __ __ __ __
 72
    65
 73
     2
 40
1.905
 49
1.27
 74
     0
 49
-0.635
 74
     0
  0
LTYPE
  5
6F
330
5
100
AcDbSymbolTableRecord
100
AcDbLinetypeTableRecord
  2
PHANTOM
 70
     0
  3
Phantom ______  __  __  ______  __  __  ______
 72
    65
 73
     6
 40
12.7
 49
6.35
 74
     0
 49
-1.27
 74
     0
 49
1.27
 74
     0
 49
-1.27
 74
     0
 49
1.27
 74
     0
 49
-1.27
 74
     0
  0
LTYPE
  5
70
330
5
100
AcDbSymbolTableRecord
100
AcDbLinetypeTableRecord
  2
CENTER
 70
     0
  3
Center ____ _ ____ _ ____ _ ____ _ ____ _ ____
 72
    65
 73
     4
 40
10.16
 49
6.35
 74
     0
 49
-1.27
 74
     0
 49
1.27
 74
     0
 49
-1.27
 74
     0
  0
LTYPE
  5
71
330
5
100
AcDbSymbolTableRecord
100
AcDbLinetypeTableRecord
  2
CENTERX2
 70
     0
  3
Center (2x) ________  __  ________  __  _____
 72
    65
 73
     4
 40
20.32
 49
12.7
 74
     0
 49
-2.54
 74
     0
 49
2.54
 74
     0
 49
-2.54
 74
     0
  0
LTYPE
  5
72
330
5
100
AcDbSymbolTableRecord
100
AcDbLinetypeTableRecord
  2
DOT2
 70
     0
  3
Dot (.5x) ........................................
 72
    65
 73
     2
 40
0.635
 49
0.0
 74
     0
 49
-0.635
 74
     0
  0
ENDTAB
  0
TABLE
  2
LAYER
  5
2
330
0
100
AcDbSymbolTable
 70
     1
  0
LAYER
  5
10
330
2
100
AcDbSymbolTableRecord
100
AcDbLayerTableRecord
  2
0
 70
     0
 62
     7
  6
Continuous
370
    -3
390
F
  0
ENDTAB
  0
TABLE
  2
STYLE
  5
3
330
0
100
AcDbSymbolTable
 70
     2
  0
STYLE
  5
11
330
3
100
AcDbSymbolTableRecord
100
AcDbTextStyleTableRecord
  2
Standard
 70
     0
 40
0.0
 41
1.0
 50
0.0
 71
     0
 42
3.5
  3
txt
  4
bigfont
  0
STYLE
  5
73
330
3
100
AcDbSymbolTableRecord
100
AcDbTextStyleTableRecord
  2
SLDTEXTSTYLE0
 70
     0
 40
0.0
 41
0.7
 50
0.0
 71
     0
 42
3.5
  3
TXT
  4
bigfont
  0
ENDTAB
  0
TABLE
  2
VIEW
  5
6
330
0
100
AcDbSymbolTable
 70
     0
  0
ENDTAB
  0
TABLE
  2
UCS
  5
7
330
0
100
AcDbSymbolTable
 70
     0
  0
ENDTAB
  0
TABLE
  2
APPID
  5
9
330
0
100
AcDbSymbolTable
 70
     1
  0
APPID
  5
12
330
9
100
AcDbSymbolTableRecord
100
AcDbRegAppTableRecord
  2
ACAD
 70
     0
  0
ENDTAB
  0
TABLE
  2
DIMSTYLE
  5
A
330
0
100
AcDbSymbolTable
 70
     1
100
AcDbDimStyleTable
  0
DIMSTYLE
105
27
330
A
100
AcDbSymbolTableRecord
100
AcDbDimStyleTableRecord
  2
ISO-25
 70
     0
 41
2.5
 42
0.625
 43
3.75
 44
1.25
 73
     0
 74
     0
 77
     1
 78
     8
140
2.5
141
2.5
143
0.0393700787
147
0.625
171
     3
172
     1
178
     0
271
     2
272
     2
274
     3
278
    44
283
     0
284
     8
340
11
  0
ENDTAB
  0
TABLE
  2
BLOCK_RECORD
  5
1
330
0
100
AcDbSymbolTable
 70
     3
  0
BLOCK_RECORD
  5
1F
330
1
100
AcDbSymbolTableRecord
100
AcDbBlockTableRecord
  2
*Model_Space
340
22
  0
BLOCK_RECORD
  5
1B
330
1
100
AcDbSymbolTableRecord
100
AcDbBlockTableRecord
  2
*Paper_Space
340
1E
  0
BLOCK_RECORD
  5
23
330
1
100
AcDbSymbolTableRecord
100
AcDbBlockTableRecord
  2
*Paper_Space0
340
26
  0
BLOCK_RECORD
  5
172
330
1
100
AcDbSymbolTableRecord
100
AcDbBlockTableRecord
  2
SW_CENTERMARKSYMBOL_0
340
0
102
{BLKREFS
331
17D
102
}
  0
BLOCK_RECORD
  5
1EC
330
1
100
AcDbSymbolTableRecord
100
AcDbBlockTableRecord
  2
SW_CENTERMARKSYMBOL_1
340
0
102
{BLKREFS
331
1F7
102
}
  0
ENDTAB
  0
ENDSEC
  0
SECTION
  2
BLOCKS
  0
BLOCK
  5
20
330
1F
100
AcDbEntity
  8
0
100
AcDbBlockBegin
  2
*Model_Space
 70
     0
 10
0.0
 20
0.0
 30
0.0
  3
*Model_Space
  1

  0
ENDBLK
  5
21
330
1F
100
AcDbEntity
  8
0
100
AcDbBlockEnd
  0
BLOCK
  5
1C
330
1B
100
AcDbEntity
 67
     1
  8
0
100
AcDbBlockBegin
  2
*Paper_Space
 70
     0
 10
0.0
 20
0.0
 30
0.0
  3
*Paper_Space
  1

  0
ENDBLK
  5
1D
330
1B
100
AcDbEntity
 67
     1
  8
0
100
AcDbBlockEnd
  0
BLOCK
  5
24
330
23
100
AcDbEntity
  8
0
100
AcDbBlockBegin
  2
*Paper_Space0
 70
     0
 10
0.0
 20
0.0
 30
0.0
  3
*Paper_Space0
  1

  0
ENDBLK
  5
25
330
23
100
AcDbEntity
  8
0
100
AcDbBlockEnd
  0
BLOCK
  5
173
330
172
100
AcDbEntity
  8
0
100
AcDbBlockBegin
  2
SW_CENTERMARKSYMBOL_0
 70
     0
 10
0.0
 20
0.0
 30
0.0
  3
SW_CENTERMARKSYMBOL_0
  1

  0
LINE
  5
175
330
172
100
AcDbEntity
  8
0
  6
Continuous
 62
     0
370
    18
100
AcDbLine
 10
0.0
 20
0.0
 30
0.0
 11
0.0
 21
2.5
 31
0.0
  0
LINE
  5
176
330
172
100
AcDbEntity
  8
0
  6
Continuous
 62
     0
370
    18
100
AcDbLine
 10
0.0
 20
0.0
 30
0.0
 11
-2.5
 21
0.0
 31
0.0
  0
LINE
  5
177
330
172
100
AcDbEntity
  8
0
  6
Continuous
 62
     0
370
    18
100
AcDbLine
 10
0.0
 20
0.0
 30
0.0
 11
0.0
 21
-2.5
 31
0.0
  0
LINE
  5
178
330
172
100
AcDbEntity
  8
0
  6
Continuous
 62
     0
370
    18
100
AcDbLine
 10
0.0
 20
0.0
 30
0.0
 11
2.5
 21
0.0
 31
0.0
  0
LINE
  5
179
330
172
100
AcDbEntity
  8
0
  6
Continuous
 62
     0
370
    18
100
AcDbLine
 10
0.0
 20
5.0
 30
0.0
 11
0.0
 21
31.1509161983
 31
0.0
  0
LINE
  5
17A
330
172
100
AcDbEntity
  8
0
  6
Continuous
 62
     0
370
    18
100
AcDbLine
 10
-5.0
 20
0.0
 30
0.0
 11
-12.5661411244
 21
0.0
 31
0.0
  0
LINE
  5
17B
330
172
100
AcDbEntity
  8
0
  6
Continuous
 62
     0
370
    18
100
AcDbLine
 10
0.0
 20
-5.0
 30
0.0
 11
0.0
 21
-11.857835001
 31
0.0
  0
LINE
  5
17C
330
172
100
AcDbEntity
  8
0
  6
Continuous
 62
     0
370
    18
100
AcDbLine
 10
5.0
 20
0.0
 30
0.0
 11
12.0272608045
 21
0.0
 31
0.0
  0
ENDBLK
  5
174
330
172
100
AcDbEntity
  8
0
100
AcDbBlockEnd
  0
BLOCK
  5
1ED
330
1EC
100
AcDbEntity
  8
0
100
AcDbBlockBegin
  2
SW_CENTERMARKSYMBOL_1
 70
     0
 10
0.0
 20
0.0
 30
0.0
  3
SW_CENTERMARKSYMBOL_1
  1

  0
LINE
  5
1EF
330
1EC
100
AcDbEntity
  8
0
  6
Continuous
 62
     0
370
    18
100
AcDbLine
 10
0.0
 20
0.0
 30
0.0
 11
0.0
 21
2.5
 31
0.0
  0
LINE
  5
1F0
330
1EC
100
AcDbEntity
  8
0
  6
Continuous
 62
     0
370
    18
100
AcDbLine
 10
0.0
 20
0.0
 30
0.0
 11
-2.5
 21
0.0
 31
0.0
  0
LINE
  5
1F1
330
1EC
100
AcDbEntity
  8
0
  6
Continuous
 62
     0
370
    18
100
AcDbLine
 10
0.0
 20
0.0
 30
0.0
 11
0.0
 21
-2.5
 31
0.0
  0
LINE
  5
1F2
330
1EC
100
AcDbEntity
  8
0
  6
Continuous
 62
     0
370
    18
100
AcDbLine
 10
0.0
 20
0.0
 30
0.0
 11
2.5
 21
0.0
 31
0.0
  0
LINE
  5
1F3
330
1EC
100
AcDbEntity
  8
0
  6
Continuous
 62
     0
370
    18
100
AcDbLine
 10
0.0
 20
5.0
 30
0.0
 11
0.0
 21
12.3039539809
 31
0.0
  0
LINE
  5
1F4
330
1EC
100
AcDbEntity
  8
0
  6
Continuous
 62
     0
370
    18
100
AcDbLine
 10
-5.0
 20
0.0
 30
0.0
 11
-31.1278603798
 21
0.0
 31
0.0
  0
LINE
  5
1F5
330
1EC
100
AcDbEntity
  8
0
  6
Continuous
 62
     0
370
    18
100
AcDbLine
 10
0.0
 20
-5.0
 30
0.0
 11
0.0
 21
-12.5583587222
 31
0.0
  0
LINE
  5
1F6
330
1EC
100
AcDbEntity
  8
0
  6
Continuous
 62
     0
370
    18
100
AcDbLine
 10
5.0
 20
0.0
 30
0.0
 11
30.68965862
 21
0.0
 31
0.0
  0
ENDBLK
  5
1EE
330
1EC
100
AcDbEntity
  8
0
100
AcDbBlockEnd
  0
ENDSEC
  0
SECTION
  2
ENTITIES
  0
MTEXT
  5
74
330
1F
100
AcDbEntity
  8
0
  6
Continuous
 62
     7
370
     0
100
AcDbMText
 10
151.5863902061
 20
122.5649353408
 30
0.0
 40
5.2916666667
 41
0.0
 71
     1
 72
     1
  1
5R-TM1444
  7
SLDTEXTSTYLE0
 73
     1
 44
1.0
  0
ARC
  5
75
330
1F
100
AcDbEntity
  8
0
  6
Continuous
 62
     7
370
    25
100
AcDbCircle
 10
147.1389306972
 20
88.2912760509
 30
0.0
 40
1.0
100
AcDbArc
 50
155.9652533385
 51
180.0
  0
ARC
  5
76
330
1F
100
AcDbEntity
  8
0
  6
Continuous
 62
     7
370
    25
100
AcDbCircle
 10
147.1389306972
 20
67.7912760509
 30
0.0
 40
1.0
100
AcDbArc
 50
180.0
 51
204.0347466615
  0
LINE
  5
77
330
1F
100
AcDbEntity
  8
0
  6
Continuous
 62
     7
370
    25
100
AcDbLine
 10
146.225631837
 20
67.3839851228
 30
0.0
 11
157.4425386676
 21
67.7345135195
 31
0.0
  0
LINE
  5
78
330
1F
100
AcDbEntity
  8
0
  6
Continuous
 62
     7
370
    25
100
AcDbLine
 10
157.4425386676
 20
88.3480385823
 30
0.0
 11
146.225631837
 21
88.698566979
 31
0.0
  0
LINE
  5
79
330
1F
100
AcDbEntity
  8
0
  6
Continuous
 62
     7
370
    25
100
AcDbLine
 10
116.0522295574
 20
88.698566979
 30
0.0
 11
104.8353227267
 21
88.3480385823
 31
0.0
  0
LINE
  5
7A
330
1F
100
AcDbEntity
  8
0
  6
Continuous
 62
     7
370
    25
100
AcDbLine
 10
104.8353227267
 20
67.7345135195
 30
0.0
 11
116.0522295574
 21
67.3839851228
 31
0.0
  0
ARC
  5
7B
330
1F
100
AcDbEntity
  8
0
  6
Continuous
 62
     7
370
    25
100
AcDbCircle
 10
115.1389306972
 20
67.7912760509
 30
0.0
 40
1.0
100
AcDbArc
 50
335.9652533382
 51
0.0
  0
ARC
  5
7C
330
1F
100
AcDbEntity
  8
0
  6
Continuous
 62
     7
370
    25
100
AcDbCircle
 10
115.1389306972
 20
88.2912760509
 30
0.0
 40
1.0
100
AcDbArc
 50
0.0
 51
24.0347466618
  0
LINE
  5
7D
330
1F
100
AcDbEntity
  8
0
  6
Continuous
 62
     7
370
    25
100
AcDbLine
 10
141.7962216252
 20
93.1279771907
 30
0.0
 11
141.4456932286
 21
104.3448840214
 31
0.0
  0
LINE
  5
7E
330
1F
100
AcDbEntity
  8
0
  6
Continuous
 62
     7
370
    25
100
AcDbLine
 10
120.8321681658
 20
104.3448840214
 30
0.0
 11
120.4816397691
 21
93.1279771907
 31
0.0
  0
ARC
  5
7F
330
1F
100
AcDbEntity
  8
0
  6
Continuous
 62
     7
370
    25
100
AcDbCircle
 10
120.8889306972
 20
94.0412760509
 30
0.0
 40
1.000000000000009
100
AcDbArc
 50
245.9652533382
 51
270.0
  0
ARC
  5
80
330
1F
100
AcDbEntity
  8
0
  6
Continuous
 62
     7
370
    25
100
AcDbCircle
 10
141.3889306972
 20
94.0412760509
 30
0.0
 40
1.000000000000003
100
AcDbArc
 50
270.0
 51
294.0347466618
  0
LINE
  5
81
330
1F
100
AcDbEntity
  8
0
  6
Continuous
 62
     7
370
    25
100
AcDbLine
 10
141.4456932286
 20
104.3448840214
 30
0.0
 11
139.8889307344
 21
107.0412752164
 31
0.0
  0
LINE
  5
82
330
1F
100
AcDbEntity
  8
0
  6
Continuous
 62
     7
370
    25
100
AcDbLine
 10
122.3889306599
 20
107.0412752164
 30
0.0
 11
120.8321681658
 21
104.3448840214
 31
0.0
  0
LINE
  5
83
330
1F
100
AcDbEntity
  8
0
  6
Continuous
 62
     7
370
    25
100
AcDbLine
 10
157.4425386676
 20
67.7345135195
 30
0.0
 11
160.1389298627
 21
69.2912760136
 31
0.0
  0
LINE
  5
84
330
1F
100
AcDbEntity
  8
0
  6
Continuous
 62
     7
370
    25
100
AcDbLine
 10
160.1389298627
 20
86.7912760881
 30
0.0
 11
157.4425386676
 21
88.3480385823
 31
0.0
  0
LINE
  5
85
330
1F
100
AcDbEntity
  8
0
  6
Continuous
 62
     7
370
    25
100
AcDbLine
 10
104.8353227267
 20
88.3480385823
 30
0.0
 11
102.1389315316
 21
86.7912760881
 31
0.0
  0
LINE
  5
86
330
1F
100
AcDbEntity
  8
0
  6
Continuous
 62
     7
370
    25
100
AcDbLine
 10
102.1389315316
 20
69.2912760136
 30
0.0
 11
104.8353227267
 21
67.7345135195
 31
0.0
  0
ARC
  5
87
330
1F
100
AcDbEntity
  8
0
  6
Continuous
 62
     7
370
    25
100
AcDbCircle
 10
117.1389306972
 20
68.5412760509
 30
0.0
 40
1.0
100
AcDbArc
 50
90.0
 51
180.0
  0
ARC
  5
88
330
1F
100
AcDbEntity
  8
0
  6
Continuous
 62
     7
370
    25
100
AcDbCircle
 10
117.1389306972
 20
87.5412760509
 30
0.0
 40
1.0
100
AcDbArc
 50
180.0
 51
270.0
  0
ARC
  5
89
330
1F
100
AcDbEntity
  8
0
  6
Continuous
 62
     7
370
    25
100
AcDbCircle
 10
145.1389306972
 20
87.5412760509
 30
0.0
 40
1.0
100
AcDbArc
 50
270.0
 51
0.0
  0
ARC
  5
8A
330
1F
100
AcDbEntity
  8
0
  6
Continuous
 62
     7
370
    25
100
AcDbCircle
 10
145.1389306972
 20
68.5412760509
 30
0.0
 40
1.0
100
AcDbArc
 50
0.0
 51
90.0
  0
ARC
  5
8B
330
1F
100
AcDbEntity
  8
0
  6
Continuous
 62
     7
370
    25
100
AcDbCircle
 10
121.6389306972
 20
92.0412760509
 30
0.0
 40
1.0
100
AcDbArc
 50
0.0
 51
90.0
  0
ARC
  5
8C
330
1F
100
AcDbEntity
  8
0
  6
Continuous
 62
     7
370
    25
100
AcDbCircle
 10
140.6389306972
 20
92.0412760509
 30
0.0
 40
1.0
100
AcDbArc
 50
90.0
 51
180.0
  0
LINE
  5
8D
330
1F
100
AcDbEntity
  8
0
  6
Continuous
 62
     7
370
    25
100
AcDbLine
 10
139.6389311591
 20
87.0412756635
 30
0.0
 11
139.6389311591
 21
92.041276483
 31
0.0
  0
LINE
  5
8E
330
1F
100
AcDbEntity
  8
0
  6
Continuous
 62
     7
370
    25
100
AcDbLine
 10
122.6389302352
 20
92.041276483
 30
0.0
 11
122.6389302352
 21
87.0412756635
 31
0.0
  0
LINE
  5
8F
330
1F
100
AcDbEntity
  8
0
  6
Continuous
 62
     7
370
    25
100
AcDbLine
 10
122.1389310846
 20
86.5412765128
 30
0.0
 11
117.138930265
 21
86.5412765128
 31
0.0
  0
LINE
  5
90
330
1F
100
AcDbEntity
  8
0
  6
Continuous
 62
     7
370
    25
100
AcDbLine
 10
145.1389311293
 20
86.5412765128
 30
0.0
 11
140.1389303097
 21
86.5412765128
 31
0.0
  0
LINE
  5
91
330
1F
100
AcDbEntity
  8
0
  6
Continuous
 62
     7
370
    25
100
AcDbLine
 10
117.138930265
 20
69.541275589
 30
0.0
 11
145.1389311293
 21
69.541275589
 31
0.0
  0
ARC
  5
92
330
1F
100
AcDbEntity
  8
0
  6
Continuous
 62
     7
370
    25
100
AcDbCircle
 10
140.1389306972
 20
87.0412760509
 30
0.0
 40
0.5000000000000133
100
AcDbArc
 50
181.572436772
 51
268.3233208136
  0
ARC
  5
93
330
1F
100
AcDbEntity
  8
0
  6
Continuous
 62
     7
370
    25
100
AcDbCircle
 10
122.1389306972
 20
87.0412760509
 30
0.0
 40
0.5000000000000095
100
AcDbArc
 50
271.572436772
 51
358.3233208136
  0
LINE
  5
94
330
1F
100
AcDbEntity
  8
0
  6
Continuous
 62
     7
370
    25
100
AcDbLine
 10
146.225631837
 20
67.3839851228
 30
0.0
 11
146.225631837
 21
88.698566979
 31
0.0
  0
LINE
  5
95
330
1F
100
AcDbEntity
  8
0
  6
Continuous
 62
     7
370
    25
100
AcDbLine
 10
146.1389303619
 20
67.7912757678
 30
0.0
 11
146.1389303619
 21
88.291276334
 31
0.0
  0
LINE
  5
96
330
1F
100
AcDbEntity
  8
0
  6
Continuous
 62
     7
370
    25
100
AcDbLine
 10
157.4425386676
 20
88.3480385823
 30
0.0
 11
157.4425386676
 21
67.7345135195
 31
0.0
  0
LINE
  5
97
330
1F
100
AcDbEntity
  8
0
  6
Continuous
 62
     7
370
    25
100
AcDbLine
 10
104.8353227267
 20
88.3480385823
 30
0.0
 11
104.8353227267
 21
67.7345135195
 31
0.0
  0
LINE
  5
98
330
1F
100
AcDbEntity
  8
0
  6
Continuous
 62
     7
370
    25
100
AcDbLine
 10
116.0522295574
 20
88.698566979
 30
0.0
 11
116.0522295574
 21
67.3839851228
 31
0.0
  0
LINE
  5
99
330
1F
100
AcDbEntity
  8
0
  6
Continuous
 62
     7
370
    25
100
AcDbLine
 10
116.1389310324
 20
78.0412760509
 30
0.0
 11
116.1389310324
 21
67.7912757678
 31
0.0
  0
LINE
  5
9A
330
1F
100
AcDbEntity
  8
0
  6
Continuous
 62
     7
370
    25
100
AcDbLine
 10
116.1389310324
 20
88.291276334
 30
0.0
 11
116.1389310324
 21
78.0412760509
 31
0.0
  0
LINE
  5
9B
330
1F
100
AcDbEntity
  8
0
  6
Continuous
 62
     7
370
    25
100
AcDbLine
 10
141.7962216252
 20
93.1279771907
 30
0.0
 11
120.4816397691
 21
93.1279771907
 31
0.0
  0
LINE
  5
9C
330
1F
100
AcDbEntity
  8
0
  6
Continuous
 62
     7
370
    25
100
AcDbLine
 10
120.8321681658
 20
104.3448840214
 30
0.0
 11
141.4456932286
 21
104.3448840214
 31
0.0
  0
LINE
  5
9D
330
1F
100
AcDbEntity
  8
0
  6
Continuous
 62
     7
370
    25
100
AcDbLine
 10
141.3889309803
 20
93.0412757156
 30
0.0
 11
120.888930414
 21
93.0412757156
 31
0.0
  0
LINE
  5
9E
330
1F
100
AcDbEntity
  8
0
  6
Continuous
 62
     7
370
    25
100
AcDbLine
 10
131.1389306972
 20
107.0412752164
 30
0.0
 11
122.3889306599
 21
107.0412752164
 31
0.0
  0
LINE
  5
9F
330
1F
100
AcDbEntity
  8
0
  6
Continuous
 62
     7
370
    25
100
AcDbLine
 10
139.8889307344
 20
107.0412752164
 30
0.0
 11
131.1389306972
 21
107.0412752164
 31
0.0
  0
LINE
  5
A0
330
1F
100
AcDbEntity
  8
0
  6
Continuous
 62
     7
370
    25
100
AcDbLine
 10
160.1389298627
 20
78.0412760509
 30
0.0
 11
160.1389298627
 21
86.7912760881
 31
0.0
  0
LINE
  5
A1
330
1F
100
AcDbEntity
  8
0
  6
Continuous
 62
     7
370
    25
100
AcDbLine
 10
160.1389298627
 20
69.2912760136
 30
0.0
 11
160.1389298627
 21
78.0412760509
 31
0.0
  0
LINE
  5
A2
330
1F
100
AcDbEntity
  8
0
  6
Continuous
 62
     7
370
    25
100
AcDbLine
 10
102.1389315316
 20
78.0412760509
 30
0.0
 11
102.1389315316
 21
86.7912760881
 31
0.0
  0
LINE
  5
A3
330
1F
100
AcDbEntity
  8
0
  6
Continuous
 62
     7
370
    25
100
AcDbLine
 10
102.1389315316
 20
69.2912760136
 30
0.0
 11
102.1389315316
 21
78.0412760509
 31
0.0
  0
ARC
  5
A4
330
1F
100
AcDbEntity
  8
0
  6
Continuous
 62
     7
370
    25
100
AcDbCircle
 10
140.1556206174
 20
74.2375580503
 30
0.0
 40
1.103911594455065
100
AcDbArc
 50
98.7690151238
 51
122.4606473444
  0
SPLINE
  5
A5
330
1F
100
AcDbEntity
  8
0
  6
Continuous
 62
     7
370
    25
100
AcDbSpline
210
0.0
220
0.0
230
1.0
 70
     8
 71
     3
 72
    12
 73
     8
 74
     0
 42
0.000000001
 43
0.00000001
 40
0.0
 40
0.0
 40
0.0
 40
0.0
 40
0.2500000000000002
 40
0.2500000000000002
 40
0.5000000000000001
 40
0.5000000000000001
 40
1.0
 40
1.0
 40
1.0
 40
1.0
 10
139.5631290216146
 20
75.1689947276248
 30
0.0
 10
139.5408621794607
 20
75.4064072857451
 30
0.0
 10
139.5338241468063
 20
75.6445172999117
 30
0.0
 10
139.5329490253219
 20
76.12221542717373
 30
0.0
 10
139.5396130192709
 20
76.36183828379033
 30
0.0
 10
139.5702653686892
 20
77.08055403792633
 30
0.0
 10
139.60487405154
 20
77.56137100256524
 30
0.0
 10
139.6389306971673
 20
78.04127605089376
 30
0.0
  0
SPLINE
  5
A6
330
1F
100
AcDbEntity
  8
0
  6
Continuous
 62
     7
370
    25
100
AcDbSpline
210
0.0
220
0.0
230
1.0
 70
     8
 71
     3
 72
    12
 73
     8
 74
     0
 42
0.000000001
 43
0.00000001
 40
0.0
 40
0.0
 40
0.0
 40
0.0
 40
0.2499999999999999
 40
0.2499999999999999
 40
0.5
 40
0.5
 40
1.0
 40
1.0
 40
1.0
 40
1.0
 10
139.987327346062
 20
75.32856591225087
 30
0.0
 10
139.9392192374176
 20
75.5448034967891
 30
0.0
 10
139.9030061799534
 20
75.76456909218275
 30
0.0
 10
139.8379019703005
 20
76.20901207829944
 30
0.0
 10
139.8096617900122
 20
76.43377210227568
 30
0.0
 10
139.7303969587392
 20
77.11473600737386
 30
0.0
 10
139.6845315755415
 20
77.58111893446815
 30
0.0
 10
139.6389306971673
 20
78.04127605089376
 30
0.0
  0
SPLINE
  5
A7
330
1F
100
AcDbEntity
  8
0
  6
Continuous
 62
     7
370
    25
100
AcDbSpline
210
0.0
220
0.0
230
1.0
 70
     8
 71
     3
 72
    16
 73
    12
 74
     0
 42
0.000000001
 43
0.00000001
 40
0.0
 40
0.0
 40
0.0
 40
0.0
 40
0.2500000000000001
 40
0.2500000000000001
 40
0.5000000000000001
 40
0.5000000000000001
 40
0.7500000000000002
 40
0.7500000000000002
 40
0.8750000000000001
 40
0.8750000000000001
 40
1.0
 40
1.0
 40
1.0
 40
1.0
 10
139.1389306971673
 20
75.16899472762472
 30
0.0
 10
139.1389306971673
 20
75.41529005988853
 30
0.0
 10
139.1588624828544
 20
75.65880999466252
 30
0.0
 10
139.219469029458
 20
76.14149596803779
 30
0.0
 10
139.2605795369032
 20
76.38093643681248
 30
0.0
 10
139.3549559933024
 20
76.85767751647558
 30
0.0
 10
139.4083213551587
 20
77.09496062660247
 30
0.0
 10
139.4926285150933
 20
77.45013551191724
 30
0.0
 10
139.5214533919351
 20
77.56839995235127
 30
0.0
 10
139.5798124705006
 20
77.80480396285238
 30
0.0
 10
139.6090635917187
 20
77.92180643440882
 30
0.0
 10
139.6389306971673
 20
78.04127605089376
 30
0.0
  0
LINE
  5
A8
330
1F
100
AcDbEntity
  8
0
  6
Continuous
 62
     7
370
    25
100
AcDbLine
 10
139.5631289521
 20
75.1689948087
 30
0.0
 11
139.1389310771
 21
75.1689948087
 31
0.0
  0
ARC
  5
A9
330
1F
100
AcDbEntity
  8
0
  6
Continuous
 62
     7
370
    25
100
AcDbCircle
 10
122.122240777
 20
81.8449940515
 30
0.0
 40
1.103911594455069
100
AcDbArc
 50
278.7690151238
 51
302.4606473444
  0
SPLINE
  5
AA
330
1F
100
AcDbEntity
  8
0
  6
Continuous
 62
     7
370
    25
100
AcDbSpline
210
0.0
220
0.0
230
1.0
 70
     8
 71
     3
 72
    12
 73
     8
 74
     0
 42
0.000000001
 43
0.00000001
 40
0.0
 40
0.0
 40
0.0
 40
0.0
 40
0.2500000000000002
 40
0.2500000000000002
 40
0.5000000000000001
 40
0.5000000000000001
 40
1.0
 40
1.0
 40
1.0
 40
1.0
 10
122.7147323727199
 20
80.91355737416268
 30
0.0
 10
122.7369992148738
 20
80.67614481604247
 30
0.0
 10
122.7440372475283
 20
80.43803480187593
 30
0.0
 10
122.7449123690127
 20
79.96033667461404
 30
0.0
 10
122.7382483750636
 20
79.72071381799752
 30
0.0
 10
122.7075960256454
 20
79.00199806386173
 30
0.0
 10
122.6729873425209
 20
78.52118109924153
 30
0.0
 10
122.6389306971673
 20
78.04127605089376
 30
0.0
  0
SPLINE
  5
AB
330
1F
100
AcDbEntity
  8
0
  6
Continuous
 62
     7
370
    25
100
AcDbSpline
210
0.0
220
0.0
230
1.0
 70
     8
 71
     3
 72
    12
 73
     8
 74
     0
 42
0.000000001
 43
0.00000001
 40
0.0
 40
0.0
 40
0.0
 40
0.0
 40
0.2499999999999998
 40
0.2499999999999998
 40
0.4999999999999999
 40
0.4999999999999999
 40
1.0
 40
1.0
 40
1.0
 40
1.0
 10
122.2905340482726
 20
80.75398618953659
 30
0.0
 10
122.3385316201115
 20
80.53824544872138
 30
0.0
 10
122.3747701940106
 20
80.31853962844603
 30
0.0
 10
122.4399751492369
 20
79.87345643253026
 30
0.0
 10
122.4683422064971
 20
79.64765508384204
 30
0.0
 10
122.5477989819865
 20
78.96474047236302
 30
0.0
 10
122.593244961837
 20
78.50228947967324
 30
0.0
 10
122.6389306971673
 20
78.04127605089376
 30
0.0
  0
SPLINE
  5
AC
330
1F
100
AcDbEntity
  8
0
  6
Continuous
 62
     7
370
    25
100
AcDbSpline
210
0.0
220
0.0
230
1.0
 70
     8
 71
     3
 72
    16
 73
    12
 74
     0
 42
0.000000001
 43
0.00000001
 40
0.0
 40
0.0
 40
0.0
 40
0.0
 40
0.2499999999999999
 40
0.2499999999999999
 40
0.5
 40
0.5
 40
0.7500000000000001
 40
0.7500000000000001
 40
0.875
 40
0.875
 40
1.0
 40
1.0
 40
1.0
 40
1.0
 10
123.1389306971673
 20
80.91355737416275
 30
0.0
 10
123.1389306971673
 20
80.667262041899
 30
0.0
 10
123.1189989114801
 20
80.42374210712497
 30
0.0
 10
123.0583923648766
 20
79.94105613374968
 30
0.0
 10
123.0172818574314
 20
79.70161566497501
 30
0.0
 10
122.9229054010322
 20
79.22487458531191
 30
0.0
 10
122.8695400391759
 20
78.98759147518501
 30
0.0
 10
122.7852328792413
 20
78.63241658987025
 30
0.0
 10
122.7564080023994
 20
78.5141521494362
 30
0.0
 10
122.6980489238339
 20
78.27774813893512
 30
0.0
 10
122.6687978026159
 20
78.16074566737866
 30
0.0
 10
122.6389306971673
 20
78.04127605089376
 30
0.0
  0
LINE
  5
AD
330
1F
100
AcDbEntity
  8
0
  6
Continuous
 62
     7
370
    25
100
AcDbLine
 10
122.7147324422
 20
80.9135572931
 30
0.0
 11
123.1389303172
 21
80.9135572931
 31
0.0
  0
ARC
  5
AE
330
1F
100
AcDbEntity
  8
0
  6
Continuous
 62
     7
370
    25
100
AcDbCircle
 10
134.942659721
 20
86.5579700358
 30
0.0
 40
1.103923121047319
100
AcDbArc
 50
188.7691406047
 51
212.4605218635
  0
SPLINE
  5
AF
330
1F
100
AcDbEntity
  8
0
  6
Continuous
 62
     7
370
    25
100
AcDbSpline
210
0.0
220
0.0
230
1.0
 70
     8
 71
     3
 72
    12
 73
     8
 74
     0
 42
0.000000001
 43
0.00000001
 40
0.0
 40
0.0
 40
0.0
 40
0.0
 40
0.2500000000000002
 40
0.2500000000000002
 40
0.5000000000000001
 40
0.5000000000000001
 40
1.0
 40
1.0
 40
1.0
 40
1.0
 10
134.0112120204363
 20
85.96547437534112
 30
0.0
 10
133.7737994623161
 20
85.94320753318719
 30
0.0
 10
133.5356894481496
 20
85.93616950053277
 30
0.0
 10
133.0579913208876
 20
85.93529437904833
 30
0.0
 10
132.8183684642711
 20
85.9419583729974
 30
0.0
 10
132.0996527101353
 20
85.97261072241564
 30
0.0
 10
131.6188357455151
 20
86.00721940554004
 30
0.0
 10
131.1389306971673
 20
86.04127605089374
 30
0.0
  0
SPLINE
  5
B0
330
1F
100
AcDbEntity
  8
0
  6
Continuous
 62
     7
370
    25
100
AcDbSpline
210
0.0
220
0.0
230
1.0
 70
     8
 71
     3
 72
    12
 73
     8
 74
     0
 42
0.000000001
 43
0.00000001
 40
0.0
 40
0.0
 40
0.0
 40
0.0
 40
0.2500000000000002
 40
0.2500000000000002
 40
0.5000000000000001
 40
0.5000000000000001
 40
1.0
 40
1.0
 40
1.0
 40
1.0
 10
133.8516408358102
 20
86.38967269978849
 30
0.0
 10
133.635900094995
 20
86.34167512794951
 30
0.0
 10
133.4161942747197
 20
86.30543655405042
 30
0.0
 10
132.9711110788039
 20
86.2402315988241
 30
0.0
 10
132.7453097301157
 20
86.21186454156395
 30
0.0
 10
132.0623951186366
 20
86.13240776607456
 30
0.0
 10
131.5999441259468
 20
86.08696178622424
 30
0.0
 10
131.1389306971673
 20
86.04127605089374
 30
0.0
  0
SPLINE
  5
B1
330
1F
100
AcDbEntity
  8
0
  6
Continuous
 62
     7
370
    25
100
AcDbSpline
210
0.0
220
0.0
230
1.0
 70
     8
 71
     3
 72
    16
 73
    12
 74
     0
 42
0.000000001
 43
0.00000001
 40
0.0
 40
0.0
 40
0.0
 40
0.0
 40
0.2500000000000002
 40
0.2500000000000002
 40
0.5000000000000002
 40
0.5000000000000002
 40
0.7500000000000002
 40
0.7500000000000002
 40
0.8750000000000001
 40
0.8750000000000001
 40
1.0
 40
1.0
 40
1.0
 40
1.0
 10
134.0112120204363
 20
85.54127605089374
 30
0.0
 10
133.7649166881725
 20
85.54127605089374
 30
0.0
 10
133.5213967533985
 20
85.5612078365809
 30
0.0
 10
133.0387107800232
 20
85.62181438318447
 30
0.0
 10
132.7992703112486
 20
85.66292489062964
 30
0.0
 10
132.3225292315854
 20
85.75730134702886
 30
0.0
 10
132.0852461214586
 20
85.81066670888514
 30
0.0
 10
131.7300712361438
 20
85.89497386881973
 30
0.0
 10
131.6118067957098
 20
85.9237987456616
 30
0.0
 10
131.3754027852086
 20
85.9821578242271
 30
0.0
 10
131.2584003136522
 20
86.01140894544518
 30
0.0
 10
131.1389306971673
 20
86.04127605089374
 30
0.0
  0
LINE
  5
B2
330
1F
100
AcDbEntity
  8
0
  6
Continuous
 62
     7
370
    25
100
AcDbLine
 10
134.0112119393
 20
85.5412758833
 30
0.0
 11
134.0112119393
 21
85.9654742239
 31
0.0
  0
LINE
  5
B3
330
1F
100
AcDbEntity
  8
0
  6
Continuous
 62
     7
370
    25
100
AcDbLine
 10
128.266649455
 20
85.5412758833
 30
0.0
 11
128.266649455
 21
85.9654742239
 31
0.0
  0
SPLINE
  5
B4
330
1F
100
AcDbEntity
  8
0
  6
Continuous
 62
     7
370
    25
100
AcDbSpline
210
0.0
220
0.0
230
1.0
 70
     8
 71
     3
 72
    12
 73
     8
 74
     0
 42
0.000000001
 43
0.00000001
 40
0.0
 40
0.0
 40
0.0
 40
0.0
 40
0.2500000000000001
 40
0.2500000000000001
 40
0.5000000000000002
 40
0.5000000000000002
 40
1.0
 40
1.0
 40
1.0
 40
1.0
 10
128.2666493738983
 20
85.9654743753411
 30
0.0
 10
128.5040619320007
 20
85.94320753318888
 30
0.0
 10
128.7421719461494
 20
85.93616950053392
 30
0.0
 10
129.2198700733752
 20
85.93529437904736
 30
0.0
 10
129.4594929299738
 20
85.94195837299469
 30
0.0
 10
130.1782086840555
 20
85.97261072240727
 30
0.0
 10
130.6590256488587
 20
86.007219405519
 30
0.0
 10
131.1389306971673
 20
86.04127605089374
 30
0.0
  0
SPLINE
  5
B5
330
1F
100
AcDbEntity
  8
0
  6
Continuous
 62
     7
370
    25
100
AcDbSpline
210
0.0
220
0.0
230
1.0
 70
     8
 71
     3
 72
    16
 73
    12
 74
     0
 42
0.000000001
 43
0.00000001
 40
0.0
 40
0.0
 40
0.0
 40
0.0
 40
0.2500000000000003
 40
0.2500000000000003
 40
0.5000000000000006
 40
0.5000000000000006
 40
0.7500000000000006
 40
0.7500000000000006
 40
0.8750000000000003
 40
0.8750000000000003
 40
1.0
 40
1.0
 40
1.0
 40
1.0
 10
128.2666493738983
 20
85.54127605089374
 30
0.0
 10
128.5129447061621
 20
85.54127605089374
 30
0.0
 10
128.7564646409361
 20
85.5612078365809
 30
0.0
 10
129.2391506143113
 20
85.62181438318447
 30
0.0
 10
129.478591083086
 20
85.66292489062964
 30
0.0
 10
129.9553321627491
 20
85.75730134702884
 30
0.0
 10
130.192615272876
 20
85.81066670888514
 30
0.0
 10
130.5477901581908
 20
85.89497386881973
 30
0.0
 10
130.6660545986248
 20
85.92379874566159
 30
0.0
 10
130.9024586091259
 20
85.9821578242271
 30
0.0
 10
131.0194610806824
 20
86.0114089454452
 30
0.0
 10
131.1389306971673
 20
86.04127605089374
 30
0.0
  0
ARC
  5
B6
330
1F
100
AcDbEntity
  8
0
  6
Continuous
 62
     7
370
    25
100
AcDbCircle
 10
127.3352016733
 20
86.5579700358
 30
0.0
 40
1.103923121047358
100
AcDbArc
 50
327.5394781365
 51
351.2308593953
  0
SPLINE
  5
B7
330
1F
100
AcDbEntity
  8
0
  6
Continuous
 62
     7
370
    25
100
AcDbSpline
210
0.0
220
0.0
230
1.0
 70
     8
 71
     3
 72
    12
 73
     8
 74
     0
 42
0.000000001
 43
0.00000001
 40
0.0
 40
0.0
 40
0.0
 40
0.0
 40
0.2499999999999999
 40
0.2499999999999999
 40
0.4999999999999998
 40
0.4999999999999998
 40
1.0
 40
1.0
 40
1.0
 40
1.0
 10
128.4262205585244
 20
86.38967269978848
 30
0.0
 10
128.6424581429894
 20
86.34156459116038
 30
0.0
 10
128.8622237383074
 20
86.305351533705
 30
0.0
 10
129.3066667242701
 20
86.24024732406804
 30
0.0
 10
129.5314267481677
 20
86.21200714378612
 30
0.0
 10
130.212390653026
 20
86.13274231253197
 30
0.0
 10
130.6787735809032
 20
86.08687692924023
 30
0.0
 10
131.1389306971673
 20
86.04127605089374
 30
0.0
  0
LINE
  5
B8
330
1F
100
AcDbEntity
  8
0
  6
Continuous
 62
     7
370
    25
100
AcDbLine
 10
123.1389303172
 20
75.1689948087
 30
0.0
 11
122.7147324422
 21
75.1689948087
 31
0.0
  0
SPLINE
  5
B9
330
1F
100
AcDbEntity
  8
0
  6
Continuous
 62
     7
370
    25
100
AcDbSpline
210
0.0
220
0.0
230
1.0
 70
     8
 71
     3
 72
    12
 73
     8
 74
     0
 42
0.000000001
 43
0.00000001
 40
0.0
 40
0.0
 40
0.0
 40
0.0
 40
0.2500000000000001
 40
0.2500000000000001
 40
0.5000000000000001
 40
0.5000000000000001
 40
1.0
 40
1.0
 40
1.0
 40
1.0
 10
122.7147323727199
 20
75.16899472762475
 30
0.0
 10
122.7369992148722
 20
75.40640728572718
 30
0.0
 10
122.7440372475271
 20
75.64451729987582
 30
0.0
 10
122.7449123690137
 20
76.1222154271017
 30
0.0
 10
122.7382483750663
 20
76.36183828370022
 30
0.0
 10
122.7075960256538
 20
77.08055403778197
 30
0.0
 10
122.672987342542
 20
77.56137100258523
 30
0.0
 10
122.6389306971673
 20
78.04127605089376
 30
0.0
  0
SPLINE
  5
BA
330
1F
100
AcDbEntity
  8
0
  6
Continuous
 62
     7
370
    25
100
AcDbSpline
210
0.0
220
0.0
230
1.0
 70
     8
 71
     3
 72
    16
 73
    12
 74
     0
 42
0.000000001
 43
0.00000001
 40
0.0
 40
0.0
 40
0.0
 40
0.0
 40
0.2500000000000001
 40
0.2500000000000001
 40
0.5000000000000001
 40
0.5000000000000001
 40
0.7500000000000002
 40
0.7500000000000002
 40
0.8750000000000001
 40
0.8750000000000001
 40
1.0
 40
1.0
 40
1.0
 40
1.0
 10
123.1389306971673
 20
75.16899472762472
 30
0.0
 10
123.1389306971673
 20
75.41529005988853
 30
0.0
 10
123.1189989114801
 20
75.65880999466252
 30
0.0
 10
123.0583923648766
 20
76.14149596803779
 30
0.0
 10
123.0172818574314
 20
76.38093643681248
 30
0.0
 10
122.9229054010322
 20
76.85767751647558
 30
0.0
 10
122.8695400391759
 20
77.09496062660247
 30
0.0
 10
122.7852328792413
 20
77.45013551191724
 30
0.0
 10
122.7564080023994
 20
77.56839995235127
 30
0.0
 10
122.6980489238339
 20
77.80480396285238
 30
0.0
 10
122.6687978026158
 20
77.92180643440882
 30
0.0
 10
122.6389306971673
 20
78.04127605089376
 30
0.0
  0
ARC
  5
BB
330
1F
100
AcDbEntity
  8
0
  6
Continuous
 62
     7
370
    25
100
AcDbCircle
 10
122.122240777
 20
74.2375580503
 30
0.0
 40
1.103911594455069
100
AcDbArc
 50
57.5393526556
 51
81.2309848762
  0
SPLINE
  5
BC
330
1F
100
AcDbEntity
  8
0
  6
Continuous
 62
     7
370
    25
100
AcDbSpline
210
0.0
220
0.0
230
1.0
 70
     8
 71
     3
 72
    12
 73
     8
 74
     0
 42
0.000000001
 43
0.00000001
 40
0.0
 40
0.0
 40
0.0
 40
0.0
 40
0.2499999999999999
 40
0.2499999999999999
 40
0.4999999999999998
 40
0.4999999999999998
 40
1.0
 40
1.0
 40
1.0
 40
1.0
 10
122.2905340482726
 20
75.3285659122509
 30
0.0
 10
122.3386421569006
 20
75.54480349671586
 30
0.0
 10
122.374855214356
 20
75.76456909203391
 30
0.0
 10
122.439959423993
 20
76.20901207799652
 30
0.0
 10
122.4681996042749
 20
76.43377210189416
 30
0.0
 10
122.5474644355291
 20
77.11473600675245
 30
0.0
 10
122.5933298188208
 20
77.58111893462963
 30
0.0
 10
122.6389306971673
 20
78.04127605089376
 30
0.0
  0
LINE
  5
BD
330
1F
100
AcDbEntity
  8
0
  6
Continuous
 62
     7
370
    25
100
AcDbLine
 10
139.1389310771
 20
80.9135572931
 30
0.0
 11
139.5631289521
 21
80.9135572931
 31
0.0
  0
SPLINE
  5
BE
330
1F
100
AcDbEntity
  8
0
  6
Continuous
 62
     7
370
    25
100
AcDbSpline
210
0.0
220
0.0
230
1.0
 70
     8
 71
     3
 72
    12
 73
     8
 74
     0
 42
0.000000001
 43
0.00000001
 40
0.0
 40
0.0
 40
0.0
 40
0.0
 40
0.25
 40
0.25
 40
0.5
 40
0.5
 40
1.0
 40
1.0
 40
1.0
 40
1.0
 10
139.5631290216147
 20
80.91355737416274
 30
0.0
 10
139.5408621794624
 20
80.67614481606033
 30
0.0
 10
139.5338241468075
 20
80.43803480191171
 30
0.0
 10
139.5329490253209
 20
79.96033667468586
 30
0.0
 10
139.5396130192682
 20
79.72071381808752
 30
0.0
 10
139.5702653686808
 20
79.00199806400634
 30
0.0
 10
139.6048740515309
 20
78.52118109918366
 30
0.0
 10
139.6389306971673
 20
78.04127605089376
 30
0.0
  0
SPLINE
  5
BF
330
1F
100
AcDbEntity
  8
0
  6
Continuous
 62
     7
370
    25
100
AcDbSpline
210
0.0
220
0.0
230
1.0
 70
     8
 71
     3
 72
    16
 73
    12
 74
     0
 42
0.000000001
 43
0.00000001
 40
0.0
 40
0.0
 40
0.0
 40
0.0
 40
0.2500000000000002
 40
0.2500000000000002
 40
0.5000000000000002
 40
0.5000000000000002
 40
0.7500000000000002
 40
0.7500000000000002
 40
0.8750000000000001
 40
0.8750000000000001
 40
1.0
 40
1.0
 40
1.0
 40
1.0
 10
139.1389306971673
 20
80.91355737416276
 30
0.0
 10
139.1389306971673
 20
80.667262041899
 30
0.0
 10
139.1588624828544
 20
80.42374210712497
 30
0.0
 10
139.219469029458
 20
79.94105613374968
 30
0.0
 10
139.2605795369032
 20
79.70161566497501
 30
0.0
 10
139.3549559933024
 20
79.22487458531191
 30
0.0
 10
139.4083213551587
 20
78.98759147518501
 30
0.0
 10
139.4926285150933
 20
78.63241658987025
 30
0.0
 10
139.5214533919352
 20
78.5141521494362
 30
0.0
 10
139.5798124705006
 20
78.27774813893512
 30
0.0
 10
139.6090635917187
 20
78.16074566737866
 30
0.0
 10
139.6389306971673
 20
78.04127605089376
 30
0.0
  0
ARC
  5
C0
330
1F
100
AcDbEntity
  8
0
  6
Continuous
 62
     7
370
    25
100
AcDbCircle
 10
140.1556206174
 20
81.8449940515
 30
0.0
 40
1.103911594455065
100
AcDbArc
 50
237.5393526556
 51
261.2309848762
  0
SPLINE
  5
C1
330
1F
100
AcDbEntity
  8
0
  6
Continuous
 62
     7
370
    25
100
AcDbSpline
210
0.0
220
0.0
230
1.0
 70
     8
 71
     3
 72
    12
 73
     8
 74
     0
 42
0.000000001
 43
0.00000001
 40
0.0
 40
0.0
 40
0.0
 40
0.0
 40
0.2499999999999999
 40
0.2499999999999999
 40
0.5
 40
0.5
 40
1.0
 40
1.0
 40
1.0
 40
1.0
 10
139.987327346062
 20
80.75398618953666
 30
0.0
 10
139.9393691903902
 20
80.53842261754016
 30
0.0
 10
139.9030867752959
 20
80.31855260591841
 30
0.0
 10
139.8377648982598
 20
79.87258486430413
 30
0.0
 10
139.8094043823053
 20
79.6466916384302
 30
0.0
 10
139.7301479757432
 20
78.96542923961476
 30
0.0
 10
139.6846771986162
 20
78.50290266894423
 30
0.0
 10
139.6389306971673
 20
78.04127605089376
 30
0.0
  0
LINE
  5
C2
330
1F
100
AcDbEntity
  8
0
  6
Continuous
 62
     7
370
    25
100
AcDbLine
 10
124.6389305631
 20
85.5412758833
 30
0.0
 11
124.1389304811
 21
85.5412758833
 31
0.0
  0
LINE
  5
C3
330
1F
100
AcDbEntity
  8
0
  6
Continuous
 62
     7
370
    25
100
AcDbLine
 10
124.1389304811
 20
85.5412758833
 30
0.0
 11
124.1389304811
 21
86.0412764309
 31
0.0
  0
LWPOLYLINE
  5
C4
330
1F
100
AcDbEntity
  8
0
  6
Continuous
 62
     7
370
    25
100
AcDbPolyline
 90
        9
 70
   128
 43
0.0
 10
124.6389305631
 20
85.5412758833
 10
124.5413856992
 20
85.6388212127
 10
124.4475889431
 20
85.7326179689
 10
124.3611454444
 20
85.8190610019
 10
124.2853772307
 20
85.8948296813
 10
124.223196082
 20
85.9570112956
 10
124.1769908408
 20
86.0032160712
 10
124.1485380048
 20
86.0316689072
 10
124.1389304811
 20
86.0412764309
  0
LINE
  5
C5
330
1F
100
AcDbEntity
  8
0
  6
Continuous
 62
     7
370
    25
100
AcDbLine
 10
139.1389310771
 20
84.041276103
 30
0.0
 11
139.1389310771
 21
84.541276185
 31
0.0
  0
LINE
  5
C6
330
1F
100
AcDbEntity
  8
0
  6
Continuous
 62
     7
370
    25
100
AcDbLine
 10
139.1389310771
 20
84.541276185
 30
0.0
 11
139.6389311591
 21
84.541276185
 31
0.0
  0
LWPOLYLINE
  5
C7
330
1F
100
AcDbEntity
  8
0
  6
Continuous
 62
     7
370
    25
100
AcDbPolyline
 90
        9
 70
   128
 43
0.0
 10
139.1389310771
 20
84.041276103
 10
139.236475941
 20
84.1388214325
 10
139.3302722314
 20
84.232617723
 10
139.4167157302
 20
84.3190612217
 10
139.4924844095
 20
84.3948294354
 10
139.5546650926
 20
84.4570110498
 10
139.6008707994
 20
84.5032158253
 10
139.6293236354
 20
84.5316686613
 10
139.6389311591
 20
84.541276185
  0
LINE
  5
C8
330
1F
100
AcDbEntity
  8
0
  6
Continuous
 62
     7
370
    25
100
AcDbLine
 10
123.1389303172
 20
75.1689948087
 30
0.0
 11
123.1389303172
 21
71.5412759168
 31
0.0
  0
LWPOLYLINE
  5
C9
330
1F
100
AcDbEntity
  8
0
  6
Continuous
 62
     7
370
    25
100
AcDbPolyline
 90
        9
 70
   128
 43
0.0
 10
123.1389303172
 20
71.5412759168
 10
123.0413854534
 20
71.443731053
 10
122.9475891629
 20
71.3499342968
 10
122.8611456642
 20
71.2634907981
 10
122.7853769848
 20
71.1877225844
 10
122.7231963018
 20
71.1255414357
 10
122.6769905949
 20
71.0793361945
 10
122.6485377589
 20
71.0508833585
 10
122.6389302352
 20
71.0412758348
  0
LINE
  5
CA
330
1F
100
AcDbEntity
  8
0
  6
Continuous
 62
     7
370
    25
100
AcDbLine
 10
122.6389302352
 20
71.0412758348
 30
0.0
 11
122.6389302352
 21
73.9181703834
 31
0.0
  0
SPLINE
  5
CB
330
1F
100
AcDbEntity
  8
0
  6
Continuous
 62
     7
370
    25
100
AcDbSpline
210
0.0
220
0.0
230
1.0
 70
     8
 71
     3
 72
     8
 73
     4
 74
     0
 42
0.000000001
 43
0.00000001
 40
0.0
 40
0.0
 40
0.0
 40
0.0
 40
1.0
 40
1.0
 40
1.0
 40
1.0
 10
122.7147323727199
 20
75.16899472762475
 30
0.0
 10
122.6706862199308
 20
74.74974338823043
 30
0.0
 10
122.6389306971673
 20
74.33222042446934
 30
0.0
 10
122.6389306971673
 20
73.91817042527609
 30
0.0
  0
LINE
  5
CC
330
1F
100
AcDbEntity
  8
0
  6
Continuous
 62
     7
370
    25
100
AcDbLine
 10
139.1389310771
 20
80.9135572931
 30
0.0
 11
139.1389310771
 21
84.041276103
 31
0.0
  0
LINE
  5
CD
330
1F
100
AcDbEntity
  8
0
  6
Continuous
 62
     7
370
    25
100
AcDbLine
 10
139.6389311591
 20
84.541276185
 30
0.0
 11
139.6389311591
 21
82.1643817184
 31
0.0
  0
SPLINE
  5
CE
330
1F
100
AcDbEntity
  8
0
  6
Continuous
 62
     7
370
    25
100
AcDbSpline
210
0.0
220
0.0
230
1.0
 70
     8
 71
     3
 72
     8
 73
     4
 74
     0
 42
0.000000001
 43
0.00000001
 40
0.0
 40
0.0
 40
0.0
 40
0.0
 40
1.0
 40
1.0
 40
1.0
 40
1.0
 10
139.5631290216147
 20
80.91355737416274
 30
0.0
 10
139.6071751744037
 20
81.33280871355707
 30
0.0
 10
139.6389306971673
 20
81.75033167731816
 30
0.0
 10
139.6389306971673
 20
82.16438167651141
 30
0.0
  0
ARC
  5
CF
330
1F
100
AcDbEntity
  8
0
  6
Continuous
 62
     7
370
    25
100
AcDbCircle
 10
123.1389306972
 20
85.5412760509
 30
0.0
 40
1.5
100
AcDbArc
 50
270.0
 51
0.0
  0
LINE
  5
D0
330
1F
100
AcDbEntity
  8
0
  6
Continuous
 62
     7
370
    25
100
AcDbLine
 10
123.1389303172
 20
84.041276103
 30
0.0
 11
123.1389303172
 21
84.541276185
 31
0.0
  0
ARC
  5
D1
330
1F
100
AcDbEntity
  8
0
  6
Continuous
 62
     7
370
    25
100
AcDbCircle
 10
123.1389306972
 20
85.5412760509
 30
0.0
 40
1.0
100
AcDbArc
 50
270.0
 51
0.0
  0
LINE
  5
D2
330
1F
100
AcDbEntity
  8
0
  6
Continuous
 62
     7
370
    25
100
AcDbLine
 10
139.1389310771
 20
71.5412759168
 30
0.0
 11
139.1389310771
 21
75.1689948087
 31
0.0
  0
LINE
  5
D3
330
1F
100
AcDbEntity
  8
0
  6
Continuous
 62
     7
370
    25
100
AcDbLine
 10
123.1389303172
 20
71.5412759168
 30
0.0
 11
139.1389310771
 21
71.5412759168
 31
0.0
  0
LINE
  5
D4
330
1F
100
AcDbEntity
  8
0
  6
Continuous
 62
     7
370
    25
100
AcDbLine
 10
123.1389303172
 20
84.041276103
 30
0.0
 11
123.1389303172
 21
80.9135572931
 31
0.0
  0
LINE
  5
D5
330
1F
100
AcDbEntity
  8
0
  6
Continuous
 62
     7
370
    25
100
AcDbLine
 10
128.266649455
 20
85.5412758833
 30
0.0
 11
124.6389305631
 21
85.5412758833
 31
0.0
  0
LINE
  5
D6
330
1F
100
AcDbEntity
  8
0
  6
Continuous
 62
     7
370
    25
100
AcDbLine
 10
137.6389308313
 20
85.5412758833
 30
0.0
 11
134.0112119393
 21
85.5412758833
 31
0.0
  0
ARC
  5
D7
330
1F
100
AcDbEntity
  8
0
  6
Continuous
 62
     7
370
    25
100
AcDbCircle
 10
139.1389306972
 20
85.5412760509
 30
0.0
 40
1.5
100
AcDbArc
 50
180.0
 51
270.0
  0
ELLIPSE
  5
D8
330
1F
100
AcDbEntity
  8
0
  6
Continuous
 62
     7
370
    25
100
AcDbEllipse
 10
133.1795608989
 20
73.1121551758
 30
0.0
 11
0.07471508237065905
 21
0.0
 31
0.0
210
0.0
220
0.0
230
1.0
 40
0.9531667975
 41
3.605240262592062
 42
5.462183310213609
  0
ELLIPSE
  5
D9
330
1F
100
AcDbEntity
  8
0
  6
Continuous
 62
     7
370
    25
100
AcDbEllipse
 10
134.951488208
 20
71.2984525913
 30
0.0
 11
2.525369784127093
 21
-1.563194018672220E-13
 31
0.0
210
0.0
220
0.0
230
1.0
 40
0.9531667975
 41
0.8210019969639287
 42
2.320590656625483
  0
ELLIPSE
  5
DA
330
1F
100
AcDbEntity
  8
0
  6
Continuous
 62
     7
370
    25
100
AcDbEllipse
 10
136.723415517
 20
73.1121551758
 30
0.0
 11
0.07471508237063063
 21
2.842170943040401E-14
 31
0.0
210
0.0
220
0.0
230
1.0
 40
0.9531667976
 41
3.962594650565501
 42
5.819537698169207
  0
LINE
  5
DB
330
1F
100
AcDbEntity
  8
0
  6
Continuous
 62
     7
370
    25
100
AcDbLine
 10
136.7902426461
 20
73.0803064948
 30
0.0
 11
137.4918009566
 21
74.4177106248
 31
0.0
  0
LINE
  5
DC
330
1F
100
AcDbEntity
  8
0
  6
Continuous
 62
     7
370
    25
100
AcDbLine
 10
137.4918009566
 20
74.4177106248
 30
0.0
 11
137.4551045189
 21
74.3967400344
 31
0.0
  0
ELLIPSE
  5
DD
330
1F
100
AcDbEntity
  8
0
  6
Continuous
 62
     7
370
    25
100
AcDbEllipse
 10
137.147753873
 20
74.8853768072
 30
0.0
 11
-0.5977206589648176
 21
-1.705302565824240E-13
 31
0.0
210
0.0
220
0.0
230
1.0
 40
0.9531667975
 41
0.3285531705514293
 42
2.110876526947211
  0
LINE
  5
DE
330
1F
100
AcDbEntity
  8
0
  6
Continuous
 62
     7
370
    25
100
AcDbLine
 10
136.582004972
 20
74.7015404926
 30
0.0
 11
135.4721771965
 21
77.8045704359
 31
0.0
  0
ELLIPSE
  5
DF
330
1F
100
AcDbEntity
  8
0
  6
Continuous
 62
     7
370
    25
100
AcDbEllipse
 10
134.951488208
 20
77.5734667337
 30
0.0
 11
0.5743721957241519
 21
1.236344360222574E-12
 31
0.0
210
0.0
220
0.0
230
1.0
 40
0.9531667975
 41
0.435791898753036
 42
2.705800754832482
  0
LINE
  5
E0
330
1F
100
AcDbEntity
  8
0
  6
Continuous
 62
     7
370
    25
100
AcDbLine
 10
134.4307990691
 20
77.8045704359
 30
0.0
 11
133.3212299684
 21
74.7022636646
 31
0.0
  0
LINE
  5
E1
330
1F
100
AcDbEntity
  8
0
  6
Continuous
 62
     7
370
    25
100
AcDbLine
 10
132.4111754253
 20
74.4177106248
 30
0.0
 11
133.1127336195
 21
73.0803064948
 31
0.0
  0
LINE
  5
E2
330
1F
100
AcDbEntity
  8
0
  6
Continuous
 62
     7
370
    25
100
AcDbLine
 10
132.4566208238
 20
74.392701354
 30
0.0
 11
132.4111754253
 21
74.4177106248
 31
0.0
  0
ELLIPSE
  5
E3
330
1F
100
AcDbEntity
  8
0
  6
Continuous
 62
     7
370
    25
100
AcDbEllipse
 10
132.7554811734
 20
74.8860999268
 30
0.0
 11
-0.5977206589639081
 21
5.684341886080801E-14
 31
0.0
210
0.0
220
0.0
230
1.0
 40
0.9531667975
 41
1.047197551195628
 42
2.813039483037415
  0
LINE
  5
E4
330
1F
100
AcDbEntity
  8
0
  6
Continuous
 62
     7
370
    25
100
AcDbLine
 10
124.1389304811
 20
86.0412764309
 30
0.0
 11
127.0158250296
 21
86.0412764309
 31
0.0
  0
SPLINE
  5
E5
330
1F
100
AcDbEntity
  8
0
  6
Continuous
 62
     7
370
    25
100
AcDbSpline
210
0.0
220
0.0
230
1.0
 70
     8
 71
     3
 72
     8
 73
     4
 74
     0
 42
0.000000001
 43
0.00000001
 40
0.0
 40
0.0
 40
0.0
 40
0.0
 40
1.0
 40
1.0
 40
1.0
 40
1.0
 10
128.2666493738983
 20
85.96547437534112
 30
0.0
 10
127.847398034504
 20
86.00952052813018
 30
0.0
 10
127.4298750707429
 20
86.04127605089374
 30
0.0
 10
127.0158250715496
 20
86.04127605089374
 30
0.0
  0
SPLINE
  5
E6
330
1F
100
AcDbEntity
  8
0
  6
Continuous
 62
     7
370
    25
100
AcDbSpline
210
0.0
220
0.0
230
1.0
 70
     8
 71
     3
 72
     8
 73
     4
 74
     0
 42
0.000000001
 43
0.00000001
 40
0.0
 40
0.0
 40
0.0
 40
0.0
 40
1.0
 40
1.0
 40
1.0
 40
1.0
 10
127.244886495195
 20
86.54127605089374
 30
0.0
 10
127.6313775347961
 20
86.54127605089374
 30
0.0
 10
128.024201676217
 20
86.47911306284306
 30
0.0
 10
128.4262205585244
 20
86.38967269978848
 30
0.0
  0
LINE
  5
E7
330
1F
100
AcDbEntity
  8
0
  6
Continuous
 62
     7
370
    25
100
AcDbLine
 10
124.0555971341
 20
86.5412765128
 30
0.0
 11
127.2448866108
 21
86.5412765128
 31
0.0
  0
LINE
  5
E8
330
1F
100
AcDbEntity
  8
0
  6
Continuous
 62
     7
370
    25
100
AcDbLine
 10
124.0555971341
 20
85.5412758833
 30
0.0
 11
124.0555971341
 21
86.5412765128
 31
0.0
  0
LINE
  5
E9
330
1F
100
AcDbEntity
  8
0
  6
Continuous
 62
     7
370
    25
100
AcDbLine
 10
138.2222642602
 20
86.5412765128
 30
0.0
 11
138.2222642602
 21
85.5412758833
 31
0.0
  0
LINE
  5
EA
330
1F
100
AcDbEntity
  8
0
  6
Continuous
 62
     7
370
    25
100
AcDbLine
 10
135.0329747835
 20
86.5412765128
 30
0.0
 11
138.2222642602
 21
86.5412765128
 31
0.0
  0
SPLINE
  5
EB
330
1F
100
AcDbEntity
  8
0
  6
Continuous
 62
     7
370
    25
100
AcDbSpline
210
0.0
220
0.0
230
1.0
 70
     8
 71
     3
 72
     8
 73
     4
 74
     0
 42
0.000000001
 43
0.00000001
 40
0.0
 40
0.0
 40
0.0
 40
0.0
 40
1.0
 40
1.0
 40
1.0
 40
1.0
 10
133.8516408358102
 20
86.38967269978849
 30
0.0
 10
134.2536597181176
 20
86.47911306284307
 30
0.0
 10
134.6464838595385
 20
86.54127605089374
 30
0.0
 10
135.0329748991395
 20
86.54127605089374
 30
0.0
  0
LWPOLYLINE
  5
EC
330
1F
100
AcDbEntity
  8
0
  6
Continuous
 62
     7
370
    25
100
AcDbPolyline
 90
        9
 70
   128
 43
0.0
 10
122.6389302352
 20
84.541276185
 10
122.6485377589
 20
84.5316686613
 10
122.6769905949
 20
84.5032158253
 10
122.7231963018
 20
84.4570110498
 10
122.7853769848
 20
84.3948294354
 10
122.8611456642
 20
84.3190612217
 10
122.9475891629
 20
84.232617723
 10
123.0413854534
 20
84.1388214325
 10
123.1389303172
 20
84.041276103
  0
SPLINE
  5
ED
330
1F
100
AcDbEntity
  8
0
  6
Continuous
 62
     7
370
    25
100
AcDbSpline
210
0.0
220
0.0
230
1.0
 70
     8
 71
     3
 72
     8
 73
     4
 74
     0
 42
0.000000001
 43
0.00000001
 40
0.0
 40
0.0
 40
0.0
 40
0.0
 40
1.0
 40
1.0
 40
1.0
 40
1.0
 10
122.6389306971673
 20
82.16438167651141
 30
0.0
 10
122.6389306971673
 20
81.750192744029
 30
0.0
 10
122.6706784594518
 20
81.3328825812359
 30
0.0
 10
122.7147323727092
 20
80.91355737416215
 30
0.0
  0
LINE
  5
EE
330
1F
100
AcDbEntity
  8
0
  6
Continuous
 62
     7
370
    25
100
AcDbLine
 10
122.6389302352
 20
82.1643817184
 30
0.0
 11
122.6389302352
 21
84.541276185
 31
0.0
  0
LINE
  5
EF
330
1F
100
AcDbEntity
  8
0
  6
Continuous
 62
     7
370
    25
100
AcDbLine
 10
122.6389302352
 20
84.541276185
 30
0.0
 11
123.1389303172
 21
84.541276185
 31
0.0
  0
LWPOLYLINE
  5
F0
330
1F
100
AcDbEntity
  8
0
  6
Continuous
 62
     7
370
    25
100
AcDbPolyline
 90
        9
 70
   128
 43
0.0
 10
139.1389310771
 20
71.5412759168
 10
139.236475941
 20
71.443731053
 10
139.3302722314
 20
71.3499342968
 10
139.4167157302
 20
71.2634907981
 10
139.4924844095
 20
71.1877225844
 10
139.5546650926
 20
71.1255414357
 10
139.6008707994
 20
71.0793361945
 10
139.6293236354
 20
71.0508833585
 10
139.6389311591
 20
71.0412758348
  0
SPLINE
  5
F1
330
1F
100
AcDbEntity
  8
0
  6
Continuous
 62
     7
370
    25
100
AcDbSpline
210
0.0
220
0.0
230
1.0
 70
     8
 71
     3
 72
     8
 73
     4
 74
     0
 42
0.000000001
 43
0.00000001
 40
0.0
 40
0.0
 40
0.0
 40
0.0
 40
1.0
 40
1.0
 40
1.0
 40
1.0
 10
139.6389306971673
 20
73.91817042527609
 30
0.0
 10
139.6389306971673
 20
74.3323593577585
 30
0.0
 10
139.6071829348828
 20
74.74966952055159
 30
0.0
 10
139.5631290216253
 20
75.16899472762533
 30
0.0
  0
LINE
  5
F2
330
1F
100
AcDbEntity
  8
0
  6
Continuous
 62
     7
370
    25
100
AcDbLine
 10
139.6389311591
 20
73.9181703834
 30
0.0
 11
139.6389311591
 21
71.0412758348
 31
0.0
  0
SPLINE
  5
F3
330
1F
100
AcDbEntity
  8
0
  6
Continuous
 62
     7
370
    25
100
AcDbSpline
210
0.0
220
0.0
230
1.0
 70
     8
 71
     3
 72
     8
 73
     4
 74
     0
 42
0.000000001
 43
0.00000001
 40
0.0
 40
0.0
 40
0.0
 40
0.0
 40
1.0
 40
1.0
 40
1.0
 40
1.0
 10
140.1389306971673
 20
81.93532025286598
 30
0.0
 10
140.1389306971673
 20
81.54882921326495
 30
0.0
 10
140.0767677091166
 20
81.15600507184408
 30
0.0
 10
139.987327346062
 20
80.75398618953666
 30
0.0
  0
LINE
  5
F4
330
1F
100
AcDbEntity
  8
0
  6
Continuous
 62
     7
370
    25
100
AcDbLine
 10
140.1389303097
 20
84.6523871591
 30
0.0
 11
140.1389303097
 21
81.9353201372
 31
0.0
  0
LINE
  5
F5
330
1F
100
AcDbEntity
  8
0
  6
Continuous
 62
     7
370
    25
100
AcDbLine
 10
139.1389310771
 20
84.6523871591
 30
0.0
 11
140.1389303097
 21
84.6523871591
 31
0.0
  0
SPLINE
  5
F6
330
1F
100
AcDbEntity
  8
0
  6
Continuous
 62
     7
370
    25
100
AcDbSpline
210
0.0
220
0.0
230
1.0
 70
     8
 71
     3
 72
    14
 73
    10
 74
     0
 42
0.000000001
 43
0.00000001
 40
0.0
 40
0.0
 40
0.0
 40
0.0
 40
0.2499999999999995
 40
0.2499999999999995
 40
0.499999999999999
 40
0.499999999999999
 40
0.7499999999999984
 40
0.7499999999999984
 40
1.0
 40
1.0
 40
1.0
 40
1.0
 10
138.6389306971673
 20
85.12460938422709
 30
0.0
 10
138.6389306971673
 20
85.07665804170001
 30
0.0
 10
138.6464615871653
 20
85.02814422012696
 30
0.0
 10
138.6799421147976
 20
84.93039384959103
 30
0.0
 10
138.7060513177226
 20
84.88110067922362
 30
0.0
 10
138.7823423053647
 20
84.78842563024124
 30
0.0
 10
138.8332793861572
 20
84.74399281637682
 30
0.0
 10
138.9675679831811
 20
84.67515780790251
 30
0.0
 10
139.0511349108406
 20
84.65238716200486
 30
0.0
 10
139.1389306971673
 20
84.65238716200486
 30
0.0
  0
SPLINE
  5
F7
330
1F
100
AcDbEntity
  8
0
  6
Continuous
 62
     7
370
    25
100
AcDbSpline
210
0.0
220
0.0
230
1.0
 70
     8
 71
     3
 72
    14
 73
    10
 74
     0
 42
0.000000001
 43
0.00000001
 40
0.0
 40
0.0
 40
0.0
 40
0.0
 40
0.25
 40
0.25
 40
0.5
 40
0.5
 40
0.75
 40
0.75
 40
1.0
 40
1.0
 40
1.0
 40
1.0
 10
123.1389306971673
 20
84.65238716200486
 30
0.0
 10
123.2267264834939
 20
84.65238716200486
 30
0.0
 10
123.3102934111535
 20
84.67515780790251
 30
0.0
 10
123.4445820081774
 20
84.74399281637682
 30
0.0
 10
123.4955190889699
 20
84.78842563024124
 30
0.0
 10
123.571810076612
 20
84.88110067922364
 30
0.0
 10
123.597919279537
 20
84.93039384959104
 30
0.0
 10
123.6313998071693
 20
85.02814422012696
 30
0.0
 10
123.6389306971673
 20
85.07665804170001
 30
0.0
 10
123.6389306971673
 20
85.12460938422709
 30
0.0
  0
LINE
  5
F8
330
1F
100
AcDbEntity
  8
0
  6
Continuous
 62
     7
370
    25
100
AcDbLine
 10
122.1389310846
 20
84.6523871591
 30
0.0
 11
123.1389303172
 21
84.6523871591
 31
0.0
  0
LINE
  5
F9
330
1F
100
AcDbEntity
  8
0
  6
Continuous
 62
     7
370
    25
100
AcDbLine
 10
122.1389310846
 20
81.9353201372
 30
0.0
 11
122.1389310846
 21
84.6523871591
 31
0.0
  0
SPLINE
  5
FA
330
1F
100
AcDbEntity
  8
0
  6
Continuous
 62
     7
370
    25
100
AcDbSpline
210
0.0
220
0.0
230
1.0
 70
     8
 71
     3
 72
     8
 73
     4
 74
     0
 42
0.000000001
 43
0.00000001
 40
0.0
 40
0.0
 40
0.0
 40
0.0
 40
1.0
 40
1.0
 40
1.0
 40
1.0
 10
122.2905340482726
 20
80.75398618953659
 30
0.0
 10
122.201093685218
 20
81.15600507184404
 30
0.0
 10
122.1389306971673
 20
81.54882921326492
 30
0.0
 10
122.1389306971673
 20
81.93532025286598
 30
0.0
  0
SPLINE
  5
FB
330
1F
100
AcDbEntity
  8
0
  6
Continuous
 62
     7
370
    25
100
AcDbSpline
210
0.0
220
0.0
230
1.0
 70
     8
 71
     3
 72
     8
 73
     4
 74
     0
 42
0.000000001
 43
0.00000001
 40
0.0
 40
0.0
 40
0.0
 40
0.0
 40
1.0
 40
1.0
 40
1.0
 40
1.0
 10
122.1389306971673
 20
74.1472318489215
 30
0.0
 10
122.1389306971673
 20
74.53372288852258
 30
0.0
 10
122.201093685218
 20
74.92654702994346
 30
0.0
 10
122.2905340482726
 20
75.3285659122509
 30
0.0
  0
LINE
  5
FC
330
1F
100
AcDbEntity
  8
0
  6
Continuous
 62
     7
370
    25
100
AcDbLine
 10
122.1389310846
 20
70.9579424878
 30
0.0
 11
122.1389310846
 21
74.1472319646
 31
0.0
  0
LINE
  5
FD
330
1F
100
AcDbEntity
  8
0
  6
Continuous
 62
     7
370
    25
100
AcDbLine
 10
140.1389303097
 20
70.9579424878
 30
0.0
 11
122.1389310846
 21
70.9579424878
 31
0.0
  0
LINE
  5
FE
330
1F
100
AcDbEntity
  8
0
  6
Continuous
 62
     7
370
    25
100
AcDbLine
 10
140.1389303097
 20
74.1472319646
 30
0.0
 11
140.1389303097
 21
70.9579424878
 31
0.0
  0
SPLINE
  5
FF
330
1F
100
AcDbEntity
  8
0
  6
Continuous
 62
     7
370
    25
100
AcDbSpline
210
0.0
220
0.0
230
1.0
 70
     8
 71
     3
 72
     8
 73
     4
 74
     0
 42
0.000000001
 43
0.00000001
 40
0.0
 40
0.0
 40
0.0
 40
0.0
 40
1.0
 40
1.0
 40
1.0
 40
1.0
 10
139.987327346062
 20
75.32856591225087
 30
0.0
 10
140.0767677091166
 20
74.92654702994345
 30
0.0
 10
140.1389306971673
 20
74.53372288852256
 30
0.0
 10
140.1389306971673
 20
74.1472318489215
 30
0.0
  0
LINE
  5
100
330
1F
100
AcDbEntity
  8
0
  6
Continuous
 62
     7
370
    25
100
AcDbLine
 10
137.6389308313
 20
85.5412758833
 30
0.0
 11
138.1389309132
 21
85.5412758833
 31
0.0
  0
ARC
  5
101
330
1F
100
AcDbEntity
  8
0
  6
Continuous
 62
     7
370
    25
100
AcDbCircle
 10
139.1389306972
 20
85.5412760509
 30
0.0
 40
1.0
100
AcDbArc
 50
180.0
 51
270.0
  0
LWPOLYLINE
  5
102
330
1F
100
AcDbEntity
  8
0
  6
Continuous
 62
     7
370
    25
100
AcDbPolyline
 90
        9
 70
   128
 43
0.0
 10
137.6389308313
 20
85.5412758833
 10
137.7364756951
 20
85.6388212127
 10
137.8302724512
 20
85.7326179689
 10
137.9167159499
 20
85.8190610019
 10
137.9924841637
 20
85.8948296813
 10
138.0546653123
 20
85.9570112956
 10
138.1008705536
 20
86.0032160712
 10
138.1293233896
 20
86.0316689072
 10
138.1389309132
 20
86.0412764309
  0
LINE
  5
103
330
1F
100
AcDbEntity
  8
0
  6
Continuous
 62
     7
370
    25
100
AcDbLine
 10
138.1389309132
 20
86.0412764309
 30
0.0
 11
138.1389309132
 21
85.5412758833
 31
0.0
  0
ELLIPSE
  5
104
330
1F
100
AcDbEntity
  8
0
  6
Continuous
 62
     7
370
    25
100
AcDbEllipse
 10
134.6839338651
 20
74.7737902579
 30
0.0
 11
-0.07471508237068747
 21
0.0
 31
0.0
210
0.0
220
0.0
230
1.0
 40
0.9531667975
 41
5.940161364897956
 42
7.853981633974483
  0
LINE
  5
105
330
1F
100
AcDbEntity
  8
0
  6
Continuous
 62
     7
370
    25
100
AcDbLine
 10
134.8811258973
 20
75.511809759
 30
0.0
 11
134.61357159
 21
74.797742855
 31
0.0
  0
LINE
  5
106
330
1F
100
AcDbEntity
  8
0
  6
Continuous
 62
     7
370
    25
100
AcDbLine
 10
134.6839339418
 20
74.7025742607
 30
0.0
 11
135.2190423237
 21
74.7025742607
 31
0.0
  0
ELLIPSE
  5
107
330
1F
100
AcDbEntity
  8
0
  6
Continuous
 62
     7
370
    25
100
AcDbEllipse
 10
134.9514882097
 20
75.4878572237
 30
0.0
 11
0.07471508237068747
 21
0.0
 31
0.0
210
0.0
220
0.0
230
1.0
 40
0.9531667975
 41
0.3430239404209861
 42
2.798568713168807
  0
ELLIPSE
  5
108
330
1F
100
AcDbEntity
  8
0
  6
Continuous
 62
     7
370
    25
100
AcDbEllipse
 10
135.2190425512
 20
74.7737902579
 30
0.0
 11
0.07471508237063063
 21
2.842170943040401E-14
 31
0.0
210
0.0
220
0.0
230
1.0
 40
0.9531667975
 41
4.712388980384341
 42
6.626209245754612
  0
LINE
  5
109
330
1F
100
AcDbEntity
  8
0
  6
Continuous
 62
     7
370
    25
100
AcDbLine
 10
135.2894046755
 20
74.797742855
 30
0.0
 11
135.021850601
 21
75.511809759
 31
0.0
  0
LINE
  5
10A
330
1F
100
AcDbEntity
  8
0
  6
Continuous
 62
     7
370
    25
100
AcDbLine
 10
139.6389311591
 20
71.0412758348
 30
0.0
 11
122.6389302352
 21
71.0412758348
 31
0.0
  0
SPLINE
  5
10B
330
1F
100
AcDbEntity
  8
0
  6
Continuous
 62
     7
370
    25
100
AcDbSpline
210
0.0
220
0.0
230
1.0
 70
     8
 71
     3
 72
     8
 73
     4
 74
     0
 42
0.000000001
 43
0.00000001
 40
0.0
 40
0.0
 40
0.0
 40
0.0
 40
1.0
 40
1.0
 40
1.0
 40
1.0
 10
135.262036322785
 20
86.04127605089374
 30
0.0
 10
134.8478473903025
 20
86.04127605089374
 30
0.0
 10
134.4305372275095
 20
86.00952828860927
 30
0.0
 10
134.0112120204358
 20
85.96547437535179
 30
0.0
  0
LINE
  5
10C
330
1F
100
AcDbEntity
  8
0
  6
Continuous
 62
     7
370
    25
100
AcDbLine
 10
135.2620363647
 20
86.0412764309
 30
0.0
 11
138.1389309132
 21
86.0412764309
 31
0.0
  0
LWPOLYLINE
  5
10D
330
1F
100
AcDbEntity
  8
0
  6
Continuous
 62
     7
370
    25
100
AcDbPolyline
 90
        9
 70
   128
 43
0.0
 10
140.1389303097
 20
74.1472319646
 10
140.0413854459
 20
74.1428305341
 10
139.9475891555
 20
74.1297957433
 10
139.8611456567
 20
74.1086281782
 10
139.7853769773
 20
74.0801413489
 10
139.7231962943
 20
74.0454300252
 10
139.6769905874
 20
74.0058283267
 10
139.6485377515
 20
73.9628580345
 10
139.6389311591
 20
73.9181703834
  0
LWPOLYLINE
  5
10E
330
1F
100
AcDbEntity
  8
0
  6
Continuous
 62
     7
370
    25
100
AcDbPolyline
 90
        9
 70
   128
 43
0.0
 10
122.1389310846
 20
81.9353201372
 10
122.2364759484
 20
81.9397215677
 10
122.3302722389
 20
81.9527563585
 10
122.4167157376
 20
81.9739239236
 10
122.492484417
 20
82.0024107529
 10
122.5546651
 20
82.0371220765
 10
122.6008708069
 20
82.0767237751
 10
122.6293236429
 20
82.1196940673
 10
122.6389302352
 20
82.1643817184
  0
LWPOLYLINE
  5
10F
330
1F
100
AcDbEntity
  8
0
  6
Continuous
 62
     7
370
    25
100
AcDbPolyline
 90
        9
 70
   128
 43
0.0
 10
135.0329747835
 20
86.5412765128
 10
135.037376214
 20
86.4437307177
 10
135.0504110047
 20
86.3499344272
 10
135.0715785699
 20
86.2634909285
 10
135.1000653991
 20
86.1877222491
 10
135.1347767228
 20
86.1255415661
 10
135.1743784213
 20
86.0793358592
 10
135.2173487136
 20
86.0508830232
 10
135.2620363647
 20
86.0412764309
  0
LWPOLYLINE
  5
110
330
1F
100
AcDbEntity
  8
0
  6
Continuous
 62
     7
370
    25
100
AcDbPolyline
 90
        9
 70
   128
 43
0.0
 10
139.6389311591
 20
82.1643817184
 10
139.6485377515
 20
82.1196940673
 10
139.6769905874
 20
82.0767237751
 10
139.7231962943
 20
82.0371220765
 10
139.7853769773
 20
82.0024107529
 10
139.8611456567
 20
81.9739239236
 10
139.9475891555
 20
81.9527563585
 10
140.0413854459
 20
81.9397215677
 10
140.1389303097
 20
81.9353201372
  0
LWPOLYLINE
  5
111
330
1F
100
AcDbEntity
  8
0
  6
Continuous
 62
     7
370
    25
100
AcDbPolyline
 90
        9
 70
   128
 43
0.0
 10
122.1389310846
 20
74.1472319646
 10
122.2364759484
 20
74.1428305341
 10
122.3302722389
 20
74.1297957433
 10
122.4167157376
 20
74.1086281782
 10
122.492484417
 20
74.0801413489
 10
122.5546651
 20
74.0454300252
 10
122.6008708069
 20
74.0058283267
 10
122.6293236429
 20
73.9628580345
 10
122.6389302352
 20
73.9181703834
  0
LWPOLYLINE
  5
112
330
1F
100
AcDbEntity
  8
0
  6
Continuous
 62
     7
370
    25
100
AcDbPolyline
 90
        9
 70
   128
 43
0.0
 10
127.0158250296
 20
86.0412764309
 10
127.0605126807
 20
86.0508830232
 10
127.103482973
 20
86.0793358592
 10
127.1430846715
 20
86.1255415661
 10
127.1777959952
 20
86.1877222491
 10
127.2062828245
 20
86.2634909285
 10
127.2274503896
 20
86.3499344272
 10
127.2404851803
 20
86.4437307177
 10
127.2448866108
 20
86.5412765128
  0
SPLINE
  5
113
330
1F
100
AcDbEntity
  8
0
  6
Continuous
 62
     7
370
    25
100
AcDbSpline
210
0.0
220
0.0
230
1.0
 70
    24
 71
     3
 72
    10
 73
     6
 74
     0
 42
0.000000001
 43
0.00000001
 40
0.0
 40
0.0
 40
0.0
 40
0.0
 40
0.5
 40
0.5
 40
1.0
 40
1.0
 40
1.0
 40
1.0
 10
124.1389306971672
 20
86.04127605089374
 30
0.0
 10
124.1389306971672
 20
86.04127605089374
 30
0.0
 10
124.1389306971673
 20
86.05812106644767
 30
0.0
 10
124.1389306971673
 20
86.12748078407526
 30
0.0
 10
124.1389306971673
 20
86.17868027012834
 30
0.0
 10
124.1389306971673
 20
86.25829842658526
 30
0.0
  0
SPLINE
  5
114
330
1F
100
AcDbEntity
  8
0
  6
Continuous
 62
     7
370
    25
100
AcDbSpline
210
0.0
220
0.0
230
1.0
 70
     8
 71
     3
 72
     8
 73
     4
 74
     0
 42
0.000000001
 43
0.00000001
 40
0.0
 40
0.0
 40
0.0
 40
0.0
 40
1.0
 40
1.0
 40
1.0
 40
1.0
 10
124.1389306971673
 20
86.25829842658536
 30
0.0
 10
124.1389306971673
 20
86.34642228404404
 30
0.0
 10
124.1076605035635
 20
86.44435975674305
 30
0.0
 10
124.0555973638339
 20
86.54127605089374
 30
0.0
  0
SPLINE
  5
115
330
1F
100
AcDbEntity
  8
0
  6
Continuous
 62
     7
370
    25
100
AcDbSpline
210
0.0
220
0.0
230
1.0
 70
     8
 71
     3
 72
     8
 73
     4
 74
     0
 42
0.000000001
 43
0.00000001
 40
0.0
 40
0.0
 40
0.0
 40
0.0
 40
1.0
 40
1.0
 40
1.0
 40
1.0
 10
138.1389306971673
 20
86.25829842658533
 30
0.0
 10
138.1389306971673
 20
86.34642228404401
 30
0.0
 10
138.1702008907708
 20
86.44435975674341
 30
0.0
 10
138.2222640305006
 20
86.54127605089374
 30
0.0
  0
SPLINE
  5
116
330
1F
100
AcDbEntity
  8
0
  6
Continuous
 62
     7
370
    25
100
AcDbSpline
210
0.0
220
0.0
230
1.0
 70
    24
 71
     3
 72
    10
 73
     6
 74
     0
 42
0.000000001
 43
0.00000001
 40
0.0
 40
0.0
 40
0.0
 40
0.0
 40
0.5
 40
0.5
 40
1.0
 40
1.0
 40
1.0
 40
1.0
 10
138.1389306971673
 20
86.25829842658533
 30
0.0
 10
138.1389306971673
 20
86.1789612641638
 30
0.0
 10
138.1389306971673
 20
86.12746595565282
 30
0.0
 10
138.1389306971673
 20
86.0583636143673
 30
0.0
 10
138.1389306971673
 20
86.04127605089379
 30
0.0
 10
138.1389306971673
 20
86.04127605089374
 30
0.0
  0
SPLINE
  5
117
330
1F
100
AcDbEntity
  8
0
  6
Continuous
 62
     7
370
    25
100
AcDbSpline
210
0.0
220
0.0
230
1.0
 70
     8
 71
     3
 72
     8
 73
     4
 74
     0
 42
0.000000001
 43
0.00000001
 40
0.0
 40
0.0
 40
0.0
 40
0.0
 40
1.0
 40
1.0
 40
1.0
 40
1.0
 10
139.8559530728589
 20
71.04127605089374
 30
0.0
 10
139.9440769303176
 20
71.04127605089374
 30
0.0
 10
140.0420144030196
 20
71.0100058572917
 30
0.0
 10
140.1389306971673
 20
70.95794271756041
 30
0.0
  0
SPLINE
  5
118
330
1F
100
AcDbEntity
  8
0
  6
Continuous
 62
     7
370
    25
100
AcDbSpline
210
0.0
220
0.0
230
1.0
 70
    24
 71
     3
 72
    10
 73
     6
 74
     0
 42
0.000000001
 43
0.00000001
 40
0.0
 40
0.0
 40
0.0
 40
0.0
 40
0.5
 40
0.5
 40
1.0
 40
1.0
 40
1.0
 40
1.0
 10
139.8559530728589
 20
71.04127605089374
 30
0.0
 10
139.7766159104373
 20
71.04127605089374
 30
0.0
 10
139.7251206019264
 20
71.04127605089374
 30
0.0
 10
139.6560182606408
 20
71.04127605089374
 30
0.0
 10
139.6389306971673
 20
71.04127605089374
 30
0.0
 10
139.6389306971673
 20
71.04127605089374
 30
0.0
  0
SPLINE
  5
119
330
1F
100
AcDbEntity
  8
0
  6
Continuous
 62
     7
370
    25
100
AcDbSpline
210
0.0
220
0.0
230
1.0
 70
     8
 71
     3
 72
     8
 73
     4
 74
     0
 42
0.000000001
 43
0.00000001
 40
0.0
 40
0.0
 40
0.0
 40
0.0
 40
1.0
 40
1.0
 40
1.0
 40
1.0
 10
139.8176964266936
 20
84.54127605089374
 30
0.0
 10
139.9146201631861
 20
84.54127605089374
 30
0.0
 10
140.027625651276
 20
84.58439860928935
 30
0.0
 10
140.1389306971673
 20
84.65238716200486
 30
0.0
  0
SPLINE
  5
11A
330
1F
100
AcDbEntity
  8
0
  6
Continuous
 62
     7
370
    25
100
AcDbSpline
210
0.0
220
0.0
230
1.0
 70
    24
 71
     3
 72
    10
 73
     6
 74
     0
 42
0.000000001
 43
0.00000001
 40
0.0
 40
0.0
 40
0.0
 40
0.0
 40
0.5
 40
0.5
 40
1.0
 40
1.0
 40
1.0
 40
1.0
 10
139.6389306971673
 20
84.54127605089495
 30
0.0
 10
139.6389306971673
 20
84.54127605089494
 30
0.0
 10
139.6531486668831
 20
84.54127605089374
 30
0.0
 10
139.711325181674
 20
84.54127605089374
 30
0.0
 10
139.7546465390127
 20
84.54127605089374
 30
0.0
 10
139.8176964266936
 20
84.54127605089374
 30
0.0
  0
SPLINE
  5
11B
330
1F
100
AcDbEntity
  8
0
  6
Continuous
 62
     7
370
    25
100
AcDbSpline
210
0.0
220
0.0
230
1.0
 70
     8
 71
     3
 72
     8
 73
     4
 74
     0
 42
0.000000001
 43
0.00000001
 40
0.0
 40
0.0
 40
0.0
 40
0.0
 40
1.0
 40
1.0
 40
1.0
 40
1.0
 10
122.460164967641
 20
84.54127605089374
 30
0.0
 10
122.3632412311485
 20
84.54127605089374
 30
0.0
 10
122.2502357430586
 20
84.58439860928935
 30
0.0
 10
122.1389306971673
 20
84.65238716200486
 30
0.0
  0
SPLINE
  5
11C
330
1F
100
AcDbEntity
  8
0
  6
Continuous
 62
     7
370
    25
100
AcDbSpline
210
0.0
220
0.0
230
1.0
 70
    24
 71
     3
 72
    10
 73
     6
 74
     0
 42
0.000000001
 43
0.00000001
 40
0.0
 40
0.0
 40
0.0
 40
0.0
 40
0.5
 40
0.5
 40
1.0
 40
1.0
 40
1.0
 40
1.0
 10
122.460164967641
 20
84.54127605089374
 30
0.0
 10
122.5232149901761
 20
84.54127605089374
 30
0.0
 10
122.566522214482
 20
84.54127605089374
 30
0.0
 10
122.6247133901443
 20
84.54127605089374
 30
0.0
 10
122.6389306971673
 20
84.54127605089374
 30
0.0
 10
122.6389306971673
 20
84.54127605089374
 30
0.0
  0
SPLINE
  5
11D
330
1F
100
AcDbEntity
  8
0
  6
Continuous
 62
     7
370
    25
100
AcDbSpline
210
0.0
220
0.0
230
1.0
 70
     8
 71
     3
 72
     8
 73
     4
 74
     0
 42
0.000000001
 43
0.00000001
 40
0.0
 40
0.0
 40
0.0
 40
0.0
 40
1.0
 40
1.0
 40
1.0
 40
1.0
 10
122.4219083214757
 20
71.04127605089374
 30
0.0
 10
122.333784464017
 20
71.04127605089374
 30
0.0
 10
122.2358469913149
 20
71.0100058572917
 30
0.0
 10
122.1389306971673
 20
70.95794271756041
 30
0.0
  0
SPLINE
  5
11E
330
1F
100
AcDbEntity
  8
0
  6
Continuous
 62
     7
370
    25
100
AcDbSpline
210
0.0
220
0.0
230
1.0
 70
    24
 71
     3
 72
    10
 73
     6
 74
     0
 42
0.000000001
 43
0.00000001
 40
0.0
 40
0.0
 40
0.0
 40
0.0
 40
0.5
 40
0.5
 40
1.0
 40
1.0
 40
1.0
 40
1.0
 10
122.6389306971673
 20
71.04127605089363
 30
0.0
 10
122.6389306971673
 20
71.04127605089363
 30
0.0
 10
122.6220856816134
 20
71.04127605089374
 30
0.0
 10
122.5527259639858
 20
71.04127605089374
 30
0.0
 10
122.5015264779327
 20
71.04127605089374
 30
0.0
 10
122.4219083214758
 20
71.04127605089374
 30
0.0
  0
ARC
  5
11F
330
1F
100
AcDbEntity
  8
0
  6
Continuous
 62
     7
370
    25
100
AcDbCircle
 10
123.6771259255
 20
85.5871084929
 30
0.0
 40
0.4640733516230673
100
AcDbArc
 50
265.2789919347
 51
354.3321397526
  0
LINE
  5
120
330
1F
100
AcDbEntity
  8
0
  6
Continuous
 62
     7
370
    25
100
AcDbLine
 10
123.1389303172
 20
84.6523871591
 30
0.0
 11
123.1389303172
 21
84.541276185
 31
0.0
  0
ARC
  5
121
330
1F
100
AcDbEntity
  8
0
  6
Continuous
 62
     7
370
    25
100
AcDbCircle
 10
138.6007354688
 20
85.5871084929
 30
0.0
 40
0.4640733516230696
100
AcDbArc
 50
185.6678602474
 51
274.7210080653
  0
LINE
  5
122
330
1F
100
AcDbEntity
  8
0
  6
Continuous
 62
     7
370
    25
100
AcDbLine
 10
139.1389310771
 20
84.541276185
 30
0.0
 11
139.1389310771
 21
84.6523871591
 31
0.0
  0
ARC
  5
123
330
1F
100
AcDbEntity
  8
0
  6
Continuous
 62
     7
370
    25
100
AcDbCircle
 10
138.8403281128
 20
85.7426734665
 30
0.0
 40
0.6500491615196008
100
AcDbArc
 50
198.0483231264
 51
251.9516768736
  0
LINE
  5
124
330
1F
100
AcDbEntity
  8
0
  6
Continuous
 62
     7
370
    25
100
AcDbLine
 10
138.2222642602
 20
85.5412758833
 30
0.0
 11
138.1389309132
 21
85.5412758833
 31
0.0
  0
LINE
  5
125
330
1F
100
AcDbEntity
  8
0
  6
Continuous
 62
     7
370
    25
100
AcDbLine
 10
124.1389304811
 20
85.5412758833
 30
0.0
 11
124.0555971341
 21
85.5412758833
 31
0.0
  0
ARC
  5
126
330
1F
100
AcDbEntity
  8
0
  6
Continuous
 62
     7
370
    25
100
AcDbCircle
 10
123.4375332815
 20
85.7426734665
 30
0.0
 40
0.6500491615196184
100
AcDbArc
 50
288.0483231264
 51
341.9516768736
  0
LINE
  5
127
330
1F
100
AcDbEntity
  8
0
  6
Continuous
 62
     8
370
    25
100
AcDbLine
 10
117.138930265
 20
78.0412760509
 30
0.0
 11
117.138930265
 21
69.541275589
 31
0.0
  0
LINE
  5
128
330
1F
100
AcDbEntity
  8
0
  6
Continuous
 62
     8
370
    25
100
AcDbLine
 10
117.138930265
 20
86.5412765128
 30
0.0
 11
117.138930265
 21
78.0412760509
 31
0.0
  0
LINE
  5
129
330
1F
100
AcDbEntity
  8
0
  6
Continuous
 62
     8
370
    25
100
AcDbLine
 10
145.1389311293
 20
69.541275589
 30
0.0
 11
145.1389311293
 21
86.5412765128
 31
0.0
  0
LINE
  5
12A
330
1F
100
AcDbEntity
  8
0
  6
Continuous
 62
     8
370
    25
100
AcDbLine
 10
139.6389311591
 20
92.041276483
 30
0.0
 11
122.6389302352
 21
92.041276483
 31
0.0
  0
LWPOLYLINE
  5
12B
330
1F
100
AcDbEntity
  8
0
  6
Continuous
 62
     8
370
    25
100
AcDbPolyline
 90
       10
 70
   128
 43
0.0
 10
122.6389302352
 20
87.0412756635
 10
122.6569224561
 20
87.0222254602
 10
122.7108227501
 20
86.9651549441
 10
122.8004020119
 20
86.8703062592
 10
122.9252821246
 20
86.7380808053
 10
123.084934097
 20
86.5690373761
 10
123.2786817888
 20
86.36389309
 10
123.5057047048
 20
86.1235150082
 10
123.7650426516
 20
85.8489219976
 10
124.0555971341
 20
85.5412758833
  0
LWPOLYLINE
  5
12C
330
1F
100
AcDbEntity
  8
0
  6
Continuous
 62
     8
370
    25
100
AcDbPolyline
 90
       10
 70
   128
 43
0.0
 10
138.2222642602
 20
85.5412758833
 10
138.5128187427
 20
85.8489219976
 10
138.7721566895
 20
86.1235150082
 10
138.9991796056
 20
86.36389309
 10
139.1929272974
 20
86.5690373761
 10
139.3525792697
 20
86.7380808053
 10
139.4774593824
 20
86.8703062592
 10
139.5670386443
 20
86.9651549441
 10
139.6209389383
 20
87.0222254602
 10
139.6389311591
 20
87.0412756635
  0
LWPOLYLINE
  5
12D
330
1F
100
AcDbEntity
  8
0
  6
Continuous
 62
     8
370
    25
100
AcDbPolyline
 90
       10
 70
   128
 43
0.0
 10
140.1389303097
 20
86.5412765128
 10
140.1198801065
 20
86.523284292
 10
140.0628095904
 20
86.469383998
 10
139.9679609055
 20
86.3798047362
 10
139.8357354516
 20
86.2549246235
 10
139.6666920224
 20
86.0952726511
 10
139.4615477363
 20
85.9015249593
 10
139.2211696545
 20
85.6745020432
 10
138.9465766439
 20
85.4151640964
 10
138.6389305295
 20
85.124609614
  0
LWPOLYLINE
  5
12E
330
1F
100
AcDbEntity
  8
0
  6
Continuous
 62
     8
370
    25
100
AcDbPolyline
 90
       10
 70
   128
 43
0.0
 10
123.6389308648
 20
85.124609614
 10
123.3312847504
 20
85.4151640964
 10
123.0566917399
 20
85.6745020432
 10
122.8163136581
 20
85.9015249593
 10
122.6111693719
 20
86.0952726511
 10
122.4421259427
 20
86.2549246235
 10
122.3099004889
 20
86.3798047362
 10
122.2150518039
 20
86.469383998
 10
122.1579812879
 20
86.523284292
 10
122.1389310846
 20
86.5412765128
  0
LINE
  5
12F
330
1F
100
AcDbEntity
  8
0
  6
Continuous
 62
     7
370
    18
100
AcDbLine
 10
103.1744548159
 20
87.3891361796
 30
0.0
 11
116.0489306972
 21
87.7914635509
 31
0.0
  0
LINE
  5
130
330
1F
100
AcDbEntity
  8
0
  6
Continuous
 62
     7
370
    18
100
AcDbLine
 10
103.1744548159
 20
68.6934159222
 30
0.0
 11
116.0489306972
 21
68.2910885509
 31
0.0
  0
LINE
  5
131
330
1F
100
AcDbEntity
  8
0
  6
Continuous
 62
     7
370
    18
100
AcDbLine
 10
116.0489306972
 20
67.3840885509
 30
0.0
 11
116.0489306972
 21
88.6984635509
 31
0.0
  0
LINE
  5
132
330
1F
100
AcDbEntity
  8
0
  6
Continuous
 62
     7
370
    18
100
AcDbLine
 10
140.4867908259
 20
106.0057519321
 30
0.0
 11
140.8891181972
 21
93.1312760509
 31
0.0
  0
LINE
  5
133
330
1F
100
AcDbEntity
  8
0
  6
Continuous
 62
     7
370
    18
100
AcDbLine
 10
121.7910705685
 20
106.0057519321
 30
0.0
 11
121.3887431972
 21
93.1312760509
 31
0.0
  0
LINE
  5
134
330
1F
100
AcDbEntity
  8
0
  6
Continuous
 62
     7
370
    18
100
AcDbLine
 10
120.4817431972
 20
93.1312760509
 30
0.0
 11
141.7961181972
 21
93.1312760509
 31
0.0
  0
LINE
  5
135
330
1F
100
AcDbEntity
  8
0
  6
Continuous
 62
     7
370
    18
100
AcDbLine
 10
159.1034065784
 20
68.6934159222
 30
0.0
 11
146.2289306972
 21
68.2910885509
 31
0.0
  0
LINE
  5
136
330
1F
100
AcDbEntity
  8
0
  6
Continuous
 62
     7
370
    18
100
AcDbLine
 10
159.1034065784
 20
87.3891361796
 30
0.0
 11
146.2289306972
 21
87.7914635509
 31
0.0
  0
LINE
  5
137
330
1F
100
AcDbEntity
  8
0
  6
Continuous
 62
     7
370
    18
100
AcDbLine
 10
146.2289306972
 20
88.6984635509
 30
0.0
 11
146.2289306972
 21
67.3840885509
 31
0.0
  0
LINE
  5
138
330
1F
100
AcDbEntity
  8
0
  6
CENTERX2
 62
     7
370
    18
100
AcDbLine
 10
131.1389306972
 20
67.8623859232
 30
0.0
 11
131.1389306972
 21
109.0412760509
 31
0.0
  0
LINE
  5
139
330
1F
100
AcDbEntity
  8
0
  6
CENTERX2
 62
     7
370
    18
100
AcDbLine
 10
100.1389306972
 20
78.0412760509
 30
0.0
 11
162.1389306972
 21
78.0412760509
 31
0.0
  0
ARC
  5
13A
330
1F
100
AcDbEntity
  8
0
  6
Continuous
 62
     7
370
    25
100
AcDbCircle
 10
182.9142280445
 20
94.0412760509
 30
0.0
 40
1.000000000000003
100
AcDbArc
 50
245.9652533382
 51
270.0
  0
ARC
  5
13B
330
1F
100
AcDbEntity
  8
0
  6
Continuous
 62
     7
370
    25
100
AcDbCircle
 10
203.4142280445
 20
94.0412760509
 30
0.0
 40
1.000000000000003
100
AcDbArc
 50
270.0
 51
294.0347466618
  0
LINE
  5
13C
330
1F
100
AcDbEntity
  8
0
  6
Continuous
 62
     7
370
    25
100
AcDbLine
 10
203.8215189725
 20
93.1279771907
 30
0.0
 11
203.4709905759
 21
104.3448840214
 31
0.0
  0
LINE
  5
13D
330
1F
100
AcDbEntity
  8
0
  6
Continuous
 62
     7
370
    25
100
AcDbLine
 10
182.8574655131
 20
104.3448840214
 30
0.0
 11
182.5069371164
 21
93.1279771907
 31
0.0
  0
LINE
  5
13E
330
1F
100
AcDbEntity
  8
0
  6
Continuous
 62
     7
370
    25
100
AcDbLine
 10
203.4709905759
 20
104.3448840214
 30
0.0
 11
201.9142280817
 21
107.0412752164
 31
0.0
  0
LINE
  5
13F
330
1F
100
AcDbEntity
  8
0
  6
Continuous
 62
     7
370
    25
100
AcDbLine
 10
184.4142280072
 20
107.0412752164
 30
0.0
 11
182.8574655131
 21
104.3448840214
 31
0.0
  0
ARC
  5
140
330
1F
100
AcDbEntity
  8
0
  6
Continuous
 62
     7
370
    25
100
AcDbCircle
 10
183.6642280445
 20
92.0412760509
 30
0.0
 40
1.0
100
AcDbArc
 50
0.0
 51
90.0
  0
ARC
  5
141
330
1F
100
AcDbEntity
  8
0
  6
Continuous
 62
     7
370
    25
100
AcDbCircle
 10
202.6642280445
 20
92.0412760509
 30
0.0
 40
1.0
100
AcDbArc
 50
90.0
 51
180.0
  0
LINE
  5
142
330
1F
100
AcDbEntity
  8
0
  6
Continuous
 62
     7
370
    25
100
AcDbLine
 10
201.6642285064
 20
86.0412764309
 30
0.0
 11
201.6642285064
 21
92.041276483
 31
0.0
  0
LINE
  5
143
330
1F
100
AcDbEntity
  8
0
  6
Continuous
 62
     7
370
    25
100
AcDbLine
 10
184.6642275825
 20
92.041276483
 30
0.0
 11
184.6642275825
 21
86.0412764309
 31
0.0
  0
CIRCLE
  5
144
330
1F
100
AcDbEntity
  8
0
  6
Continuous
 62
     7
370
    25
100
AcDbCircle
 10
193.1642280445
 20
78.0412760509
 30
0.0
 40
8.75
  0
CIRCLE
  5
145
330
1F
100
AcDbEntity
  8
0
  6
Continuous
 62
     7
370
    25
100
AcDbCircle
 10
193.1642280445
 20
78.0412760509
 30
0.0
 40
10.30676222727976
  0
CIRCLE
  5
146
330
1F
100
AcDbEntity
  8
0
  6
Continuous
 62
     7
370
    25
100
AcDbCircle
 10
193.1642280445
 20
78.0412760509
 30
0.0
 40
8.025000000000006
  0
CIRCLE
  5
147
330
1F
100
AcDbEntity
  8
0
  6
Continuous
 62
     7
370
    25
100
AcDbCircle
 10
193.1642280445
 20
78.0412760509
 30
0.0
 40
7.899999999999977
  0
CIRCLE
  5
148
330
1F
100
AcDbEntity
  8
0
  6
Continuous
 62
     7
370
    25
100
AcDbCircle
 10
193.1642280445
 20
78.0412760509
 30
0.0
 40
7.775000000000006
  0
CIRCLE
  5
149
330
1F
100
AcDbEntity
  8
0
  6
Continuous
 62
     7
370
    25
100
AcDbCircle
 10
193.1642280445
 20
78.0412760509
 30
0.0
 40
6.999999999999972
  0
CIRCLE
  5
14A
330
1F
100
AcDbEntity
  8
0
  6
Continuous
 62
     7
370
    25
100
AcDbCircle
 10
193.1642280445
 20
78.0412760509
 30
0.0
 40
6.5
  0
CIRCLE
  5
14B
330
1F
100
AcDbEntity
  8
0
  6
Continuous
 62
     7
370
    25
100
AcDbCircle
 10
193.1642280445
 20
78.0412760509
 30
0.0
 40
10.65729058208802
  0
LINE
  5
14C
330
1F
100
AcDbEntity
  8
0
  6
Continuous
 62
     7
370
    25
100
AcDbLine
 10
203.8215189725
 20
93.1279771907
 30
0.0
 11
182.5069371164
 21
93.1279771907
 31
0.0
  0
LINE
  5
14D
330
1F
100
AcDbEntity
  8
0
  6
Continuous
 62
     7
370
    25
100
AcDbLine
 10
203.4142283276
 20
93.0412757156
 30
0.0
 11
182.9142277613
 21
93.0412757156
 31
0.0
  0
LINE
  5
14E
330
1F
100
AcDbEntity
  8
0
  6
Continuous
 62
     7
370
    25
100
AcDbLine
 10
193.1642280445
 20
104.3448840214
 30
0.0
 11
203.4709905759
 21
104.3448840214
 31
0.0
  0
LINE
  5
14F
330
1F
100
AcDbEntity
  8
0
  6
Continuous
 62
     7
370
    25
100
AcDbLine
 10
182.8574655131
 20
104.3448840214
 30
0.0
 11
193.1642280445
 21
104.3448840214
 31
0.0
  0
LINE
  5
150
330
1F
100
AcDbEntity
  8
0
  6
Continuous
 62
     7
370
    25
100
AcDbLine
 10
201.9142280817
 20
107.0412752164
 30
0.0
 11
184.4142280072
 21
107.0412752164
 31
0.0
  0
SPLINE
  5
151
330
1F
100
AcDbEntity
  8
0
  6
Continuous
 62
     7
370
    25
100
AcDbSpline
210
0.0
220
0.0
230
1.0
 70
     8
 71
     3
 72
    12
 73
     8
 74
     0
 42
0.000000001
 43
0.00000001
 40
0.0
 40
0.0
 40
0.0
 40
0.0
 40
0.2499999999999999
 40
0.2499999999999999
 40
0.4999999999999999
 40
0.4999999999999999
 40
1.0
 40
1.0
 40
1.0
 40
1.0
 10
201.219735707153
 20
86.38967269978849
 30
0.0
 10
201.292554195136
 20
86.3415645911441
 30
0.0
 10
201.3568498335944
 20
86.30535153367988
 30
0.0
 10
201.4675559971772
 20
86.240247324027
 30
0.0
 10
201.5140095094188
 20
86.21200714373869
 30
0.0
 10
201.6260955320373
 20
86.13274231246572
 30
0.0
 10
201.6642280444601
 20
86.08687692927008
 30
0.0
 10
201.6642280444601
 20
86.04127605089376
 30
0.0
  0
SPLINE
  5
152
330
1F
100
AcDbEntity
  8
0
  6
Continuous
 62
     7
370
    25
100
AcDbSpline
210
0.0
220
0.0
230
1.0
 70
     8
 71
     3
 72
     8
 73
     4
 74
     0
 42
0.000000001
 43
0.00000001
 40
0.0
 40
0.0
 40
0.0
 40
0.0
 40
1.0
 40
1.0
 40
1.0
 40
1.0
 10
200.7197836000157
 20
86.54127605089376
 30
0.0
 10
200.9189765224694
 20
86.54127605089376
 30
0.0
 10
201.0843549535585
 20
86.47911306284307
 30
0.0
 10
201.219735707153
 20
86.38967269978849
 30
0.0
  0
SPLINE
  5
153
330
1F
100
AcDbEntity
  8
0
  6
Continuous
 62
     7
370
    25
100
AcDbSpline
210
0.0
220
0.0
230
1.0
 70
     8
 71
     3
 72
     8
 73
     4
 74
     0
 42
0.000000001
 43
0.00000001
 40
0.0
 40
0.0
 40
0.0
 40
0.0
 40
1.0
 40
1.0
 40
1.0
 40
1.0
 10
185.1087203817672
 20
86.3896726997885
 30
0.0
 10
185.2441011353617
 20
86.47911306284308
 30
0.0
 10
185.4094795664508
 20
86.54127605089376
 30
0.0
 10
185.6086724889045
 20
86.54127605089376
 30
0.0
  0
SPLINE
  5
154
330
1F
100
AcDbEntity
  8
0
  6
Continuous
 62
     7
370
    25
100
AcDbSpline
210
0.0
220
0.0
230
1.0
 70
     8
 71
     3
 72
    12
 73
     8
 74
     0
 42
0.000000001
 43
0.00000001
 40
0.0
 40
0.0
 40
0.0
 40
0.0
 40
0.2500000000000002
 40
0.2500000000000002
 40
0.5000000000000001
 40
0.5000000000000001
 40
1.0
 40
1.0
 40
1.0
 40
1.0
 10
185.1087203817672
 20
86.3896726997885
 30
0.0
 10
185.036069207014
 20
86.34167512794953
 30
0.0
 10
184.9717516844229
 20
86.30543655405043
 30
0.0
 10
184.8608724962156
 20
86.24023159882412
 30
0.0
 10
184.8142121296675
 20
86.21186454156397
 30
0.0
 10
184.7019534707165
 20
86.13240776607459
 30
0.0
 10
184.6642280444601
 20
86.08696178622425
 30
0.0
 10
184.6642280444601
 20
86.04127605089376
 30
0.0
  0
ARC
  5
155
330
1F
100
AcDbEntity
  8
0
  6
Continuous
 62
     7
370
    25
100
AcDbCircle
 10
201.1642280445
 20
71.5412760509
 30
0.0
 40
0.5
100
AcDbArc
 50
274.2717750313
 51
0.0
  0
LINE
  5
156
330
1F
100
AcDbEntity
  8
0
  6
Continuous
 62
     7
370
    25
100
AcDbLine
 10
201.6642285064
 20
71.6126026531
 30
0.0
 11
201.6642285064
 21
71.5412759168
 31
0.0
  0
ARC
  5
157
330
1F
100
AcDbEntity
  8
0
  6
Continuous
 62
     7
370
    25
100
AcDbCircle
 10
185.1642280445
 20
71.5412760509
 30
0.0
 40
0.5
100
AcDbArc
 50
180.0
 51
265.7282249687
  0
LINE
  5
158
330
1F
100
AcDbEntity
  8
0
  6
Continuous
 62
     7
370
    25
100
AcDbLine
 10
184.6642275825
 20
71.5412759168
 30
0.0
 11
184.6642275825
 21
71.6126026531
 31
0.0
  0
LINE
  5
159
330
1F
100
AcDbEntity
  8
0
  6
Continuous
 62
     7
370
    25
100
AcDbLine
 10
201.6642285064
 20
85.5412758833
 30
0.0
 11
201.1642284244
 21
85.5412758833
 31
0.0
  0
LINE
  5
15A
330
1F
100
AcDbEntity
  8
0
  6
Continuous
 62
     7
370
    25
100
AcDbLine
 10
201.6642285064
 20
85.5412758833
 30
0.0
 11
201.6642285064
 21
84.4699494486
 31
0.0
  0
LINE
  5
15B
330
1F
100
AcDbEntity
  8
0
  6
Continuous
 62
     7
370
    25
100
AcDbLine
 10
184.6642275825
 20
85.5412758833
 30
0.0
 11
185.1642276645
 21
85.5412758833
 31
0.0
  0
LINE
  5
15C
330
1F
100
AcDbEntity
  8
0
  6
Continuous
 62
     7
370
    25
100
AcDbLine
 10
184.6642275825
 20
84.4699494486
 30
0.0
 11
184.6642275825
 21
85.5412758833
 31
0.0
  0
ARC
  5
15D
330
1F
100
AcDbEntity
  8
0
  6
Continuous
 62
     7
370
    25
100
AcDbCircle
 10
201.1937403326
 20
86.5150404699
 30
0.0
 40
0.4746823331638602
100
AcDbArc
 50
176.831605415
 51
266.4355130028
  0
ARC
  5
15E
330
1F
100
AcDbEntity
  8
0
  6
Continuous
 62
     7
370
    25
100
AcDbCircle
 10
185.1347157564
 20
86.5150404699
 30
0.0
 40
0.4746823331638619
100
AcDbArc
 50
273.5644869972
 51
3.168394585
  0
LINE
  5
15F
330
1F
100
AcDbEntity
  8
0
  6
Continuous
 62
     7
370
    25
100
AcDbLine
 10
201.1642284244
 20
85.5412758833
 30
0.0
 11
201.1642284244
 21
86.0412764309
 31
0.0
  0
ARC
  5
160
330
1F
100
AcDbEntity
  8
0
  6
Continuous
 62
     7
370
    25
100
AcDbCircle
 10
201.1642280445
 20
85.5412760509
 30
0.0
 40
0.5
100
AcDbArc
 50
0.0
 51
90.0
  0
LINE
  5
161
330
1F
100
AcDbEntity
  8
0
  6
Continuous
 62
     7
370
    25
100
AcDbLine
 10
200.2053815425
 20
86.0412764309
 30
0.0
 11
201.1642284244
 21
86.0412764309
 31
0.0
  0
LINE
  5
162
330
1F
100
AcDbEntity
  8
0
  6
Continuous
 62
     7
370
    25
100
AcDbLine
 10
185.1642276645
 20
86.0412764309
 30
0.0
 11
185.1642276645
 21
85.5412758833
 31
0.0
  0
LINE
  5
163
330
1F
100
AcDbEntity
  8
0
  6
Continuous
 62
     7
370
    25
100
AcDbLine
 10
185.1642276645
 20
86.0412764309
 30
0.0
 11
186.1230745465
 21
86.0412764309
 31
0.0
  0
ARC
  5
164
330
1F
100
AcDbEntity
  8
0
  6
Continuous
 62
     7
370
    25
100
AcDbCircle
 10
185.1642280445
 20
85.5412760509
 30
0.0
 40
0.5
100
AcDbArc
 50
90.0
 51
180.0
  0
ARC
  5
165
330
1F
100
AcDbEntity
  8
0
  6
Continuous
 62
     7
370
    25
100
AcDbCircle
 10
201.6782488788
 20
86.352095679
 30
0.0
 40
0.4600508724523226
100
AcDbArc
 50
175.314811797
 51
237.181165302
  0
ARC
  5
166
330
1F
100
AcDbEntity
  8
0
  6
Continuous
 62
     7
370
    25
100
AcDbCircle
 10
184.6502072101
 20
86.352095679
 30
0.0
 40
0.4600508724523226
100
AcDbArc
 50
302.818834698
 51
4.685188203
  0
SPLINE
  5
167
330
1F
100
AcDbEntity
  8
0
  6
Continuous
 62
     7
370
    25
100
AcDbSpline
210
0.0
220
0.0
230
1.0
 70
     8
 71
     3
 72
    12
 73
     8
 74
     0
 42
0.000000001
 43
0.00000001
 40
0.0
 40
0.0
 40
0.0
 40
0.0
 40
0.2500000000000002
 40
0.2500000000000002
 40
0.5000000000000001
 40
0.5000000000000001
 40
1.0
 40
1.0
 40
1.0
 40
1.0
 10
201.4289085717681
 20
85.96547437534113
 30
0.0
 10
201.4645952058718
 20
85.9432075331872
 30
0.0
 10
201.4981540821713
 20
85.93616950053277
 30
0.0
 10
201.5567978272265
 20
85.93529437904834
 30
0.0
 10
201.5820247431883
 20
85.94195837299742
 30
0.0
 10
201.6430585566887
 20
85.97261072241568
 30
0.0
 10
201.6642280444601
 20
86.0072194055402
 30
0.0
 10
201.6642280444601
 20
86.04127605089376
 30
0.0
  0
SPLINE
  5
168
330
1F
100
AcDbEntity
  8
0
  6
Continuous
 62
     7
370
    25
100
AcDbSpline
210
0.0
220
0.0
230
1.0
 70
    24
 71
     3
 72
    16
 73
    12
 74
     0
 42
0.000000001
 43
0.00000001
 40
0.0
 40
0.0
 40
0.0
 40
0.0
 40
0.2500000000000002
 40
0.2500000000000002
 40
0.5000000000000003
 40
0.5000000000000003
 40
0.7500000000000004
 40
0.7500000000000004
 40
0.8750000000000002
 40
0.8750000000000002
 40
1.0
 40
1.0
 40
1.0
 40
1.0
 10
201.6642280444601
 20
85.54127605089376
 30
0.0
 10
201.6642280444601
 20
85.54127605089376
 30
0.0
 10
201.6642280444601
 20
85.56120783658092
 30
0.0
 10
201.6642280444601
 20
85.62181438318449
 30
0.0
 10
201.6642280444601
 20
85.66292489062965
 30
0.0
 10
201.6642280444601
 20
85.75730134702886
 30
0.0
 10
201.6642280444601
 20
85.81066670888515
 30
0.0
 10
201.6642280444601
 20
85.89497386881975
 30
0.0
 10
201.6642280444601
 20
85.9237987456616
 30
0.0
 10
201.6642280444601
 20
85.98215782422712
 30
0.0
 10
201.6642280444601
 20
86.01140894544521
 30
0.0
 10
201.6642280444601
 20
86.04127605089376
 30
0.0
  0
SPLINE
  5
169
330
1F
100
AcDbEntity
  8
0
  6
Continuous
 62
     7
370
    25
100
AcDbSpline
210
0.0
220
0.0
230
1.0
 70
     8
 71
     3
 72
    12
 73
     8
 74
     0
 42
0.000000001
 43
0.00000001
 40
0.0
 40
0.0
 40
0.0
 40
0.0
 40
0.2500000000000002
 40
0.2500000000000002
 40
0.5000000000000001
 40
0.5000000000000001
 40
1.0
 40
1.0
 40
1.0
 40
1.0
 10
184.8995475171521
 20
85.96547437534113
 30
0.0
 10
184.8638608830484
 20
85.9432075331872
 30
0.0
 10
184.830302006749
 20
85.93616950053278
 30
0.0
 10
184.7716582616937
 20
85.93529437904834
 30
0.0
 10
184.746431345732
 20
85.94195837299742
 30
0.0
 10
184.6853975322315
 20
85.97261072241565
 30
0.0
 10
184.6642280444601
 20
86.00721940554007
 30
0.0
 10
184.6642280444601
 20
86.04127605089376
 30
0.0
  0
SPLINE
  5
16A
330
1F
100
AcDbEntity
  8
0
  6
Continuous
 62
     7
370
    25
100
AcDbSpline
210
0.0
220
0.0
230
1.0
 70
    24
 71
     3
 72
    16
 73
    12
 74
     0
 42
0.000000001
 43
0.00000001
 40
0.0
 40
0.0
 40
0.0
 40
0.0
 40
0.2500000000000002
 40
0.2500000000000002
 40
0.5000000000000002
 40
0.5000000000000002
 40
0.7500000000000002
 40
0.7500000000000002
 40
0.8750000000000001
 40
0.8750000000000001
 40
1.0
 40
1.0
 40
1.0
 40
1.0
 10
184.6642280444601
 20
85.54127605089376
 30
0.0
 10
184.6642280444601
 20
85.54127605089376
 30
0.0
 10
184.6642280444601
 20
85.56120783658092
 30
0.0
 10
184.6642280444601
 20
85.62181438318449
 30
0.0
 10
184.6642280444601
 20
85.66292489062965
 30
0.0
 10
184.6642280444601
 20
85.75730134702887
 30
0.0
 10
184.6642280444601
 20
85.81066670888515
 30
0.0
 10
184.6642280444601
 20
85.89497386881975
 30
0.0
 10
184.6642280444601
 20
85.92379874566161
 30
0.0
 10
184.6642280444601
 20
85.98215782422712
 30
0.0
 10
184.6642280444601
 20
86.01140894544518
 30
0.0
 10
184.6642280444601
 20
86.04127605089376
 30
0.0
  0
LINE
  5
16B
330
1F
100
AcDbEntity
  8
0
  6
Continuous
 62
     8
370
    25
100
AcDbLine
 10
201.6642285064
 20
92.041276483
 30
0.0
 11
184.6642275825
 21
92.041276483
 31
0.0
  0
LINE
  5
16C
330
1F
100
AcDbEntity
  8
0
  6
Continuous
 62
     8
370
    25
100
AcDbLine
 10
199.5929014422
 20
86.5412765128
 30
0.0
 11
200.7197835967
 21
86.5412765128
 31
0.0
  0
LINE
  5
16D
330
1F
100
AcDbEntity
  8
0
  6
Continuous
 62
     8
370
    25
100
AcDbLine
 10
185.6086724922
 20
86.5412765128
 30
0.0
 11
186.7355546467
 21
86.5412765128
 31
0.0
  0
LINE
  5
16E
330
1F
100
AcDbEntity
  8
0
  6
Continuous
 62
     8
370
    25
100
AcDbLine
 10
201.1642284244
 20
85.0824295489
 30
0.0
 11
201.1642284244
 21
85.5412758833
 31
0.0
  0
LINE
  5
16F
330
1F
100
AcDbEntity
  8
0
  6
Continuous
 62
     8
370
    25
100
AcDbLine
 10
200.735743206
 20
85.5412758833
 30
0.0
 11
201.1642284244
 21
85.5412758833
 31
0.0
  0
LINE
  5
170
330
1F
100
AcDbEntity
  8
0
  6
Continuous
 62
     8
370
    25
100
AcDbLine
 10
185.1642276645
 20
85.5412758833
 30
0.0
 11
185.1642276645
 21
85.0824295489
 31
0.0
  0
LINE
  5
171
330
1F
100
AcDbEntity
  8
0
  6
Continuous
 62
     8
370
    25
100
AcDbLine
 10
185.1642276645
 20
85.5412758833
 30
0.0
 11
185.5927128829
 21
85.5412758833
 31
0.0
  0
INSERT
  5
17D
330
1F
100
AcDbEntity
  8
0
  6
Continuous
 62
     7
370
    18
100
AcDbBlockReference
  2
SW_CENTERMARKSYMBOL_0
 10
193.1642280445
 20
78.0412760509
 30
0.0
  0
LINE
  5
17E
330
1F
100
AcDbEntity
  8
0
  6
Continuous
 62
     7
370
    18
100
AcDbLine
 10
202.5120881732
 20
106.0057519321
 30
0.0
 11
202.9144155445
 21
93.1312760509
 31
0.0
  0
LINE
  5
17F
330
1F
100
AcDbEntity
  8
0
  6
Continuous
 62
     7
370
    18
100
AcDbLine
 10
183.8163679157
 20
106.0057519321
 30
0.0
 11
183.4140405445
 21
93.1312760509
 31
0.0
  0
LINE
  5
180
330
1F
100
AcDbEntity
  8
0
  6
Continuous
 62
     7
370
    18
100
AcDbLine
 10
182.5070405445
 20
93.1312760509
 30
0.0
 11
203.8214155445
 21
93.1312760509
 31
0.0
  0
ARC
  5
181
330
1F
100
AcDbEntity
  8
0
  6
Continuous
 62
     7
370
    18
100
AcDbCircle
 10
193.1642280445
 20
78.0412760509
 30
0.0
 40
9.315500000000014
100
AcDbArc
 50
75.0
 51
345.0
  0
ARC
  5
182
330
1F
100
AcDbEntity
  8
0
  6
Continuous
 62
     7
370
    25
100
AcDbCircle
 10
147.1389306972
 20
150.2194672812
 30
0.0
 40
1.0
100
AcDbArc
 50
155.9652533385
 51
180.0
  0
ARC
  5
183
330
1F
100
AcDbEntity
  8
0
  6
Continuous
 62
     7
370
    25
100
AcDbCircle
 10
147.1389306972
 20
129.7194672812
 30
0.0
 40
1.0
100
AcDbArc
 50
180.0
 51
204.0347466615
  0
LINE
  5
184
330
1F
100
AcDbEntity
  8
0
  6
Continuous
 62
     7
370
    25
100
AcDbLine
 10
146.225631837
 20
129.3121763531
 30
0.0
 11
157.4425386676
 21
129.6627047498
 31
0.0
  0
LINE
  5
185
330
1F
100
AcDbEntity
  8
0
  6
Continuous
 62
     7
370
    25
100
AcDbLine
 10
157.4425386676
 20
150.2762298126
 30
0.0
 11
146.225631837
 21
150.6267582093
 31
0.0
  0
LINE
  5
186
330
1F
100
AcDbEntity
  8
0
  6
Continuous
 62
     7
370
    25
100
AcDbLine
 10
116.0522295574
 20
150.6267582093
 30
0.0
 11
104.8353227267
 21
150.2762298126
 31
0.0
  0
LINE
  5
187
330
1F
100
AcDbEntity
  8
0
  6
Continuous
 62
     7
370
    25
100
AcDbLine
 10
104.8353227267
 20
129.6627047498
 30
0.0
 11
116.0522295574
 21
129.3121763531
 31
0.0
  0
ARC
  5
188
330
1F
100
AcDbEntity
  8
0
  6
Continuous
 62
     7
370
    25
100
AcDbCircle
 10
115.1389306972
 20
129.7194672812
 30
0.0
 40
1.0
100
AcDbArc
 50
335.9652533382
 51
0.0
  0
ARC
  5
189
330
1F
100
AcDbEntity
  8
0
  6
Continuous
 62
     7
370
    25
100
AcDbCircle
 10
115.1389306972
 20
150.2194672812
 30
0.0
 40
1.0
100
AcDbArc
 50
0.0
 51
24.0347466618
  0
LINE
  5
18A
330
1F
100
AcDbEntity
  8
0
  6
Continuous
 62
     7
370
    25
100
AcDbLine
 10
157.4425386676
 20
129.6627047498
 30
0.0
 11
160.1389298627
 21
131.219467244
 31
0.0
  0
LINE
  5
18B
330
1F
100
AcDbEntity
  8
0
  6
Continuous
 62
     7
370
    25
100
AcDbLine
 10
160.1389298627
 20
148.7194673185
 30
0.0
 11
157.4425386676
 21
150.2762298126
 31
0.0
  0
LINE
  5
18C
330
1F
100
AcDbEntity
  8
0
  6
Continuous
 62
     7
370
    25
100
AcDbLine
 10
104.8353227267
 20
150.2762298126
 30
0.0
 11
102.1389315316
 21
148.7194673185
 31
0.0
  0
LINE
  5
18D
330
1F
100
AcDbEntity
  8
0
  6
Continuous
 62
     7
370
    25
100
AcDbLine
 10
102.1389315316
 20
131.219467244
 30
0.0
 11
104.8353227267
 21
129.6627047498
 31
0.0
  0
ARC
  5
18E
330
1F
100
AcDbEntity
  8
0
  6
Continuous
 62
     7
370
    25
100
AcDbCircle
 10
117.1389306972
 20
130.4694672812
 30
0.0
 40
1.0
100
AcDbArc
 50
90.0
 51
180.0
  0
ARC
  5
18F
330
1F
100
AcDbEntity
  8
0
  6
Continuous
 62
     7
370
    25
100
AcDbCircle
 10
117.1389306972
 20
149.4694672812
 30
0.0
 40
1.0
100
AcDbArc
 50
180.0
 51
270.0
  0
ARC
  5
190
330
1F
100
AcDbEntity
  8
0
  6
Continuous
 62
     7
370
    25
100
AcDbCircle
 10
145.1389306972
 20
149.4694672812
 30
0.0
 40
1.0
100
AcDbArc
 50
270.0
 51
0.0
  0
ARC
  5
191
330
1F
100
AcDbEntity
  8
0
  6
Continuous
 62
     7
370
    25
100
AcDbCircle
 10
145.1389306972
 20
130.4694672812
 30
0.0
 40
1.0
100
AcDbArc
 50
0.0
 51
90.0
  0
LINE
  5
192
330
1F
100
AcDbEntity
  8
0
  6
Continuous
 62
     7
370
    25
100
AcDbLine
 10
122.6389302352
 20
148.4694677431
 30
0.0
 11
117.138930265
 21
148.4694677431
 31
0.0
  0
LINE
  5
193
330
1F
100
AcDbEntity
  8
0
  6
Continuous
 62
     7
370
    25
100
AcDbLine
 10
145.1389311293
 20
148.4694677431
 30
0.0
 11
139.6389311591
 21
148.4694677431
 31
0.0
  0
LINE
  5
194
330
1F
100
AcDbEntity
  8
0
  6
Continuous
 62
     7
370
    25
100
AcDbLine
 10
139.6389311591
 20
131.4694668193
 30
0.0
 11
145.1389311293
 21
131.4694668193
 31
0.0
  0
LINE
  5
195
330
1F
100
AcDbEntity
  8
0
  6
Continuous
 62
     7
370
    25
100
AcDbLine
 10
117.138930265
 20
131.4694668193
 30
0.0
 11
122.6389302352
 21
131.4694668193
 31
0.0
  0
CIRCLE
  5
196
330
1F
100
AcDbEntity
  8
0
  6
Continuous
 62
     7
370
    25
100
AcDbCircle
 10
131.1389306972
 20
139.9694672812
 30
0.0
 40
8.75
  0
CIRCLE
  5
197
330
1F
100
AcDbEntity
  8
0
  6
Continuous
 62
     7
370
    25
100
AcDbCircle
 10
131.1389306972
 20
139.9694672812
 30
0.0
 40
10.30676222727976
  0
CIRCLE
  5
198
330
1F
100
AcDbEntity
  8
0
  6
Continuous
 62
     7
370
    25
100
AcDbCircle
 10
131.1389306972
 20
139.9694672812
 30
0.0
 40
7.775000000000006
  0
CIRCLE
  5
199
330
1F
100
AcDbEntity
  8
0
  6
Continuous
 62
     7
370
    25
100
AcDbCircle
 10
131.1389306972
 20
139.9694672812
 30
0.0
 40
6.999999999999986
  0
CIRCLE
  5
19A
330
1F
100
AcDbEntity
  8
0
  6
Continuous
 62
     7
370
    25
100
AcDbCircle
 10
131.1389306972
 20
139.9694672812
 30
0.0
 40
8.025000000000006
  0
CIRCLE
  5
19B
330
1F
100
AcDbEntity
  8
0
  6
Continuous
 62
     7
370
    25
100
AcDbCircle
 10
131.1389306972
 20
139.9694672812
 30
0.0
 40
7.899999999999977
  0
CIRCLE
  5
19C
330
1F
100
AcDbEntity
  8
0
  6
Continuous
 62
     7
370
    25
100
AcDbCircle
 10
131.1389306972
 20
139.9694672812
 30
0.0
 40
6.499999999999986
  0
CIRCLE
  5
19D
330
1F
100
AcDbEntity
  8
0
  6
Continuous
 62
     7
370
    25
100
AcDbCircle
 10
131.1389306972
 20
139.9694672812
 30
0.0
 40
10.65729058208755
  0
LINE
  5
19E
330
1F
100
AcDbEntity
  8
0
  6
Continuous
 62
     7
370
    25
100
AcDbLine
 10
146.225631837
 20
139.9694672812
 30
0.0
 11
146.225631837
 21
150.6267582093
 31
0.0
  0
LINE
  5
19F
330
1F
100
AcDbEntity
  8
0
  6
Continuous
 62
     7
370
    25
100
AcDbLine
 10
146.225631837
 20
129.3121763531
 30
0.0
 11
146.225631837
 21
139.9694672812
 31
0.0
  0
LINE
  5
1A0
330
1F
100
AcDbEntity
  8
0
  6
Continuous
 62
     7
370
    25
100
AcDbLine
 10
146.1389303619
 20
129.7194669981
 30
0.0
 11
146.1389303619
 21
150.2194675643
 31
0.0
  0
LINE
  5
1A1
330
1F
100
AcDbEntity
  8
0
  6
Continuous
 62
     7
370
    25
100
AcDbLine
 10
157.4425386676
 20
150.2762298126
 30
0.0
 11
157.4425386676
 21
129.6627047498
 31
0.0
  0
LINE
  5
1A2
330
1F
100
AcDbEntity
  8
0
  6
Continuous
 62
     7
370
    25
100
AcDbLine
 10
104.8353227267
 20
139.9694672812
 30
0.0
 11
104.8353227267
 21
129.6627047498
 31
0.0
  0
LINE
  5
1A3
330
1F
100
AcDbEntity
  8
0
  6
Continuous
 62
     7
370
    25
100
AcDbLine
 10
104.8353227267
 20
150.2762298126
 30
0.0
 11
104.8353227267
 21
139.9694672812
 31
0.0
  0
LINE
  5
1A4
330
1F
100
AcDbEntity
  8
0
  6
Continuous
 62
     7
370
    25
100
AcDbLine
 10
116.0522295574
 20
150.6267582093
 30
0.0
 11
116.0522295574
 21
129.3121763531
 31
0.0
  0
LINE
  5
1A5
330
1F
100
AcDbEntity
  8
0
  6
Continuous
 62
     7
370
    25
100
AcDbLine
 10
116.1389310324
 20
150.2194675643
 30
0.0
 11
116.1389310324
 21
129.7194669981
 31
0.0
  0
LINE
  5
1A6
330
1F
100
AcDbEntity
  8
0
  6
Continuous
 62
     7
370
    25
100
AcDbLine
 10
160.1389298627
 20
131.219467244
 30
0.0
 11
160.1389298627
 21
148.7194673185
 31
0.0
  0
LINE
  5
1A7
330
1F
100
AcDbEntity
  8
0
  6
Continuous
 62
     7
370
    25
100
AcDbLine
 10
102.1389315316
 20
131.219467244
 30
0.0
 11
102.1389315316
 21
148.7194673185
 31
0.0
  0
SPLINE
  5
1A8
330
1F
100
AcDbEntity
  8
0
  6
Continuous
 62
     7
370
    25
100
AcDbSpline
210
0.0
220
0.0
230
1.0
 70
     8
 71
     3
 72
    12
 73
     8
 74
     0
 42
0.000000001
 43
0.00000001
 40
0.0
 40
0.0
 40
0.0
 40
0.0
 40
0.2499999999999999
 40
0.2499999999999999
 40
0.5
 40
0.5
 40
1.0
 40
1.0
 40
1.0
 40
1.0
 10
139.987327346062
 20
131.9139596185124
 30
0.0
 10
139.9393691903902
 20
131.8413681057534
 30
0.0
 10
139.9030867752959
 20
131.7769818398633
 30
0.0
 10
139.8377648982598
 20
131.6659069457473
 30
0.0
 10
139.8094043823053
 20
131.6192815283087
 30
0.0
 10
139.7301479757432
 20
131.5073288901066
 30
0.0
 10
139.6846771986162
 20
131.4694672812053
 30
0.0
 10
139.6389306971673
 20
131.4694672812053
 30
0.0
  0
SPLINE
  5
1A9
330
1F
100
AcDbEntity
  8
0
  6
Continuous
 62
     7
370
    25
100
AcDbSpline
210
0.0
220
0.0
230
1.0
 70
     8
 71
     3
 72
     8
 73
     4
 74
     0
 42
0.000000001
 43
0.00000001
 40
0.0
 40
0.0
 40
0.0
 40
0.0
 40
1.0
 40
1.0
 40
1.0
 40
1.0
 10
140.1389306971673
 20
132.4139117256498
 30
0.0
 10
140.1389306971673
 20
132.214718803196
 30
0.0
 10
140.0767677091166
 20
132.0493403721069
 30
0.0
 10
139.987327346062
 20
131.9139596185124
 30
0.0
  0
SPLINE
  5
1AA
330
1F
100
AcDbEntity
  8
0
  6
Continuous
 62
     7
370
    25
100
AcDbSpline
210
0.0
220
0.0
230
1.0
 70
     8
 71
     3
 72
     8
 73
     4
 74
     0
 42
0.000000001
 43
0.00000001
 40
0.0
 40
0.0
 40
0.0
 40
0.0
 40
1.0
 40
1.0
 40
1.0
 40
1.0
 10
139.987327346062
 20
148.0249749438982
 30
0.0
 10
140.0767677091166
 20
147.8895941903037
 30
0.0
 10
140.1389306971673
 20
147.7242157592146
 30
0.0
 10
140.1389306971673
 20
147.5250228367609
 30
0.0
  0
SPLINE
  5
1AB
330
1F
100
AcDbEntity
  8
0
  6
Continuous
 62
     7
370
    25
100
AcDbSpline
210
0.0
220
0.0
230
1.0
 70
     8
 71
     3
 72
    12
 73
     8
 74
     0
 42
0.000000001
 43
0.00000001
 40
0.0
 40
0.0
 40
0.0
 40
0.0
 40
0.2499999999999999
 40
0.2499999999999999
 40
0.4999999999999998
 40
0.4999999999999998
 40
1.0
 40
1.0
 40
1.0
 40
1.0
 10
139.987327346062
 20
148.0249749438982
 30
0.0
 10
139.9392192374339
 20
148.0977934318565
 30
0.0
 10
139.9030061799785
 20
148.162089070296
 30
0.0
 10
139.8379019703416
 20
148.2727952338534
 30
0.0
 10
139.8096617900597
 20
148.3192487460883
 30
0.0
 10
139.7303969588055
 20
148.4313347687059
 30
0.0
 10
139.6845315755153
 20
148.4694672812053
 30
0.0
 10
139.6389306971673
 20
148.4694672812053
 30
0.0
  0
SPLINE
  5
1AC
330
1F
100
AcDbEntity
  8
0
  6
Continuous
 62
     7
370
    25
100
AcDbSpline
210
0.0
220
0.0
230
1.0
 70
     8
 71
     3
 72
    12
 73
     8
 74
     0
 42
0.000000001
 43
0.00000001
 40
0.0
 40
0.0
 40
0.0
 40
0.0
 40
0.25
 40
0.25
 40
0.4999999999999998
 40
0.4999999999999998
 40
1.0
 40
1.0
 40
1.0
 40
1.0
 10
122.2905340482726
 20
148.0249749438982
 30
0.0
 10
122.3386421569169
 20
148.0977934318812
 30
0.0
 10
122.3748552143812
 20
148.1620890703396
 30
0.0
 10
122.439959424034
 20
148.2727952339224
 30
0.0
 10
122.4681996043223
 20
148.319248746164
 30
0.0
 10
122.5474644355953
 20
148.4313347687824
 30
0.0
 10
122.593329818791
 20
148.4694672812053
 30
0.0
 10
122.6389306971673
 20
148.4694672812053
 30
0.0
  0
SPLINE
  5
1AD
330
1F
100
AcDbEntity
  8
0
  6
Continuous
 62
     7
370
    25
100
AcDbSpline
210
0.0
220
0.0
230
1.0
 70
     8
 71
     3
 72
     8
 73
     4
 74
     0
 42
0.000000001
 43
0.00000001
 40
0.0
 40
0.0
 40
0.0
 40
0.0
 40
1.0
 40
1.0
 40
1.0
 40
1.0
 10
122.1389306971673
 20
147.5250228367609
 30
0.0
 10
122.1389306971673
 20
147.7242157592146
 30
0.0
 10
122.201093685218
 20
147.8895941903038
 30
0.0
 10
122.2905340482726
 20
148.0249749438982
 30
0.0
  0
SPLINE
  5
1AE
330
1F
100
AcDbEntity
  8
0
  6
Continuous
 62
     7
370
    25
100
AcDbSpline
210
0.0
220
0.0
230
1.0
 70
     8
 71
     3
 72
     8
 73
     4
 74
     0
 42
0.000000001
 43
0.00000001
 40
0.0
 40
0.0
 40
0.0
 40
0.0
 40
1.0
 40
1.0
 40
1.0
 40
1.0
 10
122.2905340482726
 20
131.9139596185124
 30
0.0
 10
122.201093685218
 20
132.0493403721068
 30
0.0
 10
122.1389306971673
 20
132.214718803196
 30
0.0
 10
122.1389306971673
 20
132.4139117256498
 30
0.0
  0
SPLINE
  5
1AF
330
1F
100
AcDbEntity
  8
0
  6
Continuous
 62
     7
370
    25
100
AcDbSpline
210
0.0
220
0.0
230
1.0
 70
     8
 71
     3
 72
    12
 73
     8
 74
     0
 42
0.000000001
 43
0.00000001
 40
0.0
 40
0.0
 40
0.0
 40
0.0
 40
0.2499999999999998
 40
0.2499999999999998
 40
0.4999999999999999
 40
0.4999999999999999
 40
1.0
 40
1.0
 40
1.0
 40
1.0
 10
122.2905340482726
 20
131.9139596185124
 30
0.0
 10
122.3385316201115
 20
131.8413084437592
 30
0.0
 10
122.3747701940106
 20
131.776990921168
 30
0.0
 10
122.4399751492369
 20
131.6661117329608
 30
0.0
 10
122.4683422064971
 20
131.6194513664126
 30
0.0
 10
122.5477989819865
 20
131.5071927074617
 30
0.0
 10
122.593244961837
 20
131.4694672812053
 30
0.0
 10
122.6389306971673
 20
131.4694672812053
 30
0.0
  0
ARC
  5
1B0
330
1F
100
AcDbEntity
  8
0
  6
Continuous
 62
     7
370
    25
100
AcDbCircle
 10
137.6389306972
 20
147.9694672812
 30
0.0
 40
0.5
100
AcDbArc
 50
4.2717750313
 51
90.0
  0
LINE
  5
1B1
330
1F
100
AcDbEntity
  8
0
  6
Continuous
 62
     7
370
    25
100
AcDbLine
 10
137.5676040949
 20
148.4694677431
 30
0.0
 11
137.6389308313
 21
148.4694677431
 31
0.0
  0
ARC
  5
1B2
330
1F
100
AcDbEntity
  8
0
  6
Continuous
 62
     7
370
    25
100
AcDbCircle
 10
124.6389306972
 20
147.9694672812
 30
0.0
 40
0.5000000000000037
100
AcDbArc
 50
90.0
 51
175.7282249687
  0
LINE
  5
1B3
330
1F
100
AcDbEntity
  8
0
  6
Continuous
 62
     7
370
    25
100
AcDbLine
 10
124.6389305631
 20
148.4694677431
 30
0.0
 11
124.7102572994
 21
148.4694677431
 31
0.0
  0
ARC
  5
1B4
330
1F
100
AcDbEntity
  8
0
  6
Continuous
 62
     7
370
    25
100
AcDbCircle
 10
124.6389306972
 20
131.9694672812
 30
0.0
 40
0.5
100
AcDbArc
 50
184.2717750313
 51
270.0
  0
LINE
  5
1B5
330
1F
100
AcDbEntity
  8
0
  6
Continuous
 62
     7
370
    25
100
AcDbLine
 10
124.7102572994
 20
131.4694668193
 30
0.0
 11
124.6389305631
 21
131.4694668193
 31
0.0
  0
ARC
  5
1B6
330
1F
100
AcDbEntity
  8
0
  6
Continuous
 62
     7
370
    25
100
AcDbCircle
 10
137.6389306972
 20
131.9694672812
 30
0.0
 40
0.5
100
AcDbArc
 50
270.0
 51
355.7282249687
  0
LINE
  5
1B7
330
1F
100
AcDbEntity
  8
0
  6
Continuous
 62
     7
370
    25
100
AcDbLine
 10
137.6389308313
 20
131.4694668193
 30
0.0
 11
137.5676040949
 21
131.4694668193
 31
0.0
  0
LINE
  5
1B8
330
1F
100
AcDbEntity
  8
0
  6
Continuous
 62
     7
370
    25
100
AcDbLine
 10
123.1389303172
 20
148.4694677431
 30
0.0
 11
123.1389303172
 21
147.9694676612
 31
0.0
  0
LINE
  5
1B9
330
1F
100
AcDbEntity
  8
0
  6
Continuous
 62
     7
370
    25
100
AcDbLine
 10
123.1389303172
 20
148.4694677431
 30
0.0
 11
124.6389305631
 21
148.4694677431
 31
0.0
  0
LINE
  5
1BA
330
1F
100
AcDbEntity
  8
0
  6
Continuous
 62
     7
370
    25
100
AcDbLine
 10
139.1389310771
 20
148.4694677431
 30
0.0
 11
139.1389310771
 21
147.9694676612
 31
0.0
  0
LINE
  5
1BB
330
1F
100
AcDbEntity
  8
0
  6
Continuous
 62
     7
370
    25
100
AcDbLine
 10
137.6389308313
 20
148.4694677431
 30
0.0
 11
139.1389310771
 21
148.4694677431
 31
0.0
  0
LINE
  5
1BC
330
1F
100
AcDbEntity
  8
0
  6
Continuous
 62
     7
370
    25
100
AcDbLine
 10
123.1389303172
 20
131.4694668193
 30
0.0
 11
123.1389303172
 21
131.9694669012
 31
0.0
  0
LINE
  5
1BD
330
1F
100
AcDbEntity
  8
0
  6
Continuous
 62
     7
370
    25
100
AcDbLine
 10
124.6389305631
 20
131.4694668193
 30
0.0
 11
123.1389303172
 21
131.4694668193
 31
0.0
  0
LINE
  5
1BE
330
1F
100
AcDbEntity
  8
0
  6
Continuous
 62
     7
370
    25
100
AcDbLine
 10
139.1389310771
 20
131.4694668193
 30
0.0
 11
139.1389310771
 21
131.9694669012
 31
0.0
  0
LINE
  5
1BF
330
1F
100
AcDbEntity
  8
0
  6
Continuous
 62
     7
370
    25
100
AcDbLine
 10
139.1389310771
 20
131.4694668193
 30
0.0
 11
137.6389308313
 21
131.4694668193
 31
0.0
  0
ARC
  5
1C0
330
1F
100
AcDbEntity
  8
0
  6
Continuous
 62
     7
370
    25
100
AcDbCircle
 10
122.1651662779
 20
147.9989795324
 30
0.0
 40
0.4746822493593845
100
AcDbArc
 50
266.8317075682
 51
356.4355168353
  0
ARC
  5
1C1
330
1F
100
AcDbEntity
  8
0
  6
Continuous
 62
     7
370
    25
100
AcDbCircle
 10
140.1126951165
 20
147.9989795324
 30
0.0
 40
0.4746822493593837
100
AcDbArc
 50
183.5644831647
 51
273.1682924318
  0
ARC
  5
1C2
330
1F
100
AcDbEntity
  8
0
  6
Continuous
 62
     7
370
    25
100
AcDbCircle
 10
140.1126951165
 20
131.93995503
 30
0.0
 40
0.4746822493593837
100
AcDbArc
 50
86.8317075682
 51
176.4355168353
  0
ARC
  5
1C3
330
1F
100
AcDbEntity
  8
0
  6
Continuous
 62
     7
370
    25
100
AcDbCircle
 10
122.1651662779
 20
131.93995503
 30
0.0
 40
0.4746822493593845
100
AcDbArc
 50
3.5644831647
 51
93.1682924318
  0
LINE
  5
1C4
330
1F
100
AcDbEntity
  8
0
  6
Continuous
 62
     7
370
    25
100
AcDbLine
 10
123.1389303172
 20
147.9694676612
 30
0.0
 11
122.6389302352
 21
147.9694676612
 31
0.0
  0
ARC
  5
1C5
330
1F
100
AcDbEntity
  8
0
  6
Continuous
 62
     7
370
    25
100
AcDbCircle
 10
123.1389306972
 20
147.9694672812
 30
0.0
 40
0.5
100
AcDbArc
 50
90.0
 51
180.0
  0
ARC
  5
1C6
330
1F
100
AcDbEntity
  8
0
  6
Continuous
 62
     7
370
    25
100
AcDbCircle
 10
139.1389306972
 20
147.9694672812
 30
0.0
 40
0.5
100
AcDbArc
 50
0.0
 51
90.0
  0
LINE
  5
1C7
330
1F
100
AcDbEntity
  8
0
  6
Continuous
 62
     7
370
    25
100
AcDbLine
 10
139.6389311591
 20
147.9694676612
 30
0.0
 11
139.1389310771
 21
147.9694676612
 31
0.0
  0
LINE
  5
1C8
330
1F
100
AcDbEntity
  8
0
  6
Continuous
 62
     7
370
    25
100
AcDbLine
 10
139.6389311591
 20
146.398140679
 30
0.0
 11
139.6389311591
 21
147.9694676612
 31
0.0
  0
LINE
  5
1C9
330
1F
100
AcDbEntity
  8
0
  6
Continuous
 62
     7
370
    25
100
AcDbLine
 10
122.6389302352
 20
146.398140679
 30
0.0
 11
122.6389302352
 21
147.9694676612
 31
0.0
  0
SPLINE
  5
1CA
330
1F
100
AcDbEntity
  8
0
  6
Continuous
 62
     7
370
    25
100
AcDbSpline
210
0.0
220
0.0
230
1.0
 70
     8
 71
     3
 72
    12
 73
     8
 74
     0
 42
0.000000001
 43
0.00000001
 40
0.0
 40
0.0
 40
0.0
 40
0.0
 40
0.5
 40
0.5
 40
0.75
 40
0.75
 40
1.0
 40
1.0
 40
1.0
 40
1.0
 10
133.1389306971673
 20
146.1541257196318
 30
0.0
 10
132.4890585963624
 20
146.106459457054
 30
0.0
 10
131.8293849734812
 20
146.0721298411605
 30
0.0
 10
130.8159495461537
 20
146.0714332497209
 30
0.0
 10
130.4724890280955
 20
146.0795567671001
 30
0.0
 10
129.7996864073966
 20
146.1089655380717
 30
0.0
 10
129.4677242487226
 20
146.1300096516503
 30
0.0
 10
129.1389306971673
 20
146.1541257196318
 30
0.0
  0
SPLINE
  5
1CB
330
1F
100
AcDbEntity
  8
0
  6
Continuous
 62
     7
370
    25
100
AcDbSpline
210
0.0
220
0.0
230
1.0
 70
     8
 71
     3
 72
    12
 73
     8
 74
     0
 42
0.000000001
 43
0.00000001
 40
0.0
 40
0.0
 40
0.0
 40
0.0
 40
0.5
 40
0.5
 40
0.75
 40
0.75
 40
1.0
 40
1.0
 40
1.0
 40
1.0
 10
129.1389306971673
 20
133.7848088427788
 30
0.0
 10
129.7888027979722
 20
133.8324751053566
 30
0.0
 10
130.4484764208533
 20
133.86680472125
 30
0.0
 10
131.4619118481809
 20
133.8675013126897
 30
0.0
 10
131.8053723662391
 20
133.8593777953105
 30
0.0
 10
132.4781749869379
 20
133.8299690243389
 30
0.0
 10
132.810137145612
 20
133.8089249107603
 30
0.0
 10
133.1389306971673
 20
133.7848088427788
 30
0.0
  0
LINE
  5
1CC
330
1F
100
AcDbEntity
  8
0
  6
Continuous
 62
     7
370
    25
100
AcDbLine
 10
122.6389302352
 20
131.9694669012
 30
0.0
 11
123.1389303172
 21
131.9694669012
 31
0.0
  0
LINE
  5
1CD
330
1F
100
AcDbEntity
  8
0
  6
Continuous
 62
     7
370
    25
100
AcDbLine
 10
122.6389302352
 20
131.9694669012
 30
0.0
 11
122.6389302352
 21
133.5407938835
 31
0.0
  0
LINE
  5
1CE
330
1F
100
AcDbEntity
  8
0
  6
Continuous
 62
     7
370
    25
100
AcDbLine
 10
139.6389311591
 20
131.9694669012
 30
0.0
 11
139.6389311591
 21
133.5407938835
 31
0.0
  0
LINE
  5
1CF
330
1F
100
AcDbEntity
  8
0
  6
Continuous
 62
     7
370
    25
100
AcDbLine
 10
139.1389310771
 20
131.9694669012
 30
0.0
 11
139.6389311591
 21
131.9694669012
 31
0.0
  0
ARC
  5
1D0
330
1F
100
AcDbEntity
  8
0
  6
Continuous
 62
     7
370
    25
100
AcDbCircle
 10
139.1389306972
 20
131.9694672812
 30
0.0
 40
0.5
100
AcDbArc
 50
270.0
 51
0.0
  0
ARC
  5
1D1
330
1F
100
AcDbEntity
  8
0
  6
Continuous
 62
     7
370
    25
100
AcDbCircle
 10
123.1389306972
 20
131.9694672812
 30
0.0
 40
0.5
100
AcDbArc
 50
180.0
 51
270.0
  0
ARC
  5
1D2
330
1F
100
AcDbEntity
  8
0
  6
Continuous
 62
     7
370
    25
100
AcDbCircle
 10
122.3281116817
 20
148.4834867069
 30
0.0
 40
0.4600495252436502
100
AcDbArc
 50
265.3147112477
 51
327.1812658513
  0
ARC
  5
1D3
330
1F
100
AcDbEntity
  8
0
  6
Continuous
 62
     7
370
    25
100
AcDbCircle
 10
139.9497497126
 20
148.4834867069
 30
0.0
 40
0.4600495252436732
100
AcDbArc
 50
212.8187341487
 51
274.6852887523
  0
ARC
  5
1D4
330
1F
100
AcDbEntity
  8
0
  6
Continuous
 62
     7
370
    25
100
AcDbCircle
 10
139.9497497126
 20
131.4554478555
 30
0.0
 40
0.4600495252436708
100
AcDbArc
 50
85.3147112477
 51
147.1812658513
  0
ARC
  5
1D5
330
1F
100
AcDbEntity
  8
0
  6
Continuous
 62
     7
370
    25
100
AcDbCircle
 10
122.3281116817
 20
131.4554478555
 30
0.0
 40
0.4600495252436697
100
AcDbArc
 50
32.8187341487
 51
94.6852887523
  0
SPLINE
  5
1D6
330
1F
100
AcDbEntity
  8
0
  6
Continuous
 62
     7
370
    25
100
AcDbSpline
210
0.0
220
0.0
230
1.0
 70
     8
 71
     3
 72
    12
 73
     8
 74
     0
 42
0.000000001
 43
0.00000001
 40
0.0
 40
0.0
 40
0.0
 40
0.0
 40
0.2499999999999998
 40
0.2499999999999998
 40
0.4999999999999998
 40
0.4999999999999998
 40
1.0
 40
1.0
 40
1.0
 40
1.0
 10
122.7147323727199
 20
148.2341478085133
 30
0.0
 10
122.7369992148738
 20
148.2698344426171
 30
0.0
 10
122.7440372475283
 20
148.3033933189164
 30
0.0
 10
122.7449123690127
 20
148.3620370639717
 30
0.0
 10
122.7382483750636
 20
148.3872639799335
 30
0.0
 10
122.7075960256454
 20
148.4482977934339
 30
0.0
 10
122.672987342521
 20
148.4694672812053
 30
0.0
 10
122.6389306971673
 20
148.4694672812053
 30
0.0
  0
SPLINE
  5
1D7
330
1F
100
AcDbEntity
  8
0
  6
Continuous
 62
     7
370
    25
100
AcDbSpline
210
0.0
220
0.0
230
1.0
 70
    24
 71
     3
 72
    16
 73
    12
 74
     0
 42
0.000000001
 43
0.00000001
 40
0.0
 40
0.0
 40
0.0
 40
0.0
 40
0.2500000000000002
 40
0.2500000000000002
 40
0.5000000000000004
 40
0.5000000000000004
 40
0.7500000000000004
 40
0.7500000000000004
 40
0.8750000000000002
 40
0.8750000000000002
 40
1.0
 40
1.0
 40
1.0
 40
1.0
 10
123.1389306971673
 20
148.4694672812053
 30
0.0
 10
123.1389306971673
 20
148.4694672812053
 30
0.0
 10
123.1189989114801
 20
148.4694672812053
 30
0.0
 10
123.0583923648766
 20
148.4694672812053
 30
0.0
 10
123.0172818574314
 20
148.4694672812053
 30
0.0
 10
122.9229054010322
 20
148.4694672812053
 30
0.0
 10
122.8695400391759
 20
148.4694672812053
 30
0.0
 10
122.7852328792413
 20
148.4694672812053
 30
0.0
 10
122.7564080023994
 20
148.4694672812053
 30
0.0
 10
122.6980489238339
 20
148.4694672812053
 30
0.0
 10
122.6687978026158
 20
148.4694672812053
 30
0.0
 10
122.6389306971673
 20
148.4694672812053
 30
0.0
  0
SPLINE
  5
1D8
330
1F
100
AcDbEntity
  8
0
  6
Continuous
 62
     7
370
    25
100
AcDbSpline
210
0.0
220
0.0
230
1.0
 70
     8
 71
     3
 72
    12
 73
     8
 74
     0
 42
0.000000001
 43
0.00000001
 40
0.0
 40
0.0
 40
0.0
 40
0.0
 40
0.2500000000000001
 40
0.2500000000000001
 40
0.5
 40
0.5
 40
1.0
 40
1.0
 40
1.0
 40
1.0
 10
139.5631290216147
 20
148.2341478085133
 30
0.0
 10
139.5408621794624
 20
148.2698344426144
 30
0.0
 10
139.5338241468075
 20
148.3033933189114
 30
0.0
 10
139.5329490253209
 20
148.3620370639635
 30
0.0
 10
139.5396130192682
 20
148.3872639799243
 30
0.0
 10
139.5702653686808
 20
148.4482977934246
 30
0.0
 10
139.6048740515311
 20
148.4694672812053
 30
0.0
 10
139.6389306971673
 20
148.4694672812053
 30
0.0
  0
SPLINE
  5
1D9
330
1F
100
AcDbEntity
  8
0
  6
Continuous
 62
     7
370
    25
100
AcDbSpline
210
0.0
220
0.0
230
1.0
 70
    24
 71
     3
 72
    16
 73
    12
 74
     0
 42
0.000000001
 43
0.00000001
 40
0.0
 40
0.0
 40
0.0
 40
0.0
 40
0.2500000000000002
 40
0.2500000000000002
 40
0.5000000000000004
 40
0.5000000000000004
 40
0.7500000000000004
 40
0.7500000000000004
 40
0.8750000000000002
 40
0.8750000000000002
 40
1.0
 40
1.0
 40
1.0
 40
1.0
 10
139.1389306971673
 20
148.4694672812053
 30
0.0
 10
139.1389306971673
 20
148.4694672812053
 30
0.0
 10
139.1588624828544
 20
148.4694672812053
 30
0.0
 10
139.219469029458
 20
148.4694672812053
 30
0.0
 10
139.2605795369032
 20
148.4694672812053
 30
0.0
 10
139.3549559933024
 20
148.4694672812053
 30
0.0
 10
139.4083213551587
 20
148.4694672812053
 30
0.0
 10
139.4926285150933
 20
148.4694672812053
 30
0.0
 10
139.5214533919351
 20
148.4694672812053
 30
0.0
 10
139.5798124705006
 20
148.4694672812053
 30
0.0
 10
139.6090635917187
 20
148.4694672812053
 30
0.0
 10
139.6389306971673
 20
148.4694672812053
 30
0.0
  0
SPLINE
  5
1DA
330
1F
100
AcDbEntity
  8
0
  6
Continuous
 62
     7
370
    25
100
AcDbSpline
210
0.0
220
0.0
230
1.0
 70
     8
 71
     3
 72
    12
 73
     8
 74
     0
 42
0.000000001
 43
0.00000001
 40
0.0
 40
0.0
 40
0.0
 40
0.0
 40
0.25
 40
0.25
 40
0.5
 40
0.5
 40
1.0
 40
1.0
 40
1.0
 40
1.0
 10
139.5631290216147
 20
131.7047867538973
 30
0.0
 10
139.5408621794624
 20
131.6691001197962
 30
0.0
 10
139.5338241468075
 20
131.6355412434991
 30
0.0
 10
139.5329490253209
 20
131.5768974984472
 30
0.0
 10
139.5396130192682
 20
131.5516705824863
 30
0.0
 10
139.5702653686808
 20
131.4906367689861
 30
0.0
 10
139.6048740515309
 20
131.4694672812053
 30
0.0
 10
139.6389306971673
 20
131.4694672812053
 30
0.0
  0
SPLINE
  5
1DB
330
1F
100
AcDbEntity
  8
0
  6
Continuous
 62
     7
370
    25
100
AcDbSpline
210
0.0
220
0.0
230
1.0
 70
    24
 71
     3
 72
    16
 73
    12
 74
     0
 42
0.000000001
 43
0.00000001
 40
0.0
 40
0.0
 40
0.0
 40
0.0
 40
0.2500000000000002
 40
0.2500000000000002
 40
0.5000000000000002
 40
0.5000000000000002
 40
0.7500000000000002
 40
0.7500000000000002
 40
0.8750000000000001
 40
0.8750000000000001
 40
1.0
 40
1.0
 40
1.0
 40
1.0
 10
139.1389306971673
 20
131.4694672812053
 30
0.0
 10
139.1389306971673
 20
131.4694672812053
 30
0.0
 10
139.1588624828544
 20
131.4694672812053
 30
0.0
 10
139.219469029458
 20
131.4694672812053
 30
0.0
 10
139.2605795369032
 20
131.4694672812053
 30
0.0
 10
139.3549559933024
 20
131.4694672812053
 30
0.0
 10
139.4083213551587
 20
131.4694672812053
 30
0.0
 10
139.4926285150933
 20
131.4694672812053
 30
0.0
 10
139.5214533919352
 20
131.4694672812053
 30
0.0
 10
139.5798124705006
 20
131.4694672812053
 30
0.0
 10
139.6090635917187
 20
131.4694672812053
 30
0.0
 10
139.6389306971673
 20
131.4694672812053
 30
0.0
  0
SPLINE
  5
1DC
330
1F
100
AcDbEntity
  8
0
  6
Continuous
 62
     7
370
    25
100
AcDbSpline
210
0.0
220
0.0
230
1.0
 70
     8
 71
     3
 72
    12
 73
     8
 74
     0
 42
0.000000001
 43
0.00000001
 40
0.0
 40
0.0
 40
0.0
 40
0.0
 40
0.2500000000000002
 40
0.2500000000000002
 40
0.5000000000000001
 40
0.5000000000000001
 40
1.0
 40
1.0
 40
1.0
 40
1.0
 10
122.7147323727199
 20
131.7047867538973
 30
0.0
 10
122.7369992148738
 20
131.6691001197935
 30
0.0
 10
122.7440372475283
 20
131.6355412434942
 30
0.0
 10
122.7449123690127
 20
131.5768974984389
 30
0.0
 10
122.7382483750636
 20
131.5516705824772
 30
0.0
 10
122.7075960256454
 20
131.4906367689767
 30
0.0
 10
122.6729873425209
 20
131.4694672812053
 30
0.0
 10
122.6389306971673
 20
131.4694672812053
 30
0.0
  0
SPLINE
  5
1DD
330
1F
100
AcDbEntity
  8
0
  6
Continuous
 62
     7
370
    25
100
AcDbSpline
210
0.0
220
0.0
230
1.0
 70
    24
 71
     3
 72
    16
 73
    12
 74
     0
 42
0.000000001
 43
0.00000001
 40
0.0
 40
0.0
 40
0.0
 40
0.0
 40
0.2499999999999999
 40
0.2499999999999999
 40
0.5
 40
0.5
 40
0.7500000000000001
 40
0.7500000000000001
 40
0.875
 40
0.875
 40
1.0
 40
1.0
 40
1.0
 40
1.0
 10
123.1389306971673
 20
131.4694672812053
 30
0.0
 10
123.1389306971673
 20
131.4694672812053
 30
0.0
 10
123.1189989114801
 20
131.4694672812053
 30
0.0
 10
123.0583923648766
 20
131.4694672812053
 30
0.0
 10
123.0172818574314
 20
131.4694672812053
 30
0.0
 10
122.9229054010322
 20
131.4694672812053
 30
0.0
 10
122.8695400391759
 20
131.4694672812053
 30
0.0
 10
122.7852328792413
 20
131.4694672812053
 30
0.0
 10
122.7564080023994
 20
131.4694672812053
 30
0.0
 10
122.6980489238339
 20
131.4694672812053
 30
0.0
 10
122.6687978026159
 20
131.4694672812053
 30
0.0
 10
122.6389306971673
 20
131.4694672812053
 30
0.0
  0
LINE
  5
1DE
330
1F
100
AcDbEntity
  8
0
  6
Continuous
 62
     8
370
    25
100
AcDbLine
 10
117.138930265
 20
148.4694677431
 30
0.0
 11
117.138930265
 21
131.4694668193
 31
0.0
  0
LINE
  5
1DF
330
1F
100
AcDbEntity
  8
0
  6
Continuous
 62
     8
370
    25
100
AcDbLine
 10
145.1389311293
 20
131.4694668193
 30
0.0
 11
145.1389311293
 21
148.4694677431
 31
0.0
  0
LINE
  5
1E0
330
1F
100
AcDbEntity
  8
0
  6
Continuous
 62
     8
370
    25
100
AcDbLine
 10
140.1389303097
 20
134.26176701
 30
0.0
 11
140.1389303097
 21
132.413911729
 31
0.0
  0
LINE
  5
1E1
330
1F
100
AcDbEntity
  8
0
  6
Continuous
 62
     8
370
    25
100
AcDbLine
 10
140.1389303097
 20
147.5250228334
 30
0.0
 11
140.1389303097
 21
145.6771675524
 31
0.0
  0
LINE
  5
1E2
330
1F
100
AcDbEntity
  8
0
  6
Continuous
 62
     8
370
    25
100
AcDbLine
 10
122.1389310846
 20
145.6771675524
 30
0.0
 11
122.1389310846
 21
147.5250228334
 31
0.0
  0
LINE
  5
1E3
330
1F
100
AcDbEntity
  8
0
  6
Continuous
 62
     8
370
    25
100
AcDbLine
 10
122.1389310846
 20
132.413911729
 30
0.0
 11
122.1389310846
 21
134.26176701
 31
0.0
  0
LINE
  5
1E4
330
1F
100
AcDbEntity
  8
0
  6
Continuous
 62
     8
370
    25
100
AcDbLine
 10
139.1389310771
 20
147.9694676612
 30
0.0
 11
138.1800841952
 21
147.9694676612
 31
0.0
  0
LINE
  5
1E5
330
1F
100
AcDbEntity
  8
0
  6
Continuous
 62
     8
370
    25
100
AcDbLine
 10
139.1389310771
 20
147.0106207792
 30
0.0
 11
139.1389310771
 21
147.9694676612
 31
0.0
  0
LINE
  5
1E6
330
1F
100
AcDbEntity
  8
0
  6
Continuous
 62
     8
370
    25
100
AcDbLine
 10
123.1389303172
 20
131.9694669012
 30
0.0
 11
124.0977771992
 21
131.9694669012
 31
0.0
  0
LINE
  5
1E7
330
1F
100
AcDbEntity
  8
0
  6
Continuous
 62
     8
370
    25
100
AcDbLine
 10
123.1389303172
 20
131.9694669012
 30
0.0
 11
123.1389303172
 21
132.9283137832
 31
0.0
  0
LINE
  5
1E8
330
1F
100
AcDbEntity
  8
0
  6
Continuous
 62
     8
370
    25
100
AcDbLine
 10
124.0977771992
 20
147.9694676612
 30
0.0
 11
123.1389303172
 21
147.9694676612
 31
0.0
  0
LINE
  5
1E9
330
1F
100
AcDbEntity
  8
0
  6
Continuous
 62
     8
370
    25
100
AcDbLine
 10
123.1389303172
 20
147.0106207792
 30
0.0
 11
123.1389303172
 21
147.9694676612
 31
0.0
  0
LINE
  5
1EA
330
1F
100
AcDbEntity
  8
0
  6
Continuous
 62
     8
370
    25
100
AcDbLine
 10
138.1800841952
 20
131.9694669012
 30
0.0
 11
139.1389310771
 21
131.9694669012
 31
0.0
  0
LINE
  5
1EB
330
1F
100
AcDbEntity
  8
0
  6
Continuous
 62
     8
370
    25
100
AcDbLine
 10
139.1389310771
 20
131.9694669012
 30
0.0
 11
139.1389310771
 21
132.9283137832
 31
0.0
  0
INSERT
  5
1F7
330
1F
100
AcDbEntity
  8
0
  6
Continuous
 62
     7
370
    18
100
AcDbBlockReference
  2
SW_CENTERMARKSYMBOL_1
 10
131.1389306972
 20
139.9694672812
 30
0.0
  0
LINE
  5
1F8
330
1F
100
AcDbEntity
  8
0
  6
Continuous
 62
     7
370
    18
100
AcDbLine
 10
103.1744548159
 20
149.3173274099
 30
0.0
 11
116.0489306972
 21
149.7196547812
 31
0.0
  0
LINE
  5
1F9
330
1F
100
AcDbEntity
  8
0
  6
Continuous
 62
     7
370
    18
100
AcDbLine
 10
103.1744548159
 20
130.6216071525
 30
0.0
 11
116.0489306972
 21
130.2192797812
 31
0.0
  0
LINE
  5
1FA
330
1F
100
AcDbEntity
  8
0
  6
Continuous
 62
     7
370
    18
100
AcDbLine
 10
116.0489306972
 20
129.3122797812
 30
0.0
 11
116.0489306972
 21
150.6266547812
 31
0.0
  0
ARC
  5
1FB
330
1F
100
AcDbEntity
  8
0
  6
Continuous
 62
     7
370
    18
100
AcDbCircle
 10
131.1389306972
 20
139.9694672812
 30
0.0
 40
9.315499999999998
100
AcDbArc
 50
75.0
 51
345.0
  0
LINE
  5
1FC
330
1F
100
AcDbEntity
  8
0
  6
Continuous
 62
     7
370
    18
100
AcDbLine
 10
159.1034065784
 20
130.6216071525
 30
0.0
 11
146.2289306972
 21
130.2192797812
 31
0.0
  0
LINE
  5
1FD
330
1F
100
AcDbEntity
  8
0
  6
Continuous
 62
     7
370
    18
100
AcDbLine
 10
159.1034065784
 20
149.3173274099
 30
0.0
 11
146.2289306972
 21
149.7196547812
 31
0.0
  0
LINE
  5
1FE
330
1F
100
AcDbEntity
  8
0
  6
Continuous
 62
     7
370
    18
100
AcDbLine
 10
146.2289306972
 20
150.6266547812
 30
0.0
 11
146.2289306972
 21
129.3122797812
 31
0.0
  0
ENDSEC
  0
SECTION
  2
OBJECTS
  0
DICTIONARY
  5
C
330
0
100
AcDbDictionary
281
     1
  3
ACAD_GROUP
350
D
  3
ACAD_LAYOUT
350
1A
  3
ACAD_MLINESTYLE
350
17
  3
ACAD_PLOTSETTINGS
350
19
  3
ACAD_PLOTSTYLENAME
350
E
  3
ACAD_SCALELIST
350
47
  0
DICTIONARY
  5
D
102
{ACAD_REACTORS
330
C
102
}
330
C
100
AcDbDictionary
281
     1
  0
DICTIONARY
  5
1A
102
{ACAD_REACTORS
330
C
102
}
330
C
100
AcDbDictionary
281
     1
  3
Layout1
350
1E
  3
Layout2
350
26
  3
Model
350
22
  0
DICTIONARY
  5
17
102
{ACAD_REACTORS
330
C
102
}
330
C
100
AcDbDictionary
281
     1
  3
Standard
350
18
  0
DICTIONARY
  5
19
102
{ACAD_REACTORS
330
C
102
}
330
C
100
AcDbDictionary
281
     1
  0
ACDBDICTIONARYWDFLT
  5
E
102
{ACAD_REACTORS
330
C
102
}
330
C
100
AcDbDictionary
281
     1
  3
Normal
350
F
100
AcDbDictionaryWithDefault
340
F
  0
DICTIONARY
  5
47
102
{ACAD_REACTORS
330
C
102
}
330
C
100
AcDbDictionary
281
     1
  3
A0
350
48
  3
A1
350
49
  3
A2
350
4A
  3
A3
350
4B
  3
A4
350
4C
  3
A5
350
4D
  3
A6
350
4E
  3
A7
350
4F
  3
A8
350
50
  3
A9
350
51
  3
B0
350
52
  3
B1
350
53
  3
B2
350
54
  3
B3
350
55
  3
B4
350
56
  3
B5
350
57
  3
B6
350
58
  3
B7
350
59
  3
B8
350
5A
  3
B9
350
5B
  3
C0
350
5C
  3
C1
350
5D
  3
C2
350
5E
  3
C3
350
5F
  3
C4
350
60
  3
C5
350
61
  3
C6
350
62
  3
C7
350
63
  3
C8
350
64
  3
C9
350
65
  3
D0
350
66
  3
D1
350
67
  3
D2
350
68
  0
LAYOUT
  5
1E
102
{ACAD_REACTORS
330
1A
102
}
330
1A
100
AcDbPlotSettings
  1

  2
none_device
  4

  6

 40
0.0
 41
0.0
 42
0.0
 43
0.0
 44
0.0
 45
0.0
 46
0.0
 47
0.0
 48
0.0
 49
0.0
140
0.0
141
0.0
142
1.0
143
1.0
 70
   688
 72
     1
 73
     0
 74
     5
  7

 75
    16
147
1.0
148
0.0
149
0.0
100
AcDbLayout
  1
Layout1
 70
     1
 71
     1
 10
0.0
 20
0.0
 11
420.0
 21
297.0
 12
0.0
 22
0.0
 32
0.0
 14
1.0000000000E+20
 24
1.0000000000E+20
 34
1.0000000000E+20
 15
-1.0000000000E+20
 25
-1.0000000000E+20
 35
-1.0000000000E+20
146
0.0
 13
0.0
 23
0.0
 33
0.0
 16
1.0
 26
0.0
 36
0.0
 17
0.0
 27
1.0
 37
0.0
 76
     0
330
1B
  0
LAYOUT
  5
26
102
{ACAD_REACTORS
330
1A
102
}
330
1A
100
AcDbPlotSettings
  1

  2
none_device
  4

  6

 40
0.0
 41
0.0
 42
0.0
 43
0.0
 44
0.0
 45
0.0
 46
0.0
 47
0.0
 48
0.0
 49
0.0
140
0.0
141
0.0
142
1.0
143
1.0
 70
   688
 72
     1
 73
     0
 74
     5
  7

 75
    16
147
1.0
148
0.0
149
0.0
100
AcDbLayout
  1
Layout2
 70
     1
 71
     2
 10
0.0
 20
0.0
 11
0.0
 21
0.0
 12
0.0
 22
0.0
 32
0.0
 14
0.0
 24
0.0
 34
0.0
 15
0.0
 25
0.0
 35
0.0
146
0.0
 13
0.0
 23
0.0
 33
0.0
 16
1.0
 26
0.0
 36
0.0
 17
0.0
 27
1.0
 37
0.0
 76
     0
330
23
  0
LAYOUT
  5
22
102
{ACAD_REACTORS
330
1A
102
}
330
1A
100
AcDbPlotSettings
  1

  2
none_device
  4
Letter_(8.50_x_11.00_Inches)
  6

 40
6.35
 41
6.35
 42
6.35000508
 43
6.35000508
 44
215.9
 45
279.4
 46
0.0
 47
0.0
 48
0.0
 49
0.0
140
0.0
141
0.0
142
1.0
143
1.0
 70
  1712
 72
     1
 73
     0
 74
     0
  7

 75
     0
147
1.0
148
0.0
149
0.0
100
AcDbLayout
  1
Model
 70
     1
 71
     0
 10
0.0
 20
0.0
 11
431.8
 21
279.4
 12
0.0
 22
0.0
 32
0.0
 14
0.0
 24
0.0
 34
0.0
 15
431.8
 25
279.4
 35
0.0
146
0.0
 13
0.0
 23
0.0
 33
0.0
 16
1.0
 26
0.0
 36
0.0
 17
0.0
 27
1.0
 37
0.0
 76
     0
330
1F
331
29
  0
MLINESTYLE
  5
18
102
{ACAD_REACTORS
330
17
102
}
330
17
100
AcDbMlineStyle
  2
Standard
 70
     0
  3

 62
   256
 51
90.0
 52
90.0
 71
     2
 49
0.5
 62
   256
  6
BYLAYER
 49
-0.5
 62
   256
  6
BYLAYER
  0
ACDBPLACEHOLDER
  5
F
102
{ACAD_REACTORS
330
E
102
}
330
E
  0
SCALE
  5
48
102
{ACAD_REACTORS
330
47
102
}
330
47
100
AcDbScale
 70
     0
300
1:1
140
1.0
141
1.0
290
     1
  0
SCALE
  5
49
102
{ACAD_REACTORS
330
47
102
}
330
47
100
AcDbScale
 70
     0
300
1:2
140
1.0
141
2.0
290
     0
  0
SCALE
  5
4A
102
{ACAD_REACTORS
330
47
102
}
330
47
100
AcDbScale
 70
     0
300
1:4
140
1.0
141
4.0
290
     0
  0
SCALE
  5
4B
102
{ACAD_REACTORS
330
47
102
}
330
47
100
AcDbScale
 70
     0
300
1:5
140
1.0
141
5.0
290
     0
  0
SCALE
  5
4C
102
{ACAD_REACTORS
330
47
102
}
330
47
100
AcDbScale
 70
     0
300
1:8
140
1.0
141
8.0
290
     0
  0
SCALE
  5
4D
102
{ACAD_REACTORS
330
47
102
}
330
47
100
AcDbScale
 70
     0
300
1:10
140
1.0
141
10.0
290
     0
  0
SCALE
  5
4E
102
{ACAD_REACTORS
330
47
102
}
330
47
100
AcDbScale
 70
     0
300
1:16
140
1.0
141
16.0
290
     0
  0
SCALE
  5
4F
102
{ACAD_REACTORS
330
47
102
}
330
47
100
AcDbScale
 70
     0
300
1:20
140
1.0
141
20.0
290
     0
  0
SCALE
  5
50
102
{ACAD_REACTORS
330
47
102
}
330
47
100
AcDbScale
 70
     0
300
1:30
140
1.0
141
30.0
290
     0
  0
SCALE
  5
51
102
{ACAD_REACTORS
330
47
102
}
330
47
100
AcDbScale
 70
     0
300
1:40
140
1.0
141
40.0
290
     0
  0
SCALE
  5
52
102
{ACAD_REACTORS
330
47
102
}
330
47
100
AcDbScale
 70
     0
300
1:50
140
1.0
141
50.0
290
     0
  0
SCALE
  5
53
102
{ACAD_REACTORS
330
47
102
}
330
47
100
AcDbScale
 70
     0
300
1:100
140
1.0
141
100.0
290
     0
  0
SCALE
  5
54
102
{ACAD_REACTORS
330
47
102
}
330
47
100
AcDbScale
 70
     0
300
2:1
140
2.0
141
1.0
290
     0
  0
SCALE
  5
55
102
{ACAD_REACTORS
330
47
102
}
330
47
100
AcDbScale
 70
     0
300
4:1
140
4.0
141
1.0
290
     0
  0
SCALE
  5
56
102
{ACAD_REACTORS
330
47
102
}
330
47
100
AcDbScale
 70
     0
300
8:1
140
8.0
141
1.0
290
     0
  0
SCALE
  5
57
102
{ACAD_REACTORS
330
47
102
}
330
47
100
AcDbScale
 70
     0
300
10:1
140
10.0
141
1.0
290
     0
  0
SCALE
  5
58
102
{ACAD_REACTORS
330
47
102
}
330
47
100
AcDbScale
 70
     0
300
100:1
140
100.0
141
1.0
290
     0
  0
SCALE
  5
59
102
{ACAD_REACTORS
330
47
102
}
330
47
100
AcDbScale
 70
     0
300
1/128" = 1'-0"
140
0.0078125
141
12.0
290
     0
  0
SCALE
  5
5A
102
{ACAD_REACTORS
330
47
102
}
330
47
100
AcDbScale
 70
     0
300
1/64" = 1'-0"
140
0.015625
141
12.0
290
     0
  0
SCALE
  5
5B
102
{ACAD_REACTORS
330
47
102
}
330
47
100
AcDbScale
 70
     0
300
1/32" = 1'-0"
140
0.03125
141
12.0
290
     0
  0
SCALE
  5
5C
102
{ACAD_REACTORS
330
47
102
}
330
47
100
AcDbScale
 70
     0
300
1/16" = 1'-0"
140
0.0625
141
12.0
290
     0
  0
SCALE
  5
5D
102
{ACAD_REACTORS
330
47
102
}
330
47
100
AcDbScale
 70
     0
300
3/32" = 1'-0"
140
0.09375
141
12.0
290
     0
  0
SCALE
  5
5E
102
{ACAD_REACTORS
330
47
102
}
330
47
100
AcDbScale
 70
     0
300
1/8" = 1'-0"
140
0.125
141
12.0
290
     0
  0
SCALE
  5
5F
102
{ACAD_REACTORS
330
47
102
}
330
47
100
AcDbScale
 70
     0
300
3/16" = 1'-0"
140
0.1875
141
12.0
290
     0
  0
SCALE
  5
60
102
{ACAD_REACTORS
330
47
102
}
330
47
100
AcDbScale
 70
     0
300
1/4" = 1'-0"
140
0.25
141
12.0
290
     0
  0
SCALE
  5
61
102
{ACAD_REACTORS
330
47
102
}
330
47
100
AcDbScale
 70
     0
300
3/8" = 1'-0"
140
0.375
141
12.0
290
     0
  0
SCALE
  5
62
102
{ACAD_REACTORS
330
47
102
}
330
47
100
AcDbScale
 70
     0
300
1/2" = 1'-0"
140
0.5
141
12.0
290
     0
  0
SCALE
  5
63
102
{ACAD_REACTORS
330
47
102
}
330
47
100
AcDbScale
 70
     0
300
3/4" = 1'-0"
140
0.75
141
12.0
290
     0
  0
SCALE
  5
64
102
{ACAD_REACTORS
330
47
102
}
330
47
100
AcDbScale
 70
     0
300
1" = 1'-0"
140
1.0
141
12.0
290
     0
  0
SCALE
  5
65
102
{ACAD_REACTORS
330
47
102
}
330
47
100
AcDbScale
 70
     0
300
1-1/2" = 1'-0"
140
1.5
141
12.0
290
     0
  0
SCALE
  5
66
102
{ACAD_REACTORS
330
47
102
}
330
47
100
AcDbScale
 70
     0
300
3" = 1'-0"
140
3.0
141
12.0
290
     0
  0
SCALE
  5
67
102
{ACAD_REACTORS
330
47
102
}
330
47
100
AcDbScale
 70
     0
300
6" = 1'-0"
140
6.0
141
12.0
290
     0
  0
SCALE
  5
68
102
{ACAD_REACTORS
330
47
102
}
330
47
100
AcDbScale
 70
     0
300
1'-0" = 1'-0"
140
12.0
141
12.0
290
     0
  0
ENDSEC
  0
EOF
