  0
SECTION
  2
HEADER
  9
$ACADVER
  1
AC1015
  9
$ACADMAINTVER
 70
     6
  9
$DWGCODEPAGE
  3
DOS932
  9
$INSBASE
 10
0.0
 20
0.0
 30
0.0
  9
$EXTMIN
 10
0.0
 20
0.0
 30
0.0
  9
$EXTMAX
 10
431.8
 20
279.4
 30
0.0
  9
$LIMMIN
 10
0.0
 20
0.0
  9
$LIMMAX
 10
431.8
 20
279.4
  9
$ORTHOMODE
 70
     0
  9
$REGENMODE
 70
     1
  9
$FILLMODE
 70
     1
  9
$QTEXTMODE
 70
     0
  9
$MIRRTEXT
 70
     1
  9
$LTSCALE
 40
1.0
  9
$ATTMODE
 70
     1
  9
$TEXTSIZE
 40
3.5
  9
$TRACEWID
 40
1.0
  9
$TEXTSTYLE
  7
Standard
  9
$CLAYER
  8
0
  9
$CELTYPE
  6
ByLayer
  9
$CECOLOR
 62
   256
  9
$CELTSCALE
 40
1.0
  9
$DISPSILH
 70
     0
  9
$DIMSCALE
 40
1.0
  9
$DIMASZ
 40
3.302
  9
$DIMEXO
 40
1.0
  9
$DIMDLI
 40
3.75
  9
$DIMRND
 40
0.0
  9
$DIMDLE
 40
0.0
  9
$DIMEXE
 40
1.0
  9
$DIMTP
 40
0.0
  9
$DIMTM
 40
0.0
  9
$DIMTXT
 40
3.5
  9
$DIMCEN
 40
2.5
  9
$DIMTSZ
 40
0.0
  9
$DIMTOL
 70
     0
  9
$DIMLIM
 70
     0
  9
$DIMTIH
 70
     1
  9
$DIMTOH
 70
     1
  9
$DIMSE1
 70
     0
  9
$DIMSE2
 70
     0
  9
$DIMTAD
 70
     1
  9
$DIMZIN
 70
     1
  9
$DIMBLK
  1

  9
$DIMASO
 70
     1
  9
$DIMSHO
 70
     1
  9
$DIMPOST
  1

  9
$DIMAPOST
  1

  9
$DIMALT
 70
     0
  9
$DIMALTD
 70
     3
  9
$DIMALTF
 40
0.0393700787
  9
$DIMLFAC
 40
1.0
  9
$DIMTOFL
 70
     1
  9
$DIMTVP
 40
0.0
  9
$DIMTIX
 70
     0
  9
$DIMSOXD
 70
     0
  9
$DIMSAH
 70
     0
  9
$DIMBLK1
  1

  9
$DIMBLK2
  1

  9
$DIMSTYLE
  2
ISO-25
  9
$DIMCLRD
 70
     0
  9
$DIMCLRE
 70
     0
  9
$DIMCLRT
 70
     0
  9
$DIMTFAC
 40
1.0
  9
$DIMGAP
 40
1.524
  9
$DIMJUST
 70
     0
  9
$DIMSD1
 70
     0
  9
$DIMSD2
 70
     0
  9
$DIMTOLJ
 70
     0
  9
$DIMTZIN
 70
     1
  9
$DIMALTZ
 70
     0
  9
$DIMALTTZ
 70
     0
  9
$DIMUPT
 70
     0
  9
$DIMDEC
 70
     2
  9
$DIMTDEC
 70
     2
  9
$DIMALTU
 70
     2
  9
$DIMALTTD
 70
     3
  9
$DIMTXSTY
  7
Standard
  9
$DIMAUNIT
 70
     0
  9
$DIMADEC
 70
     2
  9
$DIMALTRND
 40
0.0
  9
$DIMAZIN
 70
     0
  9
$DIMDSEP
 70
    44
  9
$DIMATFIT
 70
     3
  9
$DIMFRAC
 70
     0
  9
$DIMLDRBLK
  1

  9
$DIMLUNIT
 70
     2
  9
$DIMLWD
 70
    -2
  9
$DIMLWE
 70
    -2
  9
$DIMTMOVE
 70
     0
  9
$LUNITS
 70
     2
  9
$LUPREC
 70
     2
  9
$SKETCHINC
 40
1.0
  9
$FILLETRAD
 40
10.0
  9
$AUNITS
 70
     0
  9
$AUPREC
 70
     2
  9
$MENU
  1
.
  9
$ELEVATION
 40
0.0
  9
$PELEVATION
 40
0.0
  9
$THICKNESS
 40
0.0
  9
$LIMCHECK
 70
     0
  9
$CHAMFERA
 40
0.0
  9
$CHAMFERB
 40
0.0
  9
$CHAMFERC
 40
0.0
  9
$CHAMFERD
 40
0.0
  9
$SKPOLY
 70
     0
  9
$TDCREATE
 40
2459229.406460116
  9
$TDUCREATE
 40
2459229.031460116
  9
$TDUPDATE
 40
2459229.406461192
  9
$TDUUPDATE
 40
2459229.031461192
  9
$TDINDWG
 40
0.0000000116
  9
$TDUSRTIMER
 40
0.0000000116
  9
$USRTIMER
 70
     1
  9
$ANGBASE
 50
0.0
  9
$ANGDIR
 70
     0
  9
$PDMODE
 70
     0
  9
$PDSIZE
 40
-1.0
  9
$PLINEWID
 40
0.0
  9
$SPLFRAME
 70
     0
  9
$SPLINETYPE
 70
     6
  9
$SPLINESEGS
 70
     8
  9
$HANDSEED
  5
257
  9
$SURFTAB1
 70
     6
  9
$SURFTAB2
 70
     6
  9
$SURFTYPE
 70
     6
  9
$SURFU
 70
     6
  9
$SURFV
 70
     6
  9
$UCSBASE
  2

  9
$UCSNAME
  2

  9
$UCSORG
 10
0.0
 20
0.0
 30
0.0
  9
$UCSXDIR
 10
1.0
 20
0.0
 30
0.0
  9
$UCSYDIR
 10
0.0
 20
1.0
 30
0.0
  9
$UCSORTHOREF
  2

  9
$UCSORTHOVIEW
 70
     0
  9
$UCSORGTOP
 10
0.0
 20
0.0
 30
0.0
  9
$UCSORGBOTTOM
 10
0.0
 20
0.0
 30
0.0
  9
$UCSORGLEFT
 10
0.0
 20
0.0
 30
0.0
  9
$UCSORGRIGHT
 10
0.0
 20
0.0
 30
0.0
  9
$UCSORGFRONT
 10
0.0
 20
0.0
 30
0.0
  9
$UCSORGBACK
 10
0.0
 20
0.0
 30
0.0
  9
$PUCSBASE
  2

  9
$PUCSNAME
  2

  9
$PUCSORG
 10
0.0
 20
0.0
 30
0.0
  9
$PUCSXDIR
 10
1.0
 20
0.0
 30
0.0
  9
$PUCSYDIR
 10
0.0
 20
1.0
 30
0.0
  9
$PUCSORTHOREF
  2

  9
$PUCSORTHOVIEW
 70
     0
  9
$PUCSORGTOP
 10
0.0
 20
0.0
 30
0.0
  9
$PUCSORGBOTTOM
 10
0.0
 20
0.0
 30
0.0
  9
$PUCSORGLEFT
 10
0.0
 20
0.0
 30
0.0
  9
$PUCSORGRIGHT
 10
0.0
 20
0.0
 30
0.0
  9
$PUCSORGFRONT
 10
0.0
 20
0.0
 30
0.0
  9
$PUCSORGBACK
 10
0.0
 20
0.0
 30
0.0
  9
$USERI1
 70
     0
  9
$USERI2
 70
     0
  9
$USERI3
 70
     0
  9
$USERI4
 70
     0
  9
$USERI5
 70
     0
  9
$USERR1
 40
0.0
  9
$USERR2
 40
0.0
  9
$USERR3
 40
0.0
  9
$USERR4
 40
0.0
  9
$USERR5
 40
0.0
  9
$WORLDVIEW
 70
     1
  9
$SHADEDGE
 70
     3
  9
$SHADEDIF
 70
    70
  9
$TILEMODE
 70
     1
  9
$MAXACTVP
 70
    64
  9
$PINSBASE
 10
0.0
 20
0.0
 30
0.0
  9
$PLIMCHECK
 70
     0
  9
$PEXTMIN
 10
1.0000000000E+20
 20
1.0000000000E+20
 30
1.0000000000E+20
  9
$PEXTMAX
 10
-1.0000000000E+20
 20
-1.0000000000E+20
 30
-1.0000000000E+20
  9
$PLIMMIN
 10
0.0
 20
0.0
  9
$PLIMMAX
 10
420.0
 20
297.0
  9
$UNITMODE
 70
     0
  9
$VISRETAIN
 70
     1
  9
$PLINEGEN
 70
     0
  9
$PSLTSCALE
 70
     1
  9
$TREEDEPTH
 70
  3020
  9
$CMLSTYLE
  2
Standard
  9
$CMLJUST
 70
     0
  9
$CMLSCALE
 40
20.0
  9
$PROXYGRAPHICS
 70
     1
  9
$MEASUREMENT
 70
     1
  9
$CELWEIGHT
370
    -1
  9
$ENDCAPS
280
     0
  9
$JOINSTYLE
280
     0
  9
$LWDISPLAY
290
     1
  9
$INSUNITS
 70
     4
  9
$HYPERLINKBASE
  1

  9
$STYLESHEET
  1

  9
$XEDIT
290
     1
  9
$CEPSNTYPE
380
     0
  9
$PSTYLEMODE
290
     1
  9
$FINGERPRINTGUID
  2
{F8DC263D-EE6A-4FFF-A69B-1F8F82642F1F}
  9
$VERSIONGUID
  2
{FAEB1C32-E019-11D5-929B-00C0DF256EC4}
  9
$EXTNAMES
290
     1
  9
$PSVPSCALE
 40
0.0
  9
$OLESTARTUP
290
     0
  0
ENDSEC
  0
SECTION
  2
CLASSES
  0
CLASS
  1
ACDBDICTIONARYWDFLT
  2
AcDbDictionaryWithDefault
  3
ObjectDBX Classes
 90
        0
280
     0
281
     0
  0
CLASS
  1
VISUALSTYLE
  2
AcDbVisualStyle
  3
ObjectDBX Classes
 90
     4095
280
     0
281
     0
  0
CLASS
  1
MATERIAL
  2
AcDbMaterial
  3
ObjectDBX Classes
 90
     1153
280
     0
281
     0
  0
CLASS
  1
SCALE
  2
AcDbScale
  3
ObjectDBX Classes
 90
     1153
280
     0
281
     0
  0
CLASS
  1
TABLESTYLE
  2
AcDbTableStyle
  3
ObjectDBX Classes
 90
     4095
280
     0
281
     0
  0
CLASS
  1
MLEADERSTYLE
  2
AcDbMLeaderStyle
  3
ACDB_MLEADERSTYLE_CLASS
 90
     4095
280
     0
281
     0
  0
CLASS
  1
SUN
  2
AcDbSun
  3
SCENEOE
 90
     1153
280
     0
281
     0
  0
CLASS
  1
ACDBPLACEHOLDER
  2
AcDbPlaceHolder
  3
ObjectDBX Classes
 90
        0
280
     0
281
     0
  0
CLASS
  1
LAYOUT
  2
AcDbLayout
  3
ObjectDBX Classes
 90
        0
280
     0
281
     0
  0
ENDSEC
  0
SECTION
  2
TABLES
  0
TABLE
  2
VPORT
  5
8
330
0
100
AcDbSymbolTable
 70
     1
  0
VPORT
  5
29
330
8
100
AcDbSymbolTableRecord
100
AcDbViewportTableRecord
  2
*Active
 70
     0
 10
0.0
 20
0.0
 11
1.0
 21
1.0
 12
215.9
 22
139.7
 13
0.0
 23
0.0
 14
10.0
 24
10.0
 15
10.0
 25
10.0
 16
0.0
 26
0.0
 36
1.0
 17
0.0
 27
0.0
 37
0.0
 40
279.4
 41
1.5454545455
 42
50.0
 43
0.0
 44
0.0
 50
0.0
 51
0.0
 71
     0
 72
  2000
 73
     1
 74
     3
 75
     0
 76
     0
 77
     0
 78
     0
281
     0
 65
     1
110
0.0
120
0.0
130
0.0
111
1.0
121
0.0
131
0.0
112
0.0
122
1.0
132
0.0
 79
     0
146
0.0
  0
ENDTAB
  0
TABLE
  2
LTYPE
  5
5
330
0
100
AcDbSymbolTable
 70
     6
  0
LTYPE
  5
14
330
5
100
AcDbSymbolTableRecord
100
AcDbLinetypeTableRecord
  2
ByBlock
 70
     0
  3

 72
    65
 73
     0
 40
0.0
  0
LTYPE
  5
15
330
5
100
AcDbSymbolTableRecord
100
AcDbLinetypeTableRecord
  2
ByLayer
 70
     0
  3

 72
    65
 73
     0
 40
0.0
  0
LTYPE
  5
16
330
5
100
AcDbSymbolTableRecord
100
AcDbLinetypeTableRecord
  2
Continuous
 70
     0
  3
Solid line
 72
    65
 73
     0
 40
0.0
  0
LTYPE
  5
6E
330
5
100
AcDbSymbolTableRecord
100
AcDbLinetypeTableRecord
  2
HIDDEN
 70
     0
  3
Hidden __ __ __ __ __ __ __ __ __ __ __ __ __ __
 72
    65
 73
     2
 40
1.905
 49
1.27
 74
     0
 49
-0.635
 74
     0
  0
LTYPE
  5
6F
330
5
100
AcDbSymbolTableRecord
100
AcDbLinetypeTableRecord
  2
PHANTOM
 70
     0
  3
Phantom ______  __  __  ______  __  __  ______
 72
    65
 73
     6
 40
12.7
 49
6.35
 74
     0
 49
-1.27
 74
     0
 49
1.27
 74
     0
 49
-1.27
 74
     0
 49
1.27
 74
     0
 49
-1.27
 74
     0
  0
LTYPE
  5
70
330
5
100
AcDbSymbolTableRecord
100
AcDbLinetypeTableRecord
  2
CENTER
 70
     0
  3
Center ____ _ ____ _ ____ _ ____ _ ____ _ ____
 72
    65
 73
     4
 40
10.16
 49
6.35
 74
     0
 49
-1.27
 74
     0
 49
1.27
 74
     0
 49
-1.27
 74
     0
  0
LTYPE
  5
71
330
5
100
AcDbSymbolTableRecord
100
AcDbLinetypeTableRecord
  2
CENTERX2
 70
     0
  3
Center (2x) ________  __  ________  __  _____
 72
    65
 73
     4
 40
20.32
 49
12.7
 74
     0
 49
-2.54
 74
     0
 49
2.54
 74
     0
 49
-2.54
 74
     0
  0
LTYPE
  5
72
330
5
100
AcDbSymbolTableRecord
100
AcDbLinetypeTableRecord
  2
DOT2
 70
     0
  3
Dot (.5x) ........................................
 72
    65
 73
     2
 40
0.635
 49
0.0
 74
     0
 49
-0.635
 74
     0
  0
ENDTAB
  0
TABLE
  2
LAYER
  5
2
330
0
100
AcDbSymbolTable
 70
     1
  0
LAYER
  5
10
330
2
100
AcDbSymbolTableRecord
100
AcDbLayerTableRecord
  2
0
 70
     0
 62
     7
  6
Continuous
370
    -3
390
F
  0
ENDTAB
  0
TABLE
  2
STYLE
  5
3
330
0
100
AcDbSymbolTable
 70
     2
  0
STYLE
  5
11
330
3
100
AcDbSymbolTableRecord
100
AcDbTextStyleTableRecord
  2
Standard
 70
     0
 40
0.0
 41
1.0
 50
0.0
 71
     0
 42
3.5
  3
txt
  4
bigfont
  0
STYLE
  5
73
330
3
100
AcDbSymbolTableRecord
100
AcDbTextStyleTableRecord
  2
SLDTEXTSTYLE0
 70
     0
 40
0.0
 41
0.7
 50
0.0
 71
     0
 42
3.5
  3
TXT
  4
bigfont
  0
ENDTAB
  0
TABLE
  2
VIEW
  5
6
330
0
100
AcDbSymbolTable
 70
     0
  0
ENDTAB
  0
TABLE
  2
UCS
  5
7
330
0
100
AcDbSymbolTable
 70
     0
  0
ENDTAB
  0
TABLE
  2
APPID
  5
9
330
0
100
AcDbSymbolTable
 70
     1
  0
APPID
  5
12
330
9
100
AcDbSymbolTableRecord
100
AcDbRegAppTableRecord
  2
ACAD
 70
     0
  0
ENDTAB
  0
TABLE
  2
DIMSTYLE
  5
A
330
0
100
AcDbSymbolTable
 70
     1
100
AcDbDimStyleTable
  0
DIMSTYLE
105
27
330
A
100
AcDbSymbolTableRecord
100
AcDbDimStyleTableRecord
  2
ISO-25
 70
     0
 41
2.5
 42
0.625
 43
3.75
 44
1.25
 73
     0
 74
     0
 77
     1
 78
     8
140
2.5
141
2.5
143
0.0393700787
147
0.625
171
     3
172
     1
178
     0
271
     2
272
     2
274
     3
278
    44
283
     0
284
     8
340
11
  0
ENDTAB
  0
TABLE
  2
BLOCK_RECORD
  5
1
330
0
100
AcDbSymbolTable
 70
     3
  0
BLOCK_RECORD
  5
1F
330
1
100
AcDbSymbolTableRecord
100
AcDbBlockTableRecord
  2
*Model_Space
340
22
  0
BLOCK_RECORD
  5
1B
330
1
100
AcDbSymbolTableRecord
100
AcDbBlockTableRecord
  2
*Paper_Space
340
1E
  0
BLOCK_RECORD
  5
23
330
1
100
AcDbSymbolTableRecord
100
AcDbBlockTableRecord
  2
*Paper_Space0
340
26
  0
BLOCK_RECORD
  5
1A3
330
1
100
AcDbSymbolTableRecord
100
AcDbBlockTableRecord
  2
SW_CENTERMARKSYMBOL_0
340
0
102
{BLKREFS
331
1AE
102
}
  0
BLOCK_RECORD
  5
244
330
1
100
AcDbSymbolTableRecord
100
AcDbBlockTableRecord
  2
SW_CENTERMARKSYMBOL_1
340
0
102
{BLKREFS
331
24F
102
}
  0
ENDTAB
  0
ENDSEC
  0
SECTION
  2
BLOCKS
  0
BLOCK
  5
20
330
1F
100
AcDbEntity
  8
0
100
AcDbBlockBegin
  2
*Model_Space
 70
     0
 10
0.0
 20
0.0
 30
0.0
  3
*Model_Space
  1

  0
ENDBLK
  5
21
330
1F
100
AcDbEntity
  8
0
100
AcDbBlockEnd
  0
BLOCK
  5
1C
330
1B
100
AcDbEntity
 67
     1
  8
0
100
AcDbBlockBegin
  2
*Paper_Space
 70
     0
 10
0.0
 20
0.0
 30
0.0
  3
*Paper_Space
  1

  0
ENDBLK
  5
1D
330
1B
100
AcDbEntity
 67
     1
  8
0
100
AcDbBlockEnd
  0
BLOCK
  5
24
330
23
100
AcDbEntity
  8
0
100
AcDbBlockBegin
  2
*Paper_Space0
 70
     0
 10
0.0
 20
0.0
 30
0.0
  3
*Paper_Space0
  1

  0
ENDBLK
  5
25
330
23
100
AcDbEntity
  8
0
100
AcDbBlockEnd
  0
BLOCK
  5
1A4
330
1A3
100
AcDbEntity
  8
0
100
AcDbBlockBegin
  2
SW_CENTERMARKSYMBOL_0
 70
     0
 10
0.0
 20
0.0
 30
0.0
  3
SW_CENTERMARKSYMBOL_0
  1

  0
LINE
  5
1A6
330
1A3
100
AcDbEntity
  8
0
  6
Continuous
 62
     0
370
    18
100
AcDbLine
 10
0.0
 20
0.0
 30
0.0
 11
0.0
 21
2.5
 31
0.0
  0
LINE
  5
1A7
330
1A3
100
AcDbEntity
  8
0
  6
Continuous
 62
     0
370
    18
100
AcDbLine
 10
0.0
 20
0.0
 30
0.0
 11
-2.5
 21
0.0
 31
0.0
  0
LINE
  5
1A8
330
1A3
100
AcDbEntity
  8
0
  6
Continuous
 62
     0
370
    18
100
AcDbLine
 10
0.0
 20
0.0
 30
0.0
 11
0.0
 21
-2.5
 31
0.0
  0
LINE
  5
1A9
330
1A3
100
AcDbEntity
  8
0
  6
Continuous
 62
     0
370
    18
100
AcDbLine
 10
0.0
 20
0.0
 30
0.0
 11
2.5
 21
0.0
 31
0.0
  0
LINE
  5
1AA
330
1A3
100
AcDbEntity
  8
0
  6
Continuous
 62
     0
370
    18
100
AcDbLine
 10
0.0
 20
5.0
 30
0.0
 11
0.0
 21
26.6395125266
 31
0.0
  0
LINE
  5
1AB
330
1A3
100
AcDbEntity
  8
0
  6
Continuous
 62
     0
370
    18
100
AcDbLine
 10
-5.0
 20
0.0
 30
0.0
 11
-9.5
 21
0.0
 31
0.0
  0
LINE
  5
1AC
330
1A3
100
AcDbEntity
  8
0
  6
Continuous
 62
     0
370
    18
100
AcDbLine
 10
0.0
 20
-5.0
 30
0.0
 11
0.0
 21
-9.5
 31
0.0
  0
LINE
  5
1AD
330
1A3
100
AcDbEntity
  8
0
  6
Continuous
 62
     0
370
    18
100
AcDbLine
 10
5.0
 20
0.0
 30
0.0
 11
9.5
 21
0.0
 31
0.0
  0
ENDBLK
  5
1A5
330
1A3
100
AcDbEntity
  8
0
100
AcDbBlockEnd
  0
BLOCK
  5
245
330
244
100
AcDbEntity
  8
0
100
AcDbBlockBegin
  2
SW_CENTERMARKSYMBOL_1
 70
     0
 10
0.0
 20
0.0
 30
0.0
  3
SW_CENTERMARKSYMBOL_1
  1

  0
LINE
  5
247
330
244
100
AcDbEntity
  8
0
  6
Continuous
 62
     0
370
    18
100
AcDbLine
 10
0.0
 20
0.0
 30
0.0
 11
0.0
 21
2.5
 31
0.0
  0
LINE
  5
248
330
244
100
AcDbEntity
  8
0
  6
Continuous
 62
     0
370
    18
100
AcDbLine
 10
0.0
 20
0.0
 30
0.0
 11
-2.5
 21
0.0
 31
0.0
  0
LINE
  5
249
330
244
100
AcDbEntity
  8
0
  6
Continuous
 62
     0
370
    18
100
AcDbLine
 10
0.0
 20
0.0
 30
0.0
 11
0.0
 21
-2.5
 31
0.0
  0
LINE
  5
24A
330
244
100
AcDbEntity
  8
0
  6
Continuous
 62
     0
370
    18
100
AcDbLine
 10
0.0
 20
0.0
 30
0.0
 11
2.5
 21
0.0
 31
0.0
  0
LINE
  5
24B
330
244
100
AcDbEntity
  8
0
  6
Continuous
 62
     0
370
    18
100
AcDbLine
 10
0.0
 20
5.0
 30
0.0
 11
0.0
 21
9.5
 31
0.0
  0
LINE
  5
24C
330
244
100
AcDbEntity
  8
0
  6
Continuous
 62
     0
370
    18
100
AcDbLine
 10
-5.0
 20
0.0
 30
0.0
 11
-27.1901017036
 21
0.0
 31
0.0
  0
LINE
  5
24D
330
244
100
AcDbEntity
  8
0
  6
Continuous
 62
     0
370
    18
100
AcDbLine
 10
0.0
 20
-5.0
 30
0.0
 11
0.0
 21
-9.5
 31
0.0
  0
LINE
  5
24E
330
244
100
AcDbEntity
  8
0
  6
Continuous
 62
     0
370
    18
100
AcDbLine
 10
5.0
 20
0.0
 30
0.0
 11
27.9612149143
 21
0.0
 31
0.0
  0
ENDBLK
  5
246
330
244
100
AcDbEntity
  8
0
100
AcDbBlockEnd
  0
ENDSEC
  0
SECTION
  2
ENTITIES
  0
MTEXT
  5
74
330
1F
100
AcDbEntity
  8
0
  6
Continuous
 62
     7
370
     0
100
AcDbMText
 10
151.5863902061
 20
122.5649353408
 30
0.0
 40
5.2916666667
 41
0.0
 71
     1
 72
     1
  1
5R-TM1333
  7
SLDTEXTSTYLE0
 73
     1
 44
1.0
  0
LINE
  5
75
330
1F
100
AcDbEntity
  8
0
  6
Continuous
 62
     7
370
    25
100
AcDbLine
 10
141.8748091121
 20
95.792451565
 30
0.0
 11
141.5456517745
 21
106.3254817099
 31
0.0
  0
LINE
  5
76
330
1F
100
AcDbEntity
  8
0
  6
Continuous
 62
     7
370
    25
100
AcDbLine
 10
125.1608192135
 20
106.3254817099
 30
0.0
 11
124.831661876
 21
95.792451565
 31
0.0
  0
ARC
  5
77
330
1F
100
AcDbEntity
  8
0
  6
Continuous
 62
     7
370
    25
100
AcDbCircle
 10
125.853235494
 20
96.8908083559
 30
0.0
 40
1.499999999999987
100
AcDbArc
 50
227.0743223655
 51
258.4630409672
  0
ARC
  5
78
330
1F
100
AcDbEntity
  8
0
  6
Continuous
 62
     7
370
    25
100
AcDbCircle
 10
140.853235494
 20
96.8908083559
 30
0.0
 40
1.49999999999999
100
AcDbArc
 50
281.5369590328
 51
312.9256776345
  0
LINE
  5
79
330
1F
100
AcDbEntity
  8
0
  6
Continuous
 62
     7
370
    25
100
AcDbLine
 10
145.7548787032
 20
74.8692347378
 30
0.0
 11
156.287908848
 21
75.1983920754
 31
0.0
  0
LINE
  5
7A
330
1F
100
AcDbEntity
  8
0
  6
Continuous
 62
     7
370
    25
100
AcDbLine
 10
156.287908848
 20
91.5832246364
 30
0.0
 11
145.7548787032
 21
91.9123819739
 31
0.0
  0
ARC
  5
7B
330
1F
100
AcDbEntity
  8
0
  6
Continuous
 62
     7
370
    25
100
AcDbCircle
 10
146.853235494
 20
90.8908083559
 30
0.0
 40
1.500000000000007
100
AcDbArc
 50
137.0743223655
 51
168.4630409672
  0
ARC
  5
7C
330
1F
100
AcDbEntity
  8
0
  6
Continuous
 62
     7
370
    25
100
AcDbCircle
 10
146.853235494
 20
75.8908083559
 30
0.0
 40
1.500000000000007
100
AcDbArc
 50
191.5369590328
 51
222.9256776345
  0
ARC
  5
7D
330
1F
100
AcDbEntity
  8
0
  6
Continuous
 62
     7
370
    25
100
AcDbCircle
 10
119.853235494
 20
90.8908083559
 30
0.0
 40
1.500000000000008
100
AcDbArc
 50
11.5369590328
 51
42.9256776345
  0
ARC
  5
7E
330
1F
100
AcDbEntity
  8
0
  6
Continuous
 62
     7
370
    25
100
AcDbCircle
 10
119.853235494
 20
75.8908083559
 30
0.0
 40
1.500000000000008
100
AcDbArc
 50
317.0743223655
 51
348.4630409672
  0
LINE
  5
7F
330
1F
100
AcDbEntity
  8
0
  6
Continuous
 62
     7
370
    25
100
AcDbLine
 10
120.9515922849
 20
91.9123819739
 30
0.0
 11
110.41856214
 21
91.5832246364
 31
0.0
  0
LINE
  5
80
330
1F
100
AcDbEntity
  8
0
  6
Continuous
 62
     7
370
    25
100
AcDbLine
 10
110.41856214
 20
75.1983920754
 30
0.0
 11
120.9515922849
 21
74.8692347378
 31
0.0
  0
LINE
  5
81
330
1F
100
AcDbEntity
  8
0
  6
Continuous
 62
     7
370
    25
100
AcDbLine
 10
156.287908848
 20
75.1983920754
 30
0.0
 11
158.3532358665
 21
76.3908081398
 31
0.0
  0
LINE
  5
82
330
1F
100
AcDbEntity
  8
0
  6
Continuous
 62
     7
370
    25
100
AcDbLine
 10
158.3532358665
 20
90.390808572
 30
0.0
 11
156.287908848
 21
91.5832246364
 31
0.0
  0
LINE
  5
83
330
1F
100
AcDbEntity
  8
0
  6
Continuous
 62
     7
370
    25
100
AcDbLine
 10
141.5456517745
 20
106.3254817099
 30
0.0
 11
140.3532357101
 21
108.3908087284
 31
0.0
  0
LINE
  5
84
330
1F
100
AcDbEntity
  8
0
  6
Continuous
 62
     7
370
    25
100
AcDbLine
 10
126.3532352779
 20
108.3908087284
 30
0.0
 11
125.1608192135
 21
106.3254817099
 31
0.0
  0
LINE
  5
85
330
1F
100
AcDbEntity
  8
0
  6
Continuous
 62
     7
370
    25
100
AcDbLine
 10
110.41856214
 20
91.5832246364
 30
0.0
 11
108.3532351215
 21
90.390808572
 31
0.0
  0
LINE
  5
86
330
1F
100
AcDbEntity
  8
0
  6
Continuous
 62
     7
370
    25
100
AcDbLine
 10
108.3532351215
 20
76.3908081398
 30
0.0
 11
110.41856214
 21
75.1983920754
 31
0.0
  0
ARC
  5
87
330
1F
100
AcDbEntity
  8
0
  6
Continuous
 62
     7
370
    25
100
AcDbCircle
 10
122.3027252368
 20
91.3908083559
 30
0.0
 40
1.000000000000004
100
AcDbArc
 50
191.5369590328
 51
270.0
  0
ARC
  5
88
330
1F
100
AcDbEntity
  8
0
  6
Continuous
 62
     7
370
    25
100
AcDbCircle
 10
122.3027252368
 20
75.3908083559
 30
0.0
 40
1.000000000000006
100
AcDbArc
 50
90.0
 51
168.4630409672
  0
ARC
  5
89
330
1F
100
AcDbEntity
  8
0
  6
Continuous
 62
     7
370
    25
100
AcDbCircle
 10
144.4037457512
 20
91.3908083559
 30
0.0
 40
1.000000000000017
100
AcDbArc
 50
270.0
 51
348.4630409672
  0
ARC
  5
8A
330
1F
100
AcDbEntity
  8
0
  6
Continuous
 62
     7
370
    25
100
AcDbCircle
 10
144.4037457512
 20
75.3908083559
 30
0.0
 40
1.00000000000002
100
AcDbArc
 50
11.5369590328
 51
90.0
  0
ARC
  5
8B
330
1F
100
AcDbEntity
  8
0
  6
Continuous
 62
     7
370
    25
100
AcDbCircle
 10
125.353235494
 20
94.4413186131
 30
0.0
 40
1.000000000000006
100
AcDbArc
 50
0.0
 51
78.4630409672
  0
ARC
  5
8C
330
1F
100
AcDbEntity
  8
0
  6
Continuous
 62
     7
370
    25
100
AcDbCircle
 10
141.353235494
 20
94.4413186131
 30
0.0
 40
1.000000000000004
100
AcDbArc
 50
101.5369590328
 51
180.0
  0
LINE
  5
8D
330
1F
100
AcDbEntity
  8
0
  6
Continuous
 62
     7
370
    25
100
AcDbLine
 10
125.8532356617
 20
90.390808572
 30
0.0
 11
122.3027252738
 21
90.390808572
 31
0.0
  0
LINE
  5
8E
330
1F
100
AcDbEntity
  8
0
  6
Continuous
 62
     7
370
    25
100
AcDbLine
 10
144.4037457142
 20
90.390808572
 30
0.0
 11
140.8532353264
 21
90.390808572
 31
0.0
  0
LINE
  5
8F
330
1F
100
AcDbEntity
  8
0
  6
Continuous
 62
     7
370
    25
100
AcDbLine
 10
122.3027252738
 20
76.3908081398
 30
0.0
 11
144.4037457142
 21
76.3908081398
 31
0.0
  0
LINE
  5
90
330
1F
100
AcDbEntity
  8
0
  6
Continuous
 62
     7
370
    25
100
AcDbLine
 10
126.3532352779
 20
94.4413185761
 30
0.0
 11
126.3532352779
 21
90.8908081883
 31
0.0
  0
LINE
  5
91
330
1F
100
AcDbEntity
  8
0
  6
Continuous
 62
     7
370
    25
100
AcDbLine
 10
140.3532357101
 20
90.8908081883
 30
0.0
 11
140.3532357101
 21
94.4413185761
 31
0.0
  0
SPLINE
  5
92
330
1F
100
AcDbEntity
  8
0
  6
Continuous
 62
     7
370
    25
100
AcDbSpline
210
0.0
220
0.0
230
1.0
 70
     8
 71
     3
 72
    11
 73
     7
 74
     0
 42
0.000000001
 43
0.00000001
 40
0.0
 40
0.0
 40
0.0
 40
0.0
 40
0.2501293618956914
 40
0.5
 40
0.7498706381043087
 40
1.0
 40
1.0
 40
1.0
 40
1.0
 10
140.8531799126843
 20
90.39075641789158
 30
0.0
 10
140.787727975063
 20
90.39849494205589
 30
0.0
 10
140.6568918006827
 20
90.41396398596514
 30
0.0
 10
140.4910774488891
 20
90.52865031076249
 30
0.0
 10
140.3763911240917
 20
90.6944646625561
 30
0.0
 10
140.3609220801825
 20
90.82530083693642
 30
0.0
 10
140.3531835560182
 20
90.89075277455767
 30
0.0
  0
SPLINE
  5
93
330
1F
100
AcDbEntity
  8
0
  6
Continuous
 62
     7
370
    25
100
AcDbSpline
210
0.0
220
0.0
230
1.0
 70
     8
 71
     3
 72
    11
 73
     7
 74
     0
 42
0.000000001
 43
0.00000001
 40
0.0
 40
0.0
 40
0.0
 40
0.0
 40
0.2501293618956914
 40
0.5
 40
0.7498706381043087
 40
1.0
 40
1.0
 40
1.0
 40
1.0
 10
126.3532874320128
 20
90.89075277455767
 30
0.0
 10
126.3455489078486
 20
90.82530083693642
 30
0.0
 10
126.3300798639393
 20
90.6944646625561
 30
0.0
 10
126.215393539142
 20
90.52865031076249
 30
0.0
 10
126.0495791873484
 20
90.41396398596514
 30
0.0
 10
125.918743012968
 20
90.3984949420559
 30
0.0
 10
125.8532910753468
 20
90.39075641789158
 30
0.0
  0
LINE
  5
94
330
1F
100
AcDbEntity
  8
0
  6
Continuous
 62
     7
370
    25
100
AcDbLine
 10
141.8748091121
 20
95.792451565
 30
0.0
 11
124.831661876
 21
95.792451565
 31
0.0
  0
LINE
  5
95
330
1F
100
AcDbEntity
  8
0
  6
Continuous
 62
     7
370
    25
100
AcDbLine
 10
125.1608192135
 20
106.3254817099
 30
0.0
 11
141.5456517745
 21
106.3254817099
 31
0.0
  0
LINE
  5
96
330
1F
100
AcDbEntity
  8
0
  6
Continuous
 62
     7
370
    25
100
AcDbLine
 10
156.287908848
 20
83.3908083559
 30
0.0
 11
156.287908848
 21
91.5832246364
 31
0.0
  0
LINE
  5
97
330
1F
100
AcDbEntity
  8
0
  6
Continuous
 62
     7
370
    25
100
AcDbLine
 10
156.287908848
 20
75.1983920754
 30
0.0
 11
156.287908848
 21
83.3908083559
 31
0.0
  0
LINE
  5
98
330
1F
100
AcDbEntity
  8
0
  6
Continuous
 62
     7
370
    25
100
AcDbLine
 10
145.7548787032
 20
74.8692347378
 30
0.0
 11
145.7548787032
 21
91.9123819739
 31
0.0
  0
LINE
  5
99
330
1F
100
AcDbEntity
  8
0
  6
Continuous
 62
     7
370
    25
100
AcDbLine
 10
120.9515922849
 20
91.9123819739
 30
0.0
 11
120.9515922849
 21
74.8692347378
 31
0.0
  0
LINE
  5
9A
330
1F
100
AcDbEntity
  8
0
  6
Continuous
 62
     7
370
    25
100
AcDbLine
 10
110.41856214
 20
75.1983920754
 30
0.0
 11
110.41856214
 21
91.5832246364
 31
0.0
  0
LINE
  5
9B
330
1F
100
AcDbEntity
  8
0
  6
Continuous
 62
     7
370
    25
100
AcDbLine
 10
158.3532358665
 20
90.390808572
 30
0.0
 11
158.3532358665
 21
76.3908081398
 31
0.0
  0
LINE
  5
9C
330
1F
100
AcDbEntity
  8
0
  6
Continuous
 62
     7
370
    25
100
AcDbLine
 10
140.3532357101
 20
108.3908087284
 30
0.0
 11
126.3532352779
 21
108.3908087284
 31
0.0
  0
LINE
  5
9D
330
1F
100
AcDbEntity
  8
0
  6
Continuous
 62
     7
370
    25
100
AcDbLine
 10
108.3532351215
 20
90.390808572
 30
0.0
 11
108.3532351215
 21
76.3908081398
 31
0.0
  0
LINE
  5
9E
330
1F
100
AcDbEntity
  8
0
  6
Continuous
 62
     7
370
    25
100
AcDbLine
 10
134.8529275885
 20
79.7458981805
 30
0.0
 11
135.5421455257
 21
78.4320190259
 31
0.0
  0
ARC
  5
9F
330
1F
100
AcDbEntity
  8
0
  6
Continuous
 62
     7
370
    25
100
AcDbCircle
 10
135.6089972735
 20
78.4670871394
 30
0.0
 40
0.0754912582857716
100
AcDbArc
 50
207.6800279694
 51
311.070386533
  0
ARC
  5
A0
330
1F
100
AcDbEntity
  8
0
  6
Continuous
 62
     7
370
    25
100
AcDbCircle
 10
137.353235494
 20
76.4655419398
 30
0.0
 40
2.579419315655421
100
AcDbArc
 50
48.929613467
 51
131.070386533
  0
ARC
  5
A1
330
1F
100
AcDbEntity
  8
0
  6
Continuous
 62
     7
370
    25
100
AcDbCircle
 10
139.0974737145
 20
78.4670871394
 30
0.0
 40
0.075491258285771
100
AcDbArc
 50
228.929613467
 51
332.3199720306
  0
LINE
  5
A2
330
1F
100
AcDbEntity
  8
0
  6
Continuous
 62
     7
370
    25
100
AcDbLine
 10
139.1643256095
 20
78.4320190259
 30
0.0
 11
139.8535434302
 21
79.7458981805
 31
0.0
  0
LINE
  5
A3
330
1F
100
AcDbEntity
  8
0
  6
Continuous
 62
     7
370
    25
100
AcDbLine
 10
139.8535434302
 20
79.7458981805
 30
0.0
 11
139.8137284588
 21
79.7231455044
 31
0.0
  0
ARC
  5
A4
330
1F
100
AcDbEntity
  8
0
  6
Continuous
 62
     7
370
    25
100
AcDbCircle
 10
139.5164297198
 20
80.2433890205
 30
0.0
 40
0.5991992501208568
100
AcDbArc
 50
199.6800689411
 51
299.7462530425
  0
LINE
  5
A5
330
1F
100
AcDbEntity
  8
0
  6
Continuous
 62
     7
370
    25
100
AcDbLine
 10
138.9522308629
 20
80.0415979874
 30
0.0
 11
137.8657248017
 21
83.0794217299
 31
0.0
  0
SPLINE
  5
A6
330
1F
100
AcDbEntity
  8
0
  6
Continuous
 62
     7
370
    25
100
AcDbSpline
210
0.0
220
0.0
230
1.0
 70
     8
 71
     3
 72
    16
 73
    12
 74
     0
 42
0.000000001
 43
0.00000001
 40
0.0
 40
0.0
 40
0.0
 40
0.0
 40
0.1113160552874951
 40
0.2221777142163596
 40
0.333357231917414
 40
0.4444842326561919
 40
0.5552113451997907
 40
0.6662702792617305
 40
0.7776772343596836
 40
0.888683744007764
 40
1.0
 40
1.0
 40
1.0
 40
1.0
 10
137.8657247635746
 20
83.07942173862183
 30
0.0
 10
137.8418608204366
 20
83.11994394067456
 30
0.0
 10
137.7942303476815
 20
83.20082293161467
 30
0.0
 10
137.6864979156156
 20
83.29387634142793
 30
0.0
 10
137.5613843044825
 20
83.3589374523074
 30
0.0
 10
137.4239834565522
 20
83.39209434805505
 30
0.0
 10
137.2828900041361
 20
83.39215762096407
 30
0.0
 10
137.1453918998799
 20
83.35910142231286
 30
0.0
 10
137.0201485064877
 20
83.29400380578154
 30
0.0
 10
136.9122510207099
 20
83.2008922988521
 30
0.0
 10
136.8646032845973
 20
83.11994951595412
 30
0.0
 10
136.8407462244564
 20
83.0794217386217
 30
0.0
  0
LINE
  5
A7
330
1F
100
AcDbEntity
  8
0
  6
Continuous
 62
     7
370
    25
100
AcDbLine
 10
136.8407463335
 20
83.0794217299
 30
0.0
 11
135.7545180392
 21
80.0423756418
 31
0.0
  0
ARC
  5
A8
330
1F
100
AcDbEntity
  8
0
  6
Continuous
 62
     7
370
    25
100
AcDbCircle
 10
135.1903193592
 20
80.2441665508
 30
0.0
 40
0.5991992501208512
100
AcDbArc
 50
241.1755227373
 51
340.3199310589
  0
LINE
  5
A9
330
1F
100
AcDbEntity
  8
0
  6
Continuous
 62
     7
370
    25
100
AcDbLine
 10
134.9014286563
 20
79.7192076397
 30
0.0
 11
134.8529275885
 21
79.7458981805
 31
0.0
  0
SPLINE
  5
AA
330
1F
100
AcDbEntity
  8
0
  6
Continuous
 62
     7
370
    25
100
AcDbSpline
210
0.0
220
0.0
230
1.0
 70
     8
 71
     3
 72
    16
 73
    12
 74
     0
 42
0.000000001
 43
0.00000001
 40
0.0
 40
0.0
 40
0.0
 40
0.0
 40
0.0739298478380645
 40
0.1513677900875573
 40
0.2324450724520033
 40
0.3172760505712285
 40
0.4059605604870915
 40
0.4985859785248051
 40
0.6141264807254729
 40
0.7496239523722917
 40
1.0
 40
1.0
 40
1.0
 40
1.0
 10
126.3532354940155
 20
80.79273214453559
 30
0.0
 10
126.3523201887228
 20
80.85814377903053
 30
0.0
 10
126.3504461453768
 20
80.99207093902145
 30
0.0
 10
126.3360713938165
 20
81.1973129145567
 30
0.0
 10
126.3133780483233
 20
81.41144048212706
 30
0.0
 10
126.2814154890978
 20
81.63445556950481
 30
0.0
 10
126.240472707928
 20
81.8663658849114
 30
0.0
 10
126.1870050171879
 20
82.12353358565487
 30
0.0
 10
126.1164023567023
 20
82.41930770876266
 30
0.0
 10
126.0038956542348
 20
82.84843506419493
 30
0.0
 10
125.9125230714269
 20
83.17737436995422
 30
0.0
 10
125.8532354940155
 20
83.39080835588892
 30
0.0
  0
SPLINE
  5
AB
330
1F
100
AcDbEntity
  8
0
  6
Continuous
 62
     7
370
    25
100
AcDbSpline
210
0.0
220
0.0
230
1.0
 70
     8
 71
     3
 72
    14
 73
    10
 74
     0
 42
0.000000001
 43
0.00000001
 40
0.0
 40
0.0
 40
0.0
 40
0.0
 40
0.2503818975769405
 40
0.3853960642454612
 40
0.5014219062737861
 40
0.6386745024418747
 40
0.7672919706928744
 40
0.8876008223903926
 40
1.0
 40
1.0
 40
1.0
 40
1.0
 10
125.8532354940155
 20
83.39080835588892
 30
0.0
 10
125.9127685777453
 20
83.604178063585
 30
0.0
 10
126.0044038612219
 20
83.93260374599683
 30
0.0
 10
126.1169299153995
 20
84.36173663857085
 30
0.0
 10
126.1965881250828
 20
84.69593453560188
 30
0.0
 10
126.2632585908801
 20
85.0272974054385
 30
0.0
 10
126.3142808947218
 20
85.36520965250958
 30
0.0
 10
126.3467961867422
 20
85.68352571297706
 30
0.0
 10
126.3511382534265
 20
85.88943117013164
 30
0.0
 10
126.3532354940155
 20
85.98888456724224
 30
0.0
  0
LINE
  5
AC
330
1F
100
AcDbEntity
  8
0
  6
Continuous
 62
     7
370
    25
100
AcDbLine
 10
126.3532352779
 20
85.9888844834
 30
0.0
 11
126.3532352779
 21
88.8908544266
 31
0.0
  0
SPLINE
  5
AD
330
1F
100
AcDbEntity
  8
0
  6
Continuous
 62
     7
370
    25
100
AcDbSpline
210
0.0
220
0.0
230
1.0
 70
     8
 71
     3
 72
    19
 73
    15
 74
     0
 42
0.000000001
 43
0.00000001
 40
0.0
 40
0.0
 40
0.0
 40
0.0
 40
0.0504323727095946
 40
0.1003565609002702
 40
0.1500822900422585
 40
0.199922985600534
 40
0.250189922563005
 40
0.3750855037481943
 40
0.5000544104077007
 40
0.6247887185113573
 40
0.7499189120354086
 40
0.8333029051587477
 40
0.9161791203953933
 40
1.0
 40
1.0
 40
1.0
 40
1.0
 10
127.8531894259703
 20
90.39080835588892
 30
0.0
 10
127.852300642678
 20
90.35122738718445
 30
0.0
 10
127.8505320319661
 20
90.27246428953774
 30
0.0
 10
127.8362926781757
 20
90.15538384728355
 30
0.0
 10
127.8135312413312
 20
90.04022043842744
 30
0.0
 10
127.7814320739338
 20
89.92697372276807
 30
0.0
 10
127.7201276854287
 20
89.76129203704804
 30
0.0
 10
127.6088924934532
 20
89.5517922331349
 30
0.0
 10
127.4206802024855
 20
89.32362312868534
 30
0.0
 10
127.1923953990304
 20
89.13527345298924
 30
0.0
 10
126.9598626427383
 20
89.01164659936148
 30
0.0
 10
126.7430054566145
 20
88.93784786990015
 30
0.0
 10
126.5499441587393
 20
88.8981168216848
 30
0.0
 10
126.4190523015299
 20
88.89328435164231
 30
0.0
 10
126.3532354940155
 20
88.89085442393413
 30
0.0
  0
LINE
  5
AE
330
1F
100
AcDbEntity
  8
0
  6
Continuous
 62
     7
370
    25
100
AcDbLine
 10
127.8531894234
 20
90.390808572
 30
0.0
 11
130.7551593665
 21
90.390808572
 31
0.0
  0
SPLINE
  5
AF
330
1F
100
AcDbEntity
  8
0
  6
Continuous
 62
     7
370
    25
100
AcDbSpline
210
0.0
220
0.0
230
1.0
 70
     8
 71
     3
 72
    10
 73
     6
 74
     0
 42
0.000000001
 43
0.00000001
 40
-0.796694357225795
 40
-0.796694357225795
 40
-0.796694357225795
 40
-0.796694357225795
 40
-0.533073702210409
 40
-0.533073702210409
 40
-0.532116113157305
 40
-0.532116113157305
 40
-0.532116113157305
 40
-0.532116113157305
 10
130.7551592826622
 20
90.39080835589617
 30
0.0
 10
131.6338947993786
 20
90.39080835589334
 30
0.0
 10
132.4961827353135
 20
90.65727575895338
 30
0.0
 10
133.3470865356735
 20
90.88909228791658
 30
0.0
 10
133.3501596410135
 20
90.88995526775705
 30
0.0
 10
133.3532354940155
 20
90.89080835588892
 30
0.0
  0
SPLINE
  5
B0
330
1F
100
AcDbEntity
  8
0
  6
Continuous
 62
     7
370
    25
100
AcDbSpline
210
0.0
220
0.0
230
1.0
 70
     8
 71
     3
 72
    10
 73
     6
 74
     0
 42
0.000000001
 43
0.00000001
 40
-0.263620655015386
 40
-0.263620655015386
 40
-0.263620655015386
 40
-0.263620655015386
 40
-0.2626630659468851
 40
-0.2626630659468851
 40
0.0009575890685009
 40
0.0009575890685009
 40
0.0009575890685009
 40
0.0009575890685009
 10
133.3532354940155
 20
90.89080835588892
 30
0.0
 10
133.356311347067
 20
90.88995526774332
 30
0.0
 10
133.3593853453724
 20
90.88909582247126
 30
0.0
 10
134.2099377108811
 20
90.65589507350174
 30
0.0
 10
135.0725761886509
 20
90.39080835588892
 30
0.0
 10
135.9513117053689
 20
90.39080835588892
 30
0.0
  0
LINE
  5
B1
330
1F
100
AcDbEntity
  8
0
  6
Continuous
 62
     7
370
    25
100
AcDbLine
 10
135.9513116215
 20
90.390808572
 30
0.0
 11
138.8532815647
 21
90.390808572
 31
0.0
  0
SPLINE
  5
B2
330
1F
100
AcDbEntity
  8
0
  6
Continuous
 62
     7
370
    25
100
AcDbSpline
210
0.0
220
0.0
230
1.0
 70
     8
 71
     3
 72
    19
 73
    15
 74
     0
 42
0.000000001
 43
0.00000001
 40
0.0
 40
0.0
 40
0.0
 40
0.0
 40
0.0504323727096602
 40
0.1003565609003688
 40
0.1500822900423565
 40
0.199922985600599
 40
0.2501899225630071
 40
0.3750855037480327
 40
0.5000544104076973
 40
0.624788718511343
 40
0.7499189120354135
 40
0.8333029051590075
 40
0.916179120395655
 40
1.0
 40
1.0
 40
1.0
 40
1.0
 10
140.3532354940155
 20
88.8908544239341
 30
0.0
 10
140.313654525311
 20
88.89174320722641
 30
0.0
 10
140.2348914276642
 20
88.89351181793833
 30
0.0
 10
140.1178109854099
 20
88.90775117172869
 30
0.0
 10
140.0026475765538
 20
88.93051260857321
 30
0.0
 10
139.8894008608946
 20
88.96261177597061
 30
0.0
 10
139.7237191751748
 20
89.02391616447576
 30
0.0
 10
139.5142193712618
 20
89.13515135645136
 30
0.0
 10
139.2860502668121
 20
89.32336364741876
 30
0.0
 10
139.0977005911156
 20
89.55164845087373
 30
0.0
 10
138.974073737488
 20
89.78418120716617
 30
0.0
 10
138.9002750080269
 20
90.0010383932902
 30
0.0
 10
138.8605439598114
 20
90.19409969116538
 30
0.0
 10
138.8557114897689
 20
90.32499154837457
 30
0.0
 10
138.8532815620607
 20
90.39080835588875
 30
0.0
  0
LINE
  5
B3
330
1F
100
AcDbEntity
  8
0
  6
Continuous
 62
     7
370
    25
100
AcDbLine
 10
140.3532357101
 20
88.8908544266
 30
0.0
 11
140.3532357101
 21
85.9888844834
 31
0.0
  0
SPLINE
  5
B4
330
1F
100
AcDbEntity
  8
0
  6
Continuous
 62
     7
370
    25
100
AcDbSpline
210
0.0
220
0.0
230
1.0
 70
     8
 71
     3
 72
    16
 73
    12
 74
     0
 42
0.000000001
 43
0.00000001
 40
0.0
 40
0.0
 40
0.0
 40
0.0
 40
0.0739298478317502
 40
0.1513677900738161
 40
0.2324450724296886
 40
0.3172760505391666
 40
0.4059605604440887
 40
0.4985859784696513
 40
0.6141264806631028
 40
0.7496239522892343
 40
1.0
 40
1.0
 40
1.0
 40
1.0
 10
140.3532354940155
 20
85.98888456724224
 30
0.0
 10
140.3541507993081
 20
85.9234729327529
 30
0.0
 10
140.3560248426537
 20
85.78954577277413
 30
0.0
 10
140.3703995942111
 20
85.5843037972585
 30
0.0
 10
140.3930929396999
 20
85.37017622971057
 30
0.0
 10
140.4250554989191
 20
85.14716114235807
 30
0.0
 10
140.4659982800809
 20
84.91525082697956
 30
0.0
 10
140.5194659708122
 20
84.65808312626166
 30
0.0
 10
140.5900686312854
 20
84.36230900318735
 30
0.0
 10
140.7025753337608
 20
83.93318164770668
 30
0.0
 10
140.7939479165841
 20
83.60424234189435
 30
0.0
 10
140.8532354940155
 20
83.39080835588892
 30
0.0
  0
SPLINE
  5
B5
330
1F
100
AcDbEntity
  8
0
  6
Continuous
 62
     7
370
    25
100
AcDbSpline
210
0.0
220
0.0
230
1.0
 70
     8
 71
     3
 72
    14
 73
    10
 74
     0
 42
0.000000001
 43
0.00000001
 40
0.0
 40
0.0
 40
0.0
 40
0.0
 40
0.250381897495202
 40
0.3853960641816825
 40
0.5014219062198584
 40
0.6386745024049088
 40
0.7672919706705007
 40
0.8876008223803089
 40
0.9999999999999999
 40
0.9999999999999999
 40
0.9999999999999999
 40
0.9999999999999999
 10
140.8532354940155
 20
83.39080835588892
 30
0.0
 10
140.7937024103055
 20
83.17743864826241
 30
0.0
 10
140.7020671268447
 20
82.84901296590479
 30
0.0
 10
140.5895410726742
 20
82.41988007337827
 30
0.0
 10
140.5098828629772
 20
82.08568217630976
 30
0.0
 10
140.4432123971683
 20
81.7543193064381
 30
0.0
 10
140.3921900933168
 20
81.41640705932929
 30
0.0
 10
140.3596748012902
 20
81.0980909988295
 30
0.0
 10
140.3553327346049
 20
80.89218554165511
 30
0.0
 10
140.3532354940155
 20
80.79273214453559
 30
0.0
  0
LINE
  5
B6
330
1F
100
AcDbEntity
  8
0
  6
Continuous
 62
     7
370
    25
100
AcDbLine
 10
140.3532357101
 20
80.7927322284
 30
0.0
 11
140.3532357101
 21
77.8908083857
 31
0.0
  0
LINE
  5
B7
330
1F
100
AcDbEntity
  8
0
  6
Continuous
 62
     7
370
    25
100
AcDbLine
 10
126.3532352779
 20
77.8908083857
 30
0.0
 11
140.3532357101
 21
77.8908083857
 31
0.0
  0
LINE
  5
B8
330
1F
100
AcDbEntity
  8
0
  6
Continuous
 62
     7
370
    25
100
AcDbLine
 10
126.3532352779
 20
77.8908083857
 30
0.0
 11
126.3532352779
 21
80.7927322284
 31
0.0
  0
SPLINE
  5
B9
330
1F
100
AcDbEntity
  8
0
  6
Continuous
 62
     7
370
    25
100
AcDbSpline
210
0.0
220
0.0
230
1.0
 70
     8
 71
     3
 72
    13
 73
     9
 74
     0
 42
0.000000001
 43
0.00000001
 40
0.0
 40
0.0
 40
0.0
 40
0.0
 40
0.1856794033212272
 40
0.3634611737568169
 40
0.533542336720674
 40
0.6961479207300177
 40
0.8515354443703902
 40
1.0
 40
1.0
 40
1.0
 40
1.0
 10
125.5087786765578
 20
85.81567948647094
 30
0.0
 10
125.4924503707147
 20
85.88300228363939
 30
0.0
 10
125.4604882623652
 20
86.01478439001067
 30
0.0
 10
125.4217694091333
 20
86.20687680671676
 30
0.0
 10
125.3912153300456
 20
86.38946388888847
 30
0.0
 10
125.3695985931364
 20
86.56253772766824
 30
0.0
 10
125.3558908986477
 20
86.72649772855561
 30
0.0
 10
125.354107081391
 20
86.831645751883
 30
0.0
 10
125.3532354940155
 20
86.88302191687794
 30
0.0
  0
SPLINE
  5
BA
330
1F
100
AcDbEntity
  8
0
  6
Continuous
 62
     7
370
    25
100
AcDbSpline
210
0.0
220
0.0
230
1.0
 70
     8
 71
     3
 72
    17
 73
    13
 74
     0
 42
0.000000001
 43
0.00000001
 40
0.0
 40
0.0
 40
0.0
 40
0.0
 40
0.1130667886658668
 40
0.2142471894553318
 40
0.3035410226158834
 40
0.3809482842621089
 40
0.4464692357998273
 40
0.5001045924259258
 40
0.6375226532033567
 40
0.75004211245356
 40
0.8820380142920121
 40
1.0
 40
1.0
 40
1.0
 40
1.0
 10
125.8532354940155
 20
83.39080835588892
 30
0.0
 10
125.8430058679116
 20
83.48452582715085
 30
0.0
 10
125.8236220270171
 20
83.66210852015598
 30
0.0
 10
125.7957277824592
 20
83.91326784118807
 30
0.0
 10
125.7707349747617
 20
84.1343065629091
 30
0.0
 10
125.7486055772277
 20
84.32525356582731
 30
0.0
 10
125.7294057505014
 20
84.48627001367151
 30
0.0
 10
125.7032239851483
 20
84.69559212074212
 30
0.0
 10
125.6702424435573
 20
84.94157506960721
 30
0.0
 10
125.6246481691431
 20
85.24722524058025
 30
0.0
 10
125.5747395124643
 20
85.53336228868073
 30
0.0
 10
125.5299269529846
 20
85.72516331794688
 30
0.0
 10
125.5087786765578
 20
85.81567948647094
 30
0.0
  0
SPLINE
  5
BB
330
1F
100
AcDbEntity
  8
0
  6
Continuous
 62
     7
370
    25
100
AcDbSpline
210
0.0
220
0.0
230
1.0
 70
     8
 71
     3
 72
    14
 73
    10
 74
     0
 42
0.000000001
 43
0.00000001
 40
0.0
 40
0.0
 40
0.0
 40
0.0
 40
0.0771019312675692
 40
0.1604220743863116
 40
0.2500134455674957
 40
0.3625277428666271
 40
0.4999872826714505
 40
0.6965319275930101
 40
1.0
 40
1.0
 40
1.0
 40
1.0
 10
125.5087786765578
 20
80.9659372253069
 30
0.0
 10
125.522907953461
 20
81.0249306861802
 30
0.0
 10
125.552306022655
 20
81.14767538547547
 30
0.0
 10
125.590823918866
 20
81.34276686252845
 30
0.0
 10
125.629886445355
 20
81.56822513938545
 30
0.0
 10
125.6701669517572
 20
81.8400636459879
 30
0.0
 10
125.7188256463057
 20
82.20173770251496
 30
0.0
 10
125.7802604858415
 20
82.7246316631549
 30
0.0
 10
125.8256734348507
 20
83.13919890932954
 30
0.0
 10
125.8532354940155
 20
83.39080835588892
 30
0.0
  0
SPLINE
  5
BC
330
1F
100
AcDbEntity
  8
0
  6
Continuous
 62
     7
370
    25
100
AcDbSpline
210
0.0
220
0.0
230
1.0
 70
     8
 71
     3
 72
    13
 73
     9
 74
     0
 42
0.000000001
 43
0.00000001
 40
0.0
 40
0.0
 40
0.0
 40
0.0
 40
0.1484645556296105
 40
0.303852079269983
 40
0.4664576632793263
 40
0.6365388262431836
 40
0.8143205966787732
 40
1.0
 40
1.0
 40
1.0
 40
1.0
 10
125.3532354940155
 20
79.8985947948999
 30
0.0
 10
125.354107081391
 20
79.94997095989486
 30
0.0
 10
125.3558908986477
 20
80.05511898322221
 30
0.0
 10
125.3695985931364
 20
80.2190789841096
 30
0.0
 10
125.3912153300456
 20
80.39215282288937
 30
0.0
 10
125.4217694091333
 20
80.5747399050611
 30
0.0
 10
125.4604882623652
 20
80.76683232176718
 30
0.0
 10
125.4924503707147
 20
80.89861442813846
 30
0.0
 10
125.5087786765578
 20
80.9659372253069
 30
0.0
  0
LINE
  5
BD
330
1F
100
AcDbEntity
  8
0
  6
Continuous
 62
     7
370
    25
100
AcDbLine
 10
125.353235114
 20
77.3241419055
 30
0.0
 11
125.353235114
 21
79.8985948031
 31
0.0
  0
LINE
  5
BE
330
1F
100
AcDbEntity
  8
0
  6
Continuous
 62
     7
370
    25
100
AcDbLine
 10
141.353235874
 20
77.3241419055
 30
0.0
 11
125.353235114
 21
77.3241419055
 31
0.0
  0
LINE
  5
BF
330
1F
100
AcDbEntity
  8
0
  6
Continuous
 62
     7
370
    25
100
AcDbLine
 10
141.353235874
 20
79.8985948031
 30
0.0
 11
141.353235874
 21
77.3241419055
 31
0.0
  0
SPLINE
  5
C0
330
1F
100
AcDbEntity
  8
0
  6
Continuous
 62
     7
370
    25
100
AcDbSpline
210
0.0
220
0.0
230
1.0
 70
     8
 71
     3
 72
    13
 73
     9
 74
     0
 42
0.000000001
 43
0.00000001
 40
0.0
 40
0.0
 40
0.0
 40
0.0
 40
0.1856794033212448
 40
0.3634611737568449
 40
0.5335423367206995
 40
0.6961479207300406
 40
0.8515354443704051
 40
0.9999999999999999
 40
0.9999999999999999
 40
0.9999999999999999
 40
0.9999999999999999
 10
141.1976923114732
 20
80.9659372253069
 30
0.0
 10
141.2140206173164
 20
80.89861442813844
 30
0.0
 10
141.2459827256658
 20
80.76683232176715
 30
0.0
 10
141.2847015788977
 20
80.57473990506107
 30
0.0
 10
141.3152556579854
 20
80.39215282288934
 30
0.0
 10
141.3368723948946
 20
80.21907898410959
 30
0.0
 10
141.3505800893833
 20
80.0551189832222
 30
0.0
 10
141.35236390664
 20
79.94997095989484
 30
0.0
 10
141.3532354940155
 20
79.8985947948999
 30
0.0
  0
SPLINE
  5
C1
330
1F
100
AcDbEntity
  8
0
  6
Continuous
 62
     7
370
    25
100
AcDbSpline
210
0.0
220
0.0
230
1.0
 70
     8
 71
     3
 72
    16
 73
    12
 74
     0
 42
0.000000001
 43
0.00000001
 40
0.0
 40
0.0
 40
0.0
 40
0.0
 40
0.1113707256031287
 40
0.2115306859456111
 40
0.3004797843893181
 40
0.3782180970979205
 40
0.444745959733242
 40
0.5000641419851813
 40
0.7004020768438615
 40
0.8669907153098478
 40
1.0
 40
1.0
 40
1.0
 40
1.0
 10
140.8532354940155
 20
83.39080835588892
 30
0.0
 10
140.8633131730292
 20
83.2985046567727
 30
0.0
 10
140.8824540948734
 20
83.12318870472487
 30
0.0
 10
140.9100998129193
 20
82.87457605667689
 30
0.0
 10
140.9350486014274
 20
82.65439426760533
 30
0.0
 10
140.957329734557
 20
82.46262765368495
 30
0.0
 10
140.9769088570404
 20
82.29914225338466
 30
0.0
 10
141.0097965770987
 20
82.03628955919014
 30
0.0
 10
141.0576752341746
 20
81.69522924339718
 30
0.0
 10
141.1221885933243
 20
81.29850299019601
 30
0.0
 10
141.1744779605325
 20
81.06818779741492
 30
0.0
 10
141.1976923114732
 20
80.9659372253069
 30
0.0
  0
SPLINE
  5
C2
330
1F
100
AcDbEntity
  8
0
  6
Continuous
 62
     7
370
    25
100
AcDbSpline
210
0.0
220
0.0
230
1.0
 70
     8
 71
     3
 72
    14
 73
    10
 74
     0
 42
0.000000001
 43
0.00000001
 40
0.0
 40
0.0
 40
0.0
 40
0.0
 40
0.0771019312872794
 40
0.1604220744063169
 40
0.2500134455684252
 40
0.3625277428809286
 40
0.4999872826729911
 40
0.6965319256112464
 40
1.0
 40
1.0
 40
1.0
 40
1.0
 10
141.1976923114732
 20
85.81567948647094
 30
0.0
 10
141.1835630345661
 20
85.7566860255827
 30
0.0
 10
141.1541649653679
 20
85.63394132627239
 30
0.0
 10
141.1156470691556
 20
85.4388498492188
 30
0.0
 10
141.0765845426706
 20
85.21339157236567
 30
0.0
 10
141.0363040362771
 20
84.9415530657776
 30
0.0
 10
140.9876453419193
 20
84.57987901085944
 30
0.0
 10
140.9262105024688
 20
84.05698505025941
 30
0.0
 10
140.8807975533979
 20
83.64241780408939
 30
0.0
 10
140.8532354940155
 20
83.39080835588892
 30
0.0
  0
SPLINE
  5
C3
330
1F
100
AcDbEntity
  8
0
  6
Continuous
 62
     7
370
    25
100
AcDbSpline
210
0.0
220
0.0
230
1.0
 70
     8
 71
     3
 72
    13
 73
     9
 74
     0
 42
0.000000001
 43
0.00000001
 40
0.0
 40
0.0
 40
0.0
 40
0.0
 40
0.1484645556295969
 40
0.303852079269964
 40
0.4664576632793
 40
0.6365388262431574
 40
0.814320596678755
 40
1.0
 40
1.0
 40
1.0
 40
1.0
 10
141.3532354940155
 20
86.88302191687794
 30
0.0
 10
141.35236390664
 20
86.831645751883
 30
0.0
 10
141.3505800893833
 20
86.72649772855563
 30
0.0
 10
141.3368723948946
 20
86.56253772766827
 30
0.0
 10
141.3152556579854
 20
86.3894638888885
 30
0.0
 10
141.2847015788977
 20
86.20687680671679
 30
0.0
 10
141.2459827256658
 20
86.01478439001069
 30
0.0
 10
141.2140206173164
 20
85.88300228363939
 30
0.0
 10
141.1976923114732
 20
85.81567948647094
 30
0.0
  0
LINE
  5
C4
330
1F
100
AcDbEntity
  8
0
  6
Continuous
 62
     7
370
    25
100
AcDbLine
 10
141.353235874
 20
88.5241415062
 30
0.0
 11
141.353235874
 21
86.8830219087
 31
0.0
  0
SPLINE
  5
C5
330
1F
100
AcDbEntity
  8
0
  6
Continuous
 62
     7
370
    25
100
AcDbSpline
210
0.0
220
0.0
230
1.0
 70
     8
 71
     3
 72
    13
 73
     9
 74
     0
 42
0.000000001
 43
0.00000001
 40
0.0
 40
0.0
 40
0.0
 40
0.0
 40
0.1257153360577753
 40
0.250986709269415
 40
0.3762164861937409
 40
0.5018074329537138
 40
0.7521854029755236
 40
1.0
 40
1.0
 40
1.0
 40
1.0
 10
141.13487986746
 20
89.10628442238301
 30
0.0
 10
141.1520741446313
 20
89.0851985825323
 30
0.0
 10
141.1864019775023
 20
89.04310136732957
 30
0.0
 10
141.2299715257374
 20
88.97618865149768
 30
0.0
 10
141.2675793293821
 20
88.90667339984621
 30
0.0
 10
141.3086026069631
 20
88.81033996252046
 30
0.0
 10
141.3451311617179
 20
88.68450614697919
 30
0.0
 10
141.3505433324128
 20
88.57741283109604
 30
0.0
 10
141.3532354940155
 20
88.52414168922225
 30
0.0
  0
SPLINE
  5
C6
330
1F
100
AcDbEntity
  8
0
  6
Continuous
 62
     7
370
    25
100
AcDbSpline
210
0.0
220
0.0
230
1.0
 70
     8
 71
     3
 72
    16
 73
    12
 74
     0
 42
0.000000001
 43
0.00000001
 40
0.0
 40
0.0
 40
0.0
 40
0.0
 40
0.065953468215878
 40
0.1324870475734065
 40
0.2006767984510681
 40
0.2715233530653123
 40
0.3459202143274948
 40
0.4246400792148715
 40
0.5083359903947017
 40
0.7405135829365557
 40
1.0
 40
1.0
 40
1.0
 40
1.0
 10
140.3532354940155
 20
89.45747502255558
 30
0.0
 10
140.3767475464425
 20
89.45702299719498
 30
0.0
 10
140.4239784577609
 20
89.45611497056537
 30
0.0
 10
140.4942965440551
 20
89.44888204790303
 30
0.0
 10
140.5639556587277
 20
89.43731408646585
 30
0.0
 10
140.6329319892095
 20
89.42092670076897
 30
0.0
 10
140.7012233633524
 20
89.3997536636372
 30
0.0
 10
140.7688504475926
 20
89.37363646665311
 30
0.0
 10
140.8738519172423
 20
89.32471341832186
 30
0.0
 10
141.0076355647796
 20
89.24053098414716
 30
0.0
 10
141.0909230686325
 20
89.1526601656143
 30
0.0
 10
141.13487986746
 20
89.10628442238301
 30
0.0
  0
SPLINE
  5
C7
330
1F
100
AcDbEntity
  8
0
  6
Continuous
 62
     7
370
    25
100
AcDbSpline
210
0.0
220
0.0
230
1.0
 70
     8
 71
     3
 72
    13
 73
     9
 74
     0
 42
0.000000001
 43
0.00000001
 40
0.0
 40
0.0
 40
0.0
 40
0.0
 40
0.1759205118839867
 40
0.3391896075500394
 40
0.4921931780779421
 40
0.6738397335242767
 40
0.8395017852842264
 40
1.0
 40
1.0
 40
1.0
 40
1.0
 10
139.9996821034222
 20
89.59415852466854
 30
0.0
 10
140.0127806479688
 20
89.58263334727134
 30
0.0
 10
140.0380357483358
 20
89.56041183167645
 30
0.0
 10
140.0838788149161
 20
89.53000821238291
 30
0.0
 10
140.1377697963456
 20
89.50180449993404
 30
0.0
 10
140.2011177176089
 20
89.4778785716882
 30
0.0
 10
140.2756719135065
 20
89.46075232469546
 30
0.0
 10
140.3276553044579
 20
89.45855586500026
 30
0.0
 10
140.3532354940155
 20
89.45747502255558
 30
0.0
  0
SPLINE
  5
C8
330
1F
100
AcDbEntity
  8
0
  6
Continuous
 62
     7
370
    25
100
AcDbSpline
210
0.0
220
0.0
230
1.0
 70
     8
 71
     3
 72
    14
 73
    10
 74
     0
 42
0.000000001
 43
0.00000001
 40
0.0
 40
0.0
 40
0.0
 40
0.0
 40
0.0960186407856747
 40
0.1924368822044046
 40
0.2917857869559113
 40
0.3963838799166358
 40
0.5082236945494524
 40
0.7392053714339348
 40
1.0
 40
1.0
 40
1.0
 40
1.0
 10
126.3532354940155
 20
89.45747502255558
 30
0.0
 10
126.3685160009574
 20
89.45787311045025
 30
0.0
 10
126.399140607704
 20
89.45867094296135
 30
0.0
 10
126.4442655287939
 20
89.46467746548775
 30
0.0
 10
126.4881886061538
 20
89.4741551244181
 30
0.0
 10
126.5308848733253
 20
89.48736395215823
 30
0.0
 10
126.5858973524774
 20
89.50952870779989
 30
0.0
 10
126.6495522699355
 20
89.54489981359411
 30
0.0
 10
126.6869542072523
 20
89.57708849621324
 30
0.0
 10
126.7067888846088
 20
89.59415852466854
 30
0.0
  0
SPLINE
  5
C9
330
1F
100
AcDbEntity
  8
0
  6
Continuous
 62
     7
370
    25
100
AcDbSpline
210
0.0
220
0.0
230
1.0
 70
     8
 71
     3
 72
    15
 73
    11
 74
     0
 42
0.000000001
 43
0.00000001
 40
0.0
 40
0.0
 40
0.0
 40
0.0
 40
0.1336726496021612
 40
0.2596519444552429
 40
0.3787836139818168
 40
0.4920668899310182
 40
0.6351830136473593
 40
0.7645526196418757
 40
0.8844004131119898
 40
1.0
 40
1.0
 40
1.0
 40
1.0
 10
125.571591120571
 20
89.10628442238301
 30
0.0
 10
125.5934866110077
 20
89.13052946073445
 30
0.0
 10
125.636017425528
 20
89.17762414592309
 30
0.0
 10
125.7092132836708
 20
89.24062898993164
 30
0.0
 10
125.7869893632405
 20
89.29572123213015
 30
0.0
 10
125.8786278063649
 20
89.34762222880174
 30
0.0
 10
125.9839561875468
 20
89.39394677345682
 30
0.0
 10
126.104505069854
 20
89.43042461023876
 30
0.0
 10
126.2279245285233
 20
89.45323965156821
 30
0.0
 10
126.3119706571275
 20
89.45608031705422
 30
0.0
 10
126.3532354940155
 20
89.45747502255558
 30
0.0
  0
SPLINE
  5
CA
330
1F
100
AcDbEntity
  8
0
  6
Continuous
 62
     7
370
    25
100
AcDbSpline
210
0.0
220
0.0
230
1.0
 70
     8
 71
     3
 72
    13
 73
     9
 74
     0
 42
0.000000001
 43
0.00000001
 40
0.0
 40
0.0
 40
0.0
 40
0.0
 40
0.123835855545221
 40
0.2479006248871513
 40
0.3726202178325717
 40
0.4984138930967346
 40
0.7490996844582696
 40
1.0
 40
1.0
 40
1.0
 40
1.0
 10
125.3532354940155
 20
88.52414168922225
 30
0.0
 10
125.3539070253319
 20
88.55089335401146
 30
0.0
 10
125.3552513293077
 20
88.60444613473736
 30
0.0
 10
125.3661533129581
 20
88.68276283728665
 30
0.0
 10
125.3835149965705
 20
88.75956246831905
 30
0.0
 10
125.4162026380037
 20
88.85908910399372
 30
0.0
 10
125.4720874389281
 20
88.9782522278482
 30
0.0
 10
125.538413770951
 20
89.06359485742858
 30
0.0
 10
125.571591120571
 20
89.10628442238301
 30
0.0
  0
LINE
  5
CB
330
1F
100
AcDbEntity
  8
0
  6
Continuous
 62
     7
370
    25
100
AcDbLine
 10
125.353235114
 20
86.8830219087
 30
0.0
 11
125.353235114
 21
88.5241415062
 31
0.0
  0
LINE
  5
CC
330
1F
100
AcDbEntity
  8
0
  6
Continuous
 62
     7
370
    25
100
AcDbLine
 10
129.6115781326
 20
90.8908081883
 30
0.0
 11
127.8532355238
 21
90.8908081883
 31
0.0
  0
SPLINE
  5
CD
330
1F
100
AcDbEntity
  8
0
  6
Continuous
 62
     7
370
    25
100
AcDbSpline
210
0.0
220
0.0
230
1.0
 70
     8
 71
     3
 72
     8
 73
     4
 74
     0
 42
0.000000001
 43
0.00000001
 40
0.0000000000000001
 40
0.0000000000000001
 40
0.0000000000000001
 40
0.0000000000000001
 40
0.127234597098751
 40
0.127234597098751
 40
0.127234597098751
 40
0.127234597098751
 10
129.6115781072416
 20
90.89080835588892
 30
0.0
 10
129.9791447210824
 20
90.89080835588892
 30
0.0
 10
130.3665732879612
 20
90.85854486687599
 30
0.0
 10
130.7551592826746
 20
90.81303676461812
 30
0.0
  0
SPLINE
  5
CE
330
1F
100
AcDbEntity
  8
0
  6
Continuous
 62
     7
370
    25
100
AcDbSpline
210
0.0
220
0.0
230
1.0
 70
    24
 71
     3
 72
    10
 73
     6
 74
     0
 42
0.000000001
 43
0.00000001
 40
0.0
 40
0.0
 40
0.0
 40
0.0
 40
0.5
 40
0.5
 40
1.0
 40
1.0
 40
1.0
 40
1.0
 10
130.7551592826622
 20
90.39080835588892
 30
0.0
 10
130.7551592826622
 20
90.4746042094352
 30
0.0
 10
130.7551592826622
 20
90.55831189016067
 30
0.0
 10
130.7551592826622
 20
90.70516390903754
 30
0.0
 10
130.7551592826622
 20
90.76815372454612
 30
0.0
 10
130.7551592826622
 20
90.81303676461778
 30
0.0
  0
SPLINE
  5
CF
330
1F
100
AcDbEntity
  8
0
  6
Continuous
 62
     7
370
    25
100
AcDbSpline
210
0.0
220
0.0
230
1.0
 70
     8
 71
     3
 72
    14
 73
    10
 74
     0
 42
0.000000001
 43
0.00000001
 40
0.0
 40
0.0
 40
0.0
 40
0.0
 40
0.1488603597576148
 40
0.3150273328471772
 40
0.4987646698883385
 40
0.5951853465608922
 40
0.7494349165377944
 40
0.8793203508289453
 40
1.0
 40
1.0
 40
1.0
 40
1.0
 10
127.4882187092165
 20
90.73251399941125
 30
0.0
 10
127.5046970921309
 20
90.71730324199955
 30
0.0
 10
127.539569646702
 20
90.68511331349339
 30
0.0
 10
127.5987200224322
 20
90.63048928238912
 30
0.0
 10
127.6532965458828
 20
90.57978361993987
 30
0.0
 10
127.7078526860817
 20
90.52976698035692
 30
0.0
 10
127.7560184504731
 20
90.48509328484577
 30
0.0
 10
127.8071076580583
 20
90.43651602236591
 30
0.0
 10
127.8382097344193
 20
90.40566643916931
 30
0.0
 10
127.8531894259703
 20
90.39080835588892
 30
0.0
  0
ARC
  5
D0
330
1F
100
AcDbEntity
  8
0
  6
Continuous
 62
     7
370
    25
100
AcDbCircle
 10
127.853235494
 20
90.3908083559
 30
0.0
 40
0.5
100
AcDbArc
 50
90.0
 51
136.8892083855
  0
LINE
  5
D1
330
1F
100
AcDbEntity
  8
0
  6
Continuous
 62
     7
370
    25
100
AcDbLine
 10
140.8532353264
 20
88.8908083261
 30
0.0
 11
140.8532353264
 21
87.1324657173
 31
0.0
  0
SPLINE
  5
D2
330
1F
100
AcDbEntity
  8
0
  6
Continuous
 62
     7
370
    25
100
AcDbSpline
210
0.0
220
0.0
230
1.0
 70
     8
 71
     3
 72
    11
 73
     7
 74
     0
 42
0.000000001
 43
0.00000001
 40
0.0
 40
0.0
 40
0.0
 40
0.0
 40
0.2815942436633383
 40
0.5420860673673156
 40
0.7815308548566234
 40
1.0
 40
1.0
 40
1.0
 40
1.0
 10
140.7754639027443
 20
85.98888456723336
 30
0.0
 10
140.7875077597389
 20
86.09684890091624
 30
0.0
 10
140.8106929178911
 20
86.30468681798698
 30
0.0
 10
140.8348206019222
 20
86.60317750365563
 30
0.0
 10
140.8502290203654
 20
86.87668773384374
 30
0.0
 10
140.8522644145343
 20
87.04985042485077
 30
0.0
 10
140.8532354940155
 20
87.13246574266287
 30
0.0
  0
SPLINE
  5
D3
330
1F
100
AcDbEntity
  8
0
  6
Continuous
 62
     7
370
    25
100
AcDbSpline
210
0.0
220
0.0
230
1.0
 70
    24
 71
     3
 72
    10
 73
     6
 74
     0
 42
0.000000001
 43
0.00000001
 40
0.0
 40
0.0
 40
0.0
 40
0.0
 40
0.5
 40
0.5
 40
1.0
 40
1.0
 40
1.0
 40
1.0
 10
140.3532354940155
 20
85.98888456724224
 30
0.0
 10
140.4370313475618
 20
85.98888456724224
 30
0.0
 10
140.5207390282873
 20
85.98888456724224
 30
0.0
 10
140.6675910471641
 20
85.98888456724224
 30
0.0
 10
140.7305808626727
 20
85.98888456724224
 30
0.0
 10
140.7754639027443
 20
85.98888456724224
 30
0.0
  0
SPLINE
  5
D4
330
1F
100
AcDbEntity
  8
0
  6
Continuous
 62
     7
370
    25
100
AcDbSpline
210
0.0
220
0.0
230
1.0
 70
     8
 71
     3
 72
    14
 73
    10
 74
     0
 42
0.000000001
 43
0.00000001
 40
0.0
 40
0.0
 40
0.0
 40
0.0
 40
0.1488603598374869
 40
0.3150273329269794
 40
0.4987646698885773
 40
0.5951853465829806
 40
0.7494349165379153
 40
0.8793203509512854
 40
1.0
 40
1.0
 40
1.0
 40
1.0
 10
140.6949411375378
 20
89.2558251406879
 30
0.0
 10
140.6797303801175
 20
89.23934675776506
 30
0.0
 10
140.6475404516022
 20
89.20447420318573
 30
0.0
 10
140.5929164204944
 20
89.14532382745665
 30
0.0
 10
140.5422107580546
 20
89.09074730400913
 30
0.0
 10
140.4921941184822
 20
89.03619116381867
 30
0.0
 10
140.4475204229551
 20
88.98802539941339
 30
0.0
 10
140.3989431604775
 20
88.93693619183087
 30
0.0
 10
140.3680935772809
 20
88.90583411546997
 30
0.0
 10
140.3532354940155
 20
88.8908544239341
 30
0.0
  0
ARC
  5
D5
330
1F
100
AcDbEntity
  8
0
  6
Continuous
 62
     7
370
    25
100
AcDbCircle
 10
140.353235494
 20
88.8908083559
 30
0.0
 40
0.5
100
AcDbArc
 50
0.0
 51
46.8892083855
  0
SPLINE
  5
D6
330
1F
100
AcDbEntity
  8
0
  6
Continuous
 62
     7
370
    25
100
AcDbSpline
210
0.0
220
0.0
230
1.0
 70
     8
 71
     3
 72
    11
 73
     7
 74
     0
 42
0.000000001
 43
0.00000001
 40
0.0
 40
0.0
 40
0.0
 40
0.0
 40
0.2815942436632133
 40
0.5420860673671491
 40
0.7815308548564992
 40
1.0
 40
1.0
 40
1.0
 40
1.0
 10
125.9310070852867
 20
80.79273214454449
 30
0.0
 10
125.9189632282922
 20
80.68476781086164
 30
0.0
 10
125.8957780701399
 20
80.476929893791
 30
0.0
 10
125.8716503861088
 20
80.17843920812237
 30
0.0
 10
125.8562419676657
 20
79.90492897793422
 30
0.0
 10
125.8542065734967
 20
79.73176628692711
 30
0.0
 10
125.8532354940155
 20
79.64915096911498
 30
0.0
  0
SPLINE
  5
D7
330
1F
100
AcDbEntity
  8
0
  6
Continuous
 62
     7
370
    25
100
AcDbSpline
210
0.0
220
0.0
230
1.0
 70
    24
 71
     3
 72
    10
 73
     6
 74
     0
 42
0.000000001
 43
0.00000001
 40
0.0
 40
0.0
 40
0.0
 40
0.0
 40
0.5
 40
0.5
 40
1.0
 40
1.0
 40
1.0
 40
1.0
 10
126.3532354940155
 20
80.79273214453559
 30
0.0
 10
126.2694396404692
 20
80.79273214453559
 30
0.0
 10
126.1857319597437
 20
80.79273214453559
 30
0.0
 10
126.0388799408669
 20
80.79273214453559
 30
0.0
 10
125.9758901253583
 20
80.79273214453559
 30
0.0
 10
125.9310070852867
 20
80.79273214453559
 30
0.0
  0
LINE
  5
D8
330
1F
100
AcDbEntity
  8
0
  6
Continuous
 62
     7
370
    25
100
AcDbLine
 10
125.8532356617
 20
77.8908083857
 30
0.0
 11
126.3532352779
 21
77.8908083857
 31
0.0
  0
LINE
  5
D9
330
1F
100
AcDbEntity
  8
0
  6
Continuous
 62
     7
370
    25
100
AcDbLine
 10
125.8532356617
 20
77.8908083857
 30
0.0
 11
125.8532356617
 21
79.6491509945
 31
0.0
  0
SPLINE
  5
DA
330
1F
100
AcDbEntity
  8
0
  6
Continuous
 62
     7
370
    25
100
AcDbSpline
210
0.0
220
0.0
230
1.0
 70
     8
 71
     3
 72
    14
 73
    10
 74
     0
 42
0.000000001
 43
0.00000001
 40
0.0
 40
0.0
 40
0.0
 40
0.0
 40
0.096021547728022
 40
0.1924412985067401
 40
0.2917902771809186
 40
0.396387075314727
 40
0.508224361229722
 40
0.7392002680930558
 40
1.0
 40
1.0
 40
1.0
 40
1.0
 10
139.4199021606822
 20
90.39080835588892
 30
0.0
 10
139.4203002346058
 20
90.37552734140512
 30
0.0
 10
139.4210980332726
 20
90.34490194180115
 30
0.0
 10
139.4271044072323
 20
90.29977607323222
 30
0.0
 10
139.4365818782623
 20
90.25585261304676
 30
0.0
 10
139.4497904661669
 20
90.21315655854674
 30
0.0
 10
139.4719548447575
 20
90.15814508607717
 30
0.0
 10
139.5073263903465
 20
90.09449151586298
 30
0.0
 10
139.5395152064009
 20
90.0570898916364
 30
0.0
 10
139.5565856627951
 20
90.03725496529565
 30
0.0
  0
SPLINE
  5
DB
330
1F
100
AcDbEntity
  8
0
  6
Continuous
 62
     7
370
    25
100
AcDbSpline
210
0.0
220
0.0
230
1.0
 70
     8
 71
     3
 72
    15
 73
    11
 74
     0
 42
0.000000001
 43
0.00000001
 40
0.0
 40
0.0
 40
0.0
 40
0.0
 40
0.1307681764282987
 40
0.2557775964014054
 40
0.375854271439311
 40
0.4919295877812418
 40
0.6226338248371327
 40
0.7437286717850853
 40
0.8761291708518495
 40
1.0
 40
1.0
 40
1.0
 40
1.0
 10
139.0687115605096
 20
91.17245272933339
 30
0.0
 10
139.0924108861801
 20
91.15100687065299
 30
0.0
 10
139.1387658688824
 20
91.10905958396702
 30
0.0
 10
139.2012143553582
 20
91.03621931173524
 30
0.0
 10
139.2566956073659
 20
90.95779234114286
 30
0.0
 10
139.3077235991557
 20
90.8690181192717
 30
0.0
 10
139.3525419249132
 20
90.76964318407809
 30
0.0
 10
139.3891116428514
 20
90.65275812436163
 30
0.0
 10
139.4146664117815
 20
90.52642522891696
 30
0.0
 10
139.4181960711444
 20
90.4349996516531
 30
0.0
 10
139.4199021606822
 20
90.39080835588892
 30
0.0
  0
SPLINE
  5
DC
330
1F
100
AcDbEntity
  8
0
  6
Continuous
 62
     7
370
    25
100
AcDbSpline
210
0.0
220
0.0
230
1.0
 70
     8
 71
     3
 72
    13
 73
     9
 74
     0
 42
0.000000001
 43
0.00000001
 40
0.0
 40
0.0
 40
0.0
 40
0.0
 40
0.1238371160455669
 40
0.247902303023111
 40
0.3726214666345126
 40
0.4984138700895143
 40
0.7490979627897995
 40
1.0
 40
1.0
 40
1.0
 40
1.0
 10
138.4865688273488
 20
91.39080835588892
 30
0.0
 10
138.5133207677764
 20
91.39013683829664
 30
0.0
 10
138.5668739177052
 20
91.3887925663775
 30
0.0
 10
138.6451908890052
 20
91.37789075635148
 30
0.0
 10
138.7219902703313
 20
91.36052931892931
 30
0.0
 10
138.8215162584339
 20
91.32784203356222
 30
0.0
 10
138.9406791067333
 20
91.27195690608232
 30
0.0
 10
139.0260217151604
 20
91.20563039477464
 30
0.0
 10
139.0687115605096
 20
91.17245272933339
 30
0.0
  0
LINE
  5
DD
330
1F
100
AcDbEntity
  8
0
  6
Continuous
 62
     7
370
    25
100
AcDbLine
 10
136.8454490468
 20
91.3908087359
 30
0.0
 11
138.4865686443
 21
91.3908087359
 31
0.0
  0
SPLINE
  5
DE
330
1F
100
AcDbEntity
  8
0
  6
Continuous
 62
     7
370
    25
100
AcDbSpline
210
0.0
220
0.0
230
1.0
 70
     8
 71
     3
 72
    13
 73
     9
 74
     0
 42
0.000000001
 43
0.00000001
 40
0.0
 40
0.0
 40
0.0
 40
0.0
 40
0.1856794033212454
 40
0.3634611737568486
 40
0.5335423367207065
 40
0.6961479207300426
 40
0.8515354443704023
 40
1.0
 40
1.0
 40
1.0
 40
1.0
 10
135.7781066245975
 20
91.2352651733466
 30
0.0
 10
135.845429421766
 20
91.25159347918976
 30
0.0
 10
135.9772115281373
 20
91.2835555875392
 30
0.0
 10
136.1693039448434
 20
91.32227444077117
 30
0.0
 10
136.3518910270151
 20
91.35282851985885
 30
0.0
 10
136.5249648657949
 20
91.374445256768
 30
0.0
 10
136.6889248666822
 20
91.38815295125676
 30
0.0
 10
136.7940728900096
 20
91.38993676851337
 30
0.0
 10
136.8454490550045
 20
91.39080835588892
 30
0.0
  0
SPLINE
  5
DF
330
1F
100
AcDbEntity
  8
0
  6
Continuous
 62
     7
370
    25
100
AcDbSpline
210
0.0
220
0.0
230
1.0
 70
     8
 71
     3
 72
    17
 73
    13
 74
     0
 42
0.000000001
 43
0.00000001
 40
0.0
 40
0.0
 40
0.0
 40
0.0
 40
0.1130667887614413
 40
0.214247189583317
 40
0.3035410227131065
 40
0.3809482842653933
 40
0.4464692356459874
 40
0.5001045920517729
 40
0.6375226522804812
 40
0.750042112035746
 40
0.8820380142736961
 40
0.9999999999999999
 40
0.9999999999999999
 40
0.9999999999999999
 40
0.9999999999999999
 10
133.3532354940155
 20
90.89080835588892
 30
0.0
 10
133.4469529653562
 20
90.90103798200421
 30
0.0
 10
133.6245356584665
 20
90.9204218229154
 30
0.0
 10
133.8756949795774
 20
90.94831606748667
 30
0.0
 10
134.0967337012208
 20
90.97330887517765
 30
0.0
 10
134.2876807039064
 20
90.99543827268486
 30
0.0
 10
134.4486971513648
 20
91.0146380993645
 30
0.0
 10
134.6580192576828
 20
91.04081986462174
 30
0.0
 10
134.9040022063409
 20
91.07380140620957
 30
0.0
 10
135.2096523776132
 20
91.11939568068905
 30
0.0
 10
135.4957894264649
 20
91.169304337398
 30
0.0
 10
135.6875904560569
 20
91.21411689692813
 30
0.0
 10
135.7781066245975
 20
91.2352651733466
 30
0.0
  0
SPLINE
  5
E0
330
1F
100
AcDbEntity
  8
0
  6
Continuous
 62
     7
370
    25
100
AcDbSpline
210
0.0
220
0.0
230
1.0
 70
     8
 71
     3
 72
    14
 73
    10
 74
     0
 42
0.000000001
 43
0.00000001
 40
0.0
 40
0.0
 40
0.0
 40
0.0
 40
0.0771019312304826
 40
0.1604220744887596
 40
0.2500134459863516
 40
0.3625277438465788
 40
0.4999872830472304
 40
0.6965319249886696
 40
1.0
 40
1.0
 40
1.0
 40
1.0
 10
130.9283643634335
 20
91.2352651733466
 30
0.0
 10
130.9873578242793
 20
91.22113589645575
 30
0.0
 10
131.1101025236548
 20
91.19173782725458
 30
0.0
 10
131.3051940010435
 20
91.15321993102651
 30
0.0
 10
131.5306522787179
 20
91.11415740445433
 30
0.0
 10
131.8024907855524
 20
91.07387689799798
 30
0.0
 10
132.1641648396402
 20
91.02521820372768
 30
0.0
 10
132.6870587994448
 20
90.96378336442245
 30
0.0
 10
133.101626045301
 20
90.91837041534957
 30
0.0
 10
133.3532354940155
 20
90.89080835588892
 30
0.0
  0
SPLINE
  5
E1
330
1F
100
AcDbEntity
  8
0
  6
Continuous
 62
     7
370
    25
100
AcDbSpline
210
0.0
220
0.0
230
1.0
 70
     8
 71
     3
 72
    13
 73
     9
 74
     0
 42
0.000000001
 43
0.00000001
 40
0.0
 40
0.0
 40
0.0
 40
0.0
 40
0.1484645556295968
 40
0.3038520792699616
 40
0.4664576632792965
 40
0.6365388262431637
 40
0.8143205966787558
 40
1.0
 40
1.0
 40
1.0
 40
1.0
 10
129.8610219330265
 20
91.39080835588892
 30
0.0
 10
129.9123980980214
 20
91.38993676851337
 30
0.0
 10
130.0175461213488
 20
91.38815295125676
 30
0.0
 10
130.1815061222362
 20
91.374445256768
 30
0.0
 10
130.3545799610159
 20
91.35282851985885
 30
0.0
 10
130.5371670431877
 20
91.32227444077117
 30
0.0
 10
130.7292594598937
 20
91.2835555875392
 30
0.0
 10
130.861041566265
 20
91.25159347918976
 30
0.0
 10
130.9283643634335
 20
91.2352651733466
 30
0.0
  0
LINE
  5
E2
330
1F
100
AcDbEntity
  8
0
  6
Continuous
 62
     7
370
    25
100
AcDbLine
 10
128.2199023437
 20
91.3908087359
 30
0.0
 11
129.8610219412
 21
91.3908087359
 31
0.0
  0
SPLINE
  5
E3
330
1F
100
AcDbEntity
  8
0
  6
Continuous
 62
     7
370
    25
100
AcDbSpline
210
0.0
220
0.0
230
1.0
 70
     8
 71
     3
 72
    13
 73
     9
 74
     0
 42
0.000000001
 43
0.00000001
 40
0.0
 40
0.0
 40
0.0
 40
0.0
 40
0.1257153360429536
 40
0.2509867092496626
 40
0.3762164861788906
 40
0.5018074329534182
 40
0.7521854029562103
 40
1.0
 40
1.0
 40
1.0
 40
1.0
 10
127.6377594275214
 20
91.17245272933339
 30
0.0
 10
127.6588452673696
 20
91.18964700650258
 30
0.0
 10
127.7009424825691
 20
91.22397483937056
 30
0.0
 10
127.7678551983983
 20
91.26754438760335
 30
0.0
 10
127.8373704500522
 20
91.3051521912496
 30
0.0
 10
127.9337038873771
 20
91.34617546883543
 30
0.0
 10
128.059537702921
 20
91.3827040235935
 30
0.0
 10
128.1666310188042
 20
91.38811619428675
 30
0.0
 10
128.2199021606822
 20
91.39080835588892
 30
0.0
  0
SPLINE
  5
E4
330
1F
100
AcDbEntity
  8
0
  6
Continuous
 62
     7
370
    25
100
AcDbSpline
210
0.0
220
0.0
230
1.0
 70
     8
 71
     3
 72
    16
 73
    12
 74
     0
 42
0.000000001
 43
0.00000001
 40
0.0
 40
0.0
 40
0.0
 40
0.0
 40
0.0659534682181705
 40
0.1324870475771656
 40
0.2006767984554997
 40
0.2715233530696834
 40
0.3459202143311513
 40
0.4246400792172604
 40
0.5083359903953556
 40
0.740513582944488
 40
1.0
 40
1.0
 40
1.0
 40
1.0
 10
127.2865688273488
 20
90.39080835588892
 30
0.0
 10
127.2870208527094
 20
90.41432040831677
 30
0.0
 10
127.2879288793389
 20
90.4615513196366
 30
0.0
 10
127.2951618020012
 20
90.53186940593243
 30
0.0
 10
127.3067297634383
 20
90.60152852060601
 30
0.0
 10
127.3231171491352
 20
90.67050485108783
 30
0.0
 10
127.344290186267
 20
90.73879622522986
 30
0.0
 10
127.3704073832511
 20
90.80642330946854
 30
0.0
 10
127.4193304315843
 20
90.91142477911718
 30
0.0
 10
127.503512865759
 20
91.04520842665328
 30
0.0
 10
127.5913836842916
 20
91.12849593050683
 30
0.0
 10
127.6377594275214
 20
91.17245272933339
 30
0.0
  0
SPLINE
  5
E5
330
1F
100
AcDbEntity
  8
0
  6
Continuous
 62
     7
370
    25
100
AcDbSpline
210
0.0
220
0.0
230
1.0
 70
     8
 71
     3
 72
    13
 73
     9
 74
     0
 42
0.000000001
 43
0.00000001
 40
0.0
 40
0.0
 40
0.0
 40
0.0
 40
0.1759205118839894
 40
0.33918960755005
 40
0.4921931780779566
 40
0.6738397335242725
 40
0.8395017852842178
 40
1.0
 40
1.0
 40
1.0
 40
1.0
 10
127.1498853252359
 20
90.03725496529566
 30
0.0
 10
127.1614105026331
 20
90.05035350984224
 30
0.0
 10
127.183632018228
 20
90.07560861020919
 30
0.0
 10
127.2140356375215
 20
90.12145167678953
 30
0.0
 10
127.2422393499704
 20
90.17534265821898
 30
0.0
 10
127.2661652782162
 20
90.23869057948234
 30
0.0
 10
127.283291525209
 20
90.31324477537989
 30
0.0
 10
127.2854879849042
 20
90.36522816633139
 30
0.0
 10
127.2865688273488
 20
90.39080835588892
 30
0.0
  0
SPLINE
  5
E6
330
1F
100
AcDbEntity
  8
0
  6
Continuous
 62
     7
370
    25
100
AcDbSpline
210
0.0
220
0.0
230
1.0
 70
    24
 71
     3
 72
    10
 73
     6
 74
     0
 42
0.000000001
 43
0.00000001
 40
0.0
 40
0.0
 40
0.0
 40
0.0
 40
0.5
 40
0.5
 40
1.0
 40
1.0
 40
1.0
 40
1.0
 10
135.9513117053599
 20
90.81303676461778
 30
0.0
 10
135.9513117053599
 20
90.76815372454612
 30
0.0
 10
135.9513117053599
 20
90.70516390903754
 30
0.0
 10
135.9513117053599
 20
90.55831189016067
 30
0.0
 10
135.9513117053599
 20
90.4746042094352
 30
0.0
 10
135.9513117053599
 20
90.39080835588892
 30
0.0
  0
SPLINE
  5
E7
330
1F
100
AcDbEntity
  8
0
  6
Continuous
 62
     7
370
    25
100
AcDbSpline
210
0.0
220
0.0
230
1.0
 70
     8
 71
     3
 72
     8
 73
     4
 74
     0
 42
0.000000001
 43
0.00000001
 40
-0.0000000000002226
 40
-0.0000000000002226
 40
-0.0000000000002226
 40
-0.0000000000002226
 40
0.127234597098529
 40
0.127234597098529
 40
0.127234597098529
 40
0.127234597098529
 10
135.9513117053564
 20
90.81303676461812
 30
0.0
 10
136.3398977000698
 20
90.85854486687597
 30
0.0
 10
136.7273262669486
 20
90.89080835588892
 30
0.0
 10
137.0948928807895
 20
90.89080835588892
 30
0.0
  0
LINE
  5
E8
330
1F
100
AcDbEntity
  8
0
  6
Continuous
 62
     7
370
    25
100
AcDbLine
 10
138.8532354642
 20
90.8908081883
 30
0.0
 11
137.0948928554
 21
90.8908081883
 31
0.0
  0
ARC
  5
E9
330
1F
100
AcDbEntity
  8
0
  6
Continuous
 62
     7
370
    25
100
AcDbCircle
 10
138.853235494
 20
90.3908083559
 30
0.0
 40
0.5
100
AcDbArc
 50
43.1107916145
 51
90.0
  0
SPLINE
  5
EA
330
1F
100
AcDbEntity
  8
0
  6
Continuous
 62
     7
370
    25
100
AcDbSpline
210
0.0
220
0.0
230
1.0
 70
     8
 71
     3
 72
    13
 73
     9
 74
     0
 42
0.000000001
 43
0.00000001
 40
0.0
 40
0.0
 40
0.0
 40
0.0
 40
0.1206933106363776
 40
0.2506349558809258
 40
0.4049363551860728
 40
0.501375099440844
 40
0.7702864432344702
 40
1.0
 40
1.0
 40
1.0
 40
1.0
 10
138.8532815620607
 20
90.39080835588892
 30
0.0
 10
138.8682591116085
 20
90.40566413418074
 30
0.0
 10
138.8993618914585
 20
90.43651404058494
 30
0.0
 10
138.9504467220645
 20
90.48508919205338
 30
0.0
 10
138.9986359425656
 20
90.5297788743351
 30
0.0
 10
139.0637989554623
 20
90.5895425837225
 30
0.0
 10
139.1367233430342
 20
90.65733459689741
 30
0.0
 10
139.1925385441777
 20
90.70880286927215
 30
0.0
 10
139.2182522788144
 20
90.7325139994113
 30
0.0
  0
SPLINE
  5
EB
330
1F
100
AcDbEntity
  8
0
  6
Continuous
 62
     7
370
    25
100
AcDbSpline
210
0.0
220
0.0
230
1.0
 70
    24
 71
     3
 72
    10
 73
     6
 74
     0
 42
0.000000001
 43
0.00000001
 40
0.0
 40
0.0
 40
0.0
 40
0.0
 40
0.5
 40
0.5
 40
1.0
 40
1.0
 40
1.0
 40
1.0
 10
125.9310070852867
 20
85.98888456723336
 30
0.0
 10
125.9758901253583
 20
85.98888456723336
 30
0.0
 10
126.0388799408669
 20
85.98888456723336
 30
0.0
 10
126.1857319597437
 20
85.98888456723336
 30
0.0
 10
126.2694396404692
 20
85.98888456723336
 30
0.0
 10
126.3532354940155
 20
85.98888456723336
 30
0.0
  0
SPLINE
  5
EC
330
1F
100
AcDbEntity
  8
0
  6
Continuous
 62
     7
370
    25
100
AcDbSpline
210
0.0
220
0.0
230
1.0
 70
     8
 71
     3
 72
    12
 73
     8
 74
     0
 42
0.000000001
 43
0.00000001
 40
0.0
 40
0.0
 40
0.0
 40
0.0
 40
0.1731008601133525
 40
0.359615337634814
 40
0.5595829448172194
 40
0.773035722531595
 40
1.0
 40
1.0
 40
1.0
 40
1.0
 10
125.8532354940155
 20
87.13246574266287
 30
0.0
 10
125.8538493217041
 20
87.0670328584174
 30
0.0
 10
125.8551245427016
 20
86.9310966837217
 30
0.0
 10
125.8648078480088
 20
86.71838481086199
 30
0.0
 10
125.8803631311288
 20
86.48963978119417
 30
0.0
 10
125.9022220315899
 20
86.24478885466434
 30
0.0
 10
125.9212178110074
 20
86.07591297042094
 30
0.0
 10
125.9310070852867
 20
85.98888456723336
 30
0.0
  0
LINE
  5
ED
330
1F
100
AcDbEntity
  8
0
  6
Continuous
 62
     7
370
    25
100
AcDbLine
 10
125.8532356617
 20
87.1324657173
 30
0.0
 11
125.8532356617
 21
88.8908083261
 31
0.0
  0
ARC
  5
EE
330
1F
100
AcDbEntity
  8
0
  6
Continuous
 62
     7
370
    25
100
AcDbCircle
 10
126.353235494
 20
88.8908083559
 30
0.0
 40
0.5
100
AcDbArc
 50
133.1107916145
 51
180.0
  0
SPLINE
  5
EF
330
1F
100
AcDbEntity
  8
0
  6
Continuous
 62
     7
370
    25
100
AcDbSpline
210
0.0
220
0.0
230
1.0
 70
     8
 71
     3
 72
    13
 73
     9
 74
     0
 42
0.000000001
 43
0.00000001
 40
0.0
 40
0.0
 40
0.0
 40
0.0
 40
0.1206933098378984
 40
0.2506349558807637
 40
0.4049363563536673
 40
0.5013750994399903
 40
0.7702864430522399
 40
1.0
 40
1.0
 40
1.0
 40
1.0
 10
126.3532354940155
 20
88.89085442393413
 30
0.0
 10
126.3383797158236
 20
88.90583197338428
 30
0.0
 10
126.3075298094228
 20
88.93693475323747
 30
0.0
 10
126.2589546578057
 20
88.98801958398523
 30
0.0
 10
126.2142649754204
 20
89.03620880457444
 30
0.0
 10
126.1545012660786
 20
89.10137181746411
 30
0.0
 10
126.0867092530311
 20
89.17429620489126
 30
0.0
 10
126.0352409806527
 20
89.23011140603201
 30
0.0
 10
126.0115298504931
 20
89.25582514068786
 30
0.0
  0
SPLINE
  5
F0
330
1F
100
AcDbEntity
  8
0
  6
Continuous
 62
     7
370
    25
100
AcDbSpline
210
0.0
220
0.0
230
1.0
 70
    24
 71
     3
 72
    10
 73
     6
 74
     0
 42
0.000000001
 43
0.00000001
 40
0.0
 40
0.0
 40
0.0
 40
0.0
 40
0.5
 40
0.5
 40
1.0
 40
1.0
 40
1.0
 40
1.0
 10
140.7754639027443
 20
80.79273214454449
 30
0.0
 10
140.7305808626727
 20
80.79273214454449
 30
0.0
 10
140.6675910471641
 20
80.79273214454449
 30
0.0
 10
140.5207390282873
 20
80.79273214454449
 30
0.0
 10
140.4370313475618
 20
80.79273214454449
 30
0.0
 10
140.3532354940155
 20
80.79273214454449
 30
0.0
  0
SPLINE
  5
F1
330
1F
100
AcDbEntity
  8
0
  6
Continuous
 62
     7
370
    25
100
AcDbSpline
210
0.0
220
0.0
230
1.0
 70
     8
 71
     3
 72
    12
 73
     8
 74
     0
 42
0.000000001
 43
0.00000001
 40
0.0
 40
0.0
 40
0.0
 40
0.0
 40
0.1731008601132462
 40
0.3596153376346544
 40
0.5595829448170604
 40
0.7730357225314888
 40
1.0
 40
1.0
 40
1.0
 40
1.0
 10
140.8532354940155
 20
79.64915096911498
 30
0.0
 10
140.8526216663269
 20
79.71458385336038
 30
0.0
 10
140.8513464453294
 20
79.85052002805604
 30
0.0
 10
140.8416631400222
 20
80.06323190091568
 30
0.0
 10
140.8261078569022
 20
80.29197693058352
 30
0.0
 10
140.8042489564412
 20
80.5368278571134
 30
0.0
 10
140.7852531770236
 20
80.70570374135686
 30
0.0
 10
140.7754639027443
 20
80.79273214454449
 30
0.0
  0
LINE
  5
F2
330
1F
100
AcDbEntity
  8
0
  6
Continuous
 62
     7
370
    25
100
AcDbLine
 10
140.8532353264
 20
79.6491509945
 30
0.0
 11
140.8532353264
 21
77.8908083857
 31
0.0
  0
LINE
  5
F3
330
1F
100
AcDbEntity
  8
0
  6
Continuous
 62
     7
370
    25
100
AcDbLine
 10
140.3532357101
 20
77.8908083857
 30
0.0
 11
140.8532353264
 21
77.8908083857
 31
0.0
  0
SPLINE
  5
F4
330
1F
100
AcDbEntity
  8
0
  6
Continuous
 62
     7
370
    25
100
AcDbSpline
210
0.0
220
0.0
230
1.0
 70
     8
 71
     3
 72
    12
 73
     8
 74
     0
 42
0.000000001
 43
0.00000001
 40
-0.267217449764123
 40
-0.267217449764123
 40
-0.267217449764123
 40
-0.267217449764123
 40
-0.160856558527433
 40
-0.107676112909088
 40
-0.001315221672398
 40
-0.001315221672398
 40
0.0
 40
0.0
 40
0.0
 40
0.0
 10
125.9310070852867
 20
80.79273214455337
 30
0.0
 10
125.9690492721191
 20
81.16681261513195
 30
0.0
 10
125.9635533999578
 20
81.68651378060832
 30
0.0
 10
125.9216568204309
 20
82.5387589492387
 30
0.0
 10
125.8805306626747
 20
83.04297039145114
 30
0.0
 10
125.8538832851614
 20
83.38250978803815
 30
0.0
 10
125.8535597834939
 20
83.38665955654801
 30
0.0
 10
125.8532354940155
 20
83.39080835588892
 30
0.0
  0
SPLINE
  5
F5
330
1F
100
AcDbEntity
  8
0
  6
Continuous
 62
     7
370
    25
100
AcDbSpline
210
0.0
220
0.0
230
1.0
 70
     8
 71
     3
 72
    12
 73
     8
 74
     0
 42
0.000000001
 43
0.00000001
 40
0.0
 40
0.0
 40
0.0
 40
0.0
 40
0.106360891224351
 40
0.159541336836527
 40
0.265902228060878
 40
0.265902228060878
 40
0.267217449764311
 40
0.267217449764311
 40
0.267217449764311
 40
0.267217449764311
 10
140.7754639027443
 20
85.98888456722446
 30
0.0
 10
140.7374217159163
 20
85.6148040966893
 30
0.0
 10
140.7429175880694
 20
85.09510293126965
 30
0.0
 10
140.7848141675863
 20
84.24285776273611
 30
0.0
 10
140.8259403253302
 20
83.73864632058155
 30
0.0
 10
140.8525877028545
 20
83.39910692393535
 30
0.0
 10
140.8529112045295
 20
83.3949571553268
 30
0.0
 10
140.8532354940155
 20
83.39080835588892
 30
0.0
  0
SPLINE
  5
F6
330
1F
100
AcDbEntity
  8
0
  6
Continuous
 62
     7
370
    25
100
AcDbSpline
210
0.0
220
0.0
230
1.0
 70
     8
 71
     3
 72
    12
 73
     8
 74
     0
 42
0.000000001
 43
0.00000001
 40
0.0
 40
0.0
 40
0.0
 40
0.0
 40
0.106360889128132
 40
0.159541333692198
 40
0.26590222282033
 40
0.26590222282033
 40
0.267217449923961
 40
0.267217449923961
 40
0.267217449923961
 40
0.267217449923961
 10
130.75515928268
 20
90.81303676461776
 30
0.0
 10
131.1292397458426
 20
90.77499457853946
 30
0.0
 10
131.6489409032727
 20
90.7804904497385
 30
0.0
 10
132.5011860525471
 20
90.82238702730571
 30
0.0
 10
133.0053974848435
 20
90.86351318373113
 30
0.0
 10
133.344936891896
 20
90.8901605620681
 30
0.0
 10
133.3490866775426
 20
90.89048406507166
 30
0.0
 10
133.3532354940155
 20
90.89080835588892
 30
0.0
  0
SPLINE
  5
F7
330
1F
100
AcDbEntity
  8
0
  6
Continuous
 62
     7
370
    25
100
AcDbSpline
210
0.0
220
0.0
230
1.0
 70
     8
 71
     3
 72
     8
 73
     4
 74
     0
 42
0.000000001
 43
0.00000001
 40
0.0
 40
0.0
 40
0.0
 40
0.0
 40
1.0
 40
1.0
 40
1.0
 40
1.0
 10
125.5087786765578
 20
80.9659372253069
 30
0.0
 10
125.6787825563935
 20
80.93089650038866
 30
0.0
 10
125.845587018746
 20
80.86247054947076
 30
0.0
 10
125.9310070852867
 20
80.79273214455337
 30
0.0
  0
SPLINE
  5
F8
330
1F
100
AcDbEntity
  8
0
  6
Continuous
 62
     7
370
    25
100
AcDbSpline
210
0.0
220
0.0
230
1.0
 70
     8
 71
     3
 72
     9
 73
     5
 74
     0
 42
0.000000001
 43
0.00000001
 40
0.0
 40
0.0
 40
0.0
 40
0.0
 40
0.571428571428571
 40
1.0
 40
1.0
 40
1.0
 40
1.0
 10
141.1976923114732
 20
85.81567948647094
 30
0.0
 10
141.1005472372814
 20
85.83570275785281
 30
0.0
 10
140.9308858985637
 20
85.88922107532814
 30
0.0
 10
140.8120725026903
 20
85.95899667940274
 30
0.0
 10
140.7754639027443
 20
85.98888456722446
 30
0.0
  0
SPLINE
  5
F9
330
1F
100
AcDbEntity
  8
0
  6
Continuous
 62
     7
370
    25
100
AcDbSpline
210
0.0
220
0.0
230
1.0
 70
     8
 71
     3
 72
     9
 73
     5
 74
     0
 42
0.000000001
 43
0.00000001
 40
0.0
 40
0.0
 40
0.0
 40
0.0
 40
0.5
 40
1.0
 40
1.0
 40
1.0
 40
1.0
 10
141.1976923114743
 20
80.96593722530235
 30
0.0
 10
141.1126903715563
 20
80.9484168628428
 30
0.0
 10
140.9427964533075
 20
80.89729464386036
 30
0.0
 10
140.8181739360151
 20
80.8276013470052
 30
0.0
 10
140.7754639027449
 20
80.79273214454616
 30
0.0
  0
SPLINE
  5
FA
330
1F
100
AcDbEntity
  8
0
  6
Continuous
 62
     7
370
    25
100
AcDbSpline
210
0.0
220
0.0
230
1.0
 70
     8
 71
     3
 72
    12
 73
     8
 74
     0
 42
0.000000001
 43
0.00000001
 40
-0.0013152216724614
 40
-0.0013152216724614
 40
-0.0013152216724614
 40
-0.0013152216724614
 40
0.0
 40
0.0
 40
0.159541336854997
 40
0.212721782473329
 40
0.265902228091661
 40
0.265902228091661
 40
0.265902228091661
 40
0.265902228091661
 10
140.8532354940155
 20
83.39080835588892
 30
0.0
 10
140.8529112045372
 20
83.38665955654872
 30
0.0
 10
140.8525858848066
 20
83.38251200994486
 30
0.0
 10
140.8131061347582
 20
82.87487779676206
 30
0.0
 10
140.7580382200827
 20
82.20224789638739
 30
0.0
 10
140.7422259119478
 20
81.33773181960663
 30
0.0
 10
140.7564428093281
 20
80.97977237984261
 30
0.0
 10
140.7754639027443
 20
80.79273214455337
 30
0.0
  0
SPLINE
  5
FB
330
1F
100
AcDbEntity
  8
0
  6
Continuous
 62
     7
370
    25
100
AcDbSpline
210
0.0
220
0.0
230
1.0
 70
     8
 71
     3
 72
    12
 73
     8
 74
     0
 42
0.000000001
 43
0.00000001
 40
-0.265902228061387
 40
-0.265902228061387
 40
-0.265902228061387
 40
-0.265902228061387
 40
-0.2645870063584663
 40
-0.2645870063584663
 40
-0.1582261151339113
 40
-0.1050456695216343
 40
0.0013152217029208
 40
0.0013152217029208
 40
0.0013152217029208
 40
0.0013152217029208
 10
125.8532354940155
 20
83.39080835588892
 30
0.0
 10
125.8535597835014
 20
83.39495715532547
 30
0.0
 10
125.8538832851761
 20
83.39910692393212
 30
0.0
 10
125.8805306627026
 20
83.73864632058064
 30
0.0
 10
125.921656820445
 20
84.24285776273355
 30
0.0
 10
125.9635533999624
 20
85.09510293126922
 30
0.0
 10
125.9690492721148
 20
85.61480409668857
 30
0.0
 10
125.9310070852867
 20
85.98888456722446
 30
0.0
  0
SPLINE
  5
FC
330
1F
100
AcDbEntity
  8
0
  6
Continuous
 62
     7
370
    25
100
AcDbSpline
210
0.0
220
0.0
230
1.0
 70
     8
 71
     3
 72
     9
 73
     5
 74
     0
 42
0.000000001
 43
0.00000001
 40
0.0
 40
0.0
 40
0.0
 40
0.0
 40
0.5
 40
1.0
 40
1.0
 40
1.0
 40
1.0
 10
125.5087786765571
 20
85.81567948647373
 30
0.0
 10
125.5937806164751
 20
85.83319984893329
 30
0.0
 10
125.7636745347238
 20
85.88432206791569
 30
0.0
 10
125.8882970520162
 20
85.95401536477078
 30
0.0
 10
125.9310070852863
 20
85.98888456722979
 30
0.0
  0
SPLINE
  5
FD
330
1F
100
AcDbEntity
  8
0
  6
Continuous
 62
     7
370
    25
100
AcDbSpline
210
0.0
220
0.0
230
1.0
 70
     8
 71
     3
 72
     9
 73
     5
 74
     0
 42
0.000000001
 43
0.00000001
 40
0.0
 40
0.0
 40
0.0
 40
0.0
 40
0.571428571428571
 40
1.0
 40
1.0
 40
1.0
 40
1.0
 10
130.9283643634335
 20
91.2352651733466
 30
0.0
 10
130.9083410920516
 20
91.13812009915479
 30
0.0
 10
130.8548227745763
 20
90.96845876043712
 30
0.0
 10
130.7850471705017
 20
90.84964536456374
 30
0.0
 10
130.75515928268
 20
90.81303676461776
 30
0.0
  0
SPLINE
  5
FE
330
1F
100
AcDbEntity
  8
0
  6
Continuous
 62
     7
370
    25
100
AcDbSpline
210
0.0
220
0.0
230
1.0
 70
     8
 71
     3
 72
    12
 73
     8
 74
     0
 42
0.000000001
 43
0.00000001
 40
-0.0013152270871416
 40
-0.0013152270871416
 40
-0.0013152270871416
 40
-0.0013152270871416
 40
0.0
 40
0.0
 40
0.106360889134687
 40
0.159541333702031
 40
0.265902222836718
 40
0.265902222836718
 40
0.265902222836718
 40
0.265902222836718
 10
133.3532354940155
 20
90.89080835588892
 30
0.0
 10
133.3573843104366
 20
90.89048406507571
 30
0.0
 10
133.361534096031
 20
90.89016056207625
 30
0.0
 10
133.7010735030513
 20
90.86351318374255
 30
0.0
 10
134.205284935379
 20
90.82238702731254
 30
0.0
 10
135.0575300847049
 20
90.78049044973962
 30
0.0
 10
135.5772312421654
 20
90.77499457853712
 30
0.0
 10
135.9513117053511
 20
90.81303676461776
 30
0.0
  0
SPLINE
  5
FF
330
1F
100
AcDbEntity
  8
0
  6
Continuous
 62
     7
370
    25
100
AcDbSpline
210
0.0
220
0.0
230
1.0
 70
     8
 71
     3
 72
     9
 73
     5
 74
     0
 42
0.000000001
 43
0.00000001
 40
0.0
 40
0.0
 40
0.0
 40
0.0
 40
0.5
 40
1.0
 40
1.0
 40
1.0
 40
1.0
 10
135.7781066246022
 20
91.23526517334778
 30
0.0
 10
135.7956269870618
 20
91.1502632334297
 30
0.0
 10
135.8467492060442
 20
90.9803693151809
 30
0.0
 10
135.9164425028994
 20
90.85574679788849
 30
0.0
 10
135.9513117053584
 20
90.81303676461836
 30
0.0
  0
SPLINE
  5
100
330
1F
100
AcDbEntity
  8
0
  6
Continuous
 62
     7
370
    25
100
AcDbSpline
210
0.0
220
0.0
230
1.0
 70
     8
 71
     3
 72
    13
 73
     9
 74
     0
 42
0.000000001
 43
0.00000001
 40
0.0
 40
0.0
 40
0.0
 40
0.0
 40
0.1162222239500744
 40
0.2381780213579675
 40
0.3660917905452749
 40
0.5001580142688472
 40
0.7504239388829979
 40
1.0
 40
1.0
 40
1.0
 40
1.0
 10
139.2182522788144
 20
90.7325139994113
 30
0.0
 10
139.2292364013096
 20
90.72006598879321
 30
0.0
 10
139.2517465243594
 20
90.69455587172531
 30
0.0
 10
139.2798576515242
 20
90.6530486987086
 30
0.0
 10
139.3043816481224
 20
90.60845594800362
 30
0.0
 10
139.3297552329862
 20
90.54794986469966
 30
0.0
 10
139.3496149108587
 20
90.47254608103779
 30
0.0
 10
139.3520297439178
 20
90.4180291960553
 30
0.0
 10
139.3532354940155
 20
90.3908083746623
 30
0.0
  0
SPLINE
  5
101
330
1F
100
AcDbEntity
  8
0
  6
Continuous
 62
     7
370
    25
100
AcDbSpline
210
0.0
220
0.0
230
1.0
 70
     8
 71
     3
 72
    10
 73
     6
 74
     0
 42
0.000000001
 43
0.00000001
 40
0.0
 40
0.0
 40
0.0
 40
0.0
 40
0.5
 40
0.5
 40
1.0
 40
1.0
 40
1.0
 40
1.0
 10
139.3532354940155
 20
90.39080835588892
 30
0.0
 10
139.3532354940155
 20
90.12900896496059
 30
0.0
 10
139.4610085930932
 20
89.86882169096248
 30
0.0
 10
139.8312488458407
 20
89.49858144516625
 30
0.0
 10
140.0914361218623
 20
89.39080835097361
 30
0.0
 10
140.3532355127906
 20
89.39080835588892
 30
0.0
  0
SPLINE
  5
102
330
1F
100
AcDbEntity
  8
0
  6
Continuous
 62
     7
370
    25
100
AcDbSpline
210
0.0
220
0.0
230
1.0
 70
     8
 71
     3
 72
    12
 73
     8
 74
     0
 42
0.000000001
 43
0.00000001
 40
0.0
 40
0.0
 40
0.0
 40
0.0
 40
0.1664616503807027
 40
0.3330491366093241
 40
0.5001938540683241
 40
0.7619811741357122
 40
1.0
 40
1.0
 40
1.0
 40
1.0
 10
140.3532355127889
 20
89.39080835588892
 30
0.0
 10
140.3712093365407
 20
89.39026597645748
 30
0.0
 10
140.4071705712659
 20
89.38918080758557
 30
0.0
 10
140.4648875003394
 20
89.37939765922573
 30
0.0
 10
140.5351722118318
 20
89.35871758744611
 30
0.0
 10
140.6145149662748
 20
89.32241631802951
 30
0.0
 10
140.6689960372979
 20
89.2773071377057
 30
0.0
 10
140.6949411375378
 20
89.25582514068792
 30
0.0
  0
SPLINE
  5
103
330
1F
100
AcDbEntity
  8
0
  6
Continuous
 62
     7
370
    25
100
AcDbSpline
210
0.0
220
0.0
230
1.0
 70
     8
 71
     3
 72
    13
 73
     9
 74
     0
 42
0.000000001
 43
0.00000001
 40
0.0
 40
0.0
 40
0.0
 40
0.0
 40
0.1162222239446788
 40
0.2381780213507807
 40
0.3660917905398808
 40
0.5001580142687957
 40
0.7504239388759752
 40
1.0
 40
1.0
 40
1.0
 40
1.0
 10
126.0115298504931
 20
89.25582514068788
 30
0.0
 10
126.0239778611106
 20
89.2668092631825
 30
0.0
 10
126.0494879781777
 20
89.28931938623168
 30
0.0
 10
126.0909951511936
 20
89.31743051339622
 30
0.0
 10
126.135587901899
 20
89.34195450999505
 30
0.0
 10
126.1960939852034
 20
89.36732809485916
 30
0.0
 10
126.2714977688661
 20
89.38718777273199
 30
0.0
 10
126.3260146538485
 20
89.38960260579114
 30
0.0
 10
126.3532354752421
 20
89.39080835588892
 30
0.0
  0
SPLINE
  5
104
330
1F
100
AcDbEntity
  8
0
  6
Continuous
 62
     7
370
    25
100
AcDbSpline
210
0.0
220
0.0
230
1.0
 70
     8
 71
     3
 72
    10
 73
     6
 74
     0
 42
0.000000001
 43
0.00000001
 40
0.0
 40
0.0
 40
0.0
 40
0.0
 40
0.5
 40
0.5
 40
1.0
 40
1.0
 40
1.0
 40
1.0
 10
126.3532354752404
 20
89.39080835588892
 30
0.0
 10
126.6150348692979
 20
89.39080835097361
 30
0.0
 10
126.8752221483534
 20
89.49858144785378
 30
0.0
 10
127.2454624020506
 20
89.86882170155097
 30
0.0
 10
127.3532354989308
 20
90.12900898060653
 30
0.0
 10
127.3532354940155
 20
90.39080837466403
 30
0.0
  0
SPLINE
  5
105
330
1F
100
AcDbEntity
  8
0
  6
Continuous
 62
     7
370
    25
100
AcDbSpline
210
0.0
220
0.0
230
1.0
 70
     8
 71
     3
 72
    12
 73
     8
 74
     0
 42
0.000000001
 43
0.00000001
 40
0.0
 40
0.0
 40
0.0
 40
0.0
 40
0.1664615763807151
 40
0.3330490665505926
 40
0.500193865880855
 40
0.7619811797519991
 40
1.0
 40
1.0
 40
1.0
 40
1.0
 10
127.3532354940155
 20
90.39080835588892
 30
0.0
 10
127.3537778723473
 20
90.40878217265046
 30
0.0
 10
127.3548630392733
 20
90.44474340181176
 30
0.0
 10
127.3646461845859
 20
90.50246033917206
 30
0.0
 10
127.3853262580142
 20
90.57274506432572
 30
0.0
 10
127.4216275318141
 20
90.65208782792749
 30
0.0
 10
127.4667367121786
 20
90.70656889909942
 30
0.0
 10
127.4882187092165
 20
90.73251399941125
 30
0.0
  0
SPLINE
  5
106
330
1F
100
AcDbEntity
  8
0
  6
Continuous
 62
     7
370
    25
100
AcDbSpline
210
0.0
220
0.0
230
1.0
 70
    24
 71
     3
 72
    14
 73
    10
 74
     0
 42
0.000000001
 43
0.00000001
 40
0.0
 40
0.0
 40
0.0
 40
0.0
 40
0.25
 40
0.25
 40
0.5
 40
0.5
 40
0.75
 40
0.75
 40
1.0
 40
1.0
 40
1.0
 40
1.0
 10
126.3532354940155
 20
77.39080835588892
 30
0.0
 10
126.3532354940155
 20
77.39080835588894
 30
0.0
 10
126.3532354940155
 20
77.40154772529567
 30
0.0
 10
126.3532354940155
 20
77.45028068541974
 30
0.0
 10
126.3532354940155
 20
77.48843942882674
 30
0.0
 10
126.3532354940155
 20
77.58607050176455
 30
0.0
 10
126.3532354940155
 20
77.64521252591605
 30
0.0
 10
126.3532354940155
 20
77.76830947629992
 30
0.0
 10
126.3532354940155
 20
77.83188279079003
 30
0.0
 10
126.3532354940155
 20
77.89080835588892
 30
0.0
  0
SPLINE
  5
107
330
1F
100
AcDbEntity
  8
0
  6
Continuous
 62
     7
370
    25
100
AcDbSpline
210
0.0
220
0.0
230
1.0
 70
     8
 71
     3
 72
    10
 73
     6
 74
     0
 42
0.000000001
 43
0.00000001
 40
0.0
 40
0.0
 40
0.0
 40
0.0
 40
0.5
 40
0.5
 40
1.0
 40
1.0
 40
1.0
 40
1.0
 10
126.3532354940155
 20
77.39080835588892
 30
0.0
 10
126.2223358001159
 20
77.39080835588892
 30
0.0
 10
126.0922421646339
 20
77.44469490408402
 30
0.0
 10
125.9071220422106
 20
77.62981502650729
 30
0.0
 10
125.8532354940155
 20
77.75990866198934
 30
0.0
 10
125.8532354940155
 20
77.89080835588892
 30
0.0
  0
LINE
  5
108
330
1F
100
AcDbEntity
  8
0
  6
Continuous
 62
     7
370
    25
100
AcDbLine
 10
140.3532357101
 20
77.3908083037
 30
0.0
 11
126.3532352779
 21
77.3908083037
 31
0.0
  0
SPLINE
  5
109
330
1F
100
AcDbEntity
  8
0
  6
Continuous
 62
     7
370
    25
100
AcDbSpline
210
0.0
220
0.0
230
1.0
 70
    24
 71
     3
 72
    10
 73
     6
 74
     0
 42
0.000000001
 43
0.00000001
 40
0.0
 40
0.0
 40
0.0
 40
0.0
 40
0.5
 40
0.5
 40
1.0
 40
1.0
 40
1.0
 40
1.0
 10
140.3532354940155
 20
77.39080835588892
 30
0.0
 10
140.3532354940156
 20
77.39080835588892
 30
0.0
 10
140.3532354940156
 20
77.44469490408402
 30
0.0
 10
140.3532354940156
 20
77.62981502650729
 30
0.0
 10
140.3532354940156
 20
77.75990866198934
 30
0.0
 10
140.3532354940155
 20
77.89080835588892
 30
0.0
  0
SPLINE
  5
10A
330
1F
100
AcDbEntity
  8
0
  6
Continuous
 62
     7
370
    25
100
AcDbSpline
210
0.0
220
0.0
230
1.0
 70
     8
 71
     3
 72
    14
 73
    10
 74
     0
 42
0.000000001
 43
0.00000001
 40
0.0
 40
0.0
 40
0.0
 40
0.0
 40
0.25
 40
0.25
 40
0.5
 40
0.5
 40
0.75
 40
0.75
 40
1.0
 40
1.0
 40
1.0
 40
1.0
 10
140.3532354940155
 20
77.39080835588892
 30
0.0
 10
140.4121610591144
 20
77.39080835588892
 30
0.0
 10
140.4757343736045
 20
77.40154772529567
 30
0.0
 10
140.5988313239884
 20
77.45028068541974
 30
0.0
 10
140.6579733481399
 20
77.48843942882674
 30
0.0
 10
140.7556044210777
 20
77.58607050176455
 30
0.0
 10
140.7937631644847
 20
77.64521252591605
 30
0.0
 10
140.8424961246087
 20
77.76830947629992
 30
0.0
 10
140.8532354940155
 20
77.83188279079003
 30
0.0
 10
140.8532354940155
 20
77.89080835588892
 30
0.0
  0
LINE
  5
10B
330
1F
100
AcDbEntity
  8
0
  6
Continuous
 62
     7
370
    25
100
AcDbLine
 10
137.2839811404
 20
80.8227676143
 30
0.0
 11
137.0206403692
 21
80.1199457318
 31
0.0
  0
SPLINE
  5
10C
330
1F
100
AcDbEntity
  8
0
  6
Continuous
 62
     7
370
    25
100
AcDbSpline
210
0.0
220
0.0
230
1.0
 70
     8
 71
     3
 72
    31
 73
    27
 74
     0
 42
0.000000001
 43
0.00000001
 40
0.0
 40
0.0
 40
0.0
 40
0.0
 40
0.041802146707033
 40
0.0834773119907251
 40
0.1252067539465352
 40
0.1667553111646444
 40
0.208343789897431
 40
0.2500683763875439
 40
0.2917172802014936
 40
0.3332298152280506
 40
0.3749213178163661
 40
0.4166401475748497
 40
0.4581957047388333
 40
0.4998271904370101
 40
0.5415736637950209
 40
0.5832410842716478
 40
0.624816154537611
 40
0.6665619264699779
 40
0.7082962697793289
 40
0.7498773808560844
 40
0.7916005699338539
 40
0.8333637303001521
 40
0.8749600854558802
 40
0.9166279211224443
 40
0.9583871623503707
 40
1.0
 40
1.0
 40
1.0
 40
1.0
 10
137.2839812393745
 20
80.82276750439819
 30
0.0
 10
137.2849220850346
 20
80.82505583980974
 30
0.0
 10
137.2868009183695
 20
80.8296255594088
 30
0.0
 10
137.2905447603969
 20
80.8360375172302
 30
0.0
 10
137.2948728939587
 20
80.84203753966098
 30
0.0
 10
137.2998125867972
 20
80.84754489532277
 30
0.0
 10
137.3053013376288
 20
80.85250162638174
 30
0.0
 10
137.3112640006674
 20
80.85688565292051
 30
0.0
 10
137.3176255490733
 20
80.86065919953852
 30
0.0
 10
137.3243323693319
 20
80.86377362072321
 30
0.0
 10
137.331315664132
 20
80.8662156732975
 30
0.0
 10
137.3385020180015
 20
80.86798176853232
 30
0.0
 10
137.3458215642251
 20
80.86905044523937
 30
0.0
 10
137.3532120011645
 20
80.86939867709359
 30
0.0
 10
137.3606081683736
 20
80.86904516401151
 30
0.0
 10
137.3679350254781
 20
80.8679941240739
 30
0.0
 10
137.3751244272633
 20
80.86623201787901
 30
0.0
 10
137.3821120287726
 20
80.8637786805587
 30
0.0
 10
137.3888316802544
 20
80.86066396851218
 30
0.0
 10
137.3952080676097
 20
80.85689711591941
 30
0.0
 10
137.4011705536382
 20
80.85250128939384
 30
0.0
 10
137.4066634734823
 20
80.84753069986425
 30
0.0
 10
137.4116191973516
 20
80.84202487424648
 30
0.0
 10
137.4159430950795
 20
80.83601579643302
 30
0.0
 10
137.4196723186418
 20
80.82960732243716
 30
0.0
 10
137.4215517077417
 20
80.82504477309202
 30
0.0
 10
137.4224897521632
 20
80.82276750439819
 30
0.0
  0
SPLINE
  5
10D
330
1F
100
AcDbEntity
  8
0
  6
Continuous
 62
     7
370
    25
100
AcDbSpline
210
0.0
220
0.0
230
1.0
 70
     8
 71
     3
 72
    15
 73
    11
 74
     0
 42
0.000000001
 43
0.00000001
 40
0.0
 40
0.0
 40
0.0
 40
0.0
 40
0.1255482376299943
 40
0.2506612331927046
 40
0.3755698012986847
 40
0.5003109015749712
 40
0.6252467103373207
 40
0.7502075817355112
 40
0.874985997901262
 40
1.0
 40
1.0
 40
1.0
 40
1.0
 10
137.6858306395196
 20
80.11994568753522
 30
0.0
 10
137.6874456849868
 20
80.11443050083221
 30
0.0
 10
137.6906701769918
 20
80.1034192470993
 30
0.0
 10
137.6900126732736
 20
80.08605018782991
 30
0.0
 10
137.6852821121498
 20
80.06950534719712
 30
0.0
 10
137.6765355390166
 20
80.05465417778765
 30
0.0
 10
137.6645058339542
 20
80.04232368882317
 30
0.0
 10
137.6499278852315
 20
80.03323128132986
 30
0.0
 10
137.6336744416506
 20
80.02737960828134
 30
0.0
 10
137.6222793182852
 20
80.02664407153917
 30
0.0
 10
137.6165763830791
 20
80.02627595631587
 30
0.0
  0
LINE
  5
10E
330
1F
100
AcDbEntity
  8
0
  6
Continuous
 62
     7
370
    25
100
AcDbLine
 10
137.08989468
 20
80.0262758684
 30
0.0
 11
137.6165764552
 21
80.0262758684
 31
0.0
  0
SPLINE
  5
10F
330
1F
100
AcDbEntity
  8
0
  6
Continuous
 62
     7
370
    25
100
AcDbSpline
210
0.0
220
0.0
230
1.0
 70
     8
 71
     3
 72
    15
 73
    11
 74
     0
 42
0.000000001
 43
0.00000001
 40
0.0
 40
0.0
 40
0.0
 40
0.0
 40
0.1247517205531464
 40
0.2498857245441838
 40
0.3745674687454417
 40
0.4993106804387823
 40
0.6244677860264319
 40
0.7493917290903895
 40
0.8741574726928457
 40
1.0
 40
1.0
 40
1.0
 40
1.0
 10
137.0898946053564
 20
80.02627595631587
 30
0.0
 10
137.0842034805667
 20
80.0266406988054
 30
0.0
 10
137.0728037913659
 20
80.02737130148459
 30
0.0
 10
137.0565569938008
 20
80.03322325874323
 30
0.0
 10
137.0419890666324
 20
80.04231744955216
 30
0.0
 10
137.029941987651
 20
80.05462597396622
 30
0.0
 10
137.0211870864749
 20
80.06948970673642
 30
0.0
 10
137.0164732003078
 20
80.08604186555478
 30
0.0
 10
137.0157990594174
 20
80.10340672238273
 30
0.0
 10
137.0190219698775
 20
80.11441693019931
 30
0.0
 10
137.020640349016
 20
80.11994568778097
 30
0.0
  0
LINE
  5
110
330
1F
100
AcDbEntity
  8
0
  6
Continuous
 62
     7
370
    25
100
AcDbLine
 10
137.6858305332
 20
80.1199457318
 30
0.0
 11
137.422489762
 21
80.8227676143
 31
0.0
  0
SPLINE
  5
111
330
1F
100
AcDbEntity
  8
0
  6
Continuous
 62
     7
370
    25
100
AcDbSpline
210
0.0
220
0.0
230
1.0
 70
     8
 71
     3
 72
     9
 73
     5
 74
     0
 42
0.000000001
 43
0.00000001
 40
0.0
 40
0.0
 40
0.0
 40
0.0
 40
0.5
 40
1.0
 40
1.0
 40
1.0
 40
1.0
 10
125.3532354940155
 20
79.89859479489989
 30
0.0
 10
125.4841351879151
 20
79.89859479489989
 30
0.0
 10
125.7449516238305
 20
79.84457330920043
 30
0.0
 10
125.8532354940155
 20
79.71445520999576
 30
0.0
 10
125.8532354940155
 20
79.64915096911498
 30
0.0
  0
SPLINE
  5
112
330
1F
100
AcDbEntity
  8
0
  6
Continuous
 62
     7
370
    25
100
AcDbSpline
210
0.0
220
0.0
230
1.0
 70
     8
 71
     3
 72
     9
 73
     5
 74
     0
 42
0.000000001
 43
0.00000001
 40
0.0
 40
0.0
 40
0.0
 40
0.0
 40
0.5
 40
1.0
 40
1.0
 40
1.0
 40
1.0
 10
141.3532354940155
 20
86.88302191687794
 30
0.0
 10
141.2223358001159
 20
86.88302191687794
 30
0.0
 10
140.9615193642005
 20
86.9370434025774
 30
0.0
 10
140.8532354940155
 20
87.0671615017821
 30
0.0
 10
140.8532354940155
 20
87.13246574266287
 30
0.0
  0
SPLINE
  5
113
330
1F
100
AcDbEntity
  8
0
  6
Continuous
 62
     7
370
    25
100
AcDbSpline
210
0.0
220
0.0
230
1.0
 70
     8
 71
     3
 72
     9
 73
     5
 74
     0
 42
0.000000001
 43
0.00000001
 40
0.0
 40
0.0
 40
0.0
 40
0.0
 40
0.5
 40
1.0
 40
1.0
 40
1.0
 40
1.0
 10
129.8610219330265
 20
91.39080835588892
 30
0.0
 10
129.8610219330265
 20
91.25990866198936
 30
0.0
 10
129.8070004473271
 20
90.99909222607388
 30
0.0
 10
129.6768823481223
 20
90.89080835588892
 30
0.0
 10
129.6115781072416
 20
90.89080835588892
 30
0.0
  0
SPLINE
  5
114
330
1F
100
AcDbEntity
  8
0
  6
Continuous
 62
     7
370
    25
100
AcDbSpline
210
0.0
220
0.0
230
1.0
 70
     8
 71
     3
 72
     9
 73
     5
 74
     0
 42
0.000000001
 43
0.00000001
 40
0.0
 40
0.0
 40
0.0
 40
0.0
 40
0.5
 40
1.0
 40
1.0
 40
1.0
 40
1.0
 10
137.0948928807895
 20
90.89080835588892
 30
0.0
 10
137.0295886399087
 20
90.89080835588892
 30
0.0
 10
136.899470540704
 20
90.99909222607388
 30
0.0
 10
136.8454490550045
 20
91.25990866198934
 30
0.0
 10
136.8454490550045
 20
91.39080835588892
 30
0.0
  0
SPLINE
  5
115
330
1F
100
AcDbEntity
  8
0
  6
Continuous
 62
     7
370
    25
100
AcDbSpline
210
0.0
220
0.0
230
1.0
 70
     8
 71
     3
 72
     9
 73
     5
 74
     0
 42
0.000000001
 43
0.00000001
 40
0.0
 40
0.0
 40
0.0
 40
0.0
 40
0.5
 40
1.0
 40
1.0
 40
1.0
 40
1.0
 10
140.8532354940155
 20
79.64915096911498
 30
0.0
 10
140.8532354940155
 20
79.71445520999576
 30
0.0
 10
140.9615193642005
 20
79.84457330920044
 30
0.0
 10
141.2223358001159
 20
79.8985947948999
 30
0.0
 10
141.3532354940155
 20
79.8985947948999
 30
0.0
  0
SPLINE
  5
116
330
1F
100
AcDbEntity
  8
0
  6
Continuous
 62
     7
370
    25
100
AcDbSpline
210
0.0
220
0.0
230
1.0
 70
     8
 71
     3
 72
     9
 73
     5
 74
     0
 42
0.000000001
 43
0.00000001
 40
0.0
 40
0.0
 40
0.0
 40
0.0
 40
0.5
 40
1.0
 40
1.0
 40
1.0
 40
1.0
 10
125.8532354940155
 20
87.13246574266287
 30
0.0
 10
125.8532354940155
 20
87.0671615017821
 30
0.0
 10
125.7449516238305
 20
86.9370434025774
 30
0.0
 10
125.4841351879151
 20
86.88302191687794
 30
0.0
 10
125.3532354940155
 20
86.88302191687794
 30
0.0
  0
LINE
  5
117
330
1F
100
AcDbEntity
  8
0
  6
Continuous
 62
     7
370
    25
100
AcDbLine
 10
125.8431140479
 20
77.8361644306
 30
0.0
 11
125.8532356617
 21
77.8907147878
 31
0.0
  0
SPLINE
  5
118
330
1F
100
AcDbEntity
  8
0
  6
Continuous
 62
     7
370
    25
100
AcDbSpline
210
0.0
220
0.0
230
1.0
 70
     8
 71
     3
 72
    11
 73
     7
 74
     0
 42
0.000000001
 43
0.00000001
 40
0.0
 40
0.0
 40
0.0
 40
0.0
 40
0.2813371813345898
 40
0.4847351098322705
 40
0.7599089647777694
 40
1.0
 40
1.0
 40
1.0
 40
1.0
 10
125.3532354940155
 20
77.32414168922226
 30
0.0
 10
125.3781434114448
 20
77.34851699619
 30
0.0
 10
125.4210589693299
 20
77.39051488301091
 30
0.0
 10
125.488185588314
 20
77.44890439060372
 30
0.0
 10
125.5521252275767
 20
77.49893607089427
 30
0.0
 10
125.5972566276346
 20
77.52710999628928
 30
0.0
 10
125.618285897759
 20
77.54023782052772
 30
0.0
  0
LINE
  5
119
330
1F
100
AcDbEntity
  8
0
  6
Continuous
 62
     7
370
    25
100
AcDbLine
 10
126.1695030291
 20
77.4258362771
 30
0.0
 11
126.3531421457
 21
77.3908083037
 31
0.0
  0
SPLINE
  5
11A
330
1F
100
AcDbEntity
  8
0
  6
Continuous
 62
     7
370
    25
100
AcDbSpline
210
0.0
220
0.0
230
1.0
 70
     8
 71
     3
 72
    12
 73
     8
 74
     0
 42
0.000000001
 43
0.00000001
 40
0.0
 40
0.0
 40
0.0
 40
0.0
 40
0.156133543665343
 40
0.327879147000269
 40
0.5152978781378685
 40
0.7186269797895557
 40
1.0
 40
1.0
 40
1.0
 40
1.0
 10
141.0881840035156
 20
77.54025890932925
 30
0.0
 10
141.1018354819543
 20
77.5319281884534
 30
0.0
 10
141.1305034734742
 20
77.51443374369445
 30
0.0
 10
141.176076057133
 20
77.48175024808722
 30
0.0
 10
141.226021823935
 20
77.44227105112651
 30
0.0
 10
141.2854083327227
 20
77.3904843379026
 30
0.0
 10
141.3283231425018
 20
77.3485087916157
 30
0.0
 10
141.3532354940155
 20
77.32414168922226
 30
0.0
  0
LINE
  5
11B
330
1F
100
AcDbEntity
  8
0
  6
Continuous
 62
     7
370
    25
100
AcDbLine
 10
140.8532353264
 20
77.890779049
 30
0.0
 11
140.87152883
 21
77.8370408052
 31
0.0
  0
SPLINE
  5
11C
330
1F
100
AcDbEntity
  8
0
  6
Continuous
 62
     7
370
    25
100
AcDbSpline
210
0.0
220
0.0
230
1.0
 70
     8
 71
     3
 72
     9
 73
     5
 74
     0
 42
0.000000001
 43
0.00000001
 40
0.0
 40
0.0
 40
0.0
 40
0.0
 40
0.5
 40
1.0
 40
1.0
 40
1.0
 40
1.0
 10
138.4865688273488
 20
91.39080835588892
 30
0.0
 10
138.4865688273488
 20
91.25990866198936
 30
0.0
 10
138.5659790407556
 20
90.99909501053459
 30
0.0
 10
138.7572423851558
 20
90.89080835588892
 30
0.0
 10
138.8532354940155
 20
90.89080835588892
 30
0.0
  0
SPLINE
  5
11D
330
1F
100
AcDbEntity
  8
0
  6
Continuous
 62
     7
370
    25
100
AcDbSpline
210
0.0
220
0.0
230
1.0
 70
     8
 71
     3
 72
     9
 73
     5
 74
     0
 42
0.000000001
 43
0.00000001
 40
0.0
 40
0.0
 40
0.0
 40
0.0
 40
0.5
 40
1.0
 40
1.0
 40
1.0
 40
1.0
 10
125.3532354940155
 20
88.52414168922226
 30
0.0
 10
125.4841351879151
 20
88.52414168922226
 30
0.0
 10
125.7449488393698
 20
88.60355190262906
 30
0.0
 10
125.8532354940155
 20
88.79481524702923
 30
0.0
 10
125.8532354940155
 20
88.89080835588892
 30
0.0
  0
SPLINE
  5
11E
330
1F
100
AcDbEntity
  8
0
  6
Continuous
 62
     7
370
    25
100
AcDbSpline
210
0.0
220
0.0
230
1.0
 70
     8
 71
     3
 72
     9
 73
     5
 74
     0
 42
0.000000001
 43
0.00000001
 40
0.0
 40
0.0
 40
0.0
 40
0.0
 40
0.5
 40
1.0
 40
1.0
 40
1.0
 40
1.0
 10
140.8532354940155
 20
88.89080835588892
 30
0.0
 10
140.8532354940155
 20
88.79481524702923
 30
0.0
 10
140.9615221486612
 20
88.60355190262906
 30
0.0
 10
141.2223358001159
 20
88.52414168922225
 30
0.0
 10
141.3532354940155
 20
88.52414168922225
 30
0.0
  0
SPLINE
  5
11F
330
1F
100
AcDbEntity
  8
0
  6
Continuous
 62
     7
370
    25
100
AcDbSpline
210
0.0
220
0.0
230
1.0
 70
     8
 71
     3
 72
     9
 73
     5
 74
     0
 42
0.000000001
 43
0.00000001
 40
0.0
 40
0.0
 40
0.0
 40
0.0
 40
0.5
 40
1.0
 40
1.0
 40
1.0
 40
1.0
 10
127.8532354940155
 20
90.89080835588892
 30
0.0
 10
127.9492286028752
 20
90.89080835588892
 30
0.0
 10
128.1404919472754
 20
90.99909501053459
 30
0.0
 10
128.2199021606822
 20
91.25990866198936
 30
0.0
 10
128.2199021606822
 20
91.39080835588892
 30
0.0
  0
SPLINE
  5
120
330
1F
100
AcDbEntity
  8
0
  6
Continuous
 62
     7
370
    25
100
AcDbSpline
210
0.0
220
0.0
230
1.0
 70
     8
 71
     3
 72
     8
 73
     4
 74
     0
 42
0.000000001
 43
0.00000001
 40
0.0
 40
0.0
 40
0.0
 40
0.0
 40
1.0
 40
1.0
 40
1.0
 40
1.0
 10
139.0687115605096
 20
91.17245272933339
 30
0.0
 10
139.0269796573546
 20
91.01555886942401
 30
0.0
 10
139.0649664486855
 20
90.86153169114296
 30
0.0
 10
139.1650976724945
 20
90.78163054261115
 30
0.0
  0
SPLINE
  5
121
330
1F
100
AcDbEntity
  8
0
  6
Continuous
 62
     7
370
    25
100
AcDbSpline
210
0.0
220
0.0
230
1.0
 70
     8
 71
     3
 72
     9
 73
     5
 74
     0
 42
0.000000001
 43
0.00000001
 40
0.0
 40
0.0
 40
0.0
 40
0.0
 40
0.5
 40
1.0
 40
1.0
 40
1.0
 40
1.0
 10
141.13487986746
 20
89.106284422383
 30
0.0
 10
141.0564329375053
 20
89.08541847080552
 30
0.0
 10
140.8996377164173
 20
89.08108665615497
 30
0.0
 10
140.7840082550036
 20
89.15260492246344
 30
0.0
 10
140.7440576807377
 20
89.2026705343679
 30
0.0
  0
SPLINE
  5
122
330
1F
100
AcDbEntity
  8
0
  6
Continuous
 62
     7
370
    25
100
AcDbSpline
210
0.0
220
0.0
230
1.0
 70
     8
 71
     3
 72
     9
 73
     5
 74
     0
 42
0.000000001
 43
0.00000001
 40
0.0
 40
0.0
 40
0.0
 40
0.0
 40
0.5
 40
1.0
 40
1.0
 40
1.0
 40
1.0
 10
127.6377594275214
 20
91.17245272933339
 30
0.0
 10
127.6586253790989
 20
91.0940057993787
 30
0.0
 10
127.6629571937495
 20
90.93721057829072
 30
0.0
 10
127.591438927441
 20
90.82158111687706
 30
0.0
 10
127.5413733155366
 20
90.78163054261117
 30
0.0
  0
SPLINE
  5
123
330
1F
100
AcDbEntity
  8
0
  6
Continuous
 62
     7
370
    25
100
AcDbSpline
210
0.0
220
0.0
230
1.0
 70
     8
 71
     3
 72
     9
 73
     5
 74
     0
 42
0.000000001
 43
0.00000001
 40
0.0
 40
0.0
 40
0.0
 40
0.0
 40
0.5
 40
1.0
 40
1.0
 40
1.0
 40
1.0
 10
125.9624133072933
 20
89.2026705343679
 30
0.0
 10
125.9224627330274
 20
89.15260492246344
 30
0.0
 10
125.8068332716137
 20
89.08108665615497
 30
0.0
 10
125.6500380505257
 20
89.08541847080552
 30
0.0
 10
125.571591120571
 20
89.106284422383
 30
0.0
  0
SPLINE
  5
124
330
1F
100
AcDbEntity
  8
0
  6
Continuous
 62
     7
370
    25
100
AcDbSpline
210
0.0
220
0.0
230
1.0
 70
     8
 71
     3
 72
    10
 73
     6
 74
     0
 42
0.000000001
 43
0.00000001
 40
0.0
 40
0.0
 40
0.0
 40
0.0
 40
0.499999999999999
 40
0.499999999999999
 40
1.0
 40
1.0
 40
1.0
 40
1.0
 10
141.0881840035156
 20
77.54025890932925
 30
0.0
 10
141.0546044808421
 20
77.49431543591119
 30
0.0
 10
141.0127976530901
 20
77.45559820151283
 30
0.0
 10
140.9208788695358
 20
77.4037663250137
 30
0.0
 10
140.8710447579935
 20
77.39080835588892
 30
0.0
 10
140.8231480063338
 20
77.39080835588892
 30
0.0
  0
SPLINE
  5
125
330
1F
100
AcDbEntity
  8
0
  6
Continuous
 62
     7
370
    25
100
AcDbSpline
210
0.0
220
0.0
230
1.0
 70
    24
 71
     3
 72
    11
 73
     7
 74
     0
 42
0.000000001
 43
0.00000001
 40
0.0
 40
0.0
 40
0.0
 40
0.0
 40
0.2763411301184875
 40
0.5544314494531052
 40
0.8516739161352698
 40
1.0
 40
1.0
 40
1.0
 40
1.0
 10
140.8231480192819
 20
77.39080830373486
 30
0.0
 10
140.7536290195769
 20
77.39080830373486
 30
0.0
 10
140.6141509775117
 20
77.39080830373486
 30
0.0
 10
140.4783929552601
 20
77.39080830373486
 30
0.0
 10
140.3914770556031
 20
77.39080830373486
 30
0.0
 10
140.3790786764058
 20
77.39080830373486
 30
0.0
 10
140.3749513585547
 20
77.39080830373486
 30
0.0
  0
SPLINE
  5
126
330
1F
100
AcDbEntity
  8
0
  6
Continuous
 62
     7
370
    25
100
AcDbSpline
210
0.0
220
0.0
230
1.0
 70
     8
 71
     3
 72
    10
 73
     6
 74
     0
 42
0.000000001
 43
0.00000001
 40
0.0
 40
0.0
 40
0.0
 40
0.0
 40
0.5
 40
0.5
 40
1.0
 40
1.0
 40
1.0
 40
1.0
 10
125.618285897759
 20
77.54023782052774
 30
0.0
 10
125.651861103364
 20
77.49430077994191
 30
0.0
 10
125.6936624200658
 20
77.45558902512506
 30
0.0
 10
125.7855689511679
 20
77.40376448973615
 30
0.0
 10
125.8353963655459
 20
77.39080835588892
 30
0.0
 10
125.8832867055104
 20
77.39080835588892
 30
0.0
  0
SPLINE
  5
127
330
1F
100
AcDbEntity
  8
0
  6
Continuous
 62
     7
370
    25
100
AcDbSpline
210
0.0
220
0.0
230
1.0
 70
    24
 71
     3
 72
    11
 73
     7
 74
     0
 42
0.000000001
 43
0.00000001
 40
0.0
 40
0.0
 40
0.0
 40
0.0
 40
0.2049920357982627
 40
0.4145768611691547
 40
0.7078486839366668
 40
1.0
 40
1.0
 40
1.0
 40
1.0
 10
126.3311792310753
 20
77.39080830373486
 30
0.0
 10
126.3187462538394
 20
77.39080830373486
 30
0.0
 10
126.293601741969
 20
77.39080830373486
 30
0.0
 10
126.2126153673099
 20
77.39080830373486
 30
0.0
 10
126.0913304594785
 20
77.39080830373484
 30
0.0
 10
125.9525460396068
 20
77.39080830373486
 30
0.0
 10
125.8832866471687
 20
77.39080830373486
 30
0.0
  0
SPLINE
  5
128
330
1F
100
AcDbEntity
  8
0
  6
Continuous
 62
     7
370
    25
100
AcDbSpline
210
0.0
220
0.0
230
1.0
 70
    24
 71
     3
 72
     8
 73
     4
 74
     0
 42
0.000000001
 43
0.00000001
 40
0.0
 40
0.0
 40
0.0
 40
0.0
 40
1.0
 40
1.0
 40
1.0
 40
1.0
 10
140.3532354940155
 20
89.45747502255557
 30
0.0
 10
140.3532354940155
 20
89.41404562008375
 30
0.0
 10
140.3532354940155
 20
89.39080835588892
 30
0.0
 10
140.3532354940155
 20
89.39080835588892
 30
0.0
  0
SPLINE
  5
129
330
1F
100
AcDbEntity
  8
0
  6
Continuous
 62
     7
370
    25
100
AcDbSpline
210
0.0
220
0.0
230
1.0
 70
    24
 71
     3
 72
     8
 73
     4
 74
     0
 42
0.000000001
 43
0.00000001
 40
0.0
 40
0.0
 40
0.0
 40
0.0
 40
1.0
 40
1.0
 40
1.0
 40
1.0
 10
127.2865688273488
 20
90.39080835588892
 30
0.0
 10
127.3299982298207
 20
90.39080835588892
 30
0.0
 10
127.3532354940155
 20
90.39080835588892
 30
0.0
 10
127.3532354940155
 20
90.39080835588892
 30
0.0
  0
SPLINE
  5
12A
330
1F
100
AcDbEntity
  8
0
  6
Continuous
 62
     7
370
    25
100
AcDbSpline
210
0.0
220
0.0
230
1.0
 70
    24
 71
     3
 72
     8
 73
     4
 74
     0
 42
0.000000001
 43
0.00000001
 40
0.0
 40
0.0
 40
0.0
 40
0.0
 40
1.0
 40
1.0
 40
1.0
 40
1.0
 10
126.3532354940155
 20
89.39080835588892
 30
0.0
 10
126.3532354940155
 20
89.39080835588892
 30
0.0
 10
126.3532354940155
 20
89.41404562008375
 30
0.0
 10
126.3532354940155
 20
89.45747502255558
 30
0.0
  0
SPLINE
  5
12B
330
1F
100
AcDbEntity
  8
0
  6
Continuous
 62
     7
370
    25
100
AcDbSpline
210
0.0
220
0.0
230
1.0
 70
    24
 71
     3
 72
     8
 73
     4
 74
     0
 42
0.000000001
 43
0.00000001
 40
0.0
 40
0.0
 40
0.0
 40
0.0
 40
1.0
 40
1.0
 40
1.0
 40
1.0
 10
139.4199021606822
 20
90.39080835588892
 30
0.0
 10
139.3764727582104
 20
90.39080835588892
 30
0.0
 10
139.3532354940155
 20
90.39080835588892
 30
0.0
 10
139.3532354940155
 20
90.39080835588892
 30
0.0
  0
SPLINE
  5
12C
330
1F
100
AcDbEntity
  8
0
  6
Continuous
 62
     7
370
    25
100
AcDbSpline
210
0.0
220
0.0
230
1.0
 70
     8
 71
     3
 72
    11
 73
     7
 74
     0
 42
0.000000001
 43
0.00000001
 40
0.0
 40
0.0
 40
0.0
 40
0.0
 40
0.2796925902103931
 40
0.4824920995717302
 40
0.7583389673489331
 40
0.9999999999999999
 40
0.9999999999999999
 40
0.9999999999999999
 40
0.9999999999999999
 10
141.3532354940155
 20
77.32414168922224
 30
0.0
 10
141.3032378323706
 20
77.33493116816658
 30
0.0
 10
141.2169878651385
 20
77.35354388273727
 30
0.0
 10
141.0820034184755
 20
77.37397503338052
 30
0.0
 10
140.9547118757609
 20
77.387920079221
 30
0.0
 10
140.8650278293349
 20
77.38988895061331
 30
0.0
 10
140.8231480063338
 20
77.39080835588892
 30
0.0
  0
SPLINE
  5
12D
330
1F
100
AcDbEntity
  8
0
  6
Continuous
 62
     7
370
    25
100
AcDbSpline
210
0.0
220
0.0
230
1.0
 70
     8
 71
     3
 72
    12
 73
     8
 74
     0
 42
0.000000001
 43
0.00000001
 40
0.0
 40
0.0
 40
0.0
 40
0.0
 40
0.1573492972449686
 40
0.3298380470016292
 40
0.5175259235705421
 40
0.7203120516631307
 40
1.0
 40
1.0
 40
1.0
 40
1.0
 10
125.8832867055104
 20
77.39080835588892
 30
0.0
 10
125.8560796479826
 20
77.39041319244103
 30
0.0
 10
125.7990477903464
 20
77.38958484466838
 30
0.0
 10
125.7082707335892
 20
77.38298440556477
 30
0.0
 10
125.6088015128638
 20
77.37168979387991
 30
0.0
 10
125.4894668181269
 20
77.35350964841547
 30
0.0
 10
125.4032278293744
 20
77.3349187471006
 30
0.0
 10
125.3532354940155
 20
77.32414168922224
 30
0.0
  0
SPLINE
  5
12E
330
1F
100
AcDbEntity
  8
0
  6
Continuous
 62
     7
370
    25
100
AcDbSpline
210
0.0
220
0.0
230
1.0
 70
     8
 71
     3
 72
     9
 73
     5
 74
     0
 42
0.000000001
 43
0.00000001
 40
0.0
 40
0.0
 40
0.0
 40
0.0
 40
0.5
 40
1.0
 40
1.0
 40
1.0
 40
1.0
 10
139.5565856627918
 20
90.03725496529212
 30
0.0
 10
139.5785698105411
 20
89.9348421973121
 30
0.0
 10
139.6928402020131
 20
89.73041306388647
 30
0.0
 10
139.8972693354387
 20
89.61614267241447
 30
0.0
 10
139.9996821034187
 20
89.59415852466525
 30
0.0
  0
SPLINE
  5
12F
330
1F
100
AcDbEntity
  8
0
  6
Continuous
 62
     7
370
    25
100
AcDbSpline
210
0.0
220
0.0
230
1.0
 70
     8
 71
     3
 72
     9
 73
     5
 74
     0
 42
0.000000001
 43
0.00000001
 40
0.0
 40
0.0
 40
0.0
 40
0.0
 40
0.5
 40
1.0
 40
1.0
 40
1.0
 40
1.0
 10
126.7067888846088
 20
89.59415852466852
 30
0.0
 10
126.8092016525889
 20
89.61614267241767
 30
0.0
 10
127.0136307860148
 20
89.73041306388969
 30
0.0
 10
127.1279011774868
 20
89.9348421973155
 30
0.0
 10
127.1498853252359
 20
90.03725496529563
 30
0.0
  0
LINE
  5
130
330
1F
100
AcDbEntity
  8
0
  6
Continuous
 62
     8
370
    25
100
AcDbLine
 10
125.5532357056
 20
95.4211146281
 30
0.0
 11
141.1532352824
 21
95.4211146281
 31
0.0
  0
LINE
  5
131
330
1F
100
AcDbEntity
  8
0
  6
Continuous
 62
     8
370
    25
100
AcDbLine
 10
145.3835417662
 20
91.1908081443
 30
0.0
 11
145.3835417662
 21
75.5908085675
 31
0.0
  0
LINE
  5
132
330
1F
100
AcDbEntity
  8
0
  6
Continuous
 62
     8
370
    25
100
AcDbLine
 10
121.3229292218
 20
75.5908085675
 30
0.0
 11
121.3229292218
 21
91.1908081443
 31
0.0
  0
LINE
  5
133
330
1F
100
AcDbEntity
  8
0
  6
Continuous
 62
     8
370
    25
100
AcDbLine
 10
122.3027252738
 20
90.390808572
 30
0.0
 11
122.3027252738
 21
76.3908081398
 31
0.0
  0
LINE
  5
134
330
1F
100
AcDbEntity
  8
0
  6
Continuous
 62
     8
370
    25
100
AcDbLine
 10
144.4037457142
 20
76.3908081398
 30
0.0
 11
144.4037457142
 21
90.390808572
 31
0.0
  0
LINE
  5
135
330
1F
100
AcDbEntity
  8
0
  6
Continuous
 62
     8
370
    25
100
AcDbLine
 10
140.3532357101
 20
94.4413185761
 30
0.0
 11
126.3532352779
 21
94.4413185761
 31
0.0
  0
SPLINE
  5
136
330
1F
100
AcDbEntity
  8
0
  6
Continuous
 62
     8
370
    25
100
AcDbSpline
210
0.0
220
0.0
230
1.0
 70
     8
 71
     3
 72
    19
 73
    15
 74
     0
 42
0.000000001
 43
0.00000001
 40
0.0
 40
0.0
 40
0.0
 40
0.0
 40
0.0606727911926113
 40
0.1214874002643155
 40
0.1825081921994686
 40
0.2437988823923964
 40
0.3054223490615667
 40
0.3674404582586578
 40
0.4299139036293041
 40
0.4929020625848005
 40
0.6146975824539129
 40
0.7395812568283596
 40
0.8679067285909485
 40
1.0
 40
1.0
 40
1.0
 40
1.0
 10
140.8532354940171
 20
90.39080835588892
 30
0.0
 10
140.852564192369
 20
90.39018458773495
 30
0.0
 10
140.851220019958
 20
90.38893559341801
 30
0.0
 10
140.8403603100822
 20
90.37882873260973
 30
0.0
 10
140.8230308788433
 20
90.36267697809582
 30
0.0
 10
140.7985930351088
 20
90.33987769372658
 30
0.0
 10
140.7672194115688
 20
90.31058777929502
 30
0.0
 10
140.7288636792511
 20
90.27476699234116
 30
0.0
 10
140.6835400556349
 20
90.23243774184634
 30
0.0
 10
140.6151288570577
 20
90.16856459284824
 30
0.0
 10
140.5140833441057
 20
90.07430639802223
 30
0.0
 10
140.3685650960827
 20
89.93852909920201
 30
0.0
 10
140.1985129428384
 20
89.77976966403453
 30
0.0
 10
140.0665952552745
 20
89.65662281034143
 30
0.0
 10
139.9996821034222
 20
89.59415852466854
 30
0.0
  0
SPLINE
  5
137
330
1F
100
AcDbEntity
  8
0
  6
Continuous
 62
     8
370
    25
100
AcDbSpline
210
0.0
220
0.0
230
1.0
 70
     8
 71
     3
 72
    18
 73
    14
 74
     0
 42
0.000000001
 43
0.00000001
 40
0.0
 40
0.0
 40
0.0
 40
0.0
 40
0.0759716985786636
 40
0.1506710093718998
 40
0.2241554833695644
 40
0.296485571458475
 40
0.3677246633008381
 40
0.4379391034842293
 40
0.5071981812646982
 40
0.6326267587181382
 40
0.756240453292097
 40
0.8785294569467931
 40
1.0
 40
1.0
 40
1.0
 40
1.0
 10
126.7067888846088
 20
89.59415852466854
 30
0.0
 10
126.6678699709561
 20
89.6304870256498
 30
0.0
 10
126.5906839646747
 20
89.70253559128965
 30
0.0
 10
126.483990941888
 20
89.80215090633088
 30
0.0
 10
126.3852876023222
 20
89.89429522206699
 30
0.0
 10
126.2951236618038
 20
89.9784485238488
 30
0.0
 10
126.2133580868867
 20
90.05474160461148
 30
0.0
 10
126.1400226563915
 20
90.12315558547202
 30
0.0
 10
126.0573214397735
 20
90.20031565122268
 30
0.0
 10
125.9744782080707
 20
90.27768803356011
 30
0.0
 10
125.9049528441077
 20
90.34261885051772
 30
0.0
 10
125.8613463532148
 20
90.3832754587858
 30
0.0
 10
125.8559330550846
 20
90.3883030171243
 30
0.0
 10
125.8532354940148
 20
90.39080835588892
 30
0.0
  0
SPLINE
  5
138
330
1F
100
AcDbEntity
  8
0
  6
Continuous
 62
     8
370
    25
100
AcDbSpline
210
0.0
220
0.0
230
1.0
 70
    24
 71
     3
 72
     9
 73
     5
 74
     0
 42
0.000000001
 43
0.00000001
 40
-0.481733964059299
 40
-0.481733964059299
 40
-0.481733964059299
 40
-0.481733964059299
 40
-0.4129148263141913
 40
0.0000000001423262
 40
0.0000000001423262
 40
0.0000000001423262
 40
0.0000000001423262
 10
140.3531835543691
 20
90.89075270626775
 30
0.0
 10
140.3532101392752
 20
90.89078119009578
 30
0.0
 10
140.3146369720942
 20
90.84945279668754
 30
0.0
 10
140.0029762492048
 20
90.51553059359175
 30
0.0
 10
139.5565856627918
 20
90.03725496529212
 30
0.0
  0
SPLINE
  5
139
330
1F
100
AcDbEntity
  8
0
  6
Continuous
 62
     8
370
    25
100
AcDbSpline
210
0.0
220
0.0
230
1.0
 70
    24
 71
     3
 72
     9
 73
     5
 74
     0
 42
0.000000001
 43
0.00000001
 40
-0.0000000000100284
 40
-0.0000000000100284
 40
-0.0000000000100284
 40
-0.0000000000100284
 40
0.412914826326082
 40
0.481733964058292
 40
0.481733964058292
 40
0.481733964058292
 40
0.481733964058292
 10
127.1498853252359
 20
90.03725496529563
 30
0.0
 10
126.703494738954
 20
90.51553059345486
 30
0.0
 10
126.3918340160889
 20
90.84945279652453
 30
0.0
 10
126.3532608487771
 20
90.89078119007293
 30
0.0
 10
126.353287433662
 20
90.8907527062677
 30
0.0
  0
SPLINE
  5
13A
330
1F
100
AcDbEntity
  8
0
  6
Continuous
 62
     8
370
    25
100
AcDbSpline
210
0.0
220
0.0
230
1.0
 70
     8
 71
     3
 72
    12
 73
     8
 74
     0
 42
0.000000001
 43
0.00000001
 40
0.0
 40
0.0
 40
0.0
 40
0.0
 40
0.164698102701295
 40
0.3417142375035626
 40
0.5400595885577174
 40
0.8380285990597042
 40
1.0
 40
1.0
 40
1.0
 40
1.0
 10
125.6182857934812
 20
77.54023761384805
 30
0.0
 10
125.64103096822
 20
77.55496540384794
 30
0.0
 10
125.6882224653611
 20
77.58552249860122
 30
0.0
 10
125.7424709563684
 20
77.63719320029105
 30
0.0
 10
125.7954895606726
 20
77.703634746974
 30
0.0
 10
125.8342973686233
 20
77.77080797949125
 30
0.0
 10
125.8408178221975
 20
77.81914292412365
 30
0.0
 10
125.8431140479126
 20
77.83616443060954
 30
0.0
  0
SPLINE
  5
13B
330
1F
100
AcDbEntity
  8
0
  6
Continuous
 62
     8
370
    25
100
AcDbSpline
210
0.0
220
0.0
230
1.0
 70
     8
 71
     3
 72
     9
 73
     5
 74
     0
 42
0.000000001
 43
0.00000001
 40
0.0
 40
0.0
 40
0.0
 40
0.0
 40
0.4584304870387452
 40
1.0
 40
1.0
 40
1.0
 40
1.0
 10
140.8715288300493
 20
77.83704080515226
 30
0.0
 10
140.8805008601132
 20
77.7887165170401
 30
0.0
 10
140.9000720498955
 20
77.6833040510754
 30
0.0
 10
141.0220981707346
 20
77.59051224661545
 30
0.0
 10
141.088183797566
 20
77.54025903426727
 30
0.0
  0
SPLINE
  5
13C
330
1F
100
AcDbEntity
  8
0
  6
Continuous
 62
     8
370
    25
100
AcDbSpline
210
0.0
220
0.0
230
1.0
 70
     8
 71
     3
 72
    10
 73
     6
 74
     0
 42
0.000000001
 43
0.00000001
 40
0.0
 40
0.0
 40
0.0
 40
0.0
 40
0.248573228850268
 40
0.6467864389238261
 40
1.0
 40
1.0
 40
1.0
 40
1.0
 10
139.5791683491746
 20
89.78391454451402
 30
0.0
 10
139.5714364738579
 20
89.80265974727578
 30
0.0
 10
139.5513181685787
 20
89.85143468171766
 30
0.0
 10
139.5414569492399
 20
89.93822738544226
 30
0.0
 10
139.5517481747692
 20
90.00559033480951
 30
0.0
 10
139.5565856393853
 20
90.03725477390607
 30
0.0
  0
SPLINE
  5
13D
330
1F
100
AcDbEntity
  8
0
  6
Continuous
 62
     8
370
    25
100
AcDbSpline
210
0.0
220
0.0
230
1.0
 70
     8
 71
     3
 72
    10
 73
     6
 74
     0
 42
0.000000001
 43
0.00000001
 40
0.0
 40
0.0
 40
0.0
 40
0.0
 40
0.248573228850268
 40
0.6467864389238261
 40
1.0
 40
1.0
 40
1.0
 40
1.0
 10
126.9601293053904
 20
89.61674121104797
 30
0.0
 10
126.9413841026287
 20
89.60900933573132
 30
0.0
 10
126.8926091681868
 20
89.5888910304521
 30
0.0
 10
126.8058164644622
 20
89.57902981111329
 30
0.0
 10
126.7384535150949
 20
89.58932103664257
 30
0.0
 10
126.7067890759984
 20
89.59415850125869
 30
0.0
  0
SPLINE
  5
13E
330
1F
100
AcDbEntity
  8
0
  6
Continuous
 62
     8
370
    25
100
AcDbSpline
210
0.0
220
0.0
230
1.0
 70
     8
 71
     3
 72
    10
 73
     6
 74
     0
 42
0.000000001
 43
0.00000001
 40
0.0
 40
0.0
 40
0.0
 40
0.0
 40
0.3531919359855523
 40
0.7514407532050961
 40
1.0
 40
1.0
 40
1.0
 40
1.0
 10
139.9996819120327
 20
89.59415850125869
 30
0.0
 10
139.9680202303991
 20
89.5893210018825
 30
0.0
 10
139.9006577697358
 20
89.57902888078766
 30
0.0
 10
139.8138656416631
 20
89.58889030938539
 30
0.0
 10
139.7650894230823
 20
89.60900795451336
 30
0.0
 10
139.7463454079309
 20
89.61673888274153
 30
0.0
  0
SPLINE
  5
13F
330
1F
100
AcDbEntity
  8
0
  6
Continuous
 62
     8
370
    25
100
AcDbSpline
210
0.0
220
0.0
230
1.0
 70
     8
 71
     3
 72
    10
 73
     6
 74
     0
 42
0.000000001
 43
0.00000001
 40
0.0
 40
0.0
 40
0.0
 40
0.0
 40
0.3531919359855523
 40
0.7514407532050961
 40
1.0
 40
1.0
 40
1.0
 40
1.0
 10
127.1498853486457
 20
90.03725477390607
 30
0.0
 10
127.154722848022
 20
90.00559309227256
 30
0.0
 10
127.1650149691168
 20
89.93823063160924
 30
0.0
 10
127.155153540519
 20
89.85143850353653
 30
0.0
 10
127.1350358953911
 20
89.80266228495573
 30
0.0
 10
127.1273049671629
 20
89.78391826980432
 30
0.0
  0
LINE
  5
140
330
1F
100
AcDbEntity
  8
0
  6
Continuous
 62
     7
370
    18
100
AcDbLine
 10
157.4834318576
 20
75.8886269923
 30
0.0
 11
145.763235494
 21
75.5223708559
 31
0.0
  0
LINE
  5
141
330
1F
100
AcDbEntity
  8
0
  6
Continuous
 62
     7
370
    18
100
AcDbLine
 10
157.4834318576
 20
90.8929897195
 30
0.0
 11
145.763235494
 21
91.2592458559
 31
0.0
  0
LINE
  5
142
330
1F
100
AcDbEntity
  8
0
  6
Continuous
 62
     7
370
    18
100
AcDbLine
 10
145.763235494
 20
91.9121208559
 30
0.0
 11
145.763235494
 21
74.8694958559
 31
0.0
  0
LINE
  5
143
330
1F
100
AcDbEntity
  8
0
  6
Continuous
 62
     7
370
    18
100
AcDbLine
 10
140.8554168577
 20
107.5210047195
 30
0.0
 11
141.221672994
 21
95.8008083559
 31
0.0
  0
LINE
  5
144
330
1F
100
AcDbEntity
  8
0
  6
Continuous
 62
     7
370
    18
100
AcDbLine
 10
125.8510541304
 20
107.5210047195
 30
0.0
 11
125.484797994
 21
95.8008083559
 31
0.0
  0
LINE
  5
145
330
1F
100
AcDbEntity
  8
0
  6
Continuous
 62
     7
370
    18
100
AcDbLine
 10
124.831922994
 20
95.8008083559
 30
0.0
 11
141.874547994
 21
95.8008083559
 31
0.0
  0
LINE
  5
146
330
1F
100
AcDbEntity
  8
0
  6
Continuous
 62
     7
370
    18
100
AcDbLine
 10
109.2230391305
 20
90.8929897195
 30
0.0
 11
120.943235494
 21
91.2592458559
 31
0.0
  0
LINE
  5
147
330
1F
100
AcDbEntity
  8
0
  6
Continuous
 62
     7
370
    18
100
AcDbLine
 10
109.2230391305
 20
75.8886269923
 30
0.0
 11
120.943235494
 21
75.5223708559
 31
0.0
  0
LINE
  5
148
330
1F
100
AcDbEntity
  8
0
  6
Continuous
 62
     7
370
    18
100
AcDbLine
 10
120.943235494
 20
74.8694958559
 30
0.0
 11
120.943235494
 21
91.9121208559
 31
0.0
  0
LINE
  5
149
330
1F
100
AcDbEntity
  8
0
  6
CENTERX2
 62
     7
370
    18
100
AcDbLine
 10
133.353235494
 20
75.064021449
 30
0.0
 11
133.353235494
 21
110.3908083559
 31
0.0
  0
LINE
  5
14A
330
1F
100
AcDbEntity
  8
0
  6
CENTERX2
 62
     7
370
    18
100
AcDbLine
 10
106.353235494
 20
83.3908083559
 30
0.0
 11
160.353235494
 21
83.3908083559
 31
0.0
  0
LINE
  5
14B
330
1F
100
AcDbEntity
  8
0
  6
Continuous
 62
     7
370
    25
100
AcDbLine
 10
195.962545858
 20
95.792451565
 30
0.0
 11
195.6333885205
 21
106.3254817099
 31
0.0
  0
LINE
  5
14C
330
1F
100
AcDbEntity
  8
0
  6
Continuous
 62
     7
370
    25
100
AcDbLine
 10
179.2485559595
 20
106.3254817099
 30
0.0
 11
178.9193986219
 21
95.792451565
 31
0.0
  0
ARC
  5
14D
330
1F
100
AcDbEntity
  8
0
  6
Continuous
 62
     7
370
    25
100
AcDbCircle
 10
179.94097224
 20
96.8908083559
 30
0.0
 40
1.499999999999987
100
AcDbArc
 50
227.0743223655
 51
258.4630409672
  0
ARC
  5
14E
330
1F
100
AcDbEntity
  8
0
  6
Continuous
 62
     7
370
    25
100
AcDbCircle
 10
194.94097224
 20
96.8908083559
 30
0.0
 40
1.499999999999987
100
AcDbArc
 50
281.5369590328
 51
312.9256776345
  0
LINE
  5
14F
330
1F
100
AcDbEntity
  8
0
  6
Continuous
 62
     7
370
    25
100
AcDbLine
 10
195.6333885205
 20
106.3254817099
 30
0.0
 11
194.440972456
 21
108.3908087284
 31
0.0
  0
LINE
  5
150
330
1F
100
AcDbEntity
  8
0
  6
Continuous
 62
     7
370
    25
100
AcDbLine
 10
180.4409720239
 20
108.3908087284
 30
0.0
 11
179.2485559595
 21
106.3254817099
 31
0.0
  0
ARC
  5
151
330
1F
100
AcDbEntity
  8
0
  6
Continuous
 62
     7
370
    25
100
AcDbCircle
 10
179.44097224
 20
94.4413186131
 30
0.0
 40
1.000000000000009
100
AcDbArc
 50
0.0
 51
78.4630409672
  0
ARC
  5
152
330
1F
100
AcDbEntity
  8
0
  6
Continuous
 62
     7
370
    25
100
AcDbCircle
 10
195.44097224
 20
94.4413186131
 30
0.0
 40
1.000000000000009
100
AcDbArc
 50
101.5369590328
 51
180.0
  0
LINE
  5
153
330
1F
100
AcDbEntity
  8
0
  6
Continuous
 62
     7
370
    25
100
AcDbLine
 10
194.4346222331
 20
89.0226659075
 30
0.0
 11
194.4383861732
 21
89.0228349426
 31
0.0
  0
LINE
  5
154
330
1F
100
AcDbEntity
  8
0
  6
Continuous
 62
     7
370
    25
100
AcDbLine
 10
180.4409720239
 20
94.4413185761
 30
0.0
 11
180.4409720239
 21
90.8908081883
 31
0.0
  0
LINE
  5
155
330
1F
100
AcDbEntity
  8
0
  6
Continuous
 62
     7
370
    25
100
AcDbLine
 10
194.440972456
 20
90.8908081883
 30
0.0
 11
194.440972456
 21
94.4413185761
 31
0.0
  0
CIRCLE
  5
156
330
1F
100
AcDbEntity
  8
0
  6
Continuous
 62
     7
370
    25
100
AcDbCircle
 10
187.44097224
 20
83.3908083559
 30
0.0
 40
5.000000000000028
  0
CIRCLE
  5
157
330
1F
100
AcDbEntity
  8
0
  6
Continuous
 62
     7
370
    25
100
AcDbCircle
 10
187.44097224
 20
83.3908083559
 30
0.0
 40
5.500000000000028
  0
CIRCLE
  5
158
330
1F
100
AcDbEntity
  8
0
  6
Continuous
 62
     7
370
    25
100
AcDbCircle
 10
187.44097224
 20
83.3908083559
 30
0.0
 40
7.000000000000028
  0
CIRCLE
  5
159
330
1F
100
AcDbEntity
  8
0
  6
Continuous
 62
     7
370
    25
100
AcDbCircle
 10
187.44097224
 20
83.3908083559
 30
0.0
 40
6.375
  0
CIRCLE
  5
15A
330
1F
100
AcDbEntity
  8
0
  6
Continuous
 62
     7
370
    25
100
AcDbCircle
 10
187.44097224
 20
83.3908083559
 30
0.0
 40
6.125
  0
CIRCLE
  5
15B
330
1F
100
AcDbEntity
  8
0
  6
Continuous
 62
     7
370
    25
100
AcDbCircle
 10
187.44097224
 20
83.3908083559
 30
0.0
 40
6.250000000000028
  0
CIRCLE
  5
15C
330
1F
100
AcDbEntity
  8
0
  6
Continuous
 62
     7
370
    25
100
AcDbCircle
 10
187.44097224
 20
83.3908083559
 30
0.0
 40
8.192416432660877
  0
CIRCLE
  5
15D
330
1F
100
AcDbEntity
  8
0
  6
Continuous
 62
     7
370
    25
100
AcDbCircle
 10
187.44097224
 20
83.3908083559
 30
0.0
 40
8.521573644712618
  0
LINE
  5
15E
330
1F
100
AcDbEntity
  8
0
  6
Continuous
 62
     7
370
    25
100
AcDbLine
 10
187.44097224
 20
95.792451565
 30
0.0
 11
178.9193986219
 21
95.792451565
 31
0.0
  0
LINE
  5
15F
330
1F
100
AcDbEntity
  8
0
  6
Continuous
 62
     7
370
    25
100
AcDbLine
 10
195.962545858
 20
95.792451565
 30
0.0
 11
187.44097224
 21
95.792451565
 31
0.0
  0
LINE
  5
160
330
1F
100
AcDbEntity
  8
0
  6
Continuous
 62
     7
370
    25
100
AcDbLine
 10
179.2485559595
 20
106.3254817099
 30
0.0
 11
195.6333885205
 21
106.3254817099
 31
0.0
  0
LINE
  5
161
330
1F
100
AcDbEntity
  8
0
  6
Continuous
 62
     7
370
    25
100
AcDbLine
 10
194.440972456
 20
108.3908087284
 30
0.0
 11
180.4409720239
 21
108.3908087284
 31
0.0
  0
LWPOLYLINE
  5
162
330
1F
100
AcDbEntity
  8
0
  6
Continuous
 62
     7
370
    25
100
AcDbPolyline
 90
        5
 70
   128
 43
0.0
 10
180.5759555896
 20
89.255825308
 10
180.6529922646
 20
89.178788633
 10
180.7420411383
 20
89.0897392937
 10
180.839388096
 20
88.9923928016
 10
180.9409721059
 20
88.8908083261
  0
SPLINE
  5
163
330
1F
100
AcDbEntity
  8
0
  6
Continuous
 62
     7
370
    25
100
AcDbSpline
210
0.0
220
0.0
230
1.0
 70
     8
 71
     3
 72
    12
 73
     8
 74
     0
 42
0.000000001
 43
0.00000001
 40
0.0
 40
0.0
 40
0.0
 40
0.0
 40
0.1664616503807027
 40
0.3330491366093241
 40
0.5001938540683241
 40
0.7619811741357122
 40
1.0
 40
1.0
 40
1.0
 40
1.0
 10
180.9409722399684
 20
89.39080835588892
 30
0.0
 10
180.9179785545651
 20
89.39026597645748
 30
0.0
 10
180.8719738017974
 20
89.38918080758557
 30
0.0
 10
180.8064308369871
 20
89.37939765922573
 30
0.0
 10
180.7320646507675
 20
89.35871758744611
 30
0.0
 10
180.652793107108
 20
89.32241631802951
 30
0.0
 10
180.6007429161469
 20
89.2773071377057
 30
0.0
 10
180.5759554551695
 20
89.25582514068792
 30
0.0
  0
LINE
  5
164
330
1F
100
AcDbEntity
  8
0
  6
Continuous
 62
     7
370
    25
100
AcDbLine
 10
181.3897559655
 20
89.390808408
 30
0.0
 11
180.9409721059
 21
89.390808408
 31
0.0
  0
LINE
  5
165
330
1F
100
AcDbEntity
  8
0
  6
Continuous
 62
     7
370
    25
100
AcDbLine
 10
193.9409723741
 20
89.390808408
 30
0.0
 11
193.4921885145
 21
89.390808408
 31
0.0
  0
SPLINE
  5
166
330
1F
100
AcDbEntity
  8
0
  6
Continuous
 62
     7
370
    25
100
AcDbSpline
210
0.0
220
0.0
230
1.0
 70
     8
 71
     3
 72
    13
 73
     9
 74
     0
 42
0.000000001
 43
0.00000001
 40
0.0
 40
0.0
 40
0.0
 40
0.0
 40
0.1162222328345675
 40
0.2381780342187649
 40
0.3660918025068102
 40
0.5001580205070525
 40
0.7504239414864089
 40
0.9999999999999999
 40
0.9999999999999999
 40
0.9999999999999999
 40
0.9999999999999999
 10
194.3059890247674
 20
89.25582514068792
 30
0.0
 10
194.2941515655559
 20
89.26680926400793
 30
0.0
 10
194.2698926720861
 20
89.28931938824297
 30
0.0
 10
194.2296065124943
 20
89.31743051596295
 30
0.0
 10
194.1854493217311
 20
89.34195451186575
 30
0.0
 10
194.1240350469101
 20
89.36732809548667
 30
0.0
 10
194.0440042456286
 20
89.38718777267765
 30
0.0
 10
193.97528462714
 20
89.38960260577142
 30
0.0
 10
193.9409722399685
 20
89.39080835588892
 30
0.0
  0
LWPOLYLINE
  5
167
330
1F
100
AcDbEntity
  8
0
  6
Continuous
 62
     7
370
    25
100
AcDbPolyline
 90
        5
 70
   128
 43
0.0
 10
193.9409723741
 20
88.8908083261
 10
194.0425563839
 20
88.9923928016
 10
194.1399033417
 20
89.0897392937
 10
194.2289522153
 20
89.178788633
 10
194.3059888904
 20
89.255825308
  0
LINE
  5
168
330
1F
100
AcDbEntity
  8
0
  6
Continuous
 62
     7
370
    25
100
AcDbLine
 10
193.9409723741
 20
77.8908083857
 30
0.0
 11
194.440972456
 21
77.8908083857
 31
0.0
  0
LINE
  5
169
330
1F
100
AcDbEntity
  8
0
  6
Continuous
 62
     7
370
    25
100
AcDbLine
 10
194.440972456
 20
78.5310535402
 30
0.0
 11
194.440972456
 21
77.8908083857
 31
0.0
  0
LINE
  5
16A
330
1F
100
AcDbEntity
  8
0
  6
Continuous
 62
     7
370
    25
100
AcDbLine
 10
180.4409720239
 20
77.8908083857
 30
0.0
 11
180.9409721059
 21
77.8908083857
 31
0.0
  0
LINE
  5
16B
330
1F
100
AcDbEntity
  8
0
  6
Continuous
 62
     7
370
    25
100
AcDbLine
 10
180.4409720239
 20
78.5310535402
 30
0.0
 11
180.4409720239
 21
77.8908083857
 31
0.0
  0
SPLINE
  5
16C
330
1F
100
AcDbEntity
  8
0
  6
Continuous
 62
     7
370
    25
100
AcDbSpline
210
0.0
220
0.0
230
1.0
 70
     8
 71
     3
 72
    14
 73
    10
 74
     0
 42
0.000000001
 43
0.00000001
 40
0.0
 40
0.0
 40
0.0
 40
0.0
 40
0.1488603598374869
 40
0.3150273329269794
 40
0.4987646698885773
 40
0.5951853465829806
 40
0.7494349165379153
 40
0.8793203509512854
 40
1.0
 40
1.0
 40
1.0
 40
1.0
 10
180.5759554551694
 20
89.2558251406879
 30
0.0
 10
180.5627120942612
 20
89.23934675776506
 30
0.0
 10
180.5346856897135
 20
89.20447420318573
 30
0.0
 10
180.5006161285046
 20
89.14532382745665
 30
0.0
 10
180.477062243113
 20
89.09074730400913
 30
0.0
 10
180.4599331770462
 20
89.03619116381867
 30
0.0
 10
180.4491081430403
 20
88.98802539941339
 30
0.0
 10
180.4421669117254
 20
88.93693619183087
 30
0.0
 10
180.441360589097
 20
88.90583411546997
 30
0.0
 10
180.4409722399684
 20
88.8908544239341
 30
0.0
  0
LINE
  5
16D
330
1F
100
AcDbEntity
  8
0
  6
Continuous
 62
     7
370
    25
100
AcDbLine
 10
180.4409720239
 20
88.8908544266
 30
0.0
 11
180.4409720239
 21
88.2505631716
 31
0.0
  0
SPLINE
  5
16E
330
1F
100
AcDbEntity
  8
0
  6
Continuous
 62
     7
370
    25
100
AcDbSpline
210
0.0
220
0.0
230
1.0
 70
     8
 71
     3
 72
    13
 73
     9
 74
     0
 42
0.000000001
 43
0.00000001
 40
0.0
 40
0.0
 40
0.0
 40
0.0
 40
0.1206933478353882
 40
0.25063504079335
 40
0.4049364375708385
 40
0.5013752757893005
 40
0.7702865166940487
 40
1.0
 40
1.0
 40
1.0
 40
1.0
 10
194.4409722399685
 20
88.8908544239341
 30
0.0
 10
194.4405845249822
 20
88.90583197812607
 30
0.0
 10
194.4397793856508
 20
88.93693476857158
 30
0.0
 10
194.4328293701626
 20
88.98801960992512
 30
0.0
 10
194.4220390547598
 20
89.03620884810195
 30
0.0
 10
194.401419263573
 20
89.10137185814362
 30
0.0
 10
194.3689115765408
 20
89.17429623379586
 30
0.0
 10
194.3258344185655
 20
89.23011141456587
 30
0.0
 10
194.3059890247674
 20
89.25582514068792
 30
0.0
  0
LINE
  5
16F
330
1F
100
AcDbEntity
  8
0
  6
Continuous
 62
     7
370
    25
100
AcDbLine
 10
194.440972456
 20
88.2505631716
 30
0.0
 11
194.440972456
 21
88.8908544266
 31
0.0
  0
LINE
  5
170
330
1F
100
AcDbEntity
  8
0
  6
Continuous
 62
     7
370
    25
100
AcDbLine
 10
193.9409723741
 20
77.3908083037
 30
0.0
 11
193.4622246076
 21
77.3908083037
 31
0.0
  0
SPLINE
  5
171
330
1F
100
AcDbEntity
  8
0
  6
Continuous
 62
     7
370
    25
100
AcDbSpline
210
0.0
220
0.0
230
1.0
 70
    24
 71
     3
 72
    10
 73
     6
 74
     0
 42
0.000000001
 43
0.00000001
 40
0.0
 40
0.0
 40
0.0
 40
0.0
 40
0.5
 40
0.5
 40
1.0
 40
1.0
 40
1.0
 40
1.0
 10
193.9409722399685
 20
77.39080835588892
 30
0.0
 10
193.9409722399685
 20
77.39080835588892
 30
0.0
 10
193.9409722399685
 20
77.44469490408402
 30
0.0
 10
193.9409722399685
 20
77.62981502650729
 30
0.0
 10
193.9409722399685
 20
77.75990866198934
 30
0.0
 10
193.9409722399685
 20
77.89080835588892
 30
0.0
  0
LINE
  5
172
330
1F
100
AcDbEntity
  8
0
  6
Continuous
 62
     7
370
    25
100
AcDbLine
 10
181.4170227621
 20
77.3908083037
 30
0.0
 11
180.9409721059
 21
77.3908083037
 31
0.0
  0
SPLINE
  5
173
330
1F
100
AcDbEntity
  8
0
  6
Continuous
 62
     7
370
    25
100
AcDbSpline
210
0.0
220
0.0
230
1.0
 70
    24
 71
     3
 72
    14
 73
    10
 74
     0
 42
0.000000001
 43
0.00000001
 40
0.0
 40
0.0
 40
0.0
 40
0.0
 40
0.25
 40
0.25
 40
0.5
 40
0.5
 40
0.75
 40
0.75
 40
1.0
 40
1.0
 40
1.0
 40
1.0
 10
180.9409722399684
 20
77.39080835588892
 30
0.0
 10
180.9409722399684
 20
77.39080835588892
 30
0.0
 10
180.9409722399684
 20
77.40154772529567
 30
0.0
 10
180.9409722399684
 20
77.45028068541974
 30
0.0
 10
180.9409722399684
 20
77.48843942882674
 30
0.0
 10
180.9409722399684
 20
77.58607050176455
 30
0.0
 10
180.9409722399684
 20
77.64521252591605
 30
0.0
 10
180.9409722399684
 20
77.76830947629992
 30
0.0
 10
180.9409722399684
 20
77.83188279079003
 30
0.0
 10
180.9409722399684
 20
77.89080835588892
 30
0.0
  0
SPLINE
  5
174
330
1F
100
AcDbEntity
  8
0
  6
Continuous
 62
     7
370
    25
100
AcDbSpline
210
0.0
220
0.0
230
1.0
 70
     8
 71
     3
 72
    10
 73
     6
 74
     0
 42
0.000000001
 43
0.00000001
 40
0.0
 40
0.0
 40
0.0
 40
0.0
 40
0.5
 40
0.5
 40
1.0
 40
1.0
 40
1.0
 40
1.0
 10
180.9409722399684
 20
77.39080835588892
 30
0.0
 10
180.8100725460689
 20
77.39080835588892
 30
0.0
 10
180.6799789105868
 20
77.44469490408402
 30
0.0
 10
180.4948587881636
 20
77.62981502650729
 30
0.0
 10
180.4409722399684
 20
77.75990866198934
 30
0.0
 10
180.4409722399684
 20
77.89080835588892
 30
0.0
  0
SPLINE
  5
175
330
1F
100
AcDbEntity
  8
0
  6
Continuous
 62
     7
370
    25
100
AcDbSpline
210
0.0
220
0.0
230
1.0
 70
     8
 71
     3
 72
    14
 73
    10
 74
     0
 42
0.000000001
 43
0.00000001
 40
0.0
 40
0.0
 40
0.0
 40
0.0
 40
0.25
 40
0.25
 40
0.5
 40
0.5
 40
0.75
 40
0.75
 40
1.0
 40
1.0
 40
1.0
 40
1.0
 10
193.9409722399685
 20
77.39080835588892
 30
0.0
 10
193.9998978050673
 20
77.39080835588892
 30
0.0
 10
194.0634711195574
 20
77.40154772529567
 30
0.0
 10
194.1865680699413
 20
77.45028068541974
 30
0.0
 10
194.2457100940928
 20
77.48843942882674
 30
0.0
 10
194.3433411670306
 20
77.58607050176455
 30
0.0
 10
194.3814999104376
 20
77.64521252591605
 30
0.0
 10
194.4302328705617
 20
77.76830947629992
 30
0.0
 10
194.4409722399685
 20
77.83188279079003
 30
0.0
 10
194.4409722399685
 20
77.89080835588892
 30
0.0
  0
SPLINE
  5
176
330
1F
100
AcDbEntity
  8
0
  6
Continuous
 62
     7
370
    25
100
AcDbSpline
210
0.0
220
0.0
230
1.0
 70
     8
 71
     3
 72
    13
 73
     9
 74
     0
 42
0.000000001
 43
0.00000001
 40
0.0
 40
0.0
 40
0.0
 40
0.0
 40
0.1162222239500744
 40
0.2381780213579675
 40
0.3660917905452749
 40
0.5001580142688472
 40
0.7504239388829979
 40
1.0
 40
1.0
 40
1.0
 40
1.0
 10
180.5759554551695
 20
90.7325139994113
 30
0.0
 10
180.5877929135002
 20
90.72006598879321
 30
0.0
 10
180.6120518057093
 20
90.69455587172531
 30
0.0
 10
180.6523379640668
 20
90.6530486987086
 30
0.0
 10
180.696495155013
 20
90.60845594800362
 30
0.0
 10
180.757909430307
 20
90.54794986469966
 30
0.0
 10
180.8379402323184
 20
90.47254608103779
 30
0.0
 10
180.9066598521811
 20
90.4180291960553
 30
0.0
 10
180.9409722399684
 20
90.3908083746623
 30
0.0
  0
SPLINE
  5
177
330
1F
100
AcDbEntity
  8
0
  6
Continuous
 62
     7
370
    25
100
AcDbSpline
210
0.0
220
0.0
230
1.0
 70
    24
 71
     3
 72
    10
 73
     6
 74
     0
 42
0.000000001
 43
0.00000001
 40
0.0
 40
0.0
 40
0.0
 40
0.0
 40
0.5
 40
0.5
 40
1.0
 40
1.0
 40
1.0
 40
1.0
 10
180.9409722399684
 20
90.39080835588892
 30
0.0
 10
180.9409722399684
 20
90.12900896496059
 30
0.0
 10
180.9409722399684
 20
89.86882169096248
 30
0.0
 10
180.9409722399684
 20
89.49858144516625
 30
0.0
 10
180.9409722399684
 20
89.39080835097361
 30
0.0
 10
180.9409722399684
 20
89.39080835588892
 30
0.0
  0
SPLINE
  5
178
330
1F
100
AcDbEntity
  8
0
  6
Continuous
 62
     7
370
    25
100
AcDbSpline
210
0.0
220
0.0
230
1.0
 70
     8
 71
     3
 72
    13
 73
     9
 74
     0
 42
0.000000001
 43
0.00000001
 40
0.0
 40
0.0
 40
0.0
 40
0.0
 40
0.1206933106363776
 40
0.2506349558809258
 40
0.4049363551860728
 40
0.501375099440844
 40
0.7702864432344702
 40
1.0
 40
1.0
 40
1.0
 40
1.0
 10
180.4409722399684
 20
90.39080835588892
 30
0.0
 10
180.4413599547143
 20
90.40566413418074
 30
0.0
 10
180.4421650935221
 20
90.43651404058494
 30
0.0
 10
180.4491151053554
 20
90.48508919205338
 30
0.0
 10
180.459905414165
 20
90.5297788743351
 30
0.0
 10
180.4805251995639
 20
90.5895425837225
 30
0.0
 10
180.513032883578
 20
90.65733459689741
 30
0.0
 10
180.5561100555812
 20
90.70880286927215
 30
0.0
 10
180.5759554551695
 20
90.7325139994113
 30
0.0
  0
SPLINE
  5
179
330
1F
100
AcDbEntity
  8
0
  6
Continuous
 62
     7
370
    25
100
AcDbSpline
210
0.0
220
0.0
230
1.0
 70
    24
 71
     3
 72
    15
 73
    11
 74
     0
 42
0.000000001
 43
0.00000001
 40
0.0
 40
0.0
 40
0.0
 40
0.0
 40
0.0765455989711863
 40
0.2083453086383631
 40
0.3402503083141948
 40
0.4722329474766253
 40
0.6039678160528011
 40
0.7361205937749746
 40
0.867799781990784
 40
1.0
 40
1.0
 40
1.0
 40
1.0
 10
180.4409720239016
 20
88.90289037384709
 30
0.0
 10
180.4409720239016
 20
88.90664701034687
 30
0.0
 10
180.4409720239016
 20
88.91687199521222
 30
0.0
 10
180.4409720239016
 20
88.99795542254402
 30
0.0
 10
180.4409720239016
 20
89.13470797444134
 30
0.0
 10
180.4409720239016
 20
89.32347365080501
 30
0.0
 10
180.4409720239016
 20
89.55165035002565
 30
0.0
 10
180.4409720239016
 20
89.81287954819373
 30
0.0
 10
180.4409720239016
 20
90.09598636171019
 30
0.0
 10
180.4409720239016
 20
90.29240522554839
 30
0.0
 10
180.4409720239016
 20
90.39080857195576
 30
0.0
  0
SPLINE
  5
17A
330
1F
100
AcDbEntity
  8
0
  6
Continuous
 62
     7
370
    25
100
AcDbSpline
210
0.0
220
0.0
230
1.0
 70
    24
 71
     3
 72
    10
 73
     6
 74
     0
 42
0.000000001
 43
0.00000001
 40
0.0
 40
0.0
 40
0.0
 40
0.0
 40
0.5
 40
0.5
 40
1.0
 40
1.0
 40
1.0
 40
1.0
 10
193.9409722399685
 20
89.39080835588892
 30
0.0
 10
193.9409722399685
 20
89.39080835097361
 30
0.0
 10
193.9409722399685
 20
89.49858144516625
 30
0.0
 10
193.9409722399685
 20
89.86882169096248
 30
0.0
 10
193.9409722399685
 20
90.12900896496059
 30
0.0
 10
193.9409722399685
 20
90.39080835588892
 30
0.0
  0
SPLINE
  5
17B
330
1F
100
AcDbEntity
  8
0
  6
Continuous
 62
     7
370
    25
100
AcDbSpline
210
0.0
220
0.0
230
1.0
 70
     8
 71
     3
 72
    12
 73
     8
 74
     0
 42
0.000000001
 43
0.00000001
 40
0.0
 40
0.0
 40
0.0
 40
0.0
 40
0.1664615747826677
 40
0.3330490629245378
 40
0.50019385964186
 40
0.761981166969512
 40
1.0
 40
1.0
 40
1.0
 40
1.0
 10
193.9409722399685
 20
90.39080835588892
 30
0.0
 10
193.9639659148685
 20
90.40878217270385
 30
0.0
 10
194.0099706573361
 20
90.4447434019257
 30
0.0
 10
194.075513620133
 20
90.50246033849379
 30
0.0
 10
194.1498798155667
 20
90.57274506148502
 30
0.0
 10
194.2291513714324
 20
90.65208782538818
 30
0.0
 10
194.2812015626468
 20
90.7065688975557
 30
0.0
 10
194.3059890247675
 20
90.73251399941113
 30
0.0
  0
SPLINE
  5
17C
330
1F
100
AcDbEntity
  8
0
  6
Continuous
 62
     7
370
    25
100
AcDbSpline
210
0.0
220
0.0
230
1.0
 70
     8
 71
     3
 72
    14
 73
    10
 74
     0
 42
0.000000001
 43
0.00000001
 40
0.0
 40
0.0
 40
0.0
 40
0.0
 40
0.1488603140964728
 40
0.3150272284381161
 40
0.4987644934539461
 40
0.5951852670853452
 40
0.7494348315821825
 40
0.8793203117440467
 40
1.0
 40
1.0
 40
1.0
 40
1.0
 10
194.3059890247676
 20
90.73251399941113
 30
0.0
 10
194.3192323818338
 20
90.71730324675146
 30
0.0
 10
194.3472587775669
 20
90.68511332909662
 30
0.0
 10
194.3813283306895
 20
90.63048931846718
 30
0.0
 10
194.4048822200424
 20
90.57978366145387
 30
0.0
 10
194.4220112919715
 20
90.52976701992529
 30
0.0
 10
194.4328363324737
 20
90.48509330901773
 30
0.0
 10
194.4397775674224
 20
90.43651603759325
 30
0.0
 10
194.4405838905871
 20
90.40566644396696
 30
0.0
 10
194.4409722399685
 20
90.39080835588892
 30
0.0
  0
SPLINE
  5
17D
330
1F
100
AcDbEntity
  8
0
  6
Continuous
 62
     7
370
    25
100
AcDbSpline
210
0.0
220
0.0
230
1.0
 70
    24
 71
     3
 72
    14
 73
    10
 74
     0
 42
0.000000001
 43
0.00000001
 40
0.0
 40
0.0
 40
0.0
 40
0.0
 40
0.1597071675212579
 40
0.3190816529236372
 40
0.4785834568230737
 40
0.6381791437307113
 40
0.797475222165903
 40
0.9572766435586514
 40
0.9999999999999999
 40
0.9999999999999999
 40
0.9999999999999999
 40
0.9999999999999999
 10
194.4409724560353
 20
90.39080857195576
 30
0.0
 10
194.4409724560353
 20
90.29250805327939
 30
0.0
 10
194.4409724560353
 20
90.09611178334784
 30
0.0
 10
194.4409724560353
 20
89.81307021113692
 30
0.0
 10
194.4409724560353
 20
89.55203233896466
 30
0.0
 10
194.4409724560353
 20
89.32290787083811
 30
0.0
 10
194.4409724560353
 20
89.13789204641483
 30
0.0
 10
194.4409724560353
 20
89.02340953926183
 30
0.0
 10
194.4409724560353
 20
88.98925809782327
 30
0.0
 10
194.4409724560353
 20
88.98205372401198
 30
0.0
  0
SPLINE
  5
17E
330
1F
100
AcDbEntity
  8
0
  6
Continuous
 62
     7
370
    25
100
AcDbSpline
210
0.0
220
0.0
230
1.0
 70
     8
 71
     3
 72
    14
 73
    10
 74
     0
 42
0.000000001
 43
0.00000001
 40
0.0
 40
0.0
 40
0.0
 40
0.0
 40
0.0771019312235469
 40
0.1604220744820928
 40
0.2500134459871365
 40
0.3625277437571762
 40
0.4999872830486552
 40
0.6965319223496549
 40
1.0
 40
1.0
 40
1.0
 40
1.0
 10
194.0075543037266
 20
91.2352651733466
 30
0.0
 10
194.0288190290272
 20
91.22113589645713
 30
0.0
 10
194.0730634635295
 20
91.19173782725737
 30
0.0
 10
194.1357222047202
 20
91.1532199310301
 30
0.0
 10
194.2010957285309
 20
91.11415740446486
 30
0.0
 10
194.269441035774
 20
91.073876898016
 30
0.0
 10
194.3431037532716
 20
91.02521820399963
 30
0.0
 10
194.420866678987
 20
90.96378336479191
 30
0.0
 10
194.4333785352002
 20
90.91837041563831
 30
0.0
 10
194.4409722399685
 20
90.89080835588892
 30
0.0
  0
SPLINE
  5
17F
330
1F
100
AcDbEntity
  8
0
  6
Continuous
 62
     7
370
    25
100
AcDbSpline
210
0.0
220
0.0
230
1.0
 70
     8
 71
     3
 72
    13
 73
     9
 74
     0
 42
0.000000001
 43
0.00000001
 40
0.0
 40
0.0
 40
0.0
 40
0.0
 40
0.1484645556295967
 40
0.3038520792699613
 40
0.4664576632792974
 40
0.6365388262431585
 40
0.814320596678755
 40
0.9999999999999999
 40
0.9999999999999999
 40
0.9999999999999999
 40
0.9999999999999999
 10
193.5076389066351
 20
91.39080835588892
 30
0.0
 10
193.5367138060687
 20
91.38993676851337
 30
0.0
 10
193.596219380379
 20
91.38815295125676
 30
0.0
 10
193.6820561436267
 20
91.374445256768
 30
0.0
 10
193.7672236105043
 20
91.35282851985885
 30
0.0
 10
193.8505484944228
 20
91.32227444077117
 30
0.0
 10
193.9320237372713
 20
91.2835555875392
 30
0.0
 10
193.9820153596067
 20
91.25159347918976
 30
0.0
 10
194.0075543037266
 20
91.2352651733466
 30
0.0
  0
LINE
  5
180
330
1F
100
AcDbEntity
  8
0
  6
Continuous
 62
     7
370
    25
100
AcDbLine
 10
192.2000571389
 20
91.3908087359
 30
0.0
 11
193.5076386903
 21
91.3908087359
 31
0.0
  0
SPLINE
  5
181
330
1F
100
AcDbEntity
  8
0
  6
Continuous
 62
     7
370
    25
100
AcDbSpline
210
0.0
220
0.0
230
1.0
 70
     8
 71
     3
 72
    13
 73
     9
 74
     0
 42
0.000000001
 43
0.00000001
 40
0.0
 40
0.0
 40
0.0
 40
0.0
 40
0.1257153360562024
 40
0.250986709267315
 40
0.3762164861921613
 40
0.5018074329536777
 40
0.7521854029734735
 40
1.0
 40
1.0
 40
1.0
 40
1.0
 10
191.4824241242958
 20
91.17245272933339
 30
0.0
 10
191.5119663421242
 20
91.18964700650452
 30
0.0
 10
191.5709464496418
 20
91.22397483937513
 30
0.0
 10
191.6608643371412
 20
91.26754438761002
 30
0.0
 10
191.7514068721504
 20
91.30515219125488
 30
0.0
 10
191.8725172342915
 20
91.3461754688364
 30
0.0
 10
192.0236410432314
 20
91.38270402359151
 30
0.0
 10
192.1414538231192
 20
91.38811619428623
 30
0.0
 10
192.2000571193217
 20
91.39080835588892
 30
0.0
  0
SPLINE
  5
182
330
1F
100
AcDbEntity
  8
0
  6
Continuous
 62
     7
370
    25
100
AcDbSpline
210
0.0
220
0.0
230
1.0
 70
     8
 71
     3
 72
    13
 73
     9
 74
     0
 42
0.000000001
 43
0.00000001
 40
0.0
 40
0.0
 40
0.0
 40
0.0
 40
0.1238371160455669
 40
0.247902303023111
 40
0.3726214666345126
 40
0.4984138700895143
 40
0.7490979627897995
 40
1.0
 40
1.0
 40
1.0
 40
1.0
 10
182.6818873606151
 20
91.39080835588892
 30
0.0
 10
182.7110280174095
 20
91.39013683829664
 30
0.0
 10
182.769362999373
 20
91.3887925663775
 30
0.0
 10
182.8584483321628
 20
91.37789075635148
 30
0.0
 10
182.948611673826
 20
91.36052931892931
 30
0.0
 10
183.0696914940881
 20
91.32784203356222
 30
0.0
 10
183.221772546373
 20
91.27195690608232
 30
0.0
 10
183.3402539254118
 20
91.20563039477464
 30
0.0
 10
183.399520355641
 20
91.17245272933339
 30
0.0
  0
LINE
  5
183
330
1F
100
AcDbEntity
  8
0
  6
Continuous
 62
     7
370
    25
100
AcDbLine
 10
181.3743057896
 20
91.3908087359
 30
0.0
 11
182.681887341
 21
91.3908087359
 31
0.0
  0
SPLINE
  5
184
330
1F
100
AcDbEntity
  8
0
  6
Continuous
 62
     7
370
    25
100
AcDbSpline
210
0.0
220
0.0
230
1.0
 70
     8
 71
     3
 72
    13
 73
     9
 74
     0
 42
0.000000001
 43
0.00000001
 40
0.0
 40
0.0
 40
0.0
 40
0.0
 40
0.1856794033212454
 40
0.3634611737568486
 40
0.5335423367207065
 40
0.6961479207300426
 40
0.8515354443704023
 40
1.0
 40
1.0
 40
1.0
 40
1.0
 10
180.8743901762103
 20
91.2352651733466
 30
0.0
 10
180.8999291203301
 20
91.25159347918976
 30
0.0
 10
180.9499207426656
 20
91.2835555875392
 30
0.0
 10
181.0313959855141
 20
91.32227444077117
 30
0.0
 10
181.1147208694326
 20
91.35282851985885
 30
0.0
 10
181.1998883363102
 20
91.374445256768
 30
0.0
 10
181.2857250995579
 20
91.38815295125676
 30
0.0
 10
181.3452306738681
 20
91.38993676851337
 30
0.0
 10
181.3743055733018
 20
91.39080835588892
 30
0.0
  0
SPLINE
  5
185
330
1F
100
AcDbEntity
  8
0
  6
Continuous
 62
     7
370
    25
100
AcDbSpline
210
0.0
220
0.0
230
1.0
 70
     8
 71
     3
 72
    17
 73
    13
 74
     0
 42
0.000000001
 43
0.00000001
 40
0.0
 40
0.0
 40
0.0
 40
0.0
 40
0.1130667887614413
 40
0.214247189583317
 40
0.3035410227131065
 40
0.3809482842653933
 40
0.4464692356459874
 40
0.5001045920517729
 40
0.6375226522804812
 40
0.750042112035746
 40
0.8820380142736961
 40
0.9999999999999999
 40
0.9999999999999999
 40
0.9999999999999999
 40
0.9999999999999999
 10
180.4409722399684
 20
90.89080835588892
 30
0.0
 10
180.44204972266
 20
90.90103798200421
 30
0.0
 10
180.4440914153711
 20
90.9204218229154
 30
0.0
 10
180.4592568370838
 20
90.94831606748667
 30
0.0
 10
180.4795180826535
 20
90.97330887517765
 30
0.0
 10
180.502868834193
 20
90.99543827268486
 30
0.0
 10
180.5266893601623
 20
91.0146380993645
 30
0.0
 10
180.562206799656
 20
91.04081986462174
 30
0.0
 10
180.6125160924305
 20
91.07380140620957
 30
0.0
 10
180.6895025707655
 20
91.11939568068905
 30
0.0
 10
180.7739431509949
 20
91.169304337398
 30
0.0
 10
180.8421849831724
 20
91.21411689692813
 30
0.0
 10
180.8743901762103
 20
91.2352651733466
 30
0.0
  0
SPLINE
  5
186
330
1F
100
AcDbEntity
  8
0
  6
Continuous
 62
     7
370
    25
100
AcDbSpline
210
0.0
220
0.0
230
1.0
 70
     8
 71
     3
 72
     8
 73
     4
 74
     0
 42
0.000000001
 43
0.00000001
 40
0.0
 40
0.0
 40
0.0
 40
0.0
 40
1.0
 40
1.0
 40
1.0
 40
1.0
 10
183.399520355641
 20
91.17245272933339
 30
0.0
 10
183.3405025322157
 20
91.01555886942401
 30
0.0
 10
183.2267325930153
 20
90.86153169114296
 30
0.0
 10
183.1108452210462
 20
90.78163054261115
 30
0.0
  0
SPLINE
  5
187
330
1F
100
AcDbEntity
  8
0
  6
Continuous
 62
     7
370
    25
100
AcDbSpline
210
0.0
220
0.0
230
1.0
 70
     8
 71
     3
 72
     9
 73
     5
 74
     0
 42
0.000000001
 43
0.00000001
 40
0.0
 40
0.0
 40
0.0
 40
0.0
 40
0.5
 40
1.0
 40
1.0
 40
1.0
 40
1.0
 10
191.4824241242958
 20
91.17245272933339
 30
0.0
 10
191.5119330360085
 20
91.0940057993787
 30
0.0
 10
191.5973410590705
 20
90.93721057829072
 30
0.0
 10
191.7131555729061
 20
90.82158111687706
 30
0.0
 10
191.7710992588906
 20
90.78163054261115
 30
0.0
  0
LINE
  5
188
330
1F
100
AcDbEntity
  8
0
  6
Continuous
 62
     7
370
    25
100
AcDbLine
 10
180.9409721059
 20
90.8908081883
 30
0.0
 11
182.3419527386
 21
90.8908081883
 31
0.0
  0
SPLINE
  5
189
330
1F
100
AcDbEntity
  8
0
  6
Continuous
 62
     7
370
    25
100
AcDbSpline
210
0.0
220
0.0
230
1.0
 70
     8
 71
     3
 72
    11
 73
     7
 74
     0
 42
0.000000001
 43
0.00000001
 40
0.0
 40
0.0
 40
0.0
 40
0.0
 40
0.1998756938799861
 40
0.5008842154834532
 40
0.7872132635947938
 40
1.0
 40
1.0
 40
1.0
 40
1.0
 10
183.1108452210462
 20
90.78163054261115
 30
0.0
 10
183.0597323321843
 20
90.79506151162744
 30
0.0
 10
182.9316445254994
 20
90.82871923282555
 30
0.0
 10
182.7291014485213
 20
90.86453010077534
 30
0.0
 10
182.5233547744291
 20
90.88717412241908
 30
0.0
 10
182.3961735623021
 20
90.88972208823759
 30
0.0
 10
182.3419527263757
 20
90.89080835588892
 30
0.0
  0
ARC
  5
18A
330
1F
100
AcDbEntity
  8
0
  6
Continuous
 62
     7
370
    25
100
AcDbCircle
 10
180.94097224
 20
90.3908083559
 30
0.0
 40
0.5
100
AcDbArc
 50
90.0
 51
136.8892083855
  0
SPLINE
  5
18B
330
1F
100
AcDbEntity
  8
0
  6
Continuous
 62
     7
370
    25
100
AcDbSpline
210
0.0
220
0.0
230
1.0
 70
     8
 71
     3
 72
    12
 73
     8
 74
     0
 42
0.000000001
 43
0.00000001
 40
0.0
 40
0.0
 40
0.0
 40
0.0
 40
0.133687439079169
 40
0.3000652536960207
 40
0.4991448923272338
 40
0.8001431782006811
 40
1.0
 40
1.0
 40
1.0
 40
1.0
 10
192.5399917535612
 20
90.89080835588892
 30
0.0
 10
192.5059686648074
 20
90.89037503005537
 30
0.0
 10
192.429602875854
 20
90.88940241791562
 30
0.0
 10
192.3016915530077
 20
90.88066142776141
 30
0.0
 10
192.1304428968221
 20
90.86077354392823
 30
0.0
 10
191.9502895619823
 20
90.82868027693574
 30
0.0
 10
191.8222078571132
 20
90.79505005207449
 30
0.0
 10
191.7710992588906
 20
90.78163054261115
 30
0.0
  0
LINE
  5
18C
330
1F
100
AcDbEntity
  8
0
  6
Continuous
 62
     7
370
    25
100
AcDbLine
 10
192.5399917413
 20
90.8908081883
 30
0.0
 11
193.9409723741
 21
90.8908081883
 31
0.0
  0
ARC
  5
18D
330
1F
100
AcDbEntity
  8
0
  6
Continuous
 62
     7
370
    25
100
AcDbCircle
 10
193.94097224
 20
90.3908083559
 30
0.0
 40
0.5
100
AcDbArc
 50
43.1107916145
 51
90.0
  0
SPLINE
  5
18E
330
1F
100
AcDbEntity
  8
0
  6
Continuous
 62
     7
370
    25
100
AcDbSpline
210
0.0
220
0.0
230
1.0
 70
     8
 71
     3
 72
     9
 73
     5
 74
     0
 42
0.000000001
 43
0.00000001
 40
0.0
 40
0.0
 40
0.0
 40
0.0
 40
0.5
 40
1.0
 40
1.0
 40
1.0
 40
1.0
 10
182.6818873606151
 20
91.39080835588892
 30
0.0
 10
182.6818873606151
 20
91.25990866198936
 30
0.0
 10
182.6082665919352
 20
90.99909501053459
 30
0.0
 10
182.4309474055113
 20
90.89080835588892
 30
0.0
 10
182.3419527263757
 20
90.89080835588892
 30
0.0
  0
SPLINE
  5
18F
330
1F
100
AcDbEntity
  8
0
  6
Continuous
 62
     7
370
    25
100
AcDbSpline
210
0.0
220
0.0
230
1.0
 70
     8
 71
     3
 72
     9
 73
     5
 74
     0
 42
0.000000001
 43
0.00000001
 40
0.0
 40
0.0
 40
0.0
 40
0.0
 40
0.5
 40
1.0
 40
1.0
 40
1.0
 40
1.0
 10
192.5399917535612
 20
90.89080835588892
 30
0.0
 10
192.4509970744256
 20
90.89080835588892
 30
0.0
 10
192.2736778880017
 20
90.99909501053459
 30
0.0
 10
192.2000571193217
 20
91.25990866198934
 30
0.0
 10
192.2000571193217
 20
91.39080835588892
 30
0.0
  0
SPLINE
  5
190
330
1F
100
AcDbEntity
  8
0
  6
Continuous
 62
     7
370
    25
100
AcDbSpline
210
0.0
220
0.0
230
1.0
 70
     8
 71
     3
 72
     9
 73
     5
 74
     0
 42
0.000000001
 43
0.00000001
 40
0.0
 40
0.0
 40
0.0
 40
0.0
 40
0.5
 40
1.0
 40
1.0
 40
1.0
 40
1.0
 10
180.9409722399684
 20
90.89080835588892
 30
0.0
 10
181.0544186413481
 20
90.89080835588892
 30
0.0
 10
181.2804595524748
 20
90.99909222607388
 30
0.0
 10
181.3743055733018
 20
91.25990866198934
 30
0.0
 10
181.3743055733018
 20
91.39080835588892
 30
0.0
  0
SPLINE
  5
191
330
1F
100
AcDbEntity
  8
0
  6
Continuous
 62
     7
370
    25
100
AcDbSpline
210
0.0
220
0.0
230
1.0
 70
     8
 71
     3
 72
     9
 73
     5
 74
     0
 42
0.000000001
 43
0.00000001
 40
0.0
 40
0.0
 40
0.0
 40
0.0
 40
0.5
 40
1.0
 40
1.0
 40
1.0
 40
1.0
 10
193.5076389066351
 20
91.39080835588892
 30
0.0
 10
193.5076389066351
 20
91.25990866198934
 30
0.0
 10
193.6014849274621
 20
90.99909222607388
 30
0.0
 10
193.8275258385888
 20
90.89080835588892
 30
0.0
 10
193.9409722399685
 20
90.89080835588892
 30
0.0
  0
SPLINE
  5
192
330
1F
100
AcDbEntity
  8
0
  6
Continuous
 62
     7
370
    25
100
AcDbSpline
210
0.0
220
0.0
230
1.0
 70
     8
 71
     3
 72
     9
 73
     5
 74
     0
 42
0.000000001
 43
0.00000001
 40
0.0
 40
0.0
 40
0.0
 40
0.0
 40
0.571428571428571
 40
1.0
 40
1.0
 40
1.0
 40
1.0
 10
194.0075543037266
 20
91.2352651733466
 30
0.0
 10
194.0001602207406
 20
91.13812009915479
 30
0.0
 10
194.0374754003187
 20
90.96845876043712
 30
0.0
 10
194.1510674478223
 20
90.84964536456374
 30
0.0
 10
194.2087840598389
 20
90.81303676461778
 30
0.0
  0
SPLINE
  5
193
330
1F
100
AcDbEntity
  8
0
  6
Continuous
 62
     7
370
    25
100
AcDbSpline
210
0.0
220
0.0
230
1.0
 70
     8
 71
     3
 72
     9
 73
     5
 74
     0
 42
0.000000001
 43
0.00000001
 40
0.0
 40
0.0
 40
0.0
 40
0.0
 40
0.5
 40
1.0
 40
1.0
 40
1.0
 40
1.0
 10
180.8743901762121
 20
91.23526517334778
 30
0.0
 10
180.880859998825
 20
91.1502632334297
 30
0.0
 10
180.850181005619
 20
90.9803693151809
 30
0.0
 10
180.740496467452
 20
90.85574679788849
 30
0.0
 10
180.673160420099
 20
90.81303676461836
 30
0.0
  0
SPLINE
  5
194
330
1F
100
AcDbEntity
  8
0
  6
Continuous
 62
     7
370
    25
100
AcDbSpline
210
0.0
220
0.0
230
1.0
 70
     8
 71
     3
 72
    12
 73
     8
 74
     0
 42
0.000000001
 43
0.00000001
 40
0.0
 40
0.0
 40
0.0
 40
0.0
 40
0.106360889119859
 40
0.159541333679788
 40
0.265902222799647
 40
0.265902222799647
 40
0.267217449924086
 40
0.267217449924086
 40
0.267217449924086
 40
0.267217449924086
 10
194.2087840598389
 20
90.81303676461778
 30
0.0
 10
194.2687608439099
 20
90.77499457854242
 30
0.0
 10
194.3430514869936
 20
90.78049044973463
 30
0.0
 10
194.4212830718393
 20
90.82238702729565
 30
0.0
 10
194.4406591895622
 20
90.86351318370996
 30
0.0
 10
194.4409703323007
 20
90.89016056205807
 30
0.0
 10
194.4409722399685
 20
90.89048406506669
 30
0.0
 10
194.4409722399685
 20
90.89080835588892
 30
0.0
  0
SPLINE
  5
195
330
1F
100
AcDbEntity
  8
0
  6
Continuous
 62
     7
370
    25
100
AcDbSpline
210
0.0
220
0.0
230
1.0
 70
    24
 71
     3
 72
    14
 73
    10
 74
     0
 42
0.000000001
 43
0.00000001
 40
0.0
 40
0.0
 40
0.0
 40
0.0
 40
0.2503841006840345
 40
0.3856977520239709
 40
0.5014304172375459
 40
0.6388330237075766
 40
0.767498519821732
 40
0.8877539750359934
 40
1.0
 40
1.0
 40
1.0
 40
1.0
 10
194.4409722399685
 20
90.89080835588892
 30
0.0
 10
194.4409722399685
 20
90.83152168427684
 30
0.0
 10
194.4409722399685
 20
90.74019505489707
 30
0.0
 10
194.4409722399685
 20
90.62768096154755
 30
0.0
 10
194.4409722399685
 20
90.54789439556802
 30
0.0
 10
194.4409722399685
 20
90.48109500758221
 30
0.0
 10
194.4409722399685
 20
90.42990579438532
 30
0.0
 10
194.4409722399685
 20
90.39727627107621
 30
0.0
 10
194.4409722399685
 20
90.39291423848051
 30
0.0
 10
194.4409722399685
 20
90.39080835588892
 30
0.0
  0
LINE
  5
196
330
1F
100
AcDbEntity
  8
0
  6
Continuous
 62
     7
370
    25
100
AcDbLine
 10
180.4409720239
 20
90.8908081883
 30
0.0
 11
180.4483867486
 21
90.8663493291
 31
0.0
  0
SPLINE
  5
197
330
1F
100
AcDbEntity
  8
0
  6
Continuous
 62
     7
370
    25
100
AcDbSpline
210
0.0
220
0.0
230
1.0
 70
    24
 71
     3
 72
    10
 73
     6
 74
     0
 42
0.000000001
 43
0.00000001
 40
-0.263620655015386
 40
-0.263620655015386
 40
-0.263620655015386
 40
-0.263620655015386
 40
-0.2626630659468851
 40
-0.2626630659468851
 40
0.0009575890685009
 40
0.0009575890685009
 40
0.0009575890685009
 40
0.0009575890685009
 10
180.4409722399684
 20
90.89080835588892
 30
0.0
 10
180.4409722399684
 20
90.88995526774332
 30
0.0
 10
180.4409722399684
 20
90.88909582247126
 30
0.0
 10
180.4409722399683
 20
90.65589507350174
 30
0.0
 10
180.4409722399684
 20
90.39080835588892
 30
0.0
 10
180.4409722399684
 20
90.39080835588892
 30
0.0
  0
LINE
  5
198
330
1F
100
AcDbEntity
  8
0
  6
Continuous
 62
     8
370
    25
100
AcDbLine
 10
187.44097224
 20
95.4211146281
 30
0.0
 11
195.2409720284
 21
95.4211146281
 31
0.0
  0
LINE
  5
199
330
1F
100
AcDbEntity
  8
0
  6
Continuous
 62
     8
370
    25
100
AcDbLine
 10
179.6409724516
 20
95.4211146281
 30
0.0
 11
187.44097224
 21
95.4211146281
 31
0.0
  0
LINE
  5
19A
330
1F
100
AcDbEntity
  8
0
  6
Continuous
 62
     8
370
    25
100
AcDbLine
 10
187.44097224
 20
94.4413185761
 30
0.0
 11
180.4409720239
 21
94.4413185761
 31
0.0
  0
LINE
  5
19B
330
1F
100
AcDbEntity
  8
0
  6
Continuous
 62
     8
370
    25
100
AcDbLine
 10
194.440972456
 20
94.4413185761
 30
0.0
 11
187.44097224
 21
94.4413185761
 31
0.0
  0
LINE
  5
19C
330
1F
100
AcDbEntity
  8
0
  6
Continuous
 62
     8
370
    25
100
AcDbLine
 10
192.3007270557
 20
90.390808572
 30
0.0
 11
193.9409723741
 21
90.390808572
 31
0.0
  0
LINE
  5
19D
330
1F
100
AcDbEntity
  8
0
  6
Continuous
 62
     8
370
    25
100
AcDbLine
 10
180.9409721059
 20
90.390808572
 30
0.0
 11
182.5812174243
 21
90.390808572
 31
0.0
  0
SPLINE
  5
19E
330
1F
100
AcDbEntity
  8
0
  6
Continuous
 62
     8
370
    25
100
AcDbSpline
210
0.0
220
0.0
230
1.0
 70
     8
 71
     3
 72
     9
 73
     5
 74
     0
 42
0.000000001
 43
0.00000001
 40
0.0
 40
0.0
 40
0.0
 40
0.0
 40
0.1806292011187819
 40
1.0
 40
1.0
 40
1.0
 40
1.0
 10
191.2456100576344
 20
90.9923274711581
 30
0.0
 10
191.2585684698983
 20
91.00579074773083
 30
0.0
 10
191.3303088761208
 20
91.08032618546362
 30
0.0
 10
191.4139176296213
 20
91.1309626594921
 30
0.0
 10
191.4824242007705
 20
91.17245270766934
 30
0.0
  0
SPLINE
  5
19F
330
1F
100
AcDbEntity
  8
0
  6
Continuous
 62
     8
370
    25
100
AcDbSpline
210
0.0
220
0.0
230
1.0
 70
     8
 71
     3
 72
     9
 73
     5
 74
     0
 42
0.000000001
 43
0.00000001
 40
0.0
 40
0.0
 40
0.0
 40
0.0
 40
0.5874586116989471
 40
1.0
 40
1.0
 40
1.0
 40
1.0
 10
183.3995202791664
 20
91.17245270766934
 30
0.0
 10
183.4445045505432
 20
91.14416295394426
 30
0.0
 10
183.5210789176237
 20
91.09600678913247
 30
0.0
 10
183.591863396036
 20
91.03362924403146
 30
0.0
 10
183.6210649230304
 20
91.00789592497667
 30
0.0
  0
LINE
  5
1A0
330
1F
100
AcDbEntity
  8
0
  6
Continuous
 62
     8
370
    25
100
AcDbLine
 10
183.1108452056
 20
90.7816306398
 30
0.0
 11
183.1880225104
 21
90.7511903615
 31
0.0
  0
LINE
  5
1A1
330
1F
100
AcDbEntity
  8
0
  6
Continuous
 62
     8
370
    25
100
AcDbLine
 10
191.7178271574
 20
90.7606493392
 30
0.0
 11
191.7710992743
 21
90.7816306398
 31
0.0
  0
SPLINE
  5
1A2
330
1F
100
AcDbEntity
  8
0
  6
Continuous
 62
     8
370
    25
100
AcDbSpline
210
0.0
220
0.0
230
1.0
 70
     8
 71
     3
 72
    11
 73
     7
 74
     0
 42
0.000000001
 43
0.00000001
 40
0.0
 40
0.0
 40
0.0
 40
0.0
 40
0.138306374567875
 40
0.4174703047224942
 40
0.7013665291882653
 40
1.0
 40
1.0
 40
1.0
 40
1.0
 10
180.4483867485794
 20
90.86634932913502
 30
0.0
 10
180.4501597576904
 20
90.85796955068432
 30
0.0
 10
180.455511489714
 20
90.8326756430517
 30
0.0
 10
180.4966168038253
 20
90.80047566807066
 30
0.0
 10
180.5696655756035
 20
90.77055747022648
 30
0.0
 10
180.6380852294375
 20
90.7986401381566
 30
0.0
 10
180.6731605206403
 20
90.81303669967373
 30
0.0
  0
INSERT
  5
1AE
330
1F
100
AcDbEntity
  8
0
  6
Continuous
 62
     7
370
    18
100
AcDbBlockReference
  2
SW_CENTERMARKSYMBOL_0
 10
187.44097224
 20
83.3908083559
 30
0.0
  0
ARC
  5
1AF
330
1F
100
AcDbEntity
  8
0
  6
Continuous
 62
     7
370
    18
100
AcDbCircle
 10
187.44097224
 20
83.3908083559
 30
0.0
 40
7.47500000000003
100
AcDbArc
 50
75.0
 51
345.0
  0
LINE
  5
1B0
330
1F
100
AcDbEntity
  8
0
  6
Continuous
 62
     7
370
    18
100
AcDbLine
 10
194.9431536036
 20
107.5210047195
 30
0.0
 11
195.30940974
 21
95.8008083559
 31
0.0
  0
LINE
  5
1B1
330
1F
100
AcDbEntity
  8
0
  6
Continuous
 62
     7
370
    18
100
AcDbLine
 10
179.9387908763
 20
107.5210047195
 30
0.0
 11
179.57253474
 21
95.8008083559
 31
0.0
  0
LINE
  5
1B2
330
1F
100
AcDbEntity
  8
0
  6
Continuous
 62
     7
370
    18
100
AcDbLine
 10
178.91965974
 20
95.8008083559
 30
0.0
 11
195.96228474
 21
95.8008083559
 31
0.0
  0
ARC
  5
1B3
330
1F
100
AcDbEntity
  8
0
  6
Continuous
 62
     7
370
    25
100
AcDbCircle
 10
146.853235494
 20
147.0692343624
 30
0.0
 40
1.499999999999997
100
AcDbArc
 50
137.0743223655
 51
168.4630409672
  0
ARC
  5
1B4
330
1F
100
AcDbEntity
  8
0
  6
Continuous
 62
     7
370
    25
100
AcDbCircle
 10
146.853235494
 20
132.0692343624
 30
0.0
 40
1.499999999999997
100
AcDbArc
 50
191.5369590328
 51
222.9256776345
  0
LINE
  5
1B5
330
1F
100
AcDbEntity
  8
0
  6
Continuous
 62
     7
370
    25
100
AcDbLine
 10
145.7548787032
 20
131.0476607444
 30
0.0
 11
156.287908848
 21
131.3768180819
 31
0.0
  0
LINE
  5
1B6
330
1F
100
AcDbEntity
  8
0
  6
Continuous
 62
     7
370
    25
100
AcDbLine
 10
156.287908848
 20
147.761650643
 30
0.0
 11
145.7548787032
 21
148.0908079805
 31
0.0
  0
LINE
  5
1B7
330
1F
100
AcDbEntity
  8
0
  6
Continuous
 62
     7
370
    25
100
AcDbLine
 10
120.9515922849
 20
148.0908079805
 30
0.0
 11
110.41856214
 21
147.761650643
 31
0.0
  0
LINE
  5
1B8
330
1F
100
AcDbEntity
  8
0
  6
Continuous
 62
     7
370
    25
100
AcDbLine
 10
110.41856214
 20
131.3768180819
 30
0.0
 11
120.9515922849
 21
131.0476607444
 31
0.0
  0
ARC
  5
1B9
330
1F
100
AcDbEntity
  8
0
  6
Continuous
 62
     7
370
    25
100
AcDbCircle
 10
119.853235494
 20
147.0692343624
 30
0.0
 40
1.500000000000008
100
AcDbArc
 50
11.5369590328
 51
42.9256776345
  0
ARC
  5
1BA
330
1F
100
AcDbEntity
  8
0
  6
Continuous
 62
     7
370
    25
100
AcDbCircle
 10
119.853235494
 20
132.0692343624
 30
0.0
 40
1.500000000000008
100
AcDbArc
 50
317.0743223655
 51
348.4630409672
  0
LINE
  5
1BB
330
1F
100
AcDbEntity
  8
0
  6
Continuous
 62
     7
370
    25
100
AcDbLine
 10
156.287908848
 20
131.3768180819
 30
0.0
 11
158.3532358665
 21
132.5692341464
 31
0.0
  0
LINE
  5
1BC
330
1F
100
AcDbEntity
  8
0
  6
Continuous
 62
     7
370
    25
100
AcDbLine
 10
158.3532358665
 20
146.5692345785
 30
0.0
 11
156.287908848
 21
147.761650643
 31
0.0
  0
LINE
  5
1BD
330
1F
100
AcDbEntity
  8
0
  6
Continuous
 62
     7
370
    25
100
AcDbLine
 10
110.41856214
 20
147.761650643
 30
0.0
 11
108.3532351215
 21
146.5692345785
 31
0.0
  0
LINE
  5
1BE
330
1F
100
AcDbEntity
  8
0
  6
Continuous
 62
     7
370
    25
100
AcDbLine
 10
108.3532351215
 20
132.5692341464
 30
0.0
 11
110.41856214
 21
131.3768180819
 31
0.0
  0
ARC
  5
1BF
330
1F
100
AcDbEntity
  8
0
  6
Continuous
 62
     7
370
    25
100
AcDbCircle
 10
144.4037457512
 20
147.5692343624
 30
0.0
 40
1.000000000000017
100
AcDbArc
 50
270.0
 51
348.4630409672
  0
ARC
  5
1C0
330
1F
100
AcDbEntity
  8
0
  6
Continuous
 62
     7
370
    25
100
AcDbCircle
 10
144.4037457512
 20
131.5692343624
 30
0.0
 40
1.000000000000017
100
AcDbArc
 50
11.5369590328
 51
90.0
  0
ARC
  5
1C1
330
1F
100
AcDbEntity
  8
0
  6
Continuous
 62
     7
370
    25
100
AcDbCircle
 10
122.3027252368
 20
147.5692343624
 30
0.0
 40
1.000000000000004
100
AcDbArc
 50
191.5369590328
 51
270.0
  0
ARC
  5
1C2
330
1F
100
AcDbEntity
  8
0
  6
Continuous
 62
     7
370
    25
100
AcDbCircle
 10
122.3027252368
 20
131.5692343624
 30
0.0
 40
1.000000000000004
100
AcDbArc
 50
90.0
 51
168.4630409672
  0
SPLINE
  5
1C3
330
1F
100
AcDbEntity
  8
0
  6
Continuous
 62
     7
370
    25
100
AcDbSpline
210
0.0
220
0.0
230
1.0
 70
     8
 71
     3
 72
     9
 73
     5
 74
     0
 42
0.000000001
 43
0.00000001
 40
0.0
 40
0.0
 40
0.0
 40
0.0
 40
0.3118869528766096
 40
1.0
 40
1.0
 40
1.0
 40
1.0
 10
127.7115431759933
 20
146.5618296327237
 30
0.0
 10
127.7134937978435
 20
146.5637106644273
 30
0.0
 10
127.7197480570622
 20
146.5697417974588
 30
0.0
 10
127.6835031538333
 20
146.5692123792339
 30
0.0
 10
127.6585625630298
 20
146.568848079646
 30
0.0
  0
SPLINE
  5
1C4
330
1F
100
AcDbEntity
  8
0
  6
Continuous
 62
     7
370
    25
100
AcDbSpline
210
0.0
220
0.0
230
1.0
 70
     8
 71
     3
 72
     9
 73
     5
 74
     0
 42
0.000000001
 43
0.00000001
 40
0.0
 40
0.0
 40
0.0
 40
0.0
 40
0.7386329696608467
 40
1.0
 40
1.0
 40
1.0
 40
1.0
 10
139.3537235591987
 20
133.0692342283371
 30
0.0
 10
139.3529222969851
 20
133.0329042286866
 30
0.0
 10
139.3518375062345
 20
132.9837187723872
 30
0.0
 10
139.3345444849281
 20
132.93121589638
 30
0.0
 10
139.3300246593037
 20
132.9174933755938
 30
0.0
  0
SPLINE
  5
1C5
330
1F
100
AcDbEntity
  8
0
  6
Continuous
 62
     7
370
    25
100
AcDbSpline
210
0.0
220
0.0
230
1.0
 70
     8
 71
     3
 72
    16
 73
    12
 74
     0
 42
0.000000001
 43
0.00000001
 40
0.0
 40
0.0
 40
0.0
 40
0.0
 40
0.001558688101615
 40
0.0410302892138949
 40
0.1371775496461782
 40
0.2564358294803687
 40
0.3953632821085705
 40
0.5485297445143557
 40
0.7092896286264974
 40
0.8703572720428943
 40
1.0
 40
1.0
 40
1.0
 40
1.0
 10
139.1475427110174
 20
132.6633168185297
 30
0.0
 10
139.1469688342263
 20
132.66290634819
 30
0.0
 10
139.1318623285127
 20
132.6521012892851
 30
0.0
 10
139.0923310576944
 20
132.6304701303307
 30
0.0
 10
139.0432964677893
 20
132.6027861632512
 30
0.0
 10
139.0317950789481
 20
132.5865023968175
 30
0.0
 10
139.0781654196924
 20
132.5765194224574
 30
0.0
 10
139.1922259013633
 20
132.5718254748587
 30
0.0
 10
139.3705485660546
 20
132.5698059940154
 30
0.0
 10
139.5828929129543
 20
132.5692561425693
 30
0.0
 10
139.7441577138922
 20
132.5692509137019
 30
0.0
 10
139.8160739947537
 20
132.5692485818807
 30
0.0
  0
LINE
  5
1C6
330
1F
100
AcDbEntity
  8
0
  6
Continuous
 62
     7
370
    25
100
AcDbLine
 10
125.8532356617
 20
146.5692345785
 30
0.0
 11
122.3027252738
 21
146.5692345785
 31
0.0
  0
LINE
  5
1C7
330
1F
100
AcDbEntity
  8
0
  6
Continuous
 62
     7
370
    25
100
AcDbLine
 10
144.4037457142
 20
146.5692345785
 30
0.0
 11
140.8532353264
 21
146.5692345785
 31
0.0
  0
LINE
  5
1C8
330
1F
100
AcDbEntity
  8
0
  6
Continuous
 62
     7
370
    25
100
AcDbLine
 10
140.8532353264
 20
132.5692341464
 30
0.0
 11
144.4037457142
 21
132.5692341464
 31
0.0
  0
LINE
  5
1C9
330
1F
100
AcDbEntity
  8
0
  6
Continuous
 62
     7
370
    25
100
AcDbLine
 10
122.3027252738
 20
132.5692341464
 30
0.0
 11
125.8532356617
 21
132.5692341464
 31
0.0
  0
CIRCLE
  5
1CA
330
1F
100
AcDbEntity
  8
0
  6
Continuous
 62
     7
370
    25
100
AcDbCircle
 10
133.353235494
 20
139.5692343624
 30
0.0
 40
7.0
  0
CIRCLE
  5
1CB
330
1F
100
AcDbEntity
  8
0
  6
Continuous
 62
     7
370
    25
100
AcDbCircle
 10
133.353235494
 20
139.5692343624
 30
0.0
 40
8.192416432660906
  0
CIRCLE
  5
1CC
330
1F
100
AcDbEntity
  8
0
  6
Continuous
 62
     7
370
    25
100
AcDbCircle
 10
133.353235494
 20
139.5692343624
 30
0.0
 40
4.999999999999972
  0
CIRCLE
  5
1CD
330
1F
100
AcDbEntity
  8
0
  6
Continuous
 62
     7
370
    25
100
AcDbCircle
 10
133.353235494
 20
139.5692343624
 30
0.0
 40
5.5
  0
CIRCLE
  5
1CE
330
1F
100
AcDbEntity
  8
0
  6
Continuous
 62
     7
370
    25
100
AcDbCircle
 10
133.353235494
 20
139.5692343624
 30
0.0
 40
6.125
  0
CIRCLE
  5
1CF
330
1F
100
AcDbEntity
  8
0
  6
Continuous
 62
     7
370
    25
100
AcDbCircle
 10
133.353235494
 20
139.5692343624
 30
0.0
 40
6.375
  0
CIRCLE
  5
1D0
330
1F
100
AcDbEntity
  8
0
  6
Continuous
 62
     7
370
    25
100
AcDbCircle
 10
133.353235494
 20
139.5692343624
 30
0.0
 40
6.25
  0
CIRCLE
  5
1D1
330
1F
100
AcDbEntity
  8
0
  6
Continuous
 62
     7
370
    25
100
AcDbCircle
 10
133.353235494
 20
139.5692343624
 30
0.0
 40
8.52157364471259
  0
LINE
  5
1D2
330
1F
100
AcDbEntity
  8
0
  6
Continuous
 62
     7
370
    25
100
AcDbLine
 10
145.7548787032
 20
131.0476607444
 30
0.0
 11
145.7548787032
 21
148.0908079805
 31
0.0
  0
LINE
  5
1D3
330
1F
100
AcDbEntity
  8
0
  6
Continuous
 62
     7
370
    25
100
AcDbLine
 10
156.287908848
 20
131.3768180819
 30
0.0
 11
156.287908848
 21
147.761650643
 31
0.0
  0
LINE
  5
1D4
330
1F
100
AcDbEntity
  8
0
  6
Continuous
 62
     7
370
    25
100
AcDbLine
 10
120.9515922849
 20
148.0908079805
 30
0.0
 11
120.9515922849
 21
131.0476607444
 31
0.0
  0
LINE
  5
1D5
330
1F
100
AcDbEntity
  8
0
  6
Continuous
 62
     7
370
    25
100
AcDbLine
 10
110.41856214
 20
131.3768180819
 30
0.0
 11
110.41856214
 21
147.761650643
 31
0.0
  0
LINE
  5
1D6
330
1F
100
AcDbEntity
  8
0
  6
Continuous
 62
     7
370
    25
100
AcDbLine
 10
158.3532358665
 20
146.5692345785
 30
0.0
 11
158.3532358665
 21
132.5692341464
 31
0.0
  0
LINE
  5
1D7
330
1F
100
AcDbEntity
  8
0
  6
Continuous
 62
     7
370
    25
100
AcDbLine
 10
108.3532351215
 20
146.5692345785
 30
0.0
 11
108.3532351215
 21
132.5692341464
 31
0.0
  0
LINE
  5
1D8
330
1F
100
AcDbEntity
  8
0
  6
Continuous
 62
     7
370
    25
100
AcDbLine
 10
127.3532354419
 20
146.0692344966
 30
0.0
 11
127.3532354419
 21
145.6204506369
 31
0.0
  0
SPLINE
  5
1D9
330
1F
100
AcDbEntity
  8
0
  6
Continuous
 62
     7
370
    25
100
AcDbSpline
210
0.0
220
0.0
230
1.0
 70
     8
 71
     3
 72
    13
 73
     9
 74
     0
 42
0.000000001
 43
0.00000001
 40
0.0
 40
0.0
 40
0.0
 40
0.0
 40
0.1162222328492899
 40
0.2381780342383815
 40
0.3660918025215373
 40
0.500158020507199
 40
0.7504239415057028
 40
1.0
 40
1.0
 40
1.0
 40
1.0
 10
127.4882187092165
 20
146.4342511472466
 30
0.0
 10
127.4772345858951
 20
146.4224136880335
 30
0.0
 10
127.4547244616583
 20
146.3981547945619
 30
0.0
 10
127.4266133339377
 20
146.3578686349688
 30
0.0
 10
127.4020893380365
 20
146.3137114442071
 30
0.0
 10
127.3767157544165
 20
146.2522971693847
 30
0.0
 10
127.3568560772266
 20
146.1722663681045
 30
0.0
 10
127.3544412441329
 20
146.1035467496163
 30
0.0
 10
127.3532354940155
 20
146.0692343624476
 30
0.0
  0
LWPOLYLINE
  5
1DA
330
1F
100
AcDbEntity
  8
0
  6
Continuous
 62
     7
370
    25
100
AcDbPolyline
 90
        5
 70
   128
 43
0.0
 10
127.8532355238
 20
146.0692344966
 10
127.7516510483
 20
146.1708185064
 10
127.6543045562
 20
146.2681654642
 10
127.5652552169
 20
146.3572143378
 10
127.4882185419
 20
146.4342510129
  0
LWPOLYLINE
  5
1DB
330
1F
100
AcDbEntity
  8
0
  6
Continuous
 62
     7
370
    25
100
AcDbPolyline
 90
        5
 70
   128
 43
0.0
 10
139.2182524462
 20
146.4342510129
 10
139.1412157711
 20
146.3572143378
 10
139.0521664318
 20
146.2681654642
 10
138.9548199397
 20
146.1708185064
 10
138.8532354642
 20
146.0692344966
  0
SPLINE
  5
1DC
330
1F
100
AcDbEntity
  8
0
  6
Continuous
 62
     7
370
    25
100
AcDbSpline
210
0.0
220
0.0
230
1.0
 70
     8
 71
     3
 72
    12
 73
     8
 74
     0
 42
0.000000001
 43
0.00000001
 40
0.0
 40
0.0
 40
0.0
 40
0.0
 40
0.1664615747826677
 40
0.3330490629245378
 40
0.50019385964186
 40
0.761981166969512
 40
1.0
 40
1.0
 40
1.0
 40
1.0
 10
139.3532354940155
 20
146.0692343624476
 30
0.0
 10
139.3526931156772
 20
146.0922280373476
 30
0.0
 10
139.3516079487397
 20
146.1382327798152
 30
0.0
 10
139.3418248035432
 20
146.2037757426121
 30
0.0
 10
139.3211447309622
 20
146.2781419380458
 30
0.0
 10
139.2848434578679
 20
146.3574134939115
 30
0.0
 10
139.239734276985
 20
146.4094636851259
 30
0.0
 10
139.2182522788146
 20
146.4342511472467
 30
0.0
  0
LINE
  5
1DD
330
1F
100
AcDbEntity
  8
0
  6
Continuous
 62
     7
370
    25
100
AcDbLine
 10
139.3532355462
 20
145.6204506369
 30
0.0
 11
139.3532355462
 21
146.0692344966
 31
0.0
  0
LINE
  5
1DE
330
1F
100
AcDbEntity
  8
0
  6
Continuous
 62
     7
370
    25
100
AcDbLine
 10
139.3532355462
 20
133.0692342283
 30
0.0
 11
139.3532355462
 21
133.5180180879
 31
0.0
  0
SPLINE
  5
1DF
330
1F
100
AcDbEntity
  8
0
  6
Continuous
 62
     7
370
    25
100
AcDbSpline
210
0.0
220
0.0
230
1.0
 70
     8
 71
     3
 72
    13
 73
     9
 74
     0
 42
0.000000001
 43
0.00000001
 40
0.0
 40
0.0
 40
0.0
 40
0.0
 40
0.1162222239500744
 40
0.2381780213579675
 40
0.3660917905452749
 40
0.5001580142688472
 40
0.7504239388829979
 40
1.0
 40
1.0
 40
1.0
 40
1.0
 10
139.2182522788144
 20
132.7042175776486
 30
0.0
 10
139.2292364013096
 20
132.7160550359793
 30
0.0
 10
139.2517465243594
 20
132.7403139281884
 30
0.0
 10
139.2798576515242
 20
132.7806000865459
 30
0.0
 10
139.3043816481224
 20
132.8247572774921
 30
0.0
 10
139.3297552329862
 20
132.8861715527862
 30
0.0
 10
139.3496149108587
 20
132.9662023547975
 30
0.0
 10
139.3520297439178
 20
133.0349219746603
 30
0.0
 10
139.3532354940155
 20
133.0692343624476
 30
0.0
  0
LWPOLYLINE
  5
1E0
330
1F
100
AcDbEntity
  8
0
  6
Continuous
 62
     7
370
    25
100
AcDbPolyline
 90
        5
 70
   128
 43
0.0
 10
138.8532354642
 20
133.0692342283
 10
138.9548199397
 20
132.9676502185
 10
139.0521664318
 20
132.8703032607
 10
139.1412157711
 20
132.7812543871
 10
139.2182524462
 20
132.704217712
  0
LWPOLYLINE
  5
1E1
330
1F
100
AcDbEntity
  8
0
  6
Continuous
 62
     7
370
    25
100
AcDbPolyline
 90
        5
 70
   128
 43
0.0
 10
127.4882185419
 20
132.704217712
 10
127.5652552169
 20
132.7812543871
 10
127.6543045562
 20
132.8703032607
 10
127.7516510483
 20
132.9676502185
 10
127.8532355238
 20
133.0692342283
  0
SPLINE
  5
1E2
330
1F
100
AcDbEntity
  8
0
  6
Continuous
 62
     7
370
    25
100
AcDbSpline
210
0.0
220
0.0
230
1.0
 70
     8
 71
     3
 72
    12
 73
     8
 74
     0
 42
0.000000001
 43
0.00000001
 40
0.0
 40
0.0
 40
0.0
 40
0.0
 40
0.1664615763807151
 40
0.3330490665505926
 40
0.500193865880855
 40
0.7619811797519991
 40
1.0
 40
1.0
 40
1.0
 40
1.0
 10
127.3532354940155
 20
133.0692343624476
 30
0.0
 10
127.3537778723473
 20
133.046240687145
 30
0.0
 10
127.3548630392733
 20
133.0002359438127
 30
0.0
 10
127.3646461845859
 20
132.9346929802142
 30
0.0
 10
127.3853262580142
 20
132.8603267842734
 30
0.0
 10
127.4216275318141
 20
132.78105522937
 30
0.0
 10
127.4667367121786
 20
132.7290050385566
 30
0.0
 10
127.4882187092165
 20
132.7042175776486
 30
0.0
  0
LINE
  5
1E3
330
1F
100
AcDbEntity
  8
0
  6
Continuous
 62
     7
370
    25
100
AcDbLine
 10
127.3532354419
 20
133.5180180879
 30
0.0
 11
127.3532354419
 21
133.0692342283
 31
0.0
  0
SPLINE
  5
1E4
330
1F
100
AcDbEntity
  8
0
  6
Continuous
 62
     7
370
    25
100
AcDbSpline
210
0.0
220
0.0
230
1.0
 70
     8
 71
     3
 72
    13
 73
     9
 74
     0
 42
0.000000001
 43
0.00000001
 40
0.0
 40
0.0
 40
0.0
 40
0.0
 40
0.1206933490086504
 40
0.2506350407931719
 40
0.4049364355086124
 40
0.5013752757898843
 40
0.7702865166460683
 40
0.9999999999999999
 40
0.9999999999999999
 40
0.9999999999999999
 40
0.9999999999999999
 10
127.8531894259703
 20
146.5692343624476
 30
0.0
 10
127.8382118716346
 20
146.5688466474542
 30
0.0
 10
127.8071090811931
 20
146.5680415081157
 30
0.0
 10
127.7560242400922
 20
146.5610914926422
 30
0.0
 10
127.7078350020478
 20
146.5503011773116
 30
0.0
 10
127.6426719920306
 20
146.529681386164
 30
0.0
 10
127.5697476161092
 20
146.497173699025
 30
0.0
 10
127.5139324353425
 20
146.4540965410491
 30
0.0
 10
127.4882187092165
 20
146.4342511472466
 30
0.0
  0
LINE
  5
1E5
330
1F
100
AcDbEntity
  8
0
  6
Continuous
 62
     7
370
    25
100
AcDbLine
 10
127.8531894234
 20
146.5692345785
 30
0.0
 11
128.4934806783
 21
146.5692345785
 31
0.0
  0
SPLINE
  5
1E6
330
1F
100
AcDbEntity
  8
0
  6
Continuous
 62
     7
370
    25
100
AcDbSpline
210
0.0
220
0.0
230
1.0
 70
     8
 71
     3
 72
    14
 73
    10
 74
     0
 42
0.000000001
 43
0.00000001
 40
0.0
 40
0.0
 40
0.0
 40
0.0
 40
0.1488603140964728
 40
0.3150272284381161
 40
0.4987644934539461
 40
0.5951852670853452
 40
0.7494348315821825
 40
0.8793203117440467
 40
1.0
 40
1.0
 40
1.0
 40
1.0
 10
139.2182522788146
 20
146.4342511472467
 30
0.0
 10
139.2017739010727
 20
146.447494504313
 30
0.0
 10
139.1669013583086
 20
146.475520900046
 30
0.0
 10
139.1077510049045
 20
146.5095904531686
 30
0.0
 10
139.0531744867
 20
146.5331443425215
 30
0.0
 10
138.9986183452531
 20
146.5502734144507
 30
0.0
 10
138.9504525634021
 20
146.5610984549528
 30
0.0
 10
138.8993633454356
 20
146.5680396899015
 30
0.0
 10
138.8682612584844
 20
146.5688460130662
 30
0.0
 10
138.8532815620601
 20
146.5692343624476
 30
0.0
  0
LINE
  5
1E7
330
1F
100
AcDbEntity
  8
0
  6
Continuous
 62
     7
370
    25
100
AcDbLine
 10
138.2129903097
 20
146.5692345785
 30
0.0
 11
138.8532815647
 21
146.5692345785
 31
0.0
  0
SPLINE
  5
1E8
330
1F
100
AcDbEntity
  8
0
  6
Continuous
 62
     7
370
    25
100
AcDbSpline
210
0.0
220
0.0
230
1.0
 70
     8
 71
     3
 72
    14
 73
    10
 74
     0
 42
0.000000001
 43
0.00000001
 40
0.0
 40
0.0
 40
0.0
 40
0.0
 40
0.1488603597576148
 40
0.3150273328471772
 40
0.4987646698883385
 40
0.5951853465608922
 40
0.7494349165377944
 40
0.8793203508289453
 40
1.0
 40
1.0
 40
1.0
 40
1.0
 10
127.4882187092165
 20
132.7042175776486
 30
0.0
 10
127.5046970921309
 20
132.6909742167473
 30
0.0
 10
127.539569646702
 20
132.6629478122066
 30
0.0
 10
127.5987200224322
 20
132.6288782509945
 30
0.0
 10
127.6532965458828
 20
132.6053243655964
 30
0.0
 10
127.7078526860817
 20
132.5881952995257
 30
0.0
 10
127.7560184504731
 20
132.5773702655234
 30
0.0
 10
127.8071076580583
 20
132.570429034206
 30
0.0
 10
127.8382097344193
 20
132.5696227115769
 30
0.0
 10
127.8531894259703
 20
132.5692343624476
 30
0.0
  0
LINE
  5
1E9
330
1F
100
AcDbEntity
  8
0
  6
Continuous
 62
     7
370
    25
100
AcDbLine
 10
127.8531894234
 20
132.5692341464
 30
0.0
 11
128.4934806783
 21
132.5692341464
 31
0.0
  0
SPLINE
  5
1EA
330
1F
100
AcDbEntity
  8
0
  6
Continuous
 62
     7
370
    25
100
AcDbSpline
210
0.0
220
0.0
230
1.0
 70
     8
 71
     3
 72
    13
 73
     9
 74
     0
 42
0.000000001
 43
0.00000001
 40
0.0
 40
0.0
 40
0.0
 40
0.0
 40
0.1206933106363776
 40
0.2506349558809258
 40
0.4049363551860728
 40
0.501375099440844
 40
0.7702864432344702
 40
1.0
 40
1.0
 40
1.0
 40
1.0
 10
138.8532815620607
 20
132.5692343624476
 30
0.0
 10
138.8682591116085
 20
132.5696220771935
 30
0.0
 10
138.8993618914585
 20
132.5704272160012
 30
0.0
 10
138.9504467220645
 20
132.5773772278346
 30
0.0
 10
138.9986359425656
 20
132.5881675366441
 30
0.0
 10
139.0637989554623
 20
132.6087873220431
 30
0.0
 10
139.1367233430342
 20
132.6412950060572
 30
0.0
 10
139.1925385441777
 20
132.6843721780604
 30
0.0
 10
139.2182522788144
 20
132.7042175776486
 30
0.0
  0
LINE
  5
1EB
330
1F
100
AcDbEntity
  8
0
  6
Continuous
 62
     7
370
    25
100
AcDbLine
 10
138.2129903097
 20
132.5692341464
 30
0.0
 11
138.8532815647
 21
132.5692341464
 31
0.0
  0
SPLINE
  5
1EC
330
1F
100
AcDbEntity
  8
0
  6
Continuous
 62
     7
370
    25
100
AcDbSpline
210
0.0
220
0.0
230
1.0
 70
    24
 71
     3
 72
    10
 73
     6
 74
     0
 42
0.000000001
 43
0.00000001
 40
0.0
 40
0.0
 40
0.0
 40
0.0
 40
0.5
 40
0.5
 40
1.0
 40
1.0
 40
1.0
 40
1.0
 10
127.3532354940155
 20
146.0692343624476
 30
0.0
 10
127.3532354989308
 20
146.0692343624476
 30
0.0
 10
127.2454624020506
 20
146.0692343624476
 30
0.0
 10
126.8752221483534
 20
146.0692343624476
 30
0.0
 10
126.6150348692979
 20
146.0692343624476
 30
0.0
 10
126.3532354752404
 20
146.0692343624476
 30
0.0
  0
SPLINE
  5
1ED
330
1F
100
AcDbEntity
  8
0
  6
Continuous
 62
     7
370
    25
100
AcDbSpline
210
0.0
220
0.0
230
1.0
 70
     8
 71
     3
 72
    12
 73
     8
 74
     0
 42
0.000000001
 43
0.00000001
 40
0.0
 40
0.0
 40
0.0
 40
0.0
 40
0.1664616487437876
 40
0.3330491329443992
 40
0.500193847829015
 40
0.7619811613088653
 40
1.0
 40
1.0
 40
1.0
 40
1.0
 10
126.3532354752421
 20
146.0692343624476
 30
0.0
 10
126.335261651441
 20
146.0922280474429
 30
0.0
 10
126.299300416659
 20
146.1382327993402
 30
0.0
 10
126.2415834883769
 20
146.2037757633483
 30
0.0
 10
126.1712987790503
 20
146.278141949063
 30
0.0
 10
126.0919560243023
 20
146.3574134936915
 30
0.0
 10
126.0374749522822
 20
146.4094636850523
 30
0.0
 10
126.0115298504932
 20
146.4342511472465
 30
0.0
  0
SPLINE
  5
1EE
330
1F
100
AcDbEntity
  8
0
  6
Continuous
 62
     7
370
    25
100
AcDbSpline
210
0.0
220
0.0
230
1.0
 70
     8
 71
     3
 72
    14
 73
    10
 74
     0
 42
0.000000001
 43
0.00000001
 40
0.0
 40
0.0
 40
0.0
 40
0.0
 40
0.1488603139315083
 40
0.3150272282737267
 40
0.4987644934547347
 40
0.5951852632716568
 40
0.749434831581739
 40
0.879320313901446
 40
1.0
 40
1.0
 40
1.0
 40
1.0
 10
126.0115298504931
 20
146.4342511472465
 30
0.0
 10
126.0267406031353
 20
146.4474945042984
 30
0.0
 10
126.0589305207718
 20
146.4755209000173
 30
0.0
 10
126.1135545313885
 20
146.5095904531447
 30
0.0
 10
126.1642601880128
 20
146.5331443423192
 30
0.0
 10
126.2142768295048
 20
146.5502734143164
 30
0.0
 10
126.2589505406847
 20
146.5610984549517
 30
0.0
 10
126.3075278125875
 20
146.5680396899277
 30
0.0
 10
126.3383774062066
 20
146.5688460130794
 30
0.0
 10
126.3532354940155
 20
146.5692343624476
 30
0.0
  0
SPLINE
  5
1EF
330
1F
100
AcDbEntity
  8
0
  6
Continuous
 62
     7
370
    25
100
AcDbSpline
210
0.0
220
0.0
230
1.0
 70
    24
 71
     3
 72
    13
 73
     9
 74
     0
 42
0.000000001
 43
0.00000001
 40
0.0
 40
0.0
 40
0.0
 40
0.0
 40
0.1847371487918729
 40
0.3690894761192522
 40
0.5535890758358414
 40
0.7381972723018706
 40
0.9224589043912812
 40
0.9999999999999999
 40
0.9999999999999999
 40
0.9999999999999999
 40
0.9999999999999999
 10
126.3532352779487
 20
146.5692345785144
 30
0.0
 10
126.4515513888985
 20
146.5692345785144
 30
0.0
 10
126.6479788108971
 20
146.5692345785144
 30
0.0
 10
126.930787053645
 20
146.5692345785144
 30
0.0
 10
127.1927120521246
 20
146.5692345785144
 30
0.0
 10
127.4185210442481
 20
146.5692345785144
 30
0.0
 10
127.5776526475498
 20
146.5692345785144
 30
0.0
 10
127.6400647013672
 20
146.5692345785144
 30
0.0
 10
127.6585499901751
 20
146.5692345785144
 30
0.0
  0
SPLINE
  5
1F0
330
1F
100
AcDbEntity
  8
0
  6
Continuous
 62
     7
370
    25
100
AcDbSpline
210
0.0
220
0.0
230
1.0
 70
    24
 71
     3
 72
    10
 73
     6
 74
     0
 42
0.000000001
 43
0.00000001
 40
0.0
 40
0.0
 40
0.0
 40
0.0
 40
0.5
 40
0.5
 40
1.0
 40
1.0
 40
1.0
 40
1.0
 10
139.3532354940155
 20
133.0692343624476
 30
0.0
 10
139.3532354940155
 20
133.0692343624476
 30
0.0
 10
139.4610085930932
 20
133.0692343624476
 30
0.0
 10
139.8312488458407
 20
133.0692343624476
 30
0.0
 10
140.0914361218623
 20
133.0692343624476
 30
0.0
 10
140.3532355127906
 20
133.0692343624476
 30
0.0
  0
SPLINE
  5
1F1
330
1F
100
AcDbEntity
  8
0
  6
Continuous
 62
     7
370
    25
100
AcDbSpline
210
0.0
220
0.0
230
1.0
 70
     8
 71
     3
 72
    12
 73
     8
 74
     0
 42
0.000000001
 43
0.00000001
 40
0.0
 40
0.0
 40
0.0
 40
0.0
 40
0.1664616503807027
 40
0.3330491366093241
 40
0.5001938540683241
 40
0.7619811741357122
 40
1.0
 40
1.0
 40
1.0
 40
1.0
 10
140.3532355127889
 20
133.0692343624476
 30
0.0
 10
140.3712093365407
 20
133.0462406770442
 30
0.0
 10
140.4071705712659
 20
133.0002359242766
 30
0.0
 10
140.4648875003394
 20
132.9346929594662
 30
0.0
 10
140.5351722118318
 20
132.8603267732467
 30
0.0
 10
140.6145149662748
 20
132.7810552295871
 30
0.0
 10
140.6689960372979
 20
132.7290050386261
 30
0.0
 10
140.6949411375378
 20
132.7042175776486
 30
0.0
  0
SPLINE
  5
1F2
330
1F
100
AcDbEntity
  8
0
  6
Continuous
 62
     7
370
    25
100
AcDbSpline
210
0.0
220
0.0
230
1.0
 70
     8
 71
     3
 72
    14
 73
    10
 74
     0
 42
0.000000001
 43
0.00000001
 40
0.0
 40
0.0
 40
0.0
 40
0.0
 40
0.1488603598374869
 40
0.3150273329269794
 40
0.4987646698885773
 40
0.5951853465829806
 40
0.7494349165379153
 40
0.8793203509512854
 40
1.0
 40
1.0
 40
1.0
 40
1.0
 10
140.6949411375378
 20
132.7042175776486
 30
0.0
 10
140.6797303801175
 20
132.6909742167403
 30
0.0
 10
140.6475404516022
 20
132.6629478121927
 30
0.0
 10
140.5929164204944
 20
132.6288782509837
 30
0.0
 10
140.5422107580546
 20
132.6053243655921
 30
0.0
 10
140.4921941184822
 20
132.5881952995254
 30
0.0
 10
140.4475204229551
 20
132.5773702655194
 30
0.0
 10
140.3989431604775
 20
132.5704290342045
 30
0.0
 10
140.3680935772809
 20
132.5696227115762
 30
0.0
 10
140.3532354940155
 20
132.5692343624476
 30
0.0
  0
SPLINE
  5
1F3
330
1F
100
AcDbEntity
  8
0
  6
Continuous
 62
     7
370
    25
100
AcDbSpline
210
0.0
220
0.0
230
1.0
 70
    24
 71
     3
 72
    19
 73
    15
 74
     0
 42
0.000000001
 43
0.00000001
 40
0.0
 40
0.0
 40
0.0
 40
0.0
 40
0.0504323727096602
 40
0.1003565609003688
 40
0.1500822900423565
 40
0.199922985600599
 40
0.2501899225630071
 40
0.3750855037480327
 40
0.5000544104076973
 40
0.624788718511343
 40
0.7499189120354135
 40
0.8333029051590075
 40
0.916179120395655
 40
1.0
 40
1.0
 40
1.0
 40
1.0
 10
140.3532354940155
 20
132.5692343624476
 30
0.0
 10
140.313654525311
 20
132.5692343624476
 30
0.0
 10
140.2348914276642
 20
132.5692343624476
 30
0.0
 10
140.1178109854099
 20
132.5692343624476
 30
0.0
 10
140.0026475765538
 20
132.5692343624476
 30
0.0
 10
139.8894008608946
 20
132.5692343624476
 30
0.0
 10
139.7237191751748
 20
132.5692343624476
 30
0.0
 10
139.5142193712618
 20
132.5692343624476
 30
0.0
 10
139.2860502668121
 20
132.5692343624476
 30
0.0
 10
139.0977005911156
 20
132.5692343624476
 30
0.0
 10
138.974073737488
 20
132.5692343624476
 30
0.0
 10
138.9002750080269
 20
132.5692343624476
 30
0.0
 10
138.8605439598114
 20
132.5692343624476
 30
0.0
 10
138.8557114897689
 20
132.5692343624476
 30
0.0
 10
138.8532815620607
 20
132.5692343624476
 30
0.0
  0
SPLINE
  5
1F4
330
1F
100
AcDbEntity
  8
0
  6
Continuous
 62
     7
370
    25
100
AcDbSpline
210
0.0
220
0.0
230
1.0
 70
     8
 71
     3
 72
    13
 73
     9
 74
     0
 42
0.000000001
 43
0.00000001
 40
0.0
 40
0.0
 40
0.0
 40
0.0
 40
0.1162222239446788
 40
0.2381780213507807
 40
0.3660917905398808
 40
0.5001580142687957
 40
0.7504239388759752
 40
1.0
 40
1.0
 40
1.0
 40
1.0
 10
126.0115298504931
 20
132.7042175776486
 30
0.0
 10
126.0239778611106
 20
132.7160550359788
 30
0.0
 10
126.0494879781777
 20
132.7403139281872
 30
0.0
 10
126.0909951511936
 20
132.7806000865442
 30
0.0
 10
126.135587901899
 20
132.824757277491
 30
0.0
 10
126.1960939852034
 20
132.8861715527845
 30
0.0
 10
126.2714977688661
 20
132.9662023547963
 30
0.0
 10
126.3260146538485
 20
133.0349219746592
 30
0.0
 10
126.3532354752421
 20
133.0692343624476
 30
0.0
  0
SPLINE
  5
1F5
330
1F
100
AcDbEntity
  8
0
  6
Continuous
 62
     7
370
    25
100
AcDbSpline
210
0.0
220
0.0
230
1.0
 70
    24
 71
     3
 72
    10
 73
     6
 74
     0
 42
0.000000001
 43
0.00000001
 40
0.0
 40
0.0
 40
0.0
 40
0.0
 40
0.5
 40
0.5
 40
1.0
 40
1.0
 40
1.0
 40
1.0
 10
126.3532354752404
 20
133.0692343624476
 30
0.0
 10
126.6150348692979
 20
133.0692343624476
 30
0.0
 10
126.8752221483534
 20
133.0692343624476
 30
0.0
 10
127.2454624020506
 20
133.0692343624476
 30
0.0
 10
127.3532354989308
 20
133.0692343624476
 30
0.0
 10
127.3532354940155
 20
133.0692343624476
 30
0.0
  0
SPLINE
  5
1F6
330
1F
100
AcDbEntity
  8
0
  6
Continuous
 62
     7
370
    25
100
AcDbSpline
210
0.0
220
0.0
230
1.0
 70
     8
 71
     3
 72
    13
 73
     9
 74
     0
 42
0.000000001
 43
0.00000001
 40
0.0
 40
0.0
 40
0.0
 40
0.0
 40
0.1206933098378984
 40
0.2506349558807637
 40
0.4049363563536673
 40
0.5013750994399903
 40
0.7702864430522399
 40
1.0
 40
1.0
 40
1.0
 40
1.0
 10
126.3532354940155
 20
132.5692343624476
 30
0.0
 10
126.3383797158236
 20
132.5696220771886
 30
0.0
 10
126.3075298094228
 20
132.5704272159915
 30
0.0
 10
126.2589546578057
 20
132.5773772278308
 30
0.0
 10
126.2142649754204
 20
132.5881675366863
 30
0.0
 10
126.1545012660786
 20
132.6087873220979
 30
0.0
 10
126.0867092530311
 20
132.6412950060416
 30
0.0
 10
126.0352409806527
 20
132.6843721780447
 30
0.0
 10
126.0115298504931
 20
132.7042175776486
 30
0.0
  0
SPLINE
  5
1F7
330
1F
100
AcDbEntity
  8
0
  6
Continuous
 62
     7
370
    25
100
AcDbSpline
210
0.0
220
0.0
230
1.0
 70
    24
 71
     3
 72
    15
 73
    11
 74
     0
 42
0.000000001
 43
0.00000001
 40
0.0
 40
0.0
 40
0.0
 40
0.0
 40
0.0765455989711863
 40
0.2083453086383631
 40
0.3402503083141948
 40
0.4722329474766253
 40
0.6039678160528011
 40
0.7361205937749746
 40
0.867799781990784
 40
1.0
 40
1.0
 40
1.0
 40
1.0
 10
127.8411534760573
 20
132.5692341463808
 30
0.0
 10
127.8373968395576
 20
132.5692341463808
 30
0.0
 10
127.8271718546922
 20
132.5692341463808
 30
0.0
 10
127.7460884273604
 20
132.5692341463808
 30
0.0
 10
127.6093358754631
 20
132.5692341463808
 30
0.0
 10
127.4205701990994
 20
132.5692341463808
 30
0.0
 10
127.1923934998788
 20
132.5692341463808
 30
0.0
 10
126.9311643017107
 20
132.5692341463808
 30
0.0
 10
126.6480574881942
 20
132.5692341463808
 30
0.0
 10
126.4516386243561
 20
132.5692341463808
 30
0.0
 10
126.3532352779487
 20
132.5692341463808
 30
0.0
  0
SPLINE
  5
1F8
330
1F
100
AcDbEntity
  8
0
  6
Continuous
 62
     7
370
    25
100
AcDbSpline
210
0.0
220
0.0
230
1.0
 70
     8
 71
     3
 72
    13
 73
     9
 74
     0
 42
0.000000001
 43
0.00000001
 40
0.0
 40
0.0
 40
0.0
 40
0.0
 40
0.1162222328345675
 40
0.2381780342187649
 40
0.3660918025068102
 40
0.5001580205070525
 40
0.7504239414864089
 40
0.9999999999999999
 40
0.9999999999999999
 40
0.9999999999999999
 40
0.9999999999999999
 10
140.6949411375378
 20
146.4342511472466
 30
0.0
 10
140.6824931259303
 20
146.422413688035
 30
0.0
 10
140.6569830074072
 20
146.3981547945652
 30
0.0
 10
140.6154758326962
 20
146.3578686349735
 30
0.0
 10
140.5708830821266
 20
146.3137114442103
 30
0.0
 10
140.5103770004968
 20
146.2522971693892
 30
0.0
 10
140.4349732191185
 20
146.1722663681077
 30
0.0
 10
140.3804563342038
 20
146.1035467496191
 30
0.0
 10
140.3532355127889
 20
146.0692343624476
 30
0.0
  0
SPLINE
  5
1F9
330
1F
100
AcDbEntity
  8
0
  6
Continuous
 62
     7
370
    25
100
AcDbSpline
210
0.0
220
0.0
230
1.0
 70
    24
 71
     3
 72
    10
 73
     6
 74
     0
 42
0.000000001
 43
0.00000001
 40
0.0
 40
0.0
 40
0.0
 40
0.0
 40
0.5
 40
0.5
 40
1.0
 40
1.0
 40
1.0
 40
1.0
 10
140.3532355127906
 20
146.0692343624476
 30
0.0
 10
140.0914361218623
 20
146.0692343624476
 30
0.0
 10
139.8312488458407
 20
146.0692343624476
 30
0.0
 10
139.4610085930932
 20
146.0692343624476
 30
0.0
 10
139.3532354940155
 20
146.0692343624476
 30
0.0
 10
139.3532354940155
 20
146.0692343624476
 30
0.0
  0
SPLINE
  5
1FA
330
1F
100
AcDbEntity
  8
0
  6
Continuous
 62
     7
370
    25
100
AcDbSpline
210
0.0
220
0.0
230
1.0
 70
     8
 71
     3
 72
    13
 73
     9
 74
     0
 42
0.000000001
 43
0.00000001
 40
0.0
 40
0.0
 40
0.0
 40
0.0
 40
0.1206933478353882
 40
0.25063504079335
 40
0.4049364375708385
 40
0.5013752757893005
 40
0.7702865166940487
 40
1.0
 40
1.0
 40
1.0
 40
1.0
 10
140.3532354940155
 20
146.5692343624476
 30
0.0
 10
140.3680912768731
 20
146.5688466474614
 30
0.0
 10
140.3989411937019
 20
146.5680415081299
 30
0.0
 10
140.4475163544873
 20
146.5610914926417
 30
0.0
 10
140.4922060524147
 20
146.5503011772389
 30
0.0
 10
140.5519697600321
 20
146.5296813860521
 30
0.0
 10
140.6197617613786
 20
146.4971736990199
 30
0.0
 10
140.6712300151608
 20
146.4540965410447
 30
0.0
 10
140.6949411375378
 20
146.4342511472466
 30
0.0
  0
SPLINE
  5
1FB
330
1F
100
AcDbEntity
  8
0
  6
Continuous
 62
     7
370
    25
100
AcDbSpline
210
0.0
220
0.0
230
1.0
 70
    24
 71
     3
 72
    15
 73
    11
 74
     0
 42
0.000000001
 43
0.00000001
 40
0.0
 40
0.0
 40
0.0
 40
0.0
 40
0.0765455989711863
 40
0.2083453086383631
 40
0.3402503083141948
 40
0.4722329474766253
 40
0.6039678160528011
 40
0.7361205937749746
 40
0.867799781990784
 40
1.0
 40
1.0
 40
1.0
 40
1.0
 10
138.8653175119737
 20
146.5692345785144
 30
0.0
 10
138.8690741484735
 20
146.5692345785144
 30
0.0
 10
138.8792991333388
 20
146.5692345785144
 30
0.0
 10
138.9603825606706
 20
146.5692345785144
 30
0.0
 10
139.0971351125679
 20
146.5692345785144
 30
0.0
 10
139.2859007889316
 20
146.5692345785144
 30
0.0
 10
139.5140774881523
 20
146.5692345785144
 30
0.0
 10
139.7753066863203
 20
146.5692345785144
 30
0.0
 10
140.0584134998368
 20
146.5692345785144
 30
0.0
 10
140.254832363675
 20
146.5692345785144
 30
0.0
 10
140.3532357100823
 20
146.5692345785144
 30
0.0
  0
SPLINE
  5
1FC
330
1F
100
AcDbEntity
  8
0
  6
Continuous
 62
     7
370
    25
100
AcDbSpline
210
0.0
220
0.0
230
1.0
 70
     8
 71
     3
 72
    13
 73
     9
 74
     0
 42
0.000000001
 43
0.00000001
 40
0.0
 40
0.0
 40
0.0
 40
0.0
 40
0.1856794033212272
 40
0.3634611737568169
 40
0.533542336720674
 40
0.6961479207300177
 40
0.8515354443703902
 40
1.0
 40
1.0
 40
1.0
 40
1.0
 10
125.5087786765578
 20
133.0026522986895
 30
0.0
 10
125.4924503707147
 20
133.0281912428093
 30
0.0
 10
125.4604882623652
 20
133.0781828651448
 30
0.0
 10
125.4217694091333
 20
133.1596581079932
 30
0.0
 10
125.3912153300456
 20
133.2429829919118
 30
0.0
 10
125.3695985931364
 20
133.3281504587893
 30
0.0
 10
125.3558908986477
 20
133.413987222037
 30
0.0
 10
125.354107081391
 20
133.4734927963473
 30
0.0
 10
125.3532354940155
 20
133.5025676957809
 30
0.0
  0
SPLINE
  5
1FD
330
1F
100
AcDbEntity
  8
0
  6
Continuous
 62
     7
370
    25
100
AcDbSpline
210
0.0
220
0.0
230
1.0
 70
     8
 71
     3
 72
    17
 73
    13
 74
     0
 42
0.000000001
 43
0.00000001
 40
0.0
 40
0.0
 40
0.0
 40
0.0
 40
0.1130667886658668
 40
0.2142471894553318
 40
0.3035410226158834
 40
0.3809482842621089
 40
0.4464692357998273
 40
0.5001045924259258
 40
0.6375226532033567
 40
0.75004211245356
 40
0.8820380142920121
 40
1.0
 40
1.0
 40
1.0
 40
1.0
 10
125.8532354940155
 20
132.5692343624476
 30
0.0
 10
125.8430058679116
 20
132.5703118451374
 30
0.0
 10
125.8236220270171
 20
132.5723535378456
 30
0.0
 10
125.7957277824592
 20
132.5875189595433
 30
0.0
 10
125.7707349747617
 20
132.6077802051113
 30
0.0
 10
125.7486055772277
 20
132.6311309566759
 30
0.0
 10
125.7294057505014
 20
132.6549514827068
 30
0.0
 10
125.7032239851483
 20
132.6904689223484
 30
0.0
 10
125.6702424435573
 20
132.7407782152243
 30
0.0
 10
125.6246481691431
 20
132.8177646935611
 30
0.0
 10
125.5747395124643
 20
132.9022052735945
 30
0.0
 10
125.5299269529846
 20
132.9704471056569
 30
0.0
 10
125.5087786765578
 20
133.0026522986895
 30
0.0
  0
SPLINE
  5
1FE
330
1F
100
AcDbEntity
  8
0
  6
Continuous
 62
     7
370
    25
100
AcDbSpline
210
0.0
220
0.0
230
1.0
 70
     8
 71
     3
 72
    14
 73
    10
 74
     0
 42
0.000000001
 43
0.00000001
 40
0.0
 40
0.0
 40
0.0
 40
0.0
 40
0.0771019312872794
 40
0.1604220744063169
 40
0.2500134455684252
 40
0.3625277428809286
 40
0.4999872826729911
 40
0.6965319256112464
 40
1.0
 40
1.0
 40
1.0
 40
1.0
 10
141.1976923114732
 20
133.0026522986895
 30
0.0
 10
141.1835630345661
 20
132.9813875733719
 30
0.0
 10
141.1541649653679
 20
132.9371431388919
 30
0.0
 10
141.1156470691556
 20
132.8744843978081
 30
0.0
 10
141.0765845426706
 20
132.8091108741946
 30
0.0
 10
141.0363040362771
 20
132.7407655669483
 30
0.0
 10
140.9876453419193
 20
132.6671028487616
 30
0.0
 10
140.9262105024688
 20
132.58933992318
 30
0.0
 10
140.8807975533979
 20
132.5768280670674
 30
0.0
 10
140.8532354940155
 20
132.5692343624476
 30
0.0
  0
SPLINE
  5
1FF
330
1F
100
AcDbEntity
  8
0
  6
Continuous
 62
     7
370
    25
100
AcDbSpline
210
0.0
220
0.0
230
1.0
 70
     8
 71
     3
 72
    13
 73
     9
 74
     0
 42
0.000000001
 43
0.00000001
 40
0.0
 40
0.0
 40
0.0
 40
0.0
 40
0.1484645556295969
 40
0.303852079269964
 40
0.4664576632793
 40
0.6365388262431574
 40
0.814320596678755
 40
1.0
 40
1.0
 40
1.0
 40
1.0
 10
141.3532354940155
 20
133.5025676957809
 30
0.0
 10
141.35236390664
 20
133.4734927963473
 30
0.0
 10
141.3505800893833
 20
133.413987222037
 30
0.0
 10
141.3368723948946
 20
133.3281504587893
 30
0.0
 10
141.3152556579854
 20
133.2429829919118
 30
0.0
 10
141.2847015788977
 20
133.1596581079932
 30
0.0
 10
141.2459827256658
 20
133.0781828651448
 30
0.0
 10
141.2140206173164
 20
133.0281912428093
 30
0.0
 10
141.1976923114732
 20
133.0026522986895
 30
0.0
  0
LINE
  5
200
330
1F
100
AcDbEntity
  8
0
  6
Continuous
 62
     7
370
    25
100
AcDbLine
 10
141.353235874
 20
134.8101494635
 30
0.0
 11
141.353235874
 21
133.5025679121
 31
0.0
  0
SPLINE
  5
201
330
1F
100
AcDbEntity
  8
0
  6
Continuous
 62
     7
370
    25
100
AcDbSpline
210
0.0
220
0.0
230
1.0
 70
     8
 71
     3
 72
    13
 73
     9
 74
     0
 42
0.000000001
 43
0.00000001
 40
0.0
 40
0.0
 40
0.0
 40
0.0
 40
0.1257153360577753
 40
0.250986709269415
 40
0.3762164861937409
 40
0.5018074329537138
 40
0.7521854029755236
 40
1.0
 40
1.0
 40
1.0
 40
1.0
 10
141.13487986746
 20
135.5277824781202
 30
0.0
 10
141.1520741446313
 20
135.4982402602915
 30
0.0
 10
141.1864019775023
 20
135.4392601527734
 30
0.0
 10
141.2299715257374
 20
135.3493422652737
 30
0.0
 10
141.2675793293821
 20
135.2587997302648
 30
0.0
 10
141.3086026069631
 20
135.1376893681237
 30
0.0
 10
141.3451311617179
 20
134.9865655591842
 30
0.0
 10
141.3505433324128
 20
134.8687527792963
 30
0.0
 10
141.3532354940155
 20
134.8101494830943
 30
0.0
  0
SPLINE
  5
202
330
1F
100
AcDbEntity
  8
0
  6
Continuous
 62
     7
370
    25
100
AcDbSpline
210
0.0
220
0.0
230
1.0
 70
     8
 71
     3
 72
    13
 73
     9
 74
     0
 42
0.000000001
 43
0.00000001
 40
0.0
 40
0.0
 40
0.0
 40
0.0
 40
0.123837116045566
 40
0.2479023030231072
 40
0.3726214666345097
 40
0.4984138700895106
 40
0.7490979627897992
 40
1.0
 40
1.0
 40
1.0
 40
1.0
 10
141.3532354940155
 20
144.3283192418009
 30
0.0
 10
141.3525639764232
 20
144.2991785850065
 30
0.0
 10
141.3512197045041
 20
144.240843603043
 30
0.0
 10
141.3403178944781
 20
144.1517582702532
 30
0.0
 10
141.3229564570559
 20
144.06159492859
 30
0.0
 10
141.2902691716888
 20
143.940515108328
 30
0.0
 10
141.2343840442089
 20
143.7884340560431
 30
0.0
 10
141.1680575329012
 20
143.6699526770043
 30
0.0
 10
141.13487986746
 20
143.610686246775
 30
0.0
  0
LINE
  5
203
330
1F
100
AcDbEntity
  8
0
  6
Continuous
 62
     7
370
    25
100
AcDbLine
 10
141.353235874
 20
145.6359008128
 30
0.0
 11
141.353235874
 21
144.3283192614
 31
0.0
  0
SPLINE
  5
204
330
1F
100
AcDbEntity
  8
0
  6
Continuous
 62
     7
370
    25
100
AcDbSpline
210
0.0
220
0.0
230
1.0
 70
     8
 71
     3
 72
    13
 73
     9
 74
     0
 42
0.000000001
 43
0.00000001
 40
0.0
 40
0.0
 40
0.0
 40
0.0
 40
0.1856794033212442
 40
0.3634611737568403
 40
0.5335423367206995
 40
0.6961479207300372
 40
0.8515354443704025
 40
0.9999999999999999
 40
0.9999999999999999
 40
0.9999999999999999
 40
0.9999999999999999
 10
141.1976923114732
 20
146.1358164262057
 30
0.0
 10
141.2140206173164
 20
146.1102774820859
 30
0.0
 10
141.2459827256658
 20
146.0602858597504
 30
0.0
 10
141.2847015788977
 20
145.9788106169019
 30
0.0
 10
141.3152556579854
 20
145.8954857329834
 30
0.0
 10
141.3368723948946
 20
145.8103182661058
 30
0.0
 10
141.3505800893833
 20
145.7244815028582
 30
0.0
 10
141.35236390664
 20
145.6649759285478
 30
0.0
 10
141.3532354940155
 20
145.6359010291143
 30
0.0
  0
SPLINE
  5
205
330
1F
100
AcDbEntity
  8
0
  6
Continuous
 62
     7
370
    25
100
AcDbSpline
210
0.0
220
0.0
230
1.0
 70
     8
 71
     3
 72
    16
 73
    12
 74
     0
 42
0.000000001
 43
0.00000001
 40
0.0
 40
0.0
 40
0.0
 40
0.0
 40
0.1113707238457123
 40
0.2115306831336734
 40
0.3004797812258395
 40
0.3782180942859685
 40
0.4447459579759641
 40
0.500064141985791
 40
0.7004020768506897
 40
0.8669907153164842
 40
1.0
 40
1.0
 40
1.0
 40
1.0
 10
140.8532354940155
 20
146.5692343624476
 30
0.0
 10
140.8633131728429
 20
146.568188719009
 30
0.0
 10
140.882454094381
 20
146.5662026883606
 30
0.0
 10
140.9100998120955
 20
146.551395131171
 30
0.0
 10
140.9350486004932
 20
146.5314403222397
 30
0.0
 10
140.9573297337331
 20
146.5081938402607
 30
0.0
 10
140.9769088565546
 20
146.4841370929005
 30
0.0
 10
141.0097965769233
 20
146.4396577812241
 30
0.0
 10
141.05767523417
 20
146.3655343878632
 30
0.0
 10
141.1221885933284
 20
146.2535204552733
 30
0.0
 10
141.1744779605342
 20
146.1720056723098
 30
0.0
 10
141.1976923114732
 20
146.1358164262057
 30
0.0
  0
SPLINE
  5
206
330
1F
100
AcDbEntity
  8
0
  6
Continuous
 62
     7
370
    25
100
AcDbSpline
210
0.0
220
0.0
230
1.0
 70
     8
 71
     3
 72
    14
 73
    10
 74
     0
 42
0.000000001
 43
0.00000001
 40
0.0
 40
0.0
 40
0.0
 40
0.0
 40
0.0771019312877576
 40
0.1604220744066402
 40
0.250013445567957
 40
0.3625277428349449
 40
0.4999872826724504
 40
0.6965319246666456
 40
1.0
 40
1.0
 40
1.0
 40
1.0
 10
125.5087786765578
 20
146.1358164262057
 30
0.0
 10
125.5229079534651
 20
146.1570811515234
 30
0.0
 10
125.5523060226634
 20
146.2013255860035
 30
0.0
 10
125.590823918876
 20
146.263984327087
 30
0.0
 10
125.6298864453566
 20
146.3293578506898
 30
0.0
 10
125.6701669517461
 20
146.3977031579382
 30
0.0
 10
125.7188256460141
 20
146.4713658759715
 30
0.0
 10
125.7802604854318
 20
146.5491288016393
 30
0.0
 10
125.8256734345305
 20
146.5616406577845
 30
0.0
 10
125.8532354940155
 20
146.5692343624476
 30
0.0
  0
SPLINE
  5
207
330
1F
100
AcDbEntity
  8
0
  6
Continuous
 62
     7
370
    25
100
AcDbSpline
210
0.0
220
0.0
230
1.0
 70
     8
 71
     3
 72
    13
 73
     9
 74
     0
 42
0.000000001
 43
0.00000001
 40
0.0
 40
0.0
 40
0.0
 40
0.0
 40
0.1484645556296106
 40
0.3038520792699841
 40
0.4664576632793244
 40
0.6365388262431811
 40
0.8143205966787692
 40
1.0
 40
1.0
 40
1.0
 40
1.0
 10
125.3532354940155
 20
145.6359010291143
 30
0.0
 10
125.354107081391
 20
145.6649759285479
 30
0.0
 10
125.3558908986477
 20
145.7244815028582
 30
0.0
 10
125.3695985931364
 20
145.8103182661058
 30
0.0
 10
125.3912153300456
 20
145.8954857329834
 30
0.0
 10
125.4217694091333
 20
145.978810616902
 30
0.0
 10
125.4604882623652
 20
146.0602858597504
 30
0.0
 10
125.4924503707147
 20
146.1102774820859
 30
0.0
 10
125.5087786765578
 20
146.1358164262057
 30
0.0
  0
LINE
  5
208
330
1F
100
AcDbEntity
  8
0
  6
Continuous
 62
     7
370
    25
100
AcDbLine
 10
125.353235114
 20
144.3283192614
 30
0.0
 11
125.353235114
 21
145.6359008128
 31
0.0
  0
SPLINE
  5
209
330
1F
100
AcDbEntity
  8
0
  6
Continuous
 62
     7
370
    25
100
AcDbSpline
210
0.0
220
0.0
230
1.0
 70
     8
 71
     3
 72
    13
 73
     9
 74
     0
 42
0.000000001
 43
0.00000001
 40
0.0
 40
0.0
 40
0.0
 40
0.0
 40
0.1257153360569889
 40
0.2509867092683644
 40
0.3762164861929509
 40
0.5018074329536976
 40
0.7521854029745006
 40
1.0
 40
1.0
 40
1.0
 40
1.0
 10
125.571591120571
 20
143.610686246775
 30
0.0
 10
125.5543968433998
 20
143.6402284646036
 30
0.0
 10
125.520069010529
 20
143.6992085721214
 30
0.0
 10
125.476499462294
 20
143.7891264596209
 30
0.0
 10
125.4388916586492
 20
143.87966899463
 30
0.0
 10
125.397868381068
 20
144.0007793567711
 30
0.0
 10
125.361339826313
 20
144.1519031657108
 30
0.0
 10
125.3559276556182
 20
144.2697159455986
 30
0.0
 10
125.3532354940155
 20
144.3283192418008
 30
0.0
  0
SPLINE
  5
20A
330
1F
100
AcDbEntity
  8
0
  6
Continuous
 62
     7
370
    25
100
AcDbSpline
210
0.0
220
0.0
230
1.0
 70
     8
 71
     3
 72
    13
 73
     9
 74
     0
 42
0.000000001
 43
0.00000001
 40
0.0
 40
0.0
 40
0.0
 40
0.0
 40
0.123835855545221
 40
0.2479006248871513
 40
0.3726202178325717
 40
0.4984138930967346
 40
0.7490996844582696
 40
1.0
 40
1.0
 40
1.0
 40
1.0
 10
125.3532354940155
 20
134.8101494830943
 30
0.0
 10
125.3539070253319
 20
134.8392898368416
 30
0.0
 10
125.3552513293077
 20
134.8976244110372
 30
0.0
 10
125.3661533129581
 20
134.9867093997995
 30
0.0
 10
125.3835149965705
 20
135.0768729962645
 30
0.0
 10
125.4162026380037
 20
135.197953578224
 30
0.0
 10
125.4720874389281
 20
135.3500350103081
 30
0.0
 10
125.538413770951
 20
135.4685164310121
 30
0.0
 10
125.571591120571
 20
135.5277824781202
 30
0.0
  0
LINE
  5
20B
330
1F
100
AcDbEntity
  8
0
  6
Continuous
 62
     7
370
    25
100
AcDbLine
 10
125.353235114
 20
133.5025679121
 30
0.0
 11
125.353235114
 21
134.8101494635
 31
0.0
  0
SPLINE
  5
20C
330
1F
100
AcDbEntity
  8
0
  6
Continuous
 62
     7
370
    25
100
AcDbSpline
210
0.0
220
0.0
230
1.0
 70
     8
 71
     3
 72
     9
 73
     5
 74
     0
 42
0.000000001
 43
0.00000001
 40
0.0
 40
0.0
 40
0.0
 40
0.0
 40
0.5
 40
1.0
 40
1.0
 40
1.0
 40
1.0
 10
125.571591120571
 20
143.610686246775
 30
0.0
 10
125.6500380505257
 20
143.6401951584877
 30
0.0
 10
125.8068332716137
 20
143.7256031815496
 30
0.0
 10
125.9224627330274
 20
143.8414176953852
 30
0.0
 10
125.9624133072933
 20
143.8993613813698
 30
0.0
  0
SPLINE
  5
20D
330
1F
100
AcDbEntity
  8
0
  6
Continuous
 62
     7
370
    25
100
AcDbSpline
210
0.0
220
0.0
230
1.0
 70
     8
 71
     3
 72
     8
 73
     4
 74
     0
 42
0.000000001
 43
0.00000001
 40
0.0
 40
0.0
 40
0.0
 40
0.0
 40
1.0
 40
1.0
 40
1.0
 40
1.0
 10
141.13487986746
 20
143.610686246775
 30
0.0
 10
140.9779860075506
 20
143.6697040702004
 30
0.0
 10
140.8239588292695
 20
143.7834740094007
 30
0.0
 10
140.7440576807377
 20
143.8993613813698
 30
0.0
  0
SPLINE
  5
20E
330
1F
100
AcDbEntity
  8
0
  6
Continuous
 62
     7
370
    25
100
AcDbSpline
210
0.0
220
0.0
230
1.0
 70
     8
 71
     3
 72
     9
 73
     5
 74
     0
 42
0.000000001
 43
0.00000001
 40
0.0
 40
0.0
 40
0.0
 40
0.0
 40
0.5
 40
1.0
 40
1.0
 40
1.0
 40
1.0
 10
125.9624133072933
 20
135.2391073435254
 30
0.0
 10
125.9224627330274
 20
135.2970510295099
 30
0.0
 10
125.8068332716137
 20
135.4128655433455
 30
0.0
 10
125.6500380505257
 20
135.4982735664075
 30
0.0
 10
125.571591120571
 20
135.5277824781202
 30
0.0
  0
SPLINE
  5
20F
330
1F
100
AcDbEntity
  8
0
  6
Continuous
 62
     7
370
    25
100
AcDbSpline
210
0.0
220
0.0
230
1.0
 70
     8
 71
     3
 72
     9
 73
     5
 74
     0
 42
0.000000001
 43
0.00000001
 40
0.0
 40
0.0
 40
0.0
 40
0.0
 40
0.5
 40
1.0
 40
1.0
 40
1.0
 40
1.0
 10
141.13487986746
 20
135.5277824781202
 30
0.0
 10
141.0564329375053
 20
135.4982735664075
 30
0.0
 10
140.8996377164173
 20
135.4128655433455
 30
0.0
 10
140.7840082550036
 20
135.2970510295099
 30
0.0
 10
140.7440576807377
 20
135.2391073435254
 30
0.0
  0
LINE
  5
210
330
1F
100
AcDbEntity
  8
0
  6
Continuous
 62
     7
370
    25
100
AcDbLine
 10
140.8532353264
 20
144.6682538638
 30
0.0
 11
140.8532353264
 21
146.0692344966
 31
0.0
  0
SPLINE
  5
211
330
1F
100
AcDbEntity
  8
0
  6
Continuous
 62
     7
370
    25
100
AcDbSpline
210
0.0
220
0.0
230
1.0
 70
     8
 71
     3
 72
    11
 73
     7
 74
     0
 42
0.000000001
 43
0.00000001
 40
0.0
 40
0.0
 40
0.0
 40
0.0
 40
0.1998756938242405
 40
0.5008842154834765
 40
0.7872132636300052
 40
1.0
 40
1.0
 40
1.0
 40
1.0
 10
140.7440576807377
 20
143.8993613813698
 30
0.0
 10
140.7574886497503
 20
143.9504742702176
 30
0.0
 10
140.7911463709486
 20
144.0785620769027
 30
0.0
 10
140.8269572389021
 20
144.2811051538895
 30
0.0
 10
140.8496012605465
 20
144.4868518279957
 30
0.0
 10
140.8521492263646
 20
144.6140330401228
 30
0.0
 10
140.8532354940155
 20
144.6682538760404
 30
0.0
  0
ARC
  5
212
330
1F
100
AcDbEntity
  8
0
  6
Continuous
 62
     7
370
    25
100
AcDbCircle
 10
140.353235494
 20
146.0692343624
 30
0.0
 40
0.5
100
AcDbArc
 50
0.0
 51
46.8892083855
  0
LINE
  5
213
330
1F
100
AcDbEntity
  8
0
  6
Continuous
 62
     7
370
    25
100
AcDbLine
 10
125.8532356617
 20
134.4702148611
 30
0.0
 11
125.8532356617
 21
133.0692342283
 31
0.0
  0
SPLINE
  5
214
330
1F
100
AcDbEntity
  8
0
  6
Continuous
 62
     7
370
    25
100
AcDbSpline
210
0.0
220
0.0
230
1.0
 70
     8
 71
     3
 72
    11
 73
     7
 74
     0
 42
0.000000001
 43
0.00000001
 40
0.0
 40
0.0
 40
0.0
 40
0.0
 40
0.1998734112540359
 40
0.500884202933325
 40
0.7872151654670749
 40
1.0
 40
1.0
 40
1.0
 40
1.0
 10
125.9624133072933
 20
135.2391073435254
 30
0.0
 10
125.9489824885411
 20
135.187995035192
 30
0.0
 10
125.9153247603661
 20
135.0599072237166
 30
0.0
 10
125.8795137149183
 20
134.8573636778361
 30
0.0
 10
125.8568696848439
 20
134.6516164299688
 30
0.0
 10
125.8543217420953
 20
134.5244352044887
 30
0.0
 10
125.8532354940155
 20
134.4702148488548
 30
0.0
  0
ARC
  5
215
330
1F
100
AcDbEntity
  8
0
  6
Continuous
 62
     7
370
    25
100
AcDbCircle
 10
126.353235494
 20
133.0692343624
 30
0.0
 40
0.5
100
AcDbArc
 50
180.0
 51
226.8892083855
  0
SPLINE
  5
216
330
1F
100
AcDbEntity
  8
0
  6
Continuous
 62
     7
370
    25
100
AcDbSpline
210
0.0
220
0.0
230
1.0
 70
     8
 71
     3
 72
    12
 73
     8
 74
     0
 42
0.000000001
 43
0.00000001
 40
0.0
 40
0.0
 40
0.0
 40
0.0
 40
0.1336874390793356
 40
0.3000652536961946
 40
0.4991448923272561
 40
0.8001431782005175
 40
1.0
 40
1.0
 40
1.0
 40
1.0
 10
125.8532354940155
 20
144.6682538760404
 30
0.0
 10
125.8536688198491
 20
144.6342307872865
 30
0.0
 10
125.8546414319888
 20
144.5578649983331
 30
0.0
 10
125.863382422143
 20
144.4299536754867
 30
0.0
 10
125.8832703059762
 20
144.2587050193012
 30
0.0
 10
125.9153635729687
 20
144.0785516844615
 30
0.0
 10
125.94899379783
 20
143.9504699795924
 30
0.0
 10
125.9624133072933
 20
143.8993613813698
 30
0.0
  0
LINE
  5
217
330
1F
100
AcDbEntity
  8
0
  6
Continuous
 62
     7
370
    25
100
AcDbLine
 10
125.8532356617
 20
146.0692344966
 30
0.0
 11
125.8532356617
 21
144.6682538638
 31
0.0
  0
ARC
  5
218
330
1F
100
AcDbEntity
  8
0
  6
Continuous
 62
     7
370
    25
100
AcDbCircle
 10
126.353235494
 20
146.0692343624
 30
0.0
 40
0.5
100
AcDbArc
 50
133.1107916145
 51
180.0
  0
SPLINE
  5
219
330
1F
100
AcDbEntity
  8
0
  6
Continuous
 62
     7
370
    25
100
AcDbSpline
210
0.0
220
0.0
230
1.0
 70
     8
 71
     3
 72
    12
 73
     8
 74
     0
 42
0.000000001
 43
0.00000001
 40
0.0
 40
0.0
 40
0.0
 40
0.0
 40
0.1336874390379308
 40
0.3000652536547861
 40
0.4991448923272269
 40
0.8001431782741747
 40
1.0
 40
1.0
 40
1.0
 40
1.0
 10
140.8532354940155
 20
134.4702148488548
 30
0.0
 10
140.8528021681822
 20
134.5042379375982
 30
0.0
 10
140.8518295560429
 20
134.5806037265411
 30
0.0
 10
140.8430885658904
 20
134.7085150493876
 30
0.0
 10
140.8232006820546
 20
134.8797637056021
 30
0.0
 10
140.7911074150577
 20
135.0599170404521
 30
0.0
 10
140.7574771901962
 20
135.1879987453215
 30
0.0
 10
140.7440576807377
 20
135.2391073435254
 30
0.0
  0
LINE
  5
21A
330
1F
100
AcDbEntity
  8
0
  6
Continuous
 62
     7
370
    25
100
AcDbLine
 10
140.8532353264
 20
133.0692342283
 30
0.0
 11
140.8532353264
 21
134.4702148611
 31
0.0
  0
ARC
  5
21B
330
1F
100
AcDbEntity
  8
0
  6
Continuous
 62
     7
370
    25
100
AcDbCircle
 10
140.353235494
 20
133.0692343624
 30
0.0
 40
0.5
100
AcDbArc
 50
313.1107916145
 51
0.0
  0
SPLINE
  5
21C
330
1F
100
AcDbEntity
  8
0
  6
Continuous
 62
     7
370
    25
100
AcDbSpline
210
0.0
220
0.0
230
1.0
 70
     8
 71
     3
 72
     9
 73
     5
 74
     0
 42
0.000000001
 43
0.00000001
 40
0.0
 40
0.0
 40
0.0
 40
0.0
 40
0.5
 40
1.0
 40
1.0
 40
1.0
 40
1.0
 10
125.8532354940155
 20
144.6682538760404
 30
0.0
 10
125.8532354940155
 20
144.5792591969047
 30
0.0
 10
125.7449488393698
 20
144.4019400104808
 30
0.0
 10
125.4841351879151
 20
144.3283192418009
 30
0.0
 10
125.3532354940155
 20
144.3283192418009
 30
0.0
  0
SPLINE
  5
21D
330
1F
100
AcDbEntity
  8
0
  6
Continuous
 62
     7
370
    25
100
AcDbSpline
210
0.0
220
0.0
230
1.0
 70
     8
 71
     3
 72
     9
 73
     5
 74
     0
 42
0.000000001
 43
0.00000001
 40
0.0
 40
0.0
 40
0.0
 40
0.0
 40
0.5
 40
1.0
 40
1.0
 40
1.0
 40
1.0
 10
141.3532354940155
 20
144.3283192418009
 30
0.0
 10
141.2223358001159
 20
144.3283192418009
 30
0.0
 10
140.9615221486612
 20
144.4019400104808
 30
0.0
 10
140.8532354940155
 20
144.5792591969047
 30
0.0
 10
140.8532354940155
 20
144.6682538760404
 30
0.0
  0
SPLINE
  5
21E
330
1F
100
AcDbEntity
  8
0
  6
Continuous
 62
     7
370
    25
100
AcDbSpline
210
0.0
220
0.0
230
1.0
 70
     8
 71
     3
 72
     9
 73
     5
 74
     0
 42
0.000000001
 43
0.00000001
 40
0.0
 40
0.0
 40
0.0
 40
0.0
 40
0.5
 40
1.0
 40
1.0
 40
1.0
 40
1.0
 10
125.3532354940155
 20
134.8101494830943
 30
0.0
 10
125.4841351879151
 20
134.8101494830943
 30
0.0
 10
125.7449488393698
 20
134.7365287144143
 30
0.0
 10
125.8532354940155
 20
134.5592095279904
 30
0.0
 10
125.8532354940155
 20
134.4702148488548
 30
0.0
  0
SPLINE
  5
21F
330
1F
100
AcDbEntity
  8
0
  6
Continuous
 62
     7
370
    25
100
AcDbSpline
210
0.0
220
0.0
230
1.0
 70
     8
 71
     3
 72
     9
 73
     5
 74
     0
 42
0.000000001
 43
0.00000001
 40
0.0
 40
0.0
 40
0.0
 40
0.0
 40
0.5
 40
1.0
 40
1.0
 40
1.0
 40
1.0
 10
140.8532354940155
 20
134.4702148488548
 30
0.0
 10
140.8532354940155
 20
134.5592095279904
 30
0.0
 10
140.9615221486612
 20
134.7365287144143
 30
0.0
 10
141.2223358001159
 20
134.8101494830943
 30
0.0
 10
141.3532354940155
 20
134.8101494830943
 30
0.0
  0
SPLINE
  5
220
330
1F
100
AcDbEntity
  8
0
  6
Continuous
 62
     7
370
    25
100
AcDbSpline
210
0.0
220
0.0
230
1.0
 70
     8
 71
     3
 72
     9
 73
     5
 74
     0
 42
0.000000001
 43
0.00000001
 40
0.0
 40
0.0
 40
0.0
 40
0.0
 40
0.5
 40
1.0
 40
1.0
 40
1.0
 40
1.0
 10
140.8532354940155
 20
146.0692343624476
 30
0.0
 10
140.8532354940155
 20
145.955787961068
 30
0.0
 10
140.9615193642005
 20
145.7297470499412
 30
0.0
 10
141.2223358001159
 20
145.6359010291143
 30
0.0
 10
141.3532354940155
 20
145.6359010291143
 30
0.0
  0
SPLINE
  5
221
330
1F
100
AcDbEntity
  8
0
  6
Continuous
 62
     7
370
    25
100
AcDbSpline
210
0.0
220
0.0
230
1.0
 70
     8
 71
     3
 72
     9
 73
     5
 74
     0
 42
0.000000001
 43
0.00000001
 40
0.0
 40
0.0
 40
0.0
 40
0.0
 40
0.5
 40
1.0
 40
1.0
 40
1.0
 40
1.0
 10
125.8532354940155
 20
133.0692343624476
 30
0.0
 10
125.8532354940155
 20
133.1826807638272
 30
0.0
 10
125.7449516238305
 20
133.408721674954
 30
0.0
 10
125.4841351879151
 20
133.5025676957809
 30
0.0
 10
125.3532354940155
 20
133.5025676957809
 30
0.0
  0
SPLINE
  5
222
330
1F
100
AcDbEntity
  8
0
  6
Continuous
 62
     7
370
    25
100
AcDbSpline
210
0.0
220
0.0
230
1.0
 70
     8
 71
     3
 72
     9
 73
     5
 74
     0
 42
0.000000001
 43
0.00000001
 40
0.0
 40
0.0
 40
0.0
 40
0.0
 40
0.5
 40
1.0
 40
1.0
 40
1.0
 40
1.0
 10
125.3532354940155
 20
145.6359010291143
 30
0.0
 10
125.4841351879151
 20
145.6359010291143
 30
0.0
 10
125.7449516238305
 20
145.7297470499412
 30
0.0
 10
125.8532354940155
 20
145.955787961068
 30
0.0
 10
125.8532354940155
 20
146.0692343624476
 30
0.0
  0
SPLINE
  5
223
330
1F
100
AcDbEntity
  8
0
  6
Continuous
 62
     7
370
    25
100
AcDbSpline
210
0.0
220
0.0
230
1.0
 70
     8
 71
     3
 72
     9
 73
     5
 74
     0
 42
0.000000001
 43
0.00000001
 40
0.0
 40
0.0
 40
0.0
 40
0.0
 40
0.5
 40
1.0
 40
1.0
 40
1.0
 40
1.0
 10
141.3532354940155
 20
133.5025676957809
 30
0.0
 10
141.2223358001159
 20
133.5025676957809
 30
0.0
 10
140.9615193642005
 20
133.408721674954
 30
0.0
 10
140.8532354940155
 20
133.1826807638272
 30
0.0
 10
140.8532354940155
 20
133.0692343624476
 30
0.0
  0
SPLINE
  5
224
330
1F
100
AcDbEntity
  8
0
  6
Continuous
 62
     7
370
    25
100
AcDbSpline
210
0.0
220
0.0
230
1.0
 70
     8
 71
     3
 72
    10
 73
     6
 74
     0
 42
0.000000001
 43
0.00000001
 40
0.0
 40
0.0
 40
0.0
 40
0.0
 40
0.5
 40
0.5
 40
1.0
 40
1.0
 40
1.0
 40
1.0
 10
132.3532354940155
 20
134.6702548768812
 30
0.0
 10
132.6817704627972
 20
134.6794145926991
 30
0.0
 10
133.0127653185181
 20
134.6848961180251
 30
0.0
 10
133.6805635506978
 20
134.6850322363319
 30
0.0
 10
134.01954152504
 20
134.6795584281509
 30
0.0
 10
134.3532354940155
 20
134.6702548768812
 30
0.0
  0
SPLINE
  5
225
330
1F
100
AcDbEntity
  8
0
  6
Continuous
 62
     7
370
    25
100
AcDbSpline
210
0.0
220
0.0
230
1.0
 70
     8
 71
     3
 72
    10
 73
     6
 74
     0
 42
0.000000001
 43
0.00000001
 40
0.0
 40
0.0
 40
0.0
 40
0.0
 40
0.5
 40
0.5
 40
1.0
 40
1.0
 40
1.0
 40
1.0
 10
134.3532354940155
 20
144.468213848014
 30
0.0
 10
134.0247005252338
 20
144.4590541321961
 30
0.0
 10
133.6937056695129
 20
144.4535726068701
 30
0.0
 10
133.0259074373332
 20
144.4534364885632
 30
0.0
 10
132.686929462991
 20
144.4589102967442
 30
0.0
 10
132.3532354940155
 20
144.468213848014
 30
0.0
  0
SPLINE
  5
226
330
1F
100
AcDbEntity
  8
0
  6
Continuous
 62
     7
370
    25
100
AcDbSpline
210
0.0
220
0.0
230
1.0
 70
     8
 71
     3
 72
     8
 73
     4
 74
     0
 42
0.000000001
 43
0.00000001
 40
0.0
 40
0.0
 40
0.0
 40
0.0
 40
1.0
 40
1.0
 40
1.0
 40
1.0
 10
125.5087786765578
 20
146.1358164262057
 30
0.0
 10
125.6787825563935
 20
146.1228767809802
 30
0.0
 10
125.845587018746
 20
146.2023740876127
 30
0.0
 10
125.9310070852867
 20
146.337046182318
 30
0.0
  0
SPLINE
  5
227
330
1F
100
AcDbEntity
  8
0
  6
Continuous
 62
     7
370
    25
100
AcDbSpline
210
0.0
220
0.0
230
1.0
 70
     8
 71
     3
 72
     9
 73
     5
 74
     0
 42
0.000000001
 43
0.00000001
 40
0.0
 40
0.0
 40
0.0
 40
0.0
 40
0.571428571428571
 40
1.0
 40
1.0
 40
1.0
 40
1.0
 10
141.1976923114732
 20
133.0026522986895
 30
0.0
 10
141.1005472372814
 20
133.0100463816754
 30
0.0
 10
140.9308858985637
 20
132.9727312020973
 30
0.0
 10
140.8120725026903
 20
132.8591391545937
 30
0.0
 10
140.7754639027443
 20
132.8014225425772
 30
0.0
  0
SPLINE
  5
228
330
1F
100
AcDbEntity
  8
0
  6
Continuous
 62
     7
370
    25
100
AcDbSpline
210
0.0
220
0.0
230
1.0
 70
     8
 71
     3
 72
     9
 73
     5
 74
     0
 42
0.000000001
 43
0.00000001
 40
0.0
 40
0.0
 40
0.0
 40
0.0
 40
0.5
 40
1.0
 40
1.0
 40
1.0
 40
1.0
 10
141.1976923114744
 20
146.135816426204
 30
0.0
 10
141.1126903715563
 20
146.1293466035911
 30
0.0
 10
140.9427964533075
 20
146.1600255967971
 30
0.0
 10
140.8181739360151
 20
146.269710134964
 30
0.0
 10
140.7754639027449
 20
146.3370461823171
 30
0.0
  0
SPLINE
  5
229
330
1F
100
AcDbEntity
  8
0
  6
Continuous
 62
     7
370
    25
100
AcDbSpline
210
0.0
220
0.0
230
1.0
 70
     8
 71
     3
 72
     9
 73
     5
 74
     0
 42
0.000000001
 43
0.00000001
 40
0.0
 40
0.0
 40
0.0
 40
0.0
 40
0.5
 40
1.0
 40
1.0
 40
1.0
 40
1.0
 10
125.5087786765571
 20
133.0026522986905
 30
0.0
 10
125.5937806164751
 20
133.0091221213034
 30
0.0
 10
125.7636745347238
 20
132.9784431280975
 30
0.0
 10
125.8882970520162
 20
132.8687585899306
 30
0.0
 10
125.9310070852863
 20
132.8014225425777
 30
0.0
  0
SPLINE
  5
22A
330
1F
100
AcDbEntity
  8
0
  6
Continuous
 62
     7
370
    25
100
AcDbSpline
210
0.0
220
0.0
230
1.0
 70
     8
 71
     3
 72
    11
 73
     7
 74
     0
 42
0.000000001
 43
0.00000001
 40
0.0
 40
0.0
 40
0.0
 40
0.0
 40
0.2876478479512965
 40
0.5611005784409707
 40
0.8299950982559509
 40
1.0
 40
1.0
 40
1.0
 40
1.0
 10
125.9310071502307
 20
146.3370460817758
 30
0.0
 10
125.9453975790873
 20
146.3721022380653
 30
0.0
 10
125.9734682843367
 20
146.4404845663606
 30
0.0
 10
125.9436359443254
 20
146.5138012287518
 30
0.0
 10
125.9094037456756
 20
146.5562747701618
 30
0.0
 10
125.8816777351361
 20
146.5617478640442
 30
0.0
 10
125.8709382411519
 20
146.5638678321782
 30
0.0
  0
SPLINE
  5
22B
330
1F
100
AcDbEntity
  8
0
  6
Continuous
 62
     7
370
    25
100
AcDbSpline
210
0.0
220
0.0
230
1.0
 70
    24
 71
     3
 72
    14
 73
    10
 74
     0
 42
0.000000001
 43
0.00000001
 40
0.0
 40
0.0
 40
0.0
 40
0.0
 40
0.250384366109634
 40
0.3856975923178703
 40
0.5014306604032173
 40
0.6388329400918317
 40
0.7674982872365089
 40
0.8877537710032762
 40
1.0
 40
1.0
 40
1.0
 40
1.0
 10
125.8532354940155
 20
146.5692343624476
 30
0.0
 10
125.912522438901
 20
146.5692343624476
 30
0.0
 10
126.0038493546086
 20
146.5692343624476
 30
0.0
 10
126.1163636845104
 20
146.5692343624476
 30
0.0
 10
126.1961500938833
 20
146.5692343624476
 30
0.0
 10
126.2629493077397
 20
146.5692343624476
 30
0.0
 10
126.3141382714104
 20
146.5692343624476
 30
0.0
 10
126.3467676232692
 20
146.5692343624476
 30
0.0
 10
126.3511296247326
 20
146.5692343624476
 30
0.0
 10
126.3532354940155
 20
146.5692343624476
 30
0.0
  0
SPLINE
  5
22C
330
1F
100
AcDbEntity
  8
0
  6
Continuous
 62
     7
370
    25
100
AcDbSpline
210
0.0
220
0.0
230
1.0
 70
     8
 71
     3
 72
    12
 73
     8
 74
     0
 42
0.000000001
 43
0.00000001
 40
0.0
 40
0.0
 40
0.0
 40
0.0
 40
0.106360891224351
 40
0.159541336836527
 40
0.265902228060878
 40
0.265902228060878
 40
0.267217449764311
 40
0.267217449764311
 40
0.267217449764311
 40
0.267217449764311
 10
140.7754639027443
 20
132.8014225425772
 30
0.0
 10
140.7374217159163
 20
132.7414457573194
 30
0.0
 10
140.7429175880694
 20
132.6671551132828
 30
0.0
 10
140.7848141675863
 20
132.5889235280596
 30
0.0
 10
140.8259403253302
 20
132.5695474115471
 30
0.0
 10
140.8525877028545
 20
132.5692362700996
 30
0.0
 10
140.8529112045295
 20
132.5692343624476
 30
0.0
 10
140.8532354940155
 20
132.5692343624476
 30
0.0
  0
SPLINE
  5
22D
330
1F
100
AcDbEntity
  8
0
  6
Continuous
 62
     7
370
    25
100
AcDbSpline
210
0.0
220
0.0
230
1.0
 70
    24
 71
     3
 72
    16
 73
    12
 74
     0
 42
0.000000001
 43
0.00000001
 40
0.0
 40
0.0
 40
0.0
 40
0.0
 40
0.0739298478317502
 40
0.1513677900738161
 40
0.2324450724296886
 40
0.3172760505391666
 40
0.4059605604440887
 40
0.4985859784696513
 40
0.6141264806631028
 40
0.7496239522892343
 40
1.0
 40
1.0
 40
1.0
 40
1.0
 10
140.3532354940155
 20
132.5692343624476
 30
0.0
 10
140.3541507993081
 20
132.5692343624476
 30
0.0
 10
140.3560248426537
 20
132.5692343624476
 30
0.0
 10
140.3703995942111
 20
132.5692343624476
 30
0.0
 10
140.3930929396999
 20
132.5692343624476
 30
0.0
 10
140.4250554989191
 20
132.5692343624476
 30
0.0
 10
140.4659982800809
 20
132.5692343624476
 30
0.0
 10
140.5194659708122
 20
132.5692343624476
 30
0.0
 10
140.5900686312854
 20
132.5692343624476
 30
0.0
 10
140.7025753337608
 20
132.5692343624476
 30
0.0
 10
140.7939479165841
 20
132.5692343624476
 30
0.0
 10
140.8532354940155
 20
132.5692343624476
 30
0.0
  0
SPLINE
  5
22E
330
1F
100
AcDbEntity
  8
0
  6
Continuous
 62
     7
370
    25
100
AcDbSpline
210
0.0
220
0.0
230
1.0
 70
     8
 71
     3
 72
    12
 73
     8
 74
     0
 42
0.000000001
 43
0.00000001
 40
-0.265902228061387
 40
-0.265902228061387
 40
-0.265902228061387
 40
-0.265902228061387
 40
-0.2645870063584663
 40
-0.2645870063584663
 40
-0.1582261151339113
 40
-0.1050456695216343
 40
0.0013152217029208
 40
0.0013152217029208
 40
0.0013152217029208
 40
0.0013152217029208
 10
125.8532354940155
 20
132.5692343624476
 30
0.0
 10
125.8535597835014
 20
132.5692343624476
 30
0.0
 10
125.8538832851761
 20
132.5692362700996
 30
0.0
 10
125.8805306627026
 20
132.5695474115469
 30
0.0
 10
125.921656820445
 20
132.5889235280593
 30
0.0
 10
125.9635533999624
 20
132.6671551132826
 30
0.0
 10
125.9690492721148
 20
132.7414457573193
 30
0.0
 10
125.9310070852867
 20
132.8014225425772
 30
0.0
  0
SPLINE
  5
22F
330
1F
100
AcDbEntity
  8
0
  6
Continuous
 62
     7
370
    25
100
AcDbSpline
210
0.0
220
0.0
230
1.0
 70
    24
 71
     3
 72
    14
 73
    10
 74
     0
 42
0.000000001
 43
0.00000001
 40
0.0
 40
0.0
 40
0.0
 40
0.0
 40
0.2503818975769405
 40
0.3853960642454612
 40
0.5014219062737861
 40
0.6386745024418747
 40
0.7672919706928744
 40
0.8876008223903926
 40
1.0
 40
1.0
 40
1.0
 40
1.0
 10
125.8532354940155
 20
132.5692343624476
 30
0.0
 10
125.9127685777453
 20
132.5692343624476
 30
0.0
 10
126.0044038612219
 20
132.5692343624476
 30
0.0
 10
126.1169299153995
 20
132.5692343624476
 30
0.0
 10
126.1965881250828
 20
132.5692343624476
 30
0.0
 10
126.2632585908801
 20
132.5692343624476
 30
0.0
 10
126.3142808947218
 20
132.5692343624476
 30
0.0
 10
126.3467961867422
 20
132.5692343624476
 30
0.0
 10
126.3511382534265
 20
132.5692343624476
 30
0.0
 10
126.3532354940155
 20
132.5692343624476
 30
0.0
  0
LINE
  5
230
330
1F
100
AcDbEntity
  8
0
  6
Continuous
 62
     7
370
    25
100
AcDbLine
 10
140.8532353264
 20
146.5692345785
 30
0.0
 11
140.8288649429
 21
146.5617886545
 31
0.0
  0
SPLINE
  5
231
330
1F
100
AcDbEntity
  8
0
  6
Continuous
 62
     7
370
    25
100
AcDbSpline
210
0.0
220
0.0
230
1.0
 70
    24
 71
     3
 72
    16
 73
    12
 74
     0
 42
0.000000001
 43
0.00000001
 40
0.0
 40
0.0
 40
0.0
 40
0.0
 40
0.0740424421768231
 40
0.1515492076760871
 40
0.2326508292781398
 40
0.3174612427217847
 40
0.4060800799075449
 40
0.4985946693164888
 40
0.6144270548830109
 40
0.7496263894763571
 40
1.0
 40
1.0
 40
1.0
 40
1.0
 10
140.3532354940155
 20
146.5692343624476
 30
0.0
 10
140.3541472917822
 20
146.5692343624476
 30
0.0
 10
140.356013548824
 20
146.5692343624476
 30
0.0
 10
140.3703392069692
 20
146.5692343624476
 30
0.0
 10
140.3929586152302
 20
146.5692343624476
 30
0.0
 10
140.4248174928347
 20
146.5692343624476
 30
0.0
 10
140.465628781466
 20
146.5692343624476
 30
0.0
 10
140.5190086726415
 20
146.5692343624476
 30
0.0
 10
140.5895023035025
 20
146.5692343624476
 30
0.0
 10
140.7020204007959
 20
146.5692343624476
 30
0.0
 10
140.7937017666618
 20
146.5692343624476
 30
0.0
 10
140.8532354940155
 20
146.5692343624476
 30
0.0
  0
LINE
  5
232
330
1F
100
AcDbEntity
  8
0
  6
Continuous
 62
     8
370
    25
100
AcDbLine
 10
145.3835417662
 20
147.3692341509
 30
0.0
 11
145.3835417662
 21
131.769234574
 31
0.0
  0
LINE
  5
233
330
1F
100
AcDbEntity
  8
0
  6
Continuous
 62
     8
370
    25
100
AcDbLine
 10
121.3229292218
 20
131.769234574
 30
0.0
 11
121.3229292218
 21
147.3692341509
 31
0.0
  0
LINE
  5
234
330
1F
100
AcDbEntity
  8
0
  6
Continuous
 62
     8
370
    25
100
AcDbLine
 10
144.4037457142
 20
132.5692341464
 30
0.0
 11
144.4037457142
 21
146.5692345785
 31
0.0
  0
LINE
  5
235
330
1F
100
AcDbEntity
  8
0
  6
Continuous
 62
     8
370
    25
100
AcDbLine
 10
122.3027252738
 20
146.5692345785
 30
0.0
 11
122.3027252738
 21
132.5692341464
 31
0.0
  0
LINE
  5
236
330
1F
100
AcDbEntity
  8
0
  6
Continuous
 62
     8
370
    25
100
AcDbLine
 10
126.3532352779
 20
144.4289891781
 30
0.0
 11
126.3532352779
 21
146.0692344966
 31
0.0
  0
LINE
  5
237
330
1F
100
AcDbEntity
  8
0
  6
Continuous
 62
     8
370
    25
100
AcDbLine
 10
140.3532357101
 20
134.7094795467
 30
0.0
 11
140.3532357101
 21
133.0692342283
 31
0.0
  0
LINE
  5
238
330
1F
100
AcDbEntity
  8
0
  6
Continuous
 62
     8
370
    25
100
AcDbLine
 10
126.3532352779
 20
133.0692342283
 30
0.0
 11
126.3532352779
 21
134.7094795467
 31
0.0
  0
LINE
  5
239
330
1F
100
AcDbEntity
  8
0
  6
Continuous
 62
     8
370
    25
100
AcDbLine
 10
140.3532357101
 20
146.0692344966
 30
0.0
 11
140.3532357101
 21
144.4289891781
 31
0.0
  0
SPLINE
  5
23A
330
1F
100
AcDbEntity
  8
0
  6
Continuous
 62
     8
370
    25
100
AcDbSpline
210
0.0
220
0.0
230
1.0
 70
     8
 71
     3
 72
     9
 73
     5
 74
     0
 42
0.000000001
 43
0.00000001
 40
0.0
 40
0.0
 40
0.0
 40
0.0
 40
0.1695193468900168
 40
1.0
 40
1.0
 40
1.0
 40
1.0
 10
140.9576882753947
 20
135.7616887228731
 30
0.0
 10
140.9701396083025
 20
135.7496826739263
 30
0.0
 10
141.0435904157541
 20
135.6788586106734
 30
0.0
 10
141.0934622512672
 20
135.5963249828139
 30
0.0
 10
141.1348798457959
 20
135.5277824016455
 30
0.0
  0
SPLINE
  5
23B
330
1F
100
AcDbEntity
  8
0
  6
Continuous
 62
     8
370
    25
100
AcDbSpline
210
0.0
220
0.0
230
1.0
 70
     8
 71
     3
 72
     9
 73
     5
 74
     0
 42
0.000000001
 43
0.00000001
 40
0.0
 40
0.0
 40
0.0
 40
0.0
 40
0.5830589541145027
 40
1.0
 40
1.0
 40
1.0
 40
1.0
 10
141.1348798457959
 20
143.6106863232497
 30
0.0
 10
141.1060735290029
 20
143.5647511732076
 30
0.0
 10
141.0566680330584
 20
143.485968144977
 30
0.0
 10
140.9925886614251
 20
143.41312913261
 30
0.0
 10
140.9658713411966
 20
143.3827595586124
 30
0.0
  0
SPLINE
  5
23C
330
1F
100
AcDbEntity
  8
0
  6
Continuous
 62
     8
370
    25
100
AcDbSpline
210
0.0
220
0.0
230
1.0
 70
     8
 71
     3
 72
     9
 73
     5
 74
     0
 42
0.000000001
 43
0.00000001
 40
0.0
 40
0.0
 40
0.0
 40
0.0
 40
0.1810527690576612
 40
1.0
 40
1.0
 40
1.0
 40
1.0
 10
125.7518295344391
 20
143.373759490082
 30
0.0
 10
125.7383271917623
 20
143.3867548005977
 30
0.0
 10
125.6637503556988
 20
143.458531170456
 30
0.0
 10
125.6130841176156
 20
143.5421812897147
 30
0.0
 10
125.5715911422351
 20
143.6106863232497
 30
0.0
  0
SPLINE
  5
23D
330
1F
100
AcDbEntity
  8
0
  6
Continuous
 62
     8
370
    25
100
AcDbSpline
210
0.0
220
0.0
230
1.0
 70
     8
 71
     3
 72
     9
 73
     5
 74
     0
 42
0.000000001
 43
0.00000001
 40
0.0
 40
0.0
 40
0.0
 40
0.0
 40
0.582847690444835
 40
0.9999999999999999
 40
0.9999999999999999
 40
0.9999999999999999
 40
0.9999999999999999
 10
125.5715911422351
 20
135.5277824016455
 30
0.0
 10
125.6003980536149
 20
135.5737173089866
 30
0.0
 10
125.6498224776146
 20
135.6525284771429
 30
0.0
 10
125.7139261660424
 20
135.7253934629211
 30
0.0
 10
125.7406671677211
 20
135.7557892600242
 30
0.0
  0
LINE
  5
23E
330
1F
100
AcDbEntity
  8
0
  6
Continuous
 62
     8
370
    25
100
AcDbLine
 10
125.9868632216
 20
143.8372822279
 30
0.0
 11
125.9624132101
 21
143.8993613968
 31
0.0
  0
LINE
  5
23F
330
1F
100
AcDbEntity
  8
0
  6
Continuous
 62
     8
370
    25
100
AcDbLine
 10
140.7440577779
 20
143.8993613968
 30
0.0
 11
140.7145576697
 21
143.8244532595
 31
0.0
  0
LINE
  5
240
330
1F
100
AcDbEntity
  8
0
  6
Continuous
 62
     8
370
    25
100
AcDbLine
 10
125.9624132101
 20
135.2391073281
 30
0.0
 11
125.99306583
 21
135.3169421466
 31
0.0
  0
LINE
  5
241
330
1F
100
AcDbEntity
  8
0
  6
Continuous
 62
     8
370
    25
100
AcDbLine
 10
140.715024728
 20
135.3128233725
 30
0.0
 11
140.7440577779
 21
135.2391073281
 31
0.0
  0
SPLINE
  5
242
330
1F
100
AcDbEntity
  8
0
  6
Continuous
 62
     8
370
    25
100
AcDbSpline
210
0.0
220
0.0
230
1.0
 70
     8
 71
     3
 72
    11
 73
     7
 74
     0
 42
0.000000001
 43
0.00000001
 40
0.0
 40
0.0
 40
0.0
 40
0.0
 40
0.137696887866455
 40
0.4171858930680554
 40
0.7017749847908697
 40
1.0
 40
1.0
 40
1.0
 40
1.0
 10
140.8288649429062
 20
146.5617886545304
 30
0.0
 10
140.82063062022
 20
146.5600289589533
 30
0.0
 10
140.7956827559881
 20
146.5546975372906
 30
0.0
 10
140.7629215791086
 20
146.5135075226638
 30
0.0
 10
140.7357378786443
 20
146.4409225032022
 30
0.0
 10
140.7620169039744
 20
146.3722074572258
 30
0.0
 10
140.7754638378003
 20
146.3370460817758
 30
0.0
  0
LINE
  5
243
330
1F
100
AcDbEntity
  8
0
  6
Continuous
 62
     8
370
    25
100
AcDbLine
 10
139.0478772257
 20
132.5692341464
 30
0.0
 11
139.0478772257
 21
132.6056665542
 31
0.0
  0
INSERT
  5
24F
330
1F
100
AcDbEntity
  8
0
  6
Continuous
 62
     7
370
    18
100
AcDbBlockReference
  2
SW_CENTERMARKSYMBOL_1
 10
133.353235494
 20
139.5692343624
 30
0.0
  0
LINE
  5
250
330
1F
100
AcDbEntity
  8
0
  6
Continuous
 62
     7
370
    18
100
AcDbLine
 10
157.4834318576
 20
132.0670529988
 30
0.0
 11
145.763235494
 21
131.7007968624
 31
0.0
  0
LINE
  5
251
330
1F
100
AcDbEntity
  8
0
  6
Continuous
 62
     7
370
    18
100
AcDbLine
 10
157.4834318576
 20
147.0714157261
 30
0.0
 11
145.763235494
 21
147.4376718624
 31
0.0
  0
LINE
  5
252
330
1F
100
AcDbEntity
  8
0
  6
Continuous
 62
     7
370
    18
100
AcDbLine
 10
145.763235494
 20
148.0905468624
 30
0.0
 11
145.763235494
 21
131.0479218624
 31
0.0
  0
ARC
  5
253
330
1F
100
AcDbEntity
  8
0
  6
Continuous
 62
     7
370
    18
100
AcDbCircle
 10
133.353235494
 20
139.5692343624
 30
0.0
 40
7.475000000000005
100
AcDbArc
 50
75.0
 51
345.0
  0
LINE
  5
254
330
1F
100
AcDbEntity
  8
0
  6
Continuous
 62
     7
370
    18
100
AcDbLine
 10
109.2230391305
 20
147.0714157261
 30
0.0
 11
120.943235494
 21
147.4376718624
 31
0.0
  0
LINE
  5
255
330
1F
100
AcDbEntity
  8
0
  6
Continuous
 62
     7
370
    18
100
AcDbLine
 10
109.2230391305
 20
132.0670529988
 30
0.0
 11
120.943235494
 21
131.7007968624
 31
0.0
  0
LINE
  5
256
330
1F
100
AcDbEntity
  8
0
  6
Continuous
 62
     7
370
    18
100
AcDbLine
 10
120.943235494
 20
131.0479218624
 30
0.0
 11
120.943235494
 21
148.0905468624
 31
0.0
  0
ENDSEC
  0
SECTION
  2
OBJECTS
  0
DICTIONARY
  5
C
330
0
100
AcDbDictionary
281
     1
  3
ACAD_GROUP
350
D
  3
ACAD_LAYOUT
350
1A
  3
ACAD_MLINESTYLE
350
17
  3
ACAD_PLOTSETTINGS
350
19
  3
ACAD_PLOTSTYLENAME
350
E
  3
ACAD_SCALELIST
350
47
  0
DICTIONARY
  5
D
102
{ACAD_REACTORS
330
C
102
}
330
C
100
AcDbDictionary
281
     1
  0
DICTIONARY
  5
1A
102
{ACAD_REACTORS
330
C
102
}
330
C
100
AcDbDictionary
281
     1
  3
Layout1
350
1E
  3
Layout2
350
26
  3
Model
350
22
  0
DICTIONARY
  5
17
102
{ACAD_REACTORS
330
C
102
}
330
C
100
AcDbDictionary
281
     1
  3
Standard
350
18
  0
DICTIONARY
  5
19
102
{ACAD_REACTORS
330
C
102
}
330
C
100
AcDbDictionary
281
     1
  0
ACDBDICTIONARYWDFLT
  5
E
102
{ACAD_REACTORS
330
C
102
}
330
C
100
AcDbDictionary
281
     1
  3
Normal
350
F
100
AcDbDictionaryWithDefault
340
F
  0
DICTIONARY
  5
47
102
{ACAD_REACTORS
330
C
102
}
330
C
100
AcDbDictionary
281
     1
  3
A0
350
48
  3
A1
350
49
  3
A2
350
4A
  3
A3
350
4B
  3
A4
350
4C
  3
A5
350
4D
  3
A6
350
4E
  3
A7
350
4F
  3
A8
350
50
  3
A9
350
51
  3
B0
350
52
  3
B1
350
53
  3
B2
350
54
  3
B3
350
55
  3
B4
350
56
  3
B5
350
57
  3
B6
350
58
  3
B7
350
59
  3
B8
350
5A
  3
B9
350
5B
  3
C0
350
5C
  3
C1
350
5D
  3
C2
350
5E
  3
C3
350
5F
  3
C4
350
60
  3
C5
350
61
  3
C6
350
62
  3
C7
350
63
  3
C8
350
64
  3
C9
350
65
  3
D0
350
66
  3
D1
350
67
  3
D2
350
68
  0
LAYOUT
  5
1E
102
{ACAD_REACTORS
330
1A
102
}
330
1A
100
AcDbPlotSettings
  1

  2
none_device
  4

  6

 40
0.0
 41
0.0
 42
0.0
 43
0.0
 44
0.0
 45
0.0
 46
0.0
 47
0.0
 48
0.0
 49
0.0
140
0.0
141
0.0
142
1.0
143
1.0
 70
   688
 72
     1
 73
     0
 74
     5
  7

 75
    16
147
1.0
148
0.0
149
0.0
100
AcDbLayout
  1
Layout1
 70
     1
 71
     1
 10
0.0
 20
0.0
 11
420.0
 21
297.0
 12
0.0
 22
0.0
 32
0.0
 14
1.0000000000E+20
 24
1.0000000000E+20
 34
1.0000000000E+20
 15
-1.0000000000E+20
 25
-1.0000000000E+20
 35
-1.0000000000E+20
146
0.0
 13
0.0
 23
0.0
 33
0.0
 16
1.0
 26
0.0
 36
0.0
 17
0.0
 27
1.0
 37
0.0
 76
     0
330
1B
  0
LAYOUT
  5
26
102
{ACAD_REACTORS
330
1A
102
}
330
1A
100
AcDbPlotSettings
  1

  2
none_device
  4

  6

 40
0.0
 41
0.0
 42
0.0
 43
0.0
 44
0.0
 45
0.0
 46
0.0
 47
0.0
 48
0.0
 49
0.0
140
0.0
141
0.0
142
1.0
143
1.0
 70
   688
 72
     1
 73
     0
 74
     5
  7

 75
    16
147
1.0
148
0.0
149
0.0
100
AcDbLayout
  1
Layout2
 70
     1
 71
     2
 10
0.0
 20
0.0
 11
0.0
 21
0.0
 12
0.0
 22
0.0
 32
0.0
 14
0.0
 24
0.0
 34
0.0
 15
0.0
 25
0.0
 35
0.0
146
0.0
 13
0.0
 23
0.0
 33
0.0
 16
1.0
 26
0.0
 36
0.0
 17
0.0
 27
1.0
 37
0.0
 76
     0
330
23
  0
LAYOUT
  5
22
102
{ACAD_REACTORS
330
1A
102
}
330
1A
100
AcDbPlotSettings
  1

  2
none_device
  4
Letter_(8.50_x_11.00_Inches)
  6

 40
6.35
 41
6.35
 42
6.35000508
 43
6.35000508
 44
215.9
 45
279.4
 46
0.0
 47
0.0
 48
0.0
 49
0.0
140
0.0
141
0.0
142
1.0
143
1.0
 70
  1712
 72
     1
 73
     0
 74
     0
  7

 75
     0
147
1.0
148
0.0
149
0.0
100
AcDbLayout
  1
Model
 70
     1
 71
     0
 10
0.0
 20
0.0
 11
431.8
 21
279.4
 12
0.0
 22
0.0
 32
0.0
 14
0.0
 24
0.0
 34
0.0
 15
431.8
 25
279.4
 35
0.0
146
0.0
 13
0.0
 23
0.0
 33
0.0
 16
1.0
 26
0.0
 36
0.0
 17
0.0
 27
1.0
 37
0.0
 76
     0
330
1F
331
29
  0
MLINESTYLE
  5
18
102
{ACAD_REACTORS
330
17
102
}
330
17
100
AcDbMlineStyle
  2
Standard
 70
     0
  3

 62
   256
 51
90.0
 52
90.0
 71
     2
 49
0.5
 62
   256
  6
BYLAYER
 49
-0.5
 62
   256
  6
BYLAYER
  0
ACDBPLACEHOLDER
  5
F
102
{ACAD_REACTORS
330
E
102
}
330
E
  0
SCALE
  5
48
102
{ACAD_REACTORS
330
47
102
}
330
47
100
AcDbScale
 70
     0
300
1:1
140
1.0
141
1.0
290
     1
  0
SCALE
  5
49
102
{ACAD_REACTORS
330
47
102
}
330
47
100
AcDbScale
 70
     0
300
1:2
140
1.0
141
2.0
290
     0
  0
SCALE
  5
4A
102
{ACAD_REACTORS
330
47
102
}
330
47
100
AcDbScale
 70
     0
300
1:4
140
1.0
141
4.0
290
     0
  0
SCALE
  5
4B
102
{ACAD_REACTORS
330
47
102
}
330
47
100
AcDbScale
 70
     0
300
1:5
140
1.0
141
5.0
290
     0
  0
SCALE
  5
4C
102
{ACAD_REACTORS
330
47
102
}
330
47
100
AcDbScale
 70
     0
300
1:8
140
1.0
141
8.0
290
     0
  0
SCALE
  5
4D
102
{ACAD_REACTORS
330
47
102
}
330
47
100
AcDbScale
 70
     0
300
1:10
140
1.0
141
10.0
290
     0
  0
SCALE
  5
4E
102
{ACAD_REACTORS
330
47
102
}
330
47
100
AcDbScale
 70
     0
300
1:16
140
1.0
141
16.0
290
     0
  0
SCALE
  5
4F
102
{ACAD_REACTORS
330
47
102
}
330
47
100
AcDbScale
 70
     0
300
1:20
140
1.0
141
20.0
290
     0
  0
SCALE
  5
50
102
{ACAD_REACTORS
330
47
102
}
330
47
100
AcDbScale
 70
     0
300
1:30
140
1.0
141
30.0
290
     0
  0
SCALE
  5
51
102
{ACAD_REACTORS
330
47
102
}
330
47
100
AcDbScale
 70
     0
300
1:40
140
1.0
141
40.0
290
     0
  0
SCALE
  5
52
102
{ACAD_REACTORS
330
47
102
}
330
47
100
AcDbScale
 70
     0
300
1:50
140
1.0
141
50.0
290
     0
  0
SCALE
  5
53
102
{ACAD_REACTORS
330
47
102
}
330
47
100
AcDbScale
 70
     0
300
1:100
140
1.0
141
100.0
290
     0
  0
SCALE
  5
54
102
{ACAD_REACTORS
330
47
102
}
330
47
100
AcDbScale
 70
     0
300
2:1
140
2.0
141
1.0
290
     0
  0
SCALE
  5
55
102
{ACAD_REACTORS
330
47
102
}
330
47
100
AcDbScale
 70
     0
300
4:1
140
4.0
141
1.0
290
     0
  0
SCALE
  5
56
102
{ACAD_REACTORS
330
47
102
}
330
47
100
AcDbScale
 70
     0
300
8:1
140
8.0
141
1.0
290
     0
  0
SCALE
  5
57
102
{ACAD_REACTORS
330
47
102
}
330
47
100
AcDbScale
 70
     0
300
10:1
140
10.0
141
1.0
290
     0
  0
SCALE
  5
58
102
{ACAD_REACTORS
330
47
102
}
330
47
100
AcDbScale
 70
     0
300
100:1
140
100.0
141
1.0
290
     0
  0
SCALE
  5
59
102
{ACAD_REACTORS
330
47
102
}
330
47
100
AcDbScale
 70
     0
300
1/128" = 1'-0"
140
0.0078125
141
12.0
290
     0
  0
SCALE
  5
5A
102
{ACAD_REACTORS
330
47
102
}
330
47
100
AcDbScale
 70
     0
300
1/64" = 1'-0"
140
0.015625
141
12.0
290
     0
  0
SCALE
  5
5B
102
{ACAD_REACTORS
330
47
102
}
330
47
100
AcDbScale
 70
     0
300
1/32" = 1'-0"
140
0.03125
141
12.0
290
     0
  0
SCALE
  5
5C
102
{ACAD_REACTORS
330
47
102
}
330
47
100
AcDbScale
 70
     0
300
1/16" = 1'-0"
140
0.0625
141
12.0
290
     0
  0
SCALE
  5
5D
102
{ACAD_REACTORS
330
47
102
}
330
47
100
AcDbScale
 70
     0
300
3/32" = 1'-0"
140
0.09375
141
12.0
290
     0
  0
SCALE
  5
5E
102
{ACAD_REACTORS
330
47
102
}
330
47
100
AcDbScale
 70
     0
300
1/8" = 1'-0"
140
0.125
141
12.0
290
     0
  0
SCALE
  5
5F
102
{ACAD_REACTORS
330
47
102
}
330
47
100
AcDbScale
 70
     0
300
3/16" = 1'-0"
140
0.1875
141
12.0
290
     0
  0
SCALE
  5
60
102
{ACAD_REACTORS
330
47
102
}
330
47
100
AcDbScale
 70
     0
300
1/4" = 1'-0"
140
0.25
141
12.0
290
     0
  0
SCALE
  5
61
102
{ACAD_REACTORS
330
47
102
}
330
47
100
AcDbScale
 70
     0
300
3/8" = 1'-0"
140
0.375
141
12.0
290
     0
  0
SCALE
  5
62
102
{ACAD_REACTORS
330
47
102
}
330
47
100
AcDbScale
 70
     0
300
1/2" = 1'-0"
140
0.5
141
12.0
290
     0
  0
SCALE
  5
63
102
{ACAD_REACTORS
330
47
102
}
330
47
100
AcDbScale
 70
     0
300
3/4" = 1'-0"
140
0.75
141
12.0
290
     0
  0
SCALE
  5
64
102
{ACAD_REACTORS
330
47
102
}
330
47
100
AcDbScale
 70
     0
300
1" = 1'-0"
140
1.0
141
12.0
290
     0
  0
SCALE
  5
65
102
{ACAD_REACTORS
330
47
102
}
330
47
100
AcDbScale
 70
     0
300
1-1/2" = 1'-0"
140
1.5
141
12.0
290
     0
  0
SCALE
  5
66
102
{ACAD_REACTORS
330
47
102
}
330
47
100
AcDbScale
 70
     0
300
3" = 1'-0"
140
3.0
141
12.0
290
     0
  0
SCALE
  5
67
102
{ACAD_REACTORS
330
47
102
}
330
47
100
AcDbScale
 70
     0
300
6" = 1'-0"
140
6.0
141
12.0
290
     0
  0
SCALE
  5
68
102
{ACAD_REACTORS
330
47
102
}
330
47
100
AcDbScale
 70
     0
300
1'-0" = 1'-0"
140
12.0
141
12.0
290
     0
  0
ENDSEC
  0
EOF
