  0
SECTION
  2
HEADER
  9
$ACADVER
  1
AC1015
  9
$ACADMAINTVER
 70
     6
  9
$DWGCODEPAGE
  3
DOS932
  9
$INSBASE
 10
0.0
 20
0.0
 30
0.0
  9
$EXTMIN
 10
0.0
 20
0.0
 30
0.0
  9
$EXTMAX
 10
431.8
 20
279.4
 30
0.0
  9
$LIMMIN
 10
0.0
 20
0.0
  9
$LIMMAX
 10
431.8
 20
279.4
  9
$ORTHOMODE
 70
     0
  9
$REGENMODE
 70
     1
  9
$FILLMODE
 70
     1
  9
$QTEXTMODE
 70
     0
  9
$MIRRTEXT
 70
     1
  9
$LTSCALE
 40
1.0
  9
$ATTMODE
 70
     1
  9
$TEXTSIZE
 40
3.5
  9
$TRACEWID
 40
1.0
  9
$TEXTSTYLE
  7
Standard
  9
$CLAYER
  8
0
  9
$CELTYPE
  6
ByLayer
  9
$CECOLOR
 62
   256
  9
$CELTSCALE
 40
1.0
  9
$DISPSILH
 70
     0
  9
$DIMSCALE
 40
1.0
  9
$DIMASZ
 40
3.302
  9
$DIMEXO
 40
1.0
  9
$DIMDLI
 40
3.75
  9
$DIMRND
 40
0.0
  9
$DIMDLE
 40
0.0
  9
$DIMEXE
 40
1.0
  9
$DIMTP
 40
0.0
  9
$DIMTM
 40
0.0
  9
$DIMTXT
 40
3.5
  9
$DIMCEN
 40
2.5
  9
$DIMTSZ
 40
0.0
  9
$DIMTOL
 70
     0
  9
$DIMLIM
 70
     0
  9
$DIMTIH
 70
     1
  9
$DIMTOH
 70
     1
  9
$DIMSE1
 70
     0
  9
$DIMSE2
 70
     0
  9
$DIMTAD
 70
     1
  9
$DIMZIN
 70
     1
  9
$DIMBLK
  1

  9
$DIMASO
 70
     1
  9
$DIMSHO
 70
     1
  9
$DIMPOST
  1

  9
$DIMAPOST
  1

  9
$DIMALT
 70
     0
  9
$DIMALTD
 70
     3
  9
$DIMALTF
 40
0.0393700787
  9
$DIMLFAC
 40
1.0
  9
$DIMTOFL
 70
     1
  9
$DIMTVP
 40
0.0
  9
$DIMTIX
 70
     0
  9
$DIMSOXD
 70
     0
  9
$DIMSAH
 70
     0
  9
$DIMBLK1
  1

  9
$DIMBLK2
  1

  9
$DIMSTYLE
  2
ISO-25
  9
$DIMCLRD
 70
     0
  9
$DIMCLRE
 70
     0
  9
$DIMCLRT
 70
     0
  9
$DIMTFAC
 40
1.0
  9
$DIMGAP
 40
1.524
  9
$DIMJUST
 70
     0
  9
$DIMSD1
 70
     0
  9
$DIMSD2
 70
     0
  9
$DIMTOLJ
 70
     0
  9
$DIMTZIN
 70
     1
  9
$DIMALTZ
 70
     0
  9
$DIMALTTZ
 70
     0
  9
$DIMUPT
 70
     0
  9
$DIMDEC
 70
     2
  9
$DIMTDEC
 70
     2
  9
$DIMALTU
 70
     2
  9
$DIMALTTD
 70
     3
  9
$DIMTXSTY
  7
Standard
  9
$DIMAUNIT
 70
     0
  9
$DIMADEC
 70
     2
  9
$DIMALTRND
 40
0.0
  9
$DIMAZIN
 70
     0
  9
$DIMDSEP
 70
    44
  9
$DIMATFIT
 70
     3
  9
$DIMFRAC
 70
     0
  9
$DIMLDRBLK
  1

  9
$DIMLUNIT
 70
     2
  9
$DIMLWD
 70
    -2
  9
$DIMLWE
 70
    -2
  9
$DIMTMOVE
 70
     0
  9
$LUNITS
 70
     2
  9
$LUPREC
 70
     2
  9
$SKETCHINC
 40
1.0
  9
$FILLETRAD
 40
10.0
  9
$AUNITS
 70
     0
  9
$AUPREC
 70
     2
  9
$MENU
  1
.
  9
$ELEVATION
 40
0.0
  9
$PELEVATION
 40
0.0
  9
$THICKNESS
 40
0.0
  9
$LIMCHECK
 70
     0
  9
$CHAMFERA
 40
0.0
  9
$CHAMFERB
 40
0.0
  9
$CHAMFERC
 40
0.0
  9
$CHAMFERD
 40
0.0
  9
$SKPOLY
 70
     0
  9
$TDCREATE
 40
2459229.402838507
  9
$TDUCREATE
 40
2459229.027838507
  9
$TDUPDATE
 40
2459229.402839236
  9
$TDUUPDATE
 40
2459229.027839236
  9
$TDINDWG
 40
0.0000000116
  9
$TDUSRTIMER
 40
0.0000000116
  9
$USRTIMER
 70
     1
  9
$ANGBASE
 50
0.0
  9
$ANGDIR
 70
     0
  9
$PDMODE
 70
     0
  9
$PDSIZE
 40
-1.0
  9
$PLINEWID
 40
0.0
  9
$SPLFRAME
 70
     0
  9
$SPLINETYPE
 70
     6
  9
$SPLINESEGS
 70
     8
  9
$HANDSEED
  5
1EE
  9
$SURFTAB1
 70
     6
  9
$SURFTAB2
 70
     6
  9
$SURFTYPE
 70
     6
  9
$SURFU
 70
     6
  9
$SURFV
 70
     6
  9
$UCSBASE
  2

  9
$UCSNAME
  2

  9
$UCSORG
 10
0.0
 20
0.0
 30
0.0
  9
$UCSXDIR
 10
1.0
 20
0.0
 30
0.0
  9
$UCSYDIR
 10
0.0
 20
1.0
 30
0.0
  9
$UCSORTHOREF
  2

  9
$UCSORTHOVIEW
 70
     0
  9
$UCSORGTOP
 10
0.0
 20
0.0
 30
0.0
  9
$UCSORGBOTTOM
 10
0.0
 20
0.0
 30
0.0
  9
$UCSORGLEFT
 10
0.0
 20
0.0
 30
0.0
  9
$UCSORGRIGHT
 10
0.0
 20
0.0
 30
0.0
  9
$UCSORGFRONT
 10
0.0
 20
0.0
 30
0.0
  9
$UCSORGBACK
 10
0.0
 20
0.0
 30
0.0
  9
$PUCSBASE
  2

  9
$PUCSNAME
  2

  9
$PUCSORG
 10
0.0
 20
0.0
 30
0.0
  9
$PUCSXDIR
 10
1.0
 20
0.0
 30
0.0
  9
$PUCSYDIR
 10
0.0
 20
1.0
 30
0.0
  9
$PUCSORTHOREF
  2

  9
$PUCSORTHOVIEW
 70
     0
  9
$PUCSORGTOP
 10
0.0
 20
0.0
 30
0.0
  9
$PUCSORGBOTTOM
 10
0.0
 20
0.0
 30
0.0
  9
$PUCSORGLEFT
 10
0.0
 20
0.0
 30
0.0
  9
$PUCSORGRIGHT
 10
0.0
 20
0.0
 30
0.0
  9
$PUCSORGFRONT
 10
0.0
 20
0.0
 30
0.0
  9
$PUCSORGBACK
 10
0.0
 20
0.0
 30
0.0
  9
$USERI1
 70
     0
  9
$USERI2
 70
     0
  9
$USERI3
 70
     0
  9
$USERI4
 70
     0
  9
$USERI5
 70
     0
  9
$USERR1
 40
0.0
  9
$USERR2
 40
0.0
  9
$USERR3
 40
0.0
  9
$USERR4
 40
0.0
  9
$USERR5
 40
0.0
  9
$WORLDVIEW
 70
     1
  9
$SHADEDGE
 70
     3
  9
$SHADEDIF
 70
    70
  9
$TILEMODE
 70
     1
  9
$MAXACTVP
 70
    64
  9
$PINSBASE
 10
0.0
 20
0.0
 30
0.0
  9
$PLIMCHECK
 70
     0
  9
$PEXTMIN
 10
1.0000000000E+20
 20
1.0000000000E+20
 30
1.0000000000E+20
  9
$PEXTMAX
 10
-1.0000000000E+20
 20
-1.0000000000E+20
 30
-1.0000000000E+20
  9
$PLIMMIN
 10
0.0
 20
0.0
  9
$PLIMMAX
 10
420.0
 20
297.0
  9
$UNITMODE
 70
     0
  9
$VISRETAIN
 70
     1
  9
$PLINEGEN
 70
     0
  9
$PSLTSCALE
 70
     1
  9
$TREEDEPTH
 70
  3020
  9
$CMLSTYLE
  2
Standard
  9
$CMLJUST
 70
     0
  9
$CMLSCALE
 40
20.0
  9
$PROXYGRAPHICS
 70
     1
  9
$MEASUREMENT
 70
     1
  9
$CELWEIGHT
370
    -1
  9
$ENDCAPS
280
     0
  9
$JOINSTYLE
280
     0
  9
$LWDISPLAY
290
     1
  9
$INSUNITS
 70
     4
  9
$HYPERLINKBASE
  1

  9
$STYLESHEET
  1

  9
$XEDIT
290
     1
  9
$CEPSNTYPE
380
     0
  9
$PSTYLEMODE
290
     1
  9
$FINGERPRINTGUID
  2
{79871328-92BF-4C2F-B1F0-A9DAE9B41D09}
  9
$VERSIONGUID
  2
{FAEB1C32-E019-11D5-929B-00C0DF256EC4}
  9
$EXTNAMES
290
     1
  9
$PSVPSCALE
 40
0.0
  9
$OLESTARTUP
290
     0
  0
ENDSEC
  0
SECTION
  2
CLASSES
  0
CLASS
  1
ACDBDICTIONARYWDFLT
  2
AcDbDictionaryWithDefault
  3
ObjectDBX Classes
 90
        0
280
     0
281
     0
  0
CLASS
  1
VISUALSTYLE
  2
AcDbVisualStyle
  3
ObjectDBX Classes
 90
     4095
280
     0
281
     0
  0
CLASS
  1
MATERIAL
  2
AcDbMaterial
  3
ObjectDBX Classes
 90
     1153
280
     0
281
     0
  0
CLASS
  1
SCALE
  2
AcDbScale
  3
ObjectDBX Classes
 90
     1153
280
     0
281
     0
  0
CLASS
  1
TABLESTYLE
  2
AcDbTableStyle
  3
ObjectDBX Classes
 90
     4095
280
     0
281
     0
  0
CLASS
  1
MLEADERSTYLE
  2
AcDbMLeaderStyle
  3
ACDB_MLEADERSTYLE_CLASS
 90
     4095
280
     0
281
     0
  0
CLASS
  1
SUN
  2
AcDbSun
  3
SCENEOE
 90
     1153
280
     0
281
     0
  0
CLASS
  1
ACDBPLACEHOLDER
  2
AcDbPlaceHolder
  3
ObjectDBX Classes
 90
        0
280
     0
281
     0
  0
CLASS
  1
LAYOUT
  2
AcDbLayout
  3
ObjectDBX Classes
 90
        0
280
     0
281
     0
  0
ENDSEC
  0
SECTION
  2
TABLES
  0
TABLE
  2
VPORT
  5
8
330
0
100
AcDbSymbolTable
 70
     1
  0
VPORT
  5
29
330
8
100
AcDbSymbolTableRecord
100
AcDbViewportTableRecord
  2
*Active
 70
     0
 10
0.0
 20
0.0
 11
1.0
 21
1.0
 12
215.9
 22
139.7
 13
0.0
 23
0.0
 14
10.0
 24
10.0
 15
10.0
 25
10.0
 16
0.0
 26
0.0
 36
1.0
 17
0.0
 27
0.0
 37
0.0
 40
279.4
 41
1.5454545455
 42
50.0
 43
0.0
 44
0.0
 50
0.0
 51
0.0
 71
     0
 72
  2000
 73
     1
 74
     3
 75
     0
 76
     0
 77
     0
 78
     0
281
     0
 65
     1
110
0.0
120
0.0
130
0.0
111
1.0
121
0.0
131
0.0
112
0.0
122
1.0
132
0.0
 79
     0
146
0.0
  0
ENDTAB
  0
TABLE
  2
LTYPE
  5
5
330
0
100
AcDbSymbolTable
 70
     6
  0
LTYPE
  5
14
330
5
100
AcDbSymbolTableRecord
100
AcDbLinetypeTableRecord
  2
ByBlock
 70
     0
  3

 72
    65
 73
     0
 40
0.0
  0
LTYPE
  5
15
330
5
100
AcDbSymbolTableRecord
100
AcDbLinetypeTableRecord
  2
ByLayer
 70
     0
  3

 72
    65
 73
     0
 40
0.0
  0
LTYPE
  5
16
330
5
100
AcDbSymbolTableRecord
100
AcDbLinetypeTableRecord
  2
Continuous
 70
     0
  3
Solid line
 72
    65
 73
     0
 40
0.0
  0
LTYPE
  5
6E
330
5
100
AcDbSymbolTableRecord
100
AcDbLinetypeTableRecord
  2
HIDDEN
 70
     0
  3
Hidden __ __ __ __ __ __ __ __ __ __ __ __ __ __
 72
    65
 73
     2
 40
1.905
 49
1.27
 74
     0
 49
-0.635
 74
     0
  0
LTYPE
  5
6F
330
5
100
AcDbSymbolTableRecord
100
AcDbLinetypeTableRecord
  2
PHANTOM
 70
     0
  3
Phantom ______  __  __  ______  __  __  ______
 72
    65
 73
     6
 40
12.7
 49
6.35
 74
     0
 49
-1.27
 74
     0
 49
1.27
 74
     0
 49
-1.27
 74
     0
 49
1.27
 74
     0
 49
-1.27
 74
     0
  0
LTYPE
  5
70
330
5
100
AcDbSymbolTableRecord
100
AcDbLinetypeTableRecord
  2
CENTER
 70
     0
  3
Center ____ _ ____ _ ____ _ ____ _ ____ _ ____
 72
    65
 73
     4
 40
10.16
 49
6.35
 74
     0
 49
-1.27
 74
     0
 49
1.27
 74
     0
 49
-1.27
 74
     0
  0
LTYPE
  5
71
330
5
100
AcDbSymbolTableRecord
100
AcDbLinetypeTableRecord
  2
CENTERX2
 70
     0
  3
Center (2x) ________  __  ________  __  _____
 72
    65
 73
     4
 40
20.32
 49
12.7
 74
     0
 49
-2.54
 74
     0
 49
2.54
 74
     0
 49
-2.54
 74
     0
  0
LTYPE
  5
72
330
5
100
AcDbSymbolTableRecord
100
AcDbLinetypeTableRecord
  2
DOT2
 70
     0
  3
Dot (.5x) ........................................
 72
    65
 73
     2
 40
0.635
 49
0.0
 74
     0
 49
-0.635
 74
     0
  0
ENDTAB
  0
TABLE
  2
LAYER
  5
2
330
0
100
AcDbSymbolTable
 70
     1
  0
LAYER
  5
10
330
2
100
AcDbSymbolTableRecord
100
AcDbLayerTableRecord
  2
0
 70
     0
 62
     7
  6
Continuous
370
    -3
390
F
  0
ENDTAB
  0
TABLE
  2
STYLE
  5
3
330
0
100
AcDbSymbolTable
 70
     2
  0
STYLE
  5
11
330
3
100
AcDbSymbolTableRecord
100
AcDbTextStyleTableRecord
  2
Standard
 70
     0
 40
0.0
 41
1.0
 50
0.0
 71
     0
 42
3.5
  3
txt
  4
bigfont
  0
STYLE
  5
73
330
3
100
AcDbSymbolTableRecord
100
AcDbTextStyleTableRecord
  2
SLDTEXTSTYLE0
 70
     0
 40
0.0
 41
0.7
 50
0.0
 71
     0
 42
3.5
  3
TXT
  4
bigfont
  0
ENDTAB
  0
TABLE
  2
VIEW
  5
6
330
0
100
AcDbSymbolTable
 70
     0
  0
ENDTAB
  0
TABLE
  2
UCS
  5
7
330
0
100
AcDbSymbolTable
 70
     0
  0
ENDTAB
  0
TABLE
  2
APPID
  5
9
330
0
100
AcDbSymbolTable
 70
     1
  0
APPID
  5
12
330
9
100
AcDbSymbolTableRecord
100
AcDbRegAppTableRecord
  2
ACAD
 70
     0
  0
ENDTAB
  0
TABLE
  2
DIMSTYLE
  5
A
330
0
100
AcDbSymbolTable
 70
     1
100
AcDbDimStyleTable
  0
DIMSTYLE
105
27
330
A
100
AcDbSymbolTableRecord
100
AcDbDimStyleTableRecord
  2
ISO-25
 70
     0
 41
2.5
 42
0.625
 43
3.75
 44
1.25
 73
     0
 74
     0
 77
     1
 78
     8
140
2.5
141
2.5
143
0.0393700787
147
0.625
171
     3
172
     1
178
     0
271
     2
272
     2
274
     3
278
    44
283
     0
284
     8
340
11
  0
ENDTAB
  0
TABLE
  2
BLOCK_RECORD
  5
1
330
0
100
AcDbSymbolTable
 70
     3
  0
BLOCK_RECORD
  5
1F
330
1
100
AcDbSymbolTableRecord
100
AcDbBlockTableRecord
  2
*Model_Space
340
22
  0
BLOCK_RECORD
  5
1B
330
1
100
AcDbSymbolTableRecord
100
AcDbBlockTableRecord
  2
*Paper_Space
340
1E
  0
BLOCK_RECORD
  5
23
330
1
100
AcDbSymbolTableRecord
100
AcDbBlockTableRecord
  2
*Paper_Space0
340
26
  0
BLOCK_RECORD
  5
166
330
1
100
AcDbSymbolTableRecord
100
AcDbBlockTableRecord
  2
SW_CENTERMARKSYMBOL_0
340
0
102
{BLKREFS
331
171
102
}
  0
BLOCK_RECORD
  5
1E1
330
1
100
AcDbSymbolTableRecord
100
AcDbBlockTableRecord
  2
SW_CENTERMARKSYMBOL_1
340
0
102
{BLKREFS
331
1EC
102
}
  0
ENDTAB
  0
ENDSEC
  0
SECTION
  2
BLOCKS
  0
BLOCK
  5
20
330
1F
100
AcDbEntity
  8
0
100
AcDbBlockBegin
  2
*Model_Space
 70
     0
 10
0.0
 20
0.0
 30
0.0
  3
*Model_Space
  1

  0
ENDBLK
  5
21
330
1F
100
AcDbEntity
  8
0
100
AcDbBlockEnd
  0
BLOCK
  5
1C
330
1B
100
AcDbEntity
 67
     1
  8
0
100
AcDbBlockBegin
  2
*Paper_Space
 70
     0
 10
0.0
 20
0.0
 30
0.0
  3
*Paper_Space
  1

  0
ENDBLK
  5
1D
330
1B
100
AcDbEntity
 67
     1
  8
0
100
AcDbBlockEnd
  0
BLOCK
  5
24
330
23
100
AcDbEntity
  8
0
100
AcDbBlockBegin
  2
*Paper_Space0
 70
     0
 10
0.0
 20
0.0
 30
0.0
  3
*Paper_Space0
  1

  0
ENDBLK
  5
25
330
23
100
AcDbEntity
  8
0
100
AcDbBlockEnd
  0
BLOCK
  5
167
330
166
100
AcDbEntity
  8
0
100
AcDbBlockBegin
  2
SW_CENTERMARKSYMBOL_0
 70
     0
 10
0.0
 20
0.0
 30
0.0
  3
SW_CENTERMARKSYMBOL_0
  1

  0
LINE
  5
169
330
166
100
AcDbEntity
  8
0
  6
Continuous
 62
     0
370
    18
100
AcDbLine
 10
0.0
 20
0.0
 30
0.0
 11
0.0
 21
2.5
 31
0.0
  0
LINE
  5
16A
330
166
100
AcDbEntity
  8
0
  6
Continuous
 62
     0
370
    18
100
AcDbLine
 10
0.0
 20
0.0
 30
0.0
 11
-2.5
 21
0.0
 31
0.0
  0
LINE
  5
16B
330
166
100
AcDbEntity
  8
0
  6
Continuous
 62
     0
370
    18
100
AcDbLine
 10
0.0
 20
0.0
 30
0.0
 11
0.0
 21
-2.5
 31
0.0
  0
LINE
  5
16C
330
166
100
AcDbEntity
  8
0
  6
Continuous
 62
     0
370
    18
100
AcDbLine
 10
0.0
 20
0.0
 30
0.0
 11
2.5
 21
0.0
 31
0.0
  0
LINE
  5
16D
330
166
100
AcDbEntity
  8
0
  6
Continuous
 62
     0
370
    18
100
AcDbLine
 10
0.0
 20
5.0
 30
0.0
 11
0.0
 21
31.6902204612
 31
0.0
  0
LINE
  5
16E
330
166
100
AcDbEntity
  8
0
  6
Continuous
 62
     0
370
    18
100
AcDbLine
 10
-5.0
 20
0.0
 30
0.0
 11
-13.75
 21
0.0
 31
0.0
  0
LINE
  5
16F
330
166
100
AcDbEntity
  8
0
  6
Continuous
 62
     0
370
    18
100
AcDbLine
 10
0.0
 20
-5.0
 30
0.0
 11
0.0
 21
-13.75
 31
0.0
  0
LINE
  5
170
330
166
100
AcDbEntity
  8
0
  6
Continuous
 62
     0
370
    18
100
AcDbLine
 10
5.0
 20
0.0
 30
0.0
 11
13.75
 21
0.0
 31
0.0
  0
ENDBLK
  5
168
330
166
100
AcDbEntity
  8
0
100
AcDbBlockEnd
  0
BLOCK
  5
1E2
330
1E1
100
AcDbEntity
  8
0
100
AcDbBlockBegin
  2
SW_CENTERMARKSYMBOL_1
 70
     0
 10
0.0
 20
0.0
 30
0.0
  3
SW_CENTERMARKSYMBOL_1
  1

  0
LINE
  5
1E4
330
1E1
100
AcDbEntity
  8
0
  6
Continuous
 62
     0
370
    18
100
AcDbLine
 10
0.0
 20
0.0
 30
0.0
 11
0.0
 21
2.5
 31
0.0
  0
LINE
  5
1E5
330
1E1
100
AcDbEntity
  8
0
  6
Continuous
 62
     0
370
    18
100
AcDbLine
 10
0.0
 20
0.0
 30
0.0
 11
-2.5
 21
0.0
 31
0.0
  0
LINE
  5
1E6
330
1E1
100
AcDbEntity
  8
0
  6
Continuous
 62
     0
370
    18
100
AcDbLine
 10
0.0
 20
0.0
 30
0.0
 11
0.0
 21
-2.5
 31
0.0
  0
LINE
  5
1E7
330
1E1
100
AcDbEntity
  8
0
  6
Continuous
 62
     0
370
    18
100
AcDbLine
 10
0.0
 20
0.0
 30
0.0
 11
2.5
 21
0.0
 31
0.0
  0
LINE
  5
1E8
330
1E1
100
AcDbEntity
  8
0
  6
Continuous
 62
     0
370
    18
100
AcDbLine
 10
0.0
 20
5.0
 30
0.0
 11
0.0
 21
12.6230556161
 31
0.0
  0
LINE
  5
1E9
330
1E1
100
AcDbEntity
  8
0
  6
Continuous
 62
     0
370
    18
100
AcDbLine
 10
-5.0
 20
0.0
 30
0.0
 11
-30.7983402422
 21
0.0
 31
0.0
  0
LINE
  5
1EA
330
1E1
100
AcDbEntity
  8
0
  6
Continuous
 62
     0
370
    18
100
AcDbLine
 10
0.0
 20
-5.0
 30
0.0
 11
0.0
 21
-12.3280601608
 31
0.0
  0
LINE
  5
1EB
330
1E1
100
AcDbEntity
  8
0
  6
Continuous
 62
     0
370
    18
100
AcDbLine
 10
5.0
 20
0.0
 30
0.0
 11
30.641979532
 21
0.0
 31
0.0
  0
ENDBLK
  5
1E3
330
1E1
100
AcDbEntity
  8
0
100
AcDbBlockEnd
  0
ENDSEC
  0
SECTION
  2
ENTITIES
  0
MTEXT
  5
74
330
1F
100
AcDbEntity
  8
0
  6
Continuous
 62
     7
370
     0
100
AcDbMText
 10
147.2920362301
 20
117.5974195562
 30
0.0
 40
5.2916666667
 41
0.0
 71
     1
 72
     1
  1
5R-TK1334
  7
SLDTEXTSTYLE0
 73
     1
 44
1.0
  0
LINE
  5
75
330
1F
100
AcDbEntity
  8
0
  6
Continuous
 62
     7
370
    25
100
AcDbLine
 10
144.5644881687
 20
79.8308259311
 30
0.0
 11
132.0644889138
 21
79.8308259311
 31
0.0
  0
LINE
  5
76
330
1F
100
AcDbEntity
  8
0
  6
Continuous
 62
     7
370
    25
100
AcDbLine
 10
132.0644889138
 20
57.330825037
 30
0.0
 11
144.5644881687
 21
57.330825037
 31
0.0
  0
ARC
  5
77
330
1F
100
AcDbEntity
  8
0
  6
Continuous
 62
     7
370
    25
100
AcDbCircle
 10
132.0644881538
 20
78.830825484
 30
0.0
 40
1.0
100
AcDbArc
 50
90.0
 51
180.0
  0
ARC
  5
78
330
1F
100
AcDbEntity
  8
0
  6
Continuous
 62
     7
370
    25
100
AcDbCircle
 10
132.0644881538
 20
58.330825484
 30
0.0
 40
1.0
100
AcDbArc
 50
180.0
 51
270.0
  0
LINE
  5
79
330
1F
100
AcDbEntity
  8
0
  6
Continuous
 62
     7
370
    25
100
AcDbLine
 10
144.5644881687
 20
57.330825037
 30
0.0
 11
145.0644873194
 21
57.830825119
 31
0.0
  0
LINE
  5
7A
330
1F
100
AcDbEntity
  8
0
  6
Continuous
 62
     7
370
    25
100
AcDbLine
 10
145.0644873194
 20
79.3308258491
 30
0.0
 11
144.5644881687
 21
79.8308259311
 31
0.0
  0
LINE
  5
7B
330
1F
100
AcDbEntity
  8
0
  6
Continuous
 62
     7
370
    25
100
AcDbLine
 10
87.5644881389
 20
79.8308259311
 30
0.0
 11
87.0644889883
 21
79.3308258491
 31
0.0
  0
LINE
  5
7C
330
1F
100
AcDbEntity
  8
0
  6
Continuous
 62
     7
370
    25
100
AcDbLine
 10
87.0644889883
 20
57.830825119
 30
0.0
 11
87.5644881389
 21
57.330825037
 31
0.0
  0
LINE
  5
7D
330
1F
100
AcDbEntity
  8
0
  6
Continuous
 62
     7
370
    25
100
AcDbLine
 10
87.5644881389
 20
57.330825037
 30
0.0
 11
100.0644873939
 21
57.330825037
 31
0.0
  0
LINE
  5
7E
330
1F
100
AcDbEntity
  8
0
  6
Continuous
 62
     7
370
    25
100
AcDbLine
 10
100.0644873939
 20
79.8308259311
 30
0.0
 11
87.5644881389
 21
79.8308259311
 31
0.0
  0
ARC
  5
7F
330
1F
100
AcDbEntity
  8
0
  6
Continuous
 62
     7
370
    25
100
AcDbCircle
 10
100.0644881538
 20
58.330825484
 30
0.0
 40
1.0
100
AcDbArc
 50
270.0
 51
0.0
  0
ARC
  5
80
330
1F
100
AcDbEntity
  8
0
  6
Continuous
 62
     7
370
    25
100
AcDbCircle
 10
100.0644881538
 20
78.830825484
 30
0.0
 40
1.0
100
AcDbArc
 50
0.0
 51
90.0
  0
LINE
  5
81
330
1F
100
AcDbEntity
  8
0
  6
Continuous
 62
     7
370
    25
100
AcDbLine
 10
126.7217790819
 20
83.6675266238
 30
0.0
 11
126.3712506852
 21
94.8844334545
 31
0.0
  0
LINE
  5
82
330
1F
100
AcDbEntity
  8
0
  6
Continuous
 62
     7
370
    25
100
AcDbLine
 10
105.7577256224
 20
94.8844334545
 30
0.0
 11
105.4071972258
 21
83.6675266238
 31
0.0
  0
ARC
  5
83
330
1F
100
AcDbEntity
  8
0
  6
Continuous
 62
     7
370
    25
100
AcDbCircle
 10
105.8144881538
 20
84.580825484
 30
0.0
 40
1.0
100
AcDbArc
 50
245.9652533387
 51
270.0
  0
ARC
  5
84
330
1F
100
AcDbEntity
  8
0
  6
Continuous
 62
     7
370
    25
100
AcDbCircle
 10
126.3144881538
 20
84.580825484
 30
0.0
 40
1.000000000000005
100
AcDbArc
 50
270.0
 51
294.0347466613
  0
LINE
  5
85
330
1F
100
AcDbEntity
  8
0
  6
Continuous
 62
     7
370
    25
100
AcDbLine
 10
126.3712506852
 20
94.8844334545
 30
0.0
 11
124.8144881911
 21
97.5808246496
 31
0.0
  0
LINE
  5
86
330
1F
100
AcDbEntity
  8
0
  6
Continuous
 62
     7
370
    25
100
AcDbLine
 10
107.3144881166
 20
97.5808246496
 30
0.0
 11
105.7577256224
 21
94.8844334545
 31
0.0
  0
ARC
  5
87
330
1F
100
AcDbEntity
  8
0
  6
Continuous
 62
     7
370
    25
100
AcDbCircle
 10
102.0644881538
 20
59.080825484
 30
0.0
 40
1.0
100
AcDbArc
 50
90.0
 51
180.0
  0
ARC
  5
88
330
1F
100
AcDbEntity
  8
0
  6
Continuous
 62
     7
370
    25
100
AcDbCircle
 10
102.0644881538
 20
78.080825484
 30
0.0
 40
1.000000000000014
100
AcDbArc
 50
180.0
 51
270.0
  0
ARC
  5
89
330
1F
100
AcDbEntity
  8
0
  6
Continuous
 62
     7
370
    25
100
AcDbCircle
 10
106.5644881538
 20
82.580825484
 30
0.0
 40
1.0
100
AcDbArc
 50
0.0
 51
90.0
  0
ARC
  5
8A
330
1F
100
AcDbEntity
  8
0
  6
Continuous
 62
     7
370
    25
100
AcDbCircle
 10
125.5644881538
 20
82.580825484
 30
0.0
 40
1.0
100
AcDbArc
 50
90.0
 51
180.0
  0
ARC
  5
8B
330
1F
100
AcDbEntity
  8
0
  6
Continuous
 62
     7
370
    25
100
AcDbCircle
 10
130.0644881538
 20
78.080825484
 30
0.0
 40
1.000000000000014
100
AcDbArc
 50
270.0
 51
0.0
  0
ARC
  5
8C
330
1F
100
AcDbEntity
  8
0
  6
Continuous
 62
     7
370
    25
100
AcDbCircle
 10
130.0644881538
 20
59.080825484
 30
0.0
 40
1.0
100
AcDbArc
 50
0.0
 51
90.0
  0
LINE
  5
8D
330
1F
100
AcDbEntity
  8
0
  6
Continuous
 62
     7
370
    25
100
AcDbLine
 10
107.0644885413
 20
77.080825946
 30
0.0
 11
102.0644877217
 21
77.080825946
 31
0.0
  0
LINE
  5
8E
330
1F
100
AcDbEntity
  8
0
  6
Continuous
 62
     7
370
    25
100
AcDbLine
 10
130.064488586
 20
77.080825946
 30
0.0
 11
125.0644877664
 21
77.080825946
 31
0.0
  0
LINE
  5
8F
330
1F
100
AcDbEntity
  8
0
  6
Continuous
 62
     7
370
    25
100
AcDbLine
 10
102.0644877217
 20
60.0808250221
 30
0.0
 11
130.064488586
 21
60.0808250221
 31
0.0
  0
LINE
  5
90
330
1F
100
AcDbEntity
  8
0
  6
Continuous
 62
     7
370
    25
100
AcDbLine
 10
124.5644886158
 20
77.5808250966
 30
0.0
 11
124.5644886158
 21
82.5808259162
 31
0.0
  0
LINE
  5
91
330
1F
100
AcDbEntity
  8
0
  6
Continuous
 62
     7
370
    25
100
AcDbLine
 10
107.5644876919
 20
82.5808259162
 30
0.0
 11
107.5644876919
 21
77.5808250966
 31
0.0
  0
ARC
  5
92
330
1F
100
AcDbEntity
  8
0
  6
Continuous
 62
     7
370
    25
100
AcDbCircle
 10
125.0644881538
 20
77.580825484
 30
0.0
 40
0.5000000000000019
100
AcDbArc
 50
181.6119871608
 51
268.2801185035
  0
ARC
  5
93
330
1F
100
AcDbEntity
  8
0
  6
Continuous
 62
     7
370
    25
100
AcDbCircle
 10
107.0644881538
 20
77.580825484
 30
0.0
 40
0.5000000000000014
100
AcDbArc
 50
271.6119871608
 51
358.2801185035
  0
LINE
  5
94
330
1F
100
AcDbEntity
  8
0
  6
Continuous
 62
     7
370
    25
100
AcDbLine
 10
144.5644881687
 20
57.330825037
 30
0.0
 11
144.5644881687
 21
79.8308259311
 31
0.0
  0
LINE
  5
95
330
1F
100
AcDbEntity
  8
0
  6
Continuous
 62
     7
370
    25
100
AcDbLine
 10
131.0644878185
 20
58.3308252009
 30
0.0
 11
131.0644878185
 21
78.8308257672
 31
0.0
  0
LINE
  5
96
330
1F
100
AcDbEntity
  8
0
  6
Continuous
 62
     7
370
    25
100
AcDbLine
 10
145.0644873194
 20
79.3308258491
 30
0.0
 11
145.0644873194
 21
57.830825119
 31
0.0
  0
LINE
  5
97
330
1F
100
AcDbEntity
  8
0
  6
Continuous
 62
     7
370
    25
100
AcDbLine
 10
87.5644881389
 20
68.580825484
 30
0.0
 11
87.5644881389
 21
57.330825037
 31
0.0
  0
LINE
  5
98
330
1F
100
AcDbEntity
  8
0
  6
Continuous
 62
     7
370
    25
100
AcDbLine
 10
87.5644881389
 20
79.8308259311
 30
0.0
 11
87.5644881389
 21
68.580825484
 31
0.0
  0
LINE
  5
99
330
1F
100
AcDbEntity
  8
0
  6
Continuous
 62
     7
370
    25
100
AcDbLine
 10
87.0644889883
 20
68.580825484
 30
0.0
 11
87.0644889883
 21
79.3308258491
 31
0.0
  0
LINE
  5
9A
330
1F
100
AcDbEntity
  8
0
  6
Continuous
 62
     7
370
    25
100
AcDbLine
 10
87.0644889883
 20
57.830825119
 30
0.0
 11
87.0644889883
 21
68.580825484
 31
0.0
  0
LINE
  5
9B
330
1F
100
AcDbEntity
  8
0
  6
Continuous
 62
     7
370
    25
100
AcDbLine
 10
101.0644884891
 20
68.580825484
 30
0.0
 11
101.0644884891
 21
58.3308252009
 31
0.0
  0
LINE
  5
9C
330
1F
100
AcDbEntity
  8
0
  6
Continuous
 62
     7
370
    25
100
AcDbLine
 10
101.0644884891
 20
78.8308257672
 30
0.0
 11
101.0644884891
 21
68.580825484
 31
0.0
  0
LINE
  5
9D
330
1F
100
AcDbEntity
  8
0
  6
Continuous
 62
     7
370
    25
100
AcDbLine
 10
126.3712506852
 20
94.8844334545
 30
0.0
 11
105.7577256224
 21
94.8844334545
 31
0.0
  0
LINE
  5
9E
330
1F
100
AcDbEntity
  8
0
  6
Continuous
 62
     7
370
    25
100
AcDbLine
 10
126.7217790819
 20
83.6675266238
 30
0.0
 11
105.4071972258
 21
83.6675266238
 31
0.0
  0
LINE
  5
9F
330
1F
100
AcDbEntity
  8
0
  6
Continuous
 62
     7
370
    25
100
AcDbLine
 10
126.3144884369
 20
83.5808251488
 30
0.0
 11
105.8144878707
 21
83.5808251488
 31
0.0
  0
LINE
  5
A0
330
1F
100
AcDbEntity
  8
0
  6
Continuous
 62
     7
370
    25
100
AcDbLine
 10
107.3144881166
 20
97.5808246496
 30
0.0
 11
124.8144881911
 21
97.5808246496
 31
0.0
  0
ARC
  5
A1
330
1F
100
AcDbEntity
  8
0
  6
Continuous
 62
     7
370
    25
100
AcDbCircle
 10
125.081178074
 20
64.7771074834
 30
0.0
 40
1.103911594455083
100
AcDbArc
 50
98.7690151238
 51
122.4606473444
  0
SPLINE
  5
A2
330
1F
100
AcDbEntity
  8
0
  6
Continuous
 62
     7
370
    25
100
AcDbSpline
210
0.0
220
0.0
230
1.0
 70
     8
 71
     3
 72
    12
 73
     8
 74
     0
 42
0.000000001
 43
0.00000001
 40
0.0
 40
0.0
 40
0.0
 40
0.0
 40
0.2500000000000002
 40
0.2500000000000002
 40
0.5000000000000001
 40
0.5000000000000001
 40
1.0
 40
1.0
 40
1.0
 40
1.0
 10
124.4886864782695
 20
65.70854416076796
 30
0.0
 10
124.4664196361156
 20
65.94595671888825
 30
0.0
 10
124.4593816034612
 20
66.18406673305485
 30
0.0
 10
124.4585064819768
 20
66.66176486031688
 30
0.0
 10
124.4651704759258
 20
66.90138771693348
 30
0.0
 10
124.4958228253441
 20
67.62010347106947
 30
0.0
 10
124.5304315081949
 20
68.10092043570839
 30
0.0
 10
124.5644881538222
 20
68.5808254840369
 30
0.0
  0
SPLINE
  5
A3
330
1F
100
AcDbEntity
  8
0
  6
Continuous
 62
     7
370
    25
100
AcDbSpline
210
0.0
220
0.0
230
1.0
 70
     8
 71
     3
 72
    12
 73
     8
 74
     0
 42
0.000000001
 43
0.00000001
 40
0.0
 40
0.0
 40
0.0
 40
0.0
 40
0.2499999999999999
 40
0.2499999999999999
 40
0.5
 40
0.5
 40
1.0
 40
1.0
 40
1.0
 40
1.0
 10
124.9128848027169
 20
65.86811534539402
 30
0.0
 10
124.8647766940725
 20
66.08435292993225
 30
0.0
 10
124.8285636366083
 20
66.30411852532589
 30
0.0
 10
124.7634594269554
 20
66.74856151144259
 30
0.0
 10
124.7352192466671
 20
66.97332153541883
 30
0.0
 10
124.6559544153941
 20
67.65428544051701
 30
0.0
 10
124.6100890321964
 20
68.1206683676113
 30
0.0
 10
124.5644881538222
 20
68.5808254840369
 30
0.0
  0
SPLINE
  5
A4
330
1F
100
AcDbEntity
  8
0
  6
Continuous
 62
     7
370
    25
100
AcDbSpline
210
0.0
220
0.0
230
1.0
 70
     8
 71
     3
 72
    16
 73
    12
 74
     0
 42
0.000000001
 43
0.00000001
 40
0.0
 40
0.0
 40
0.0
 40
0.0
 40
0.2500000000000001
 40
0.2500000000000001
 40
0.5000000000000001
 40
0.5000000000000001
 40
0.7500000000000002
 40
0.7500000000000002
 40
0.8750000000000001
 40
0.8750000000000001
 40
1.0
 40
1.0
 40
1.0
 40
1.0
 10
124.0644881538222
 20
65.70854416076787
 30
0.0
 10
124.0644881538222
 20
65.95483949303168
 30
0.0
 10
124.0844199395093
 20
66.19835942780567
 30
0.0
 10
124.1450264861129
 20
66.68104540118092
 30
0.0
 10
124.1861369935581
 20
66.92048586995561
 30
0.0
 10
124.2805134499573
 20
67.39722694961871
 30
0.0
 10
124.3338788118136
 20
67.63451005974562
 30
0.0
 10
124.4181859717482
 20
67.98968494506039
 30
0.0
 10
124.44701084859
 20
68.10794938549444
 30
0.0
 10
124.5053699271555
 20
68.34435339599553
 30
0.0
 10
124.5346210483736
 20
68.46135586755197
 30
0.0
 10
124.5644881538222
 20
68.5808254840369
 30
0.0
  0
LINE
  5
A5
330
1F
100
AcDbEntity
  8
0
  6
Continuous
 62
     7
370
    25
100
AcDbLine
 10
124.4886864088
 20
65.7085442419
 30
0.0
 11
124.0644885338
 21
65.7085442419
 31
0.0
  0
ARC
  5
A6
330
1F
100
AcDbEntity
  8
0
  6
Continuous
 62
     7
370
    25
100
AcDbCircle
 10
107.0477982336
 20
72.3845434846
 30
0.0
 40
1.103911594455097
100
AcDbArc
 50
278.7690151238
 51
302.4606473444
  0
SPLINE
  5
A7
330
1F
100
AcDbEntity
  8
0
  6
Continuous
 62
     7
370
    25
100
AcDbSpline
210
0.0
220
0.0
230
1.0
 70
     8
 71
     3
 72
    12
 73
     8
 74
     0
 42
0.000000001
 43
0.00000001
 40
0.0
 40
0.0
 40
0.0
 40
0.0
 40
0.2500000000000002
 40
0.2500000000000002
 40
0.5000000000000001
 40
0.5000000000000001
 40
1.0
 40
1.0
 40
1.0
 40
1.0
 10
107.6402898293748
 20
71.45310680730582
 30
0.0
 10
107.6625566715287
 20
71.21569424918562
 30
0.0
 10
107.6695947041832
 20
70.97758423501908
 30
0.0
 10
107.6704698256676
 20
70.49988610775719
 30
0.0
 10
107.6638058317185
 20
70.26026325114066
 30
0.0
 10
107.6331534823003
 20
69.54154749700488
 30
0.0
 10
107.5985447991757
 20
69.06073053238468
 30
0.0
 10
107.5644881538222
 20
68.5808254840369
 30
0.0
  0
SPLINE
  5
A8
330
1F
100
AcDbEntity
  8
0
  6
Continuous
 62
     7
370
    25
100
AcDbSpline
210
0.0
220
0.0
230
1.0
 70
     8
 71
     3
 72
    12
 73
     8
 74
     0
 42
0.000000001
 43
0.00000001
 40
0.0
 40
0.0
 40
0.0
 40
0.0
 40
0.2499999999999998
 40
0.2499999999999998
 40
0.4999999999999999
 40
0.4999999999999999
 40
1.0
 40
1.0
 40
1.0
 40
1.0
 10
107.2160915049274
 20
71.29353562267974
 30
0.0
 10
107.2640890767664
 20
71.07779488186453
 30
0.0
 10
107.3003276506655
 20
70.85808906158918
 30
0.0
 10
107.3655326058918
 20
70.4130058656734
 30
0.0
 10
107.393899663152
 20
70.18720451698519
 30
0.0
 10
107.4733564386413
 20
69.50428990550617
 30
0.0
 10
107.5188024184918
 20
69.04183891281639
 30
0.0
 10
107.5644881538222
 20
68.5808254840369
 30
0.0
  0
SPLINE
  5
A9
330
1F
100
AcDbEntity
  8
0
  6
Continuous
 62
     7
370
    25
100
AcDbSpline
210
0.0
220
0.0
230
1.0
 70
     8
 71
     3
 72
    16
 73
    12
 74
     0
 42
0.000000001
 43
0.00000001
 40
0.0
 40
0.0
 40
0.0
 40
0.0
 40
0.2499999999999999
 40
0.2499999999999999
 40
0.5
 40
0.5
 40
0.7500000000000001
 40
0.7500000000000001
 40
0.875
 40
0.875
 40
1.0
 40
1.0
 40
1.0
 40
1.0
 10
108.0644881538222
 20
71.4531068073059
 30
0.0
 10
108.0644881538222
 20
71.20681147504214
 30
0.0
 10
108.044556368135
 20
70.9632915402681
 30
0.0
 10
107.9839498215315
 20
70.48060556689283
 30
0.0
 10
107.9428393140863
 20
70.24116509811815
 30
0.0
 10
107.8484628576871
 20
69.76442401845506
 30
0.0
 10
107.7950974958308
 20
69.52714090832815
 30
0.0
 10
107.7107903358962
 20
69.1719660230134
 30
0.0
 10
107.6819654590543
 20
69.05370158257935
 30
0.0
 10
107.6236063804888
 20
68.81729757207826
 30
0.0
 10
107.5943552592707
 20
68.70029510052181
 30
0.0
 10
107.5644881538222
 20
68.5808254840369
 30
0.0
  0
LINE
  5
AA
330
1F
100
AcDbEntity
  8
0
  6
Continuous
 62
     7
370
    25
100
AcDbLine
 10
107.6402898989
 20
71.4531067262
 30
0.0
 11
108.0644877738
 21
71.4531067262
 31
0.0
  0
ARC
  5
AB
330
1F
100
AcDbEntity
  8
0
  6
Continuous
 62
     7
370
    25
100
AcDbCircle
 10
119.8682171777
 20
77.0975194689
 30
0.0
 40
1.103923121047331
100
AcDbArc
 50
188.7691406047
 51
212.4605218635
  0
SPLINE
  5
AC
330
1F
100
AcDbEntity
  8
0
  6
Continuous
 62
     7
370
    25
100
AcDbSpline
210
0.0
220
0.0
230
1.0
 70
     8
 71
     3
 72
    12
 73
     8
 74
     0
 42
0.000000001
 43
0.00000001
 40
0.0
 40
0.0
 40
0.0
 40
0.0
 40
0.2500000000000002
 40
0.2500000000000002
 40
0.5000000000000001
 40
0.5000000000000001
 40
1.0
 40
1.0
 40
1.0
 40
1.0
 10
118.9367694770912
 20
76.50502380848425
 30
0.0
 10
118.699356918971
 20
76.48275696633034
 30
0.0
 10
118.4612469048044
 20
76.4757189336759
 30
0.0
 10
117.9835487775425
 20
76.47484381219148
 30
0.0
 10
117.743925920926
 20
76.48150780614054
 30
0.0
 10
117.0252101667902
 20
76.51216015555879
 30
0.0
 10
116.54439320217
 20
76.54676883868319
 30
0.0
 10
116.0644881538222
 20
76.5808254840369
 30
0.0
  0
SPLINE
  5
AD
330
1F
100
AcDbEntity
  8
0
  6
Continuous
 62
     7
370
    25
100
AcDbSpline
210
0.0
220
0.0
230
1.0
 70
     8
 71
     3
 72
    12
 73
     8
 74
     0
 42
0.000000001
 43
0.00000001
 40
0.0
 40
0.0
 40
0.0
 40
0.0
 40
0.2500000000000002
 40
0.2500000000000002
 40
0.5000000000000001
 40
0.5000000000000001
 40
1.0
 40
1.0
 40
1.0
 40
1.0
 10
118.7771982924651
 20
76.92922213293164
 30
0.0
 10
118.5614575516499
 20
76.88122456109265
 30
0.0
 10
118.3417517313745
 20
76.84498598719357
 30
0.0
 10
117.8966685354587
 20
76.77978103196725
 30
0.0
 10
117.6708671867705
 20
76.7514139747071
 30
0.0
 10
116.9879525752915
 20
76.67195719921772
 30
0.0
 10
116.5255015826017
 20
76.62651121936739
 30
0.0
 10
116.0644881538222
 20
76.5808254840369
 30
0.0
  0
SPLINE
  5
AE
330
1F
100
AcDbEntity
  8
0
  6
Continuous
 62
     7
370
    25
100
AcDbSpline
210
0.0
220
0.0
230
1.0
 70
     8
 71
     3
 72
    16
 73
    12
 74
     0
 42
0.000000001
 43
0.00000001
 40
0.0
 40
0.0
 40
0.0
 40
0.0
 40
0.2500000000000002
 40
0.2500000000000002
 40
0.5000000000000002
 40
0.5000000000000002
 40
0.7500000000000002
 40
0.7500000000000002
 40
0.8750000000000001
 40
0.8750000000000001
 40
1.0
 40
1.0
 40
1.0
 40
1.0
 10
118.9367694770912
 20
76.0808254840369
 30
0.0
 10
118.6904741448274
 20
76.0808254840369
 30
0.0
 10
118.4469542100534
 20
76.10075726972406
 30
0.0
 10
117.9642682366781
 20
76.16136381632762
 30
0.0
 10
117.7248277679034
 20
76.20247432377279
 30
0.0
 10
117.2480866882403
 20
76.296850780172
 30
0.0
 10
117.0108035781134
 20
76.35021614202829
 30
0.0
 10
116.6556286927987
 20
76.43452330196288
 30
0.0
 10
116.5373642523646
 20
76.46334817880474
 30
0.0
 10
116.3009602418635
 20
76.52170725737024
 30
0.0
 10
116.1839577703071
 20
76.55095837858832
 30
0.0
 10
116.0644881538222
 20
76.5808254840369
 30
0.0
  0
LINE
  5
AF
330
1F
100
AcDbEntity
  8
0
  6
Continuous
 62
     7
370
    25
100
AcDbLine
 10
118.936769396
 20
76.0808253164
 30
0.0
 11
118.936769396
 21
76.505023657
 31
0.0
  0
ARC
  5
B0
330
1F
100
AcDbEntity
  8
0
  6
Continuous
 62
     7
370
    25
100
AcDbCircle
 10
112.2607591299
 20
77.0975194689
 30
0.0
 40
1.103923121047319
100
AcDbArc
 50
327.5394781365
 51
351.2308593953
  0
SPLINE
  5
B1
330
1F
100
AcDbEntity
  8
0
  6
Continuous
 62
     7
370
    25
100
AcDbSpline
210
0.0
220
0.0
230
1.0
 70
     8
 71
     3
 72
    12
 73
     8
 74
     0
 42
0.000000001
 43
0.00000001
 40
0.0
 40
0.0
 40
0.0
 40
0.0
 40
0.2499999999999999
 40
0.2499999999999999
 40
0.4999999999999998
 40
0.4999999999999998
 40
1.0
 40
1.0
 40
1.0
 40
1.0
 10
113.3517780151793
 20
76.92922213293163
 30
0.0
 10
113.5680155996443
 20
76.88111402430353
 30
0.0
 10
113.7877811949623
 20
76.84490096684814
 30
0.0
 10
114.2322241809249
 20
76.77979675721119
 30
0.0
 10
114.4569842048226
 20
76.75155657692927
 30
0.0
 10
115.1379481096809
 20
76.67229174567511
 30
0.0
 10
115.604331037558
 20
76.62642636238338
 30
0.0
 10
116.0644881538222
 20
76.5808254840369
 30
0.0
  0
SPLINE
  5
B2
330
1F
100
AcDbEntity
  8
0
  6
Continuous
 62
     7
370
    25
100
AcDbSpline
210
0.0
220
0.0
230
1.0
 70
     8
 71
     3
 72
    12
 73
     8
 74
     0
 42
0.000000001
 43
0.00000001
 40
0.0
 40
0.0
 40
0.0
 40
0.0
 40
0.2500000000000001
 40
0.2500000000000001
 40
0.5000000000000002
 40
0.5000000000000002
 40
1.0
 40
1.0
 40
1.0
 40
1.0
 10
113.1922068305532
 20
76.50502380848425
 30
0.0
 10
113.4296193886556
 20
76.48275696633202
 30
0.0
 10
113.6677294028042
 20
76.47571893367707
 30
0.0
 10
114.1454275300301
 20
76.47484381219051
 30
0.0
 10
114.3850503866286
 20
76.48150780613784
 30
0.0
 10
115.1037661407104
 20
76.51216015555042
 30
0.0
 10
115.5845831055137
 20
76.54676883866215
 30
0.0
 10
116.0644881538222
 20
76.5808254840369
 30
0.0
  0
LINE
  5
B3
330
1F
100
AcDbEntity
  8
0
  6
Continuous
 62
     7
370
    25
100
AcDbLine
 10
113.1922069117
 20
76.0808253164
 30
0.0
 11
113.1922069117
 21
76.505023657
 31
0.0
  0
SPLINE
  5
B4
330
1F
100
AcDbEntity
  8
0
  6
Continuous
 62
     7
370
    25
100
AcDbSpline
210
0.0
220
0.0
230
1.0
 70
     8
 71
     3
 72
    16
 73
    12
 74
     0
 42
0.000000001
 43
0.00000001
 40
0.0
 40
0.0
 40
0.0
 40
0.0
 40
0.2500000000000003
 40
0.2500000000000003
 40
0.5000000000000006
 40
0.5000000000000006
 40
0.7500000000000006
 40
0.7500000000000006
 40
0.8750000000000003
 40
0.8750000000000003
 40
1.0
 40
1.0
 40
1.0
 40
1.0
 10
113.1922068305532
 20
76.0808254840369
 30
0.0
 10
113.438502162817
 20
76.0808254840369
 30
0.0
 10
113.6820220975909
 20
76.10075726972406
 30
0.0
 10
114.1647080709662
 20
76.16136381632761
 30
0.0
 10
114.4041485397409
 20
76.20247432377279
 30
0.0
 10
114.880889619404
 20
76.296850780172
 30
0.0
 10
115.1181727295309
 20
76.35021614202829
 30
0.0
 10
115.4733476148457
 20
76.43452330196287
 30
0.0
 10
115.5916120552797
 20
76.46334817880474
 30
0.0
 10
115.8280160657808
 20
76.52170725737024
 30
0.0
 10
115.9450185373372
 20
76.55095837858833
 30
0.0
 10
116.0644881538222
 20
76.5808254840369
 30
0.0
  0
ARC
  5
B5
330
1F
100
AcDbEntity
  8
0
  6
Continuous
 62
     7
370
    25
100
AcDbCircle
 10
125.081178074
 20
72.3845434846
 30
0.0
 40
1.103911594455097
100
AcDbArc
 50
237.5393526556
 51
261.2309848762
  0
SPLINE
  5
B6
330
1F
100
AcDbEntity
  8
0
  6
Continuous
 62
     7
370
    25
100
AcDbSpline
210
0.0
220
0.0
230
1.0
 70
     8
 71
     3
 72
    12
 73
     8
 74
     0
 42
0.000000001
 43
0.00000001
 40
0.0
 40
0.0
 40
0.0
 40
0.0
 40
0.2499999999999999
 40
0.2499999999999999
 40
0.5
 40
0.5
 40
1.0
 40
1.0
 40
1.0
 40
1.0
 10
124.9128848027169
 20
71.29353562267981
 30
0.0
 10
124.8649266470451
 20
71.07797205068333
 30
0.0
 10
124.8286442319508
 20
70.85810203906156
 30
0.0
 10
124.7633223549147
 20
70.41213429744728
 30
0.0
 10
124.7349618389602
 20
70.18624107157335
 30
0.0
 10
124.6557054323981
 20
69.5049786727579
 30
0.0
 10
124.6102346552711
 20
69.04245210208738
 30
0.0
 10
124.5644881538222
 20
68.5808254840369
 30
0.0
  0
SPLINE
  5
B7
330
1F
100
AcDbEntity
  8
0
  6
Continuous
 62
     7
370
    25
100
AcDbSpline
210
0.0
220
0.0
230
1.0
 70
     8
 71
     3
 72
    12
 73
     8
 74
     0
 42
0.000000001
 43
0.00000001
 40
0.0
 40
0.0
 40
0.0
 40
0.0
 40
0.25
 40
0.25
 40
0.5
 40
0.5
 40
1.0
 40
1.0
 40
1.0
 40
1.0
 10
124.4886864782695
 20
71.45310680730589
 30
0.0
 10
124.4664196361173
 20
71.21569424920348
 30
0.0
 10
124.4593816034624
 20
70.97758423505486
 30
0.0
 10
124.4585064819758
 20
70.49988610782903
 30
0.0
 10
124.4651704759231
 20
70.26026325123067
 30
0.0
 10
124.4958228253357
 20
69.5415474971495
 30
0.0
 10
124.5304315081858
 20
69.06073053232682
 30
0.0
 10
124.5644881538222
 20
68.5808254840369
 30
0.0
  0
LINE
  5
B8
330
1F
100
AcDbEntity
  8
0
  6
Continuous
 62
     7
370
    25
100
AcDbLine
 10
124.0644885338
 20
71.4531067262
 30
0.0
 11
124.4886864088
 21
71.4531067262
 31
0.0
  0
SPLINE
  5
B9
330
1F
100
AcDbEntity
  8
0
  6
Continuous
 62
     7
370
    25
100
AcDbSpline
210
0.0
220
0.0
230
1.0
 70
     8
 71
     3
 72
    16
 73
    12
 74
     0
 42
0.000000001
 43
0.00000001
 40
0.0
 40
0.0
 40
0.0
 40
0.0
 40
0.2500000000000002
 40
0.2500000000000002
 40
0.5000000000000002
 40
0.5000000000000002
 40
0.7500000000000002
 40
0.7500000000000002
 40
0.8750000000000001
 40
0.8750000000000001
 40
1.0
 40
1.0
 40
1.0
 40
1.0
 10
124.0644881538222
 20
71.4531068073059
 30
0.0
 10
124.0644881538222
 20
71.20681147504214
 30
0.0
 10
124.0844199395093
 20
70.96329154026812
 30
0.0
 10
124.1450264861129
 20
70.48060556689283
 30
0.0
 10
124.1861369935581
 20
70.24116509811815
 30
0.0
 10
124.2805134499573
 20
69.76442401845506
 30
0.0
 10
124.3338788118136
 20
69.52714090832815
 30
0.0
 10
124.4181859717482
 20
69.1719660230134
 30
0.0
 10
124.44701084859
 20
69.05370158257935
 30
0.0
 10
124.5053699271555
 20
68.81729757207826
 30
0.0
 10
124.5346210483736
 20
68.70029510052181
 30
0.0
 10
124.5644881538222
 20
68.5808254840369
 30
0.0
  0
ARC
  5
BA
330
1F
100
AcDbEntity
  8
0
  6
Continuous
 62
     7
370
    25
100
AcDbCircle
 10
107.0477982336
 20
64.7771074834
 30
0.0
 40
1.103911594455083
100
AcDbArc
 50
57.5393526556
 51
81.2309848762
  0
SPLINE
  5
BB
330
1F
100
AcDbEntity
  8
0
  6
Continuous
 62
     7
370
    25
100
AcDbSpline
210
0.0
220
0.0
230
1.0
 70
     8
 71
     3
 72
    12
 73
     8
 74
     0
 42
0.000000001
 43
0.00000001
 40
0.0
 40
0.0
 40
0.0
 40
0.0
 40
0.2499999999999999
 40
0.2499999999999999
 40
0.4999999999999998
 40
0.4999999999999998
 40
1.0
 40
1.0
 40
1.0
 40
1.0
 10
107.2160915049274
 20
65.86811534539405
 30
0.0
 10
107.2641996135555
 20
66.08435292985901
 30
0.0
 10
107.3004126710109
 20
66.30411852517705
 30
0.0
 10
107.3655168806479
 20
66.74856151113967
 30
0.0
 10
107.3937570609298
 20
66.97332153503733
 30
0.0
 10
107.4730218921839
 20
67.6542854398956
 30
0.0
 10
107.5188872754757
 20
68.12066836777277
 30
0.0
 10
107.5644881538222
 20
68.5808254840369
 30
0.0
  0
SPLINE
  5
BC
330
1F
100
AcDbEntity
  8
0
  6
Continuous
 62
     7
370
    25
100
AcDbSpline
210
0.0
220
0.0
230
1.0
 70
     8
 71
     3
 72
    12
 73
     8
 74
     0
 42
0.000000001
 43
0.00000001
 40
0.0
 40
0.0
 40
0.0
 40
0.0
 40
0.2500000000000001
 40
0.2500000000000001
 40
0.5000000000000001
 40
0.5000000000000001
 40
1.0
 40
1.0
 40
1.0
 40
1.0
 10
107.6402898293748
 20
65.7085441607679
 30
0.0
 10
107.662556671527
 20
65.94595671887032
 30
0.0
 10
107.669594704182
 20
66.18406673301897
 30
0.0
 10
107.6704698256685
 20
66.66176486024484
 30
0.0
 10
107.6638058317212
 20
66.90138771684337
 30
0.0
 10
107.6331534823086
 20
67.62010347092512
 30
0.0
 10
107.5985447991969
 20
68.10092043572837
 30
0.0
 10
107.5644881538222
 20
68.5808254840369
 30
0.0
  0
LINE
  5
BD
330
1F
100
AcDbEntity
  8
0
  6
Continuous
 62
     7
370
    25
100
AcDbLine
 10
108.0644877738
 20
65.7085442419
 30
0.0
 11
107.6402898989
 21
65.7085442419
 31
0.0
  0
SPLINE
  5
BE
330
1F
100
AcDbEntity
  8
0
  6
Continuous
 62
     7
370
    25
100
AcDbSpline
210
0.0
220
0.0
230
1.0
 70
     8
 71
     3
 72
    16
 73
    12
 74
     0
 42
0.000000001
 43
0.00000001
 40
0.0
 40
0.0
 40
0.0
 40
0.0
 40
0.2500000000000001
 40
0.2500000000000001
 40
0.5000000000000001
 40
0.5000000000000001
 40
0.7500000000000002
 40
0.7500000000000002
 40
0.8750000000000001
 40
0.8750000000000001
 40
1.0
 40
1.0
 40
1.0
 40
1.0
 10
108.0644881538222
 20
65.70854416076787
 30
0.0
 10
108.0644881538222
 20
65.95483949303168
 30
0.0
 10
108.044556368135
 20
66.19835942780567
 30
0.0
 10
107.9839498215315
 20
66.68104540118092
 30
0.0
 10
107.9428393140863
 20
66.92048586995561
 30
0.0
 10
107.8484628576871
 20
67.39722694961871
 30
0.0
 10
107.7950974958308
 20
67.63451005974562
 30
0.0
 10
107.7107903358962
 20
67.98968494506039
 30
0.0
 10
107.6819654590543
 20
68.10794938549444
 30
0.0
 10
107.6236063804888
 20
68.34435339599553
 30
0.0
 10
107.5943552592707
 20
68.46135586755197
 30
0.0
 10
107.5644881538222
 20
68.5808254840369
 30
0.0
  0
LWPOLYLINE
  5
BF
330
1F
100
AcDbEntity
  8
0
  6
Continuous
 62
     7
370
    25
100
AcDbPolyline
 90
        9
 70
   128
 43
0.0
 10
122.5644882879
 20
76.0808253164
 10
122.6620331518
 20
76.1783706459
 10
122.7558299079
 20
76.272167402
 10
122.8422734066
 20
76.3586104351
 10
122.9180416203
 20
76.4343791144
 10
122.980222769
 20
76.4965607288
 10
123.0264280102
 20
76.5427655044
 10
123.0548808462
 20
76.5712183403
 10
123.0644883699
 20
76.580825864
  0
LINE
  5
C0
330
1F
100
AcDbEntity
  8
0
  6
Continuous
 62
     7
370
    25
100
AcDbLine
 10
123.0644883699
 20
76.580825864
 30
0.0
 11
123.0644883699
 21
76.0808253164
 31
0.0
  0
LINE
  5
C1
330
1F
100
AcDbEntity
  8
0
  6
Continuous
 62
     7
370
    25
100
AcDbLine
 10
122.5644882879
 20
76.0808253164
 30
0.0
 11
123.0644883699
 21
76.0808253164
 31
0.0
  0
LINE
  5
C2
330
1F
100
AcDbEntity
  8
0
  6
Continuous
 62
     7
370
    25
100
AcDbLine
 10
124.0644885338
 20
71.4531067262
 30
0.0
 11
124.0644885338
 21
74.5808255362
 31
0.0
  0
LWPOLYLINE
  5
C3
330
1F
100
AcDbEntity
  8
0
  6
Continuous
 62
     7
370
    25
100
AcDbPolyline
 90
        9
 70
   128
 43
0.0
 10
124.0644885338
 20
74.5808255362
 10
124.1620333976
 20
74.6783708657
 10
124.2558296881
 20
74.7721671561
 10
124.3422731868
 20
74.8586106549
 10
124.4180418662
 20
74.9343788686
 10
124.4802225492
 20
74.9965604829
 10
124.5264282561
 20
75.0427652585
 10
124.5548810921
 20
75.0712180945
 10
124.5644886158
 20
75.0808256181
  0
LINE
  5
C4
330
1F
100
AcDbEntity
  8
0
  6
Continuous
 62
     7
370
    25
100
AcDbLine
 10
124.5644886158
 20
75.0808256181
 30
0.0
 11
124.5644886158
 21
72.7039311516
 31
0.0
  0
SPLINE
  5
C5
330
1F
100
AcDbEntity
  8
0
  6
Continuous
 62
     7
370
    25
100
AcDbSpline
210
0.0
220
0.0
230
1.0
 70
     8
 71
     3
 72
     8
 73
     4
 74
     0
 42
0.000000001
 43
0.00000001
 40
0.0
 40
0.0
 40
0.0
 40
0.0
 40
1.0
 40
1.0
 40
1.0
 40
1.0
 10
124.4886864782696
 20
71.45310680730587
 30
0.0
 10
124.5327326310586
 20
71.87235814670022
 30
0.0
 10
124.5644881538222
 20
72.2898811104613
 30
0.0
 10
124.5644881538222
 20
72.70393110965456
 30
0.0
  0
LINE
  5
C6
330
1F
100
AcDbEntity
  8
0
  6
Continuous
 62
     7
370
    25
100
AcDbLine
 10
113.1922069117
 20
76.0808253164
 30
0.0
 11
109.5644880197
 21
76.0808253164
 31
0.0
  0
LWPOLYLINE
  5
C7
330
1F
100
AcDbEntity
  8
0
  6
Continuous
 62
     7
370
    25
100
AcDbPolyline
 90
        9
 70
   128
 43
0.0
 10
109.5644880197
 20
76.0808253164
 10
109.4669431559
 20
76.1783706459
 10
109.3731463998
 20
76.272167402
 10
109.286702901
 20
76.3586104351
 10
109.2109346873
 20
76.4343791144
 10
109.1487535386
 20
76.4965607288
 10
109.1025482974
 20
76.5427655044
 10
109.0740954614
 20
76.5712183403
 10
109.0644879378
 20
76.580825864
  0
LINE
  5
C8
330
1F
100
AcDbEntity
  8
0
  6
Continuous
 62
     7
370
    25
100
AcDbLine
 10
109.0644879378
 20
76.580825864
 30
0.0
 11
111.9413824863
 21
76.580825864
 31
0.0
  0
SPLINE
  5
C9
330
1F
100
AcDbEntity
  8
0
  6
Continuous
 62
     7
370
    25
100
AcDbSpline
210
0.0
220
0.0
230
1.0
 70
     8
 71
     3
 72
     8
 73
     4
 74
     0
 42
0.000000001
 43
0.00000001
 40
0.0
 40
0.0
 40
0.0
 40
0.0
 40
1.0
 40
1.0
 40
1.0
 40
1.0
 10
113.1922068305532
 20
76.50502380848427
 30
0.0
 10
112.7729554911588
 20
76.54906996127333
 30
0.0
 10
112.3554325273978
 20
76.5808254840369
 30
0.0
 10
111.9413825282045
 20
76.5808254840369
 30
0.0
  0
LWPOLYLINE
  5
CA
330
1F
100
AcDbEntity
  8
0
  6
Continuous
 62
     7
370
    25
100
AcDbPolyline
 90
        9
 70
   128
 43
0.0
 10
124.0644885338
 20
62.0808253499
 10
124.1620333976
 20
61.9832804861
 10
124.2558296881
 20
61.88948373
 10
124.3422731868
 20
61.8030402313
 10
124.4180418662
 20
61.7272720175
 10
124.4802225492
 20
61.6650908689
 10
124.5264282561
 20
61.6188856276
 10
124.5548810921
 20
61.5904327916
 10
124.5644886158
 20
61.580825268
  0
LINE
  5
CB
330
1F
100
AcDbEntity
  8
0
  6
Continuous
 62
     7
370
    25
100
AcDbLine
 10
124.0644885338
 20
62.0808253499
 30
0.0
 11
124.0644885338
 21
65.7085442419
 31
0.0
  0
SPLINE
  5
CC
330
1F
100
AcDbEntity
  8
0
  6
Continuous
 62
     7
370
    25
100
AcDbSpline
210
0.0
220
0.0
230
1.0
 70
     8
 71
     3
 72
     8
 73
     4
 74
     0
 42
0.000000001
 43
0.00000001
 40
0.0
 40
0.0
 40
0.0
 40
0.0
 40
1.0
 40
1.0
 40
1.0
 40
1.0
 10
124.5644881538222
 20
64.45771985841924
 30
0.0
 10
124.5644881538222
 20
64.87190879090164
 30
0.0
 10
124.5327403915377
 20
65.28921895369474
 30
0.0
 10
124.4886864782802
 20
65.70854416076848
 30
0.0
  0
LINE
  5
CD
330
1F
100
AcDbEntity
  8
0
  6
Continuous
 62
     7
370
    25
100
AcDbLine
 10
124.5644886158
 20
64.4577198165
 30
0.0
 11
124.5644886158
 21
61.580825268
 31
0.0
  0
LWPOLYLINE
  5
CE
330
1F
100
AcDbEntity
  8
0
  6
Continuous
 62
     7
370
    25
100
AcDbPolyline
 90
        9
 70
   128
 43
0.0
 10
107.5644876919
 20
75.0808256181
 10
107.5740952156
 20
75.0712180945
 10
107.6025480515
 20
75.0427652585
 10
107.6487537584
 20
74.9965604829
 10
107.7109344415
 20
74.9343788686
 10
107.7867031208
 20
74.8586106549
 10
107.8731466196
 20
74.7721671561
 10
107.96694291
 20
74.6783708657
 10
108.0644877738
 20
74.5808255362
  0
LINE
  5
CF
330
1F
100
AcDbEntity
  8
0
  6
Continuous
 62
     7
370
    25
100
AcDbLine
 10
108.0644877738
 20
74.5808255362
 30
0.0
 11
108.0644877738
 21
71.4531067262
 31
0.0
  0
SPLINE
  5
D0
330
1F
100
AcDbEntity
  8
0
  6
Continuous
 62
     7
370
    25
100
AcDbSpline
210
0.0
220
0.0
230
1.0
 70
     8
 71
     3
 72
     8
 73
     4
 74
     0
 42
0.000000001
 43
0.00000001
 40
0.0
 40
0.0
 40
0.0
 40
0.0
 40
1.0
 40
1.0
 40
1.0
 40
1.0
 10
107.5644881538222
 20
72.70393110965456
 30
0.0
 10
107.5644881538222
 20
72.28974217717214
 30
0.0
 10
107.5962359161067
 20
71.87243201437906
 30
0.0
 10
107.6402898293641
 20
71.4531068073053
 30
0.0
  0
LINE
  5
D1
330
1F
100
AcDbEntity
  8
0
  6
Continuous
 62
     7
370
    25
100
AcDbLine
 10
107.5644876919
 20
72.7039311516
 30
0.0
 11
107.5644876919
 21
75.0808256181
 31
0.0
  0
SPLINE
  5
D2
330
1F
100
AcDbEntity
  8
0
  6
Continuous
 62
     7
370
    25
100
AcDbSpline
210
0.0
220
0.0
230
1.0
 70
     8
 71
     3
 72
     8
 73
     4
 74
     0
 42
0.000000001
 43
0.00000001
 40
0.0
 40
0.0
 40
0.0
 40
0.0
 40
1.0
 40
1.0
 40
1.0
 40
1.0
 10
125.0644881538222
 20
72.47486968600913
 30
0.0
 10
125.0644881538222
 20
72.0883786464081
 30
0.0
 10
125.0023251657715
 20
71.69555450498723
 30
0.0
 10
124.9128848027169
 20
71.29353562267981
 30
0.0
  0
LINE
  5
D3
330
1F
100
AcDbEntity
  8
0
  6
Continuous
 62
     7
370
    25
100
AcDbLine
 10
125.0644877664
 20
75.1919365923
 30
0.0
 11
125.0644877664
 21
72.4748695704
 31
0.0
  0
LINE
  5
D4
330
1F
100
AcDbEntity
  8
0
  6
Continuous
 62
     7
370
    25
100
AcDbLine
 10
124.0644885338
 20
75.1919365923
 30
0.0
 11
125.0644877664
 21
75.1919365923
 31
0.0
  0
SPLINE
  5
D5
330
1F
100
AcDbEntity
  8
0
  6
Continuous
 62
     7
370
    25
100
AcDbSpline
210
0.0
220
0.0
230
1.0
 70
     8
 71
     3
 72
    14
 73
    10
 74
     0
 42
0.000000001
 43
0.00000001
 40
0.0
 40
0.0
 40
0.0
 40
0.0
 40
0.2499999999999995
 40
0.2499999999999995
 40
0.499999999999999
 40
0.499999999999999
 40
0.7499999999999984
 40
0.7499999999999984
 40
1.0
 40
1.0
 40
1.0
 40
1.0
 10
123.5644881538222
 20
75.66415881737022
 30
0.0
 10
123.5644881538222
 20
75.61620747484316
 30
0.0
 10
123.5720190438202
 20
75.5676936532701
 30
0.0
 10
123.6054995714524
 20
75.46994328273418
 30
0.0
 10
123.6316087743775
 20
75.42065011236677
 30
0.0
 10
123.7078997620195
 20
75.32797506338439
 30
0.0
 10
123.7588368428121
 20
75.28354224951997
 30
0.0
 10
123.893125439836
 20
75.21470724104566
 30
0.0
 10
123.9766923674955
 20
75.19193659514801
 30
0.0
 10
124.0644881538222
 20
75.19193659514801
 30
0.0
  0
SPLINE
  5
D6
330
1F
100
AcDbEntity
  8
0
  6
Continuous
 62
     7
370
    25
100
AcDbSpline
210
0.0
220
0.0
230
1.0
 70
     8
 71
     3
 72
    14
 73
    10
 74
     0
 42
0.000000001
 43
0.00000001
 40
0.0
 40
0.0
 40
0.0
 40
0.0
 40
0.25
 40
0.25
 40
0.5
 40
0.5
 40
0.75
 40
0.75
 40
1.0
 40
1.0
 40
1.0
 40
1.0
 10
108.0644881538222
 20
75.19193659514801
 30
0.0
 10
108.1522839401488
 20
75.19193659514801
 30
0.0
 10
108.2358508678084
 20
75.21470724104566
 30
0.0
 10
108.3701394648322
 20
75.28354224951997
 30
0.0
 10
108.4210765456248
 20
75.32797506338439
 30
0.0
 10
108.4973675332668
 20
75.42065011236677
 30
0.0
 10
108.5234767361919
 20
75.46994328273418
 30
0.0
 10
108.5569572638242
 20
75.56769365327011
 30
0.0
 10
108.5644881538222
 20
75.61620747484316
 30
0.0
 10
108.5644881538222
 20
75.66415881737024
 30
0.0
  0
LINE
  5
D7
330
1F
100
AcDbEntity
  8
0
  6
Continuous
 62
     7
370
    25
100
AcDbLine
 10
107.0644885413
 20
75.1919365923
 30
0.0
 11
108.0644877738
 21
75.1919365923
 31
0.0
  0
LINE
  5
D8
330
1F
100
AcDbEntity
  8
0
  6
Continuous
 62
     7
370
    25
100
AcDbLine
 10
107.0644885413
 20
72.4748695704
 30
0.0
 11
107.0644885413
 21
75.1919365923
 31
0.0
  0
SPLINE
  5
D9
330
1F
100
AcDbEntity
  8
0
  6
Continuous
 62
     7
370
    25
100
AcDbSpline
210
0.0
220
0.0
230
1.0
 70
     8
 71
     3
 72
     8
 73
     4
 74
     0
 42
0.000000001
 43
0.00000001
 40
0.0
 40
0.0
 40
0.0
 40
0.0
 40
1.0
 40
1.0
 40
1.0
 40
1.0
 10
107.2160915049274
 20
71.29353562267974
 30
0.0
 10
107.1266511418729
 20
71.69555450498717
 30
0.0
 10
107.0644881538222
 20
72.08837864640807
 30
0.0
 10
107.0644881538222
 20
72.47486968600913
 30
0.0
  0
SPLINE
  5
DA
330
1F
100
AcDbEntity
  8
0
  6
Continuous
 62
     7
370
    25
100
AcDbSpline
210
0.0
220
0.0
230
1.0
 70
     8
 71
     3
 72
     8
 73
     4
 74
     0
 42
0.000000001
 43
0.00000001
 40
0.0
 40
0.0
 40
0.0
 40
0.0
 40
1.0
 40
1.0
 40
1.0
 40
1.0
 10
107.0644881538222
 20
64.68678128206466
 30
0.0
 10
107.0644881538222
 20
65.07327232166573
 30
0.0
 10
107.1266511418729
 20
65.46609646308661
 30
0.0
 10
107.2160915049274
 20
65.86811534539405
 30
0.0
  0
LINE
  5
DB
330
1F
100
AcDbEntity
  8
0
  6
Continuous
 62
     7
370
    25
100
AcDbLine
 10
107.0644885413
 20
61.497491921
 30
0.0
 11
107.0644885413
 21
64.6867813977
 31
0.0
  0
LINE
  5
DC
330
1F
100
AcDbEntity
  8
0
  6
Continuous
 62
     7
370
    25
100
AcDbLine
 10
125.0644877664
 20
61.497491921
 30
0.0
 11
107.0644885413
 21
61.497491921
 31
0.0
  0
LINE
  5
DD
330
1F
100
AcDbEntity
  8
0
  6
Continuous
 62
     7
370
    25
100
AcDbLine
 10
125.0644877664
 20
64.6867813977
 30
0.0
 11
125.0644877664
 21
61.497491921
 31
0.0
  0
SPLINE
  5
DE
330
1F
100
AcDbEntity
  8
0
  6
Continuous
 62
     7
370
    25
100
AcDbSpline
210
0.0
220
0.0
230
1.0
 70
     8
 71
     3
 72
     8
 73
     4
 74
     0
 42
0.000000001
 43
0.00000001
 40
0.0
 40
0.0
 40
0.0
 40
0.0
 40
1.0
 40
1.0
 40
1.0
 40
1.0
 10
124.9128848027169
 20
65.86811534539402
 30
0.0
 10
125.0023251657715
 20
65.4660964630866
 30
0.0
 10
125.0644881538222
 20
65.07327232166571
 30
0.0
 10
125.0644881538222
 20
64.68678128206466
 30
0.0
  0
LINE
  5
DF
330
1F
100
AcDbEntity
  8
0
  6
Continuous
 62
     7
370
    25
100
AcDbLine
 10
122.5644882879
 20
76.0808253164
 30
0.0
 11
118.936769396
 21
76.0808253164
 31
0.0
  0
SPLINE
  5
E0
330
1F
100
AcDbEntity
  8
0
  6
Continuous
 62
     7
370
    25
100
AcDbSpline
210
0.0
220
0.0
230
1.0
 70
     8
 71
     3
 72
     8
 73
     4
 74
     0
 42
0.000000001
 43
0.00000001
 40
0.0
 40
0.0
 40
0.0
 40
0.0
 40
1.0
 40
1.0
 40
1.0
 40
1.0
 10
120.1875937794398
 20
76.5808254840369
 30
0.0
 10
119.7734048469574
 20
76.5808254840369
 30
0.0
 10
119.3560946841644
 20
76.54907772175243
 30
0.0
 10
118.9367694770907
 20
76.50502380849494
 30
0.0
  0
LINE
  5
E1
330
1F
100
AcDbEntity
  8
0
  6
Continuous
 62
     7
370
    25
100
AcDbLine
 10
120.1875938214
 20
76.580825864
 30
0.0
 11
123.0644883699
 21
76.580825864
 31
0.0
  0
LINE
  5
E2
330
1F
100
AcDbEntity
  8
0
  6
Continuous
 62
     7
370
    25
100
AcDbLine
 10
108.0644877738
 20
74.5808255362
 30
0.0
 11
108.0644877738
 21
75.0808256181
 31
0.0
  0
LINE
  5
E3
330
1F
100
AcDbEntity
  8
0
  6
Continuous
 62
     7
370
    25
100
AcDbLine
 10
107.5644876919
 20
75.0808256181
 30
0.0
 11
108.0644877738
 21
75.0808256181
 31
0.0
  0
LINE
  5
E4
330
1F
100
AcDbEntity
  8
0
  6
Continuous
 62
     7
370
    25
100
AcDbLine
 10
109.5644880197
 20
76.0808253164
 30
0.0
 11
109.0644879378
 21
76.0808253164
 31
0.0
  0
LINE
  5
E5
330
1F
100
AcDbEntity
  8
0
  6
Continuous
 62
     7
370
    25
100
AcDbLine
 10
109.0644879378
 20
76.0808253164
 30
0.0
 11
109.0644879378
 21
76.580825864
 31
0.0
  0
ARC
  5
E6
330
1F
100
AcDbEntity
  8
0
  6
Continuous
 62
     7
370
    25
100
AcDbCircle
 10
108.0644881538
 20
76.080825484
 30
0.0
 40
1.5
100
AcDbArc
 50
270.0
 51
0.0
  0
ARC
  5
E7
330
1F
100
AcDbEntity
  8
0
  6
Continuous
 62
     7
370
    25
100
AcDbCircle
 10
108.0644881538
 20
76.080825484
 30
0.0
 40
1.0
100
AcDbArc
 50
270.0
 51
0.0
  0
LINE
  5
E8
330
1F
100
AcDbEntity
  8
0
  6
Continuous
 62
     7
370
    25
100
AcDbLine
 10
124.0644885338
 20
74.5808255362
 30
0.0
 11
124.0644885338
 21
75.0808256181
 31
0.0
  0
LINE
  5
E9
330
1F
100
AcDbEntity
  8
0
  6
Continuous
 62
     7
370
    25
100
AcDbLine
 10
124.0644885338
 20
75.0808256181
 30
0.0
 11
124.5644886158
 21
75.0808256181
 31
0.0
  0
SPLINE
  5
EA
330
1F
100
AcDbEntity
  8
0
  6
Continuous
 62
     7
370
    25
100
AcDbSpline
210
0.0
220
0.0
230
1.0
 70
     8
 71
     3
 72
     8
 73
     4
 74
     0
 42
0.000000001
 43
0.00000001
 40
0.0
 40
0.0
 40
0.0
 40
0.0
 40
1.0
 40
1.0
 40
1.0
 40
1.0
 10
112.1704439518499
 20
77.0808254840369
 30
0.0
 10
112.556934991451
 20
77.0808254840369
 30
0.0
 10
112.9497591328719
 20
77.0186624959862
 30
0.0
 10
113.3517780151793
 20
76.92922213293163
 30
0.0
  0
LINE
  5
EB
330
1F
100
AcDbEntity
  8
0
  6
Continuous
 62
     7
370
    25
100
AcDbLine
 10
108.9811545908
 20
77.080825946
 30
0.0
 11
112.1704440675
 21
77.080825946
 31
0.0
  0
LINE
  5
EC
330
1F
100
AcDbEntity
  8
0
  6
Continuous
 62
     7
370
    25
100
AcDbLine
 10
108.9811545908
 20
76.0808253164
 30
0.0
 11
108.9811545908
 21
77.080825946
 31
0.0
  0
LINE
  5
ED
330
1F
100
AcDbEntity
  8
0
  6
Continuous
 62
     7
370
    25
100
AcDbLine
 10
123.1478217169
 20
77.080825946
 30
0.0
 11
123.1478217169
 21
76.0808253164
 31
0.0
  0
LINE
  5
EE
330
1F
100
AcDbEntity
  8
0
  6
Continuous
 62
     7
370
    25
100
AcDbLine
 10
119.9585322402
 20
77.080825946
 30
0.0
 11
123.1478217169
 21
77.080825946
 31
0.0
  0
SPLINE
  5
EF
330
1F
100
AcDbEntity
  8
0
  6
Continuous
 62
     7
370
    25
100
AcDbSpline
210
0.0
220
0.0
230
1.0
 70
     8
 71
     3
 72
     8
 73
     4
 74
     0
 42
0.000000001
 43
0.00000001
 40
0.0
 40
0.0
 40
0.0
 40
0.0
 40
1.0
 40
1.0
 40
1.0
 40
1.0
 10
118.7771982924651
 20
76.92922213293164
 30
0.0
 10
119.1792171747725
 20
77.01866249598622
 30
0.0
 10
119.5720413161934
 20
77.0808254840369
 30
0.0
 10
119.9585323557944
 20
77.0808254840369
 30
0.0
  0
LINE
  5
F0
330
1F
100
AcDbEntity
  8
0
  6
Continuous
 62
     7
370
    25
100
AcDbLine
 10
108.0644877738
 20
65.7085442419
 30
0.0
 11
108.0644877738
 21
62.0808253499
 31
0.0
  0
LWPOLYLINE
  5
F1
330
1F
100
AcDbEntity
  8
0
  6
Continuous
 62
     7
370
    25
100
AcDbPolyline
 90
        9
 70
   128
 43
0.0
 10
108.0644877738
 20
62.0808253499
 10
107.96694291
 20
61.9832804861
 10
107.8731466196
 20
61.88948373
 10
107.7867031208
 20
61.8030402313
 10
107.7109344415
 20
61.7272720175
 10
107.6487537584
 20
61.6650908689
 10
107.6025480515
 20
61.6188856276
 10
107.5740952156
 20
61.5904327916
 10
107.5644876919
 20
61.580825268
  0
LINE
  5
F2
330
1F
100
AcDbEntity
  8
0
  6
Continuous
 62
     7
370
    25
100
AcDbLine
 10
107.5644876919
 20
61.580825268
 30
0.0
 11
107.5644876919
 21
64.4577198165
 31
0.0
  0
SPLINE
  5
F3
330
1F
100
AcDbEntity
  8
0
  6
Continuous
 62
     7
370
    25
100
AcDbSpline
210
0.0
220
0.0
230
1.0
 70
     8
 71
     3
 72
     8
 73
     4
 74
     0
 42
0.000000001
 43
0.00000001
 40
0.0
 40
0.0
 40
0.0
 40
0.0
 40
1.0
 40
1.0
 40
1.0
 40
1.0
 10
107.6402898293748
 20
65.7085441607679
 30
0.0
 10
107.5962436765857
 20
65.28929282137356
 30
0.0
 10
107.5644881538222
 20
64.87176985761249
 30
0.0
 10
107.5644881538222
 20
64.45771985841924
 30
0.0
  0
ARC
  5
F4
330
1F
100
AcDbEntity
  8
0
  6
Continuous
 62
     7
370
    25
100
AcDbCircle
 10
124.0644881538
 20
76.080825484
 30
0.0
 40
1.5
100
AcDbArc
 50
180.0
 51
270.0
  0
ARC
  5
F5
330
1F
100
AcDbEntity
  8
0
  6
Continuous
 62
     7
370
    25
100
AcDbCircle
 10
124.0644881538
 20
76.080825484
 30
0.0
 40
1.0
100
AcDbArc
 50
180.0
 51
270.0
  0
LINE
  5
F6
330
1F
100
AcDbEntity
  8
0
  6
Continuous
 62
     7
370
    25
100
AcDbLine
 10
108.0644877738
 20
62.0808253499
 30
0.0
 11
124.0644885338
 21
62.0808253499
 31
0.0
  0
ELLIPSE
  5
F7
330
1F
100
AcDbEntity
  8
0
  6
Continuous
 62
     7
370
    25
100
AcDbEllipse
 10
118.1051183556
 20
63.651704609
 30
0.0
 11
0.07471508237067326
 21
0.0
 31
0.0
210
0.0
220
0.0
230
1.0
 40
0.9531667975
 41
3.605240262591883
 42
5.462183310213375
  0
ELLIPSE
  5
F8
330
1F
100
AcDbEntity
  8
0
  6
Continuous
 62
     7
370
    25
100
AcDbEllipse
 10
122.0733113297
 20
65.4249262403
 30
0.0
 11
-0.5977206589647892
 21
-1.705302565824240E-13
 31
0.0
210
0.0
220
0.0
230
1.0
 40
0.9531667975
 41
0.3285531705514148
 42
2.110876526947264
  0
LINE
  5
F9
330
1F
100
AcDbEntity
  8
0
  6
Continuous
 62
     7
370
    25
100
AcDbLine
 10
121.5075624286
 20
65.2410899258
 30
0.0
 11
120.3977346531
 21
68.3441198691
 31
0.0
  0
ELLIPSE
  5
FA
330
1F
100
AcDbEntity
  8
0
  6
Continuous
 62
     7
370
    25
100
AcDbEllipse
 10
119.8770456646
 20
68.1130161668
 30
0.0
 11
0.5743721957241519
 21
1.236344360222574E-12
 31
0.0
210
0.0
220
0.0
230
1.0
 40
0.9531667975
 41
0.435791898753036
 42
2.705800754832502
  0
LINE
  5
FB
330
1F
100
AcDbEntity
  8
0
  6
Continuous
 62
     7
370
    25
100
AcDbLine
 10
117.336732882
 20
64.9572600579
 30
0.0
 11
118.0382910761
 21
63.6198559279
 31
0.0
  0
LINE
  5
FC
330
1F
100
AcDbEntity
  8
0
  6
Continuous
 62
     7
370
    25
100
AcDbLine
 10
119.3563565257
 20
68.3441198691
 30
0.0
 11
118.246787425
 21
65.2418130978
 31
0.0
  0
ELLIPSE
  5
FD
330
1F
100
AcDbEntity
  8
0
  6
Continuous
 62
     7
370
    25
100
AcDbEllipse
 10
121.6489729736
 20
63.651704609
 30
0.0
 11
0.0747150823706022
 21
2.842170943040401E-14
 31
0.0
210
0.0
220
0.0
230
1.0
 40
0.9531667976
 41
3.962594650564926
 42
5.819537698169369
  0
LINE
  5
FE
330
1F
100
AcDbEntity
  8
0
  6
Continuous
 62
     7
370
    25
100
AcDbLine
 10
122.4173584133
 20
64.9572600579
 30
0.0
 11
122.3806619755
 21
64.9362894675
 31
0.0
  0
ELLIPSE
  5
FF
330
1F
100
AcDbEntity
  8
0
  6
Continuous
 62
     7
370
    25
100
AcDbEllipse
 10
119.8770456646
 20
61.8380020244
 30
0.0
 11
2.525369784127093
 21
-1.705302565824240E-13
 31
0.0
210
0.0
220
0.0
230
1.0
 40
0.9531667975
 41
0.8210019969639417
 42
2.320590656625498
  0
ELLIPSE
  5
100
330
1F
100
AcDbEntity
  8
0
  6
Continuous
 62
     7
370
    25
100
AcDbEllipse
 10
117.6810386301
 20
65.4256493599
 30
0.0
 11
-0.5977206589639081
 21
5.684341886080801E-14
 31
0.0
210
0.0
220
0.0
230
1.0
 40
0.9531667975
 41
1.047197551195587
 42
2.813039483037407
  0
LINE
  5
101
330
1F
100
AcDbEntity
  8
0
  6
Continuous
 62
     7
370
    25
100
AcDbLine
 10
117.3821782804
 20
64.9322507872
 30
0.0
 11
117.336732882
 21
64.9572600579
 31
0.0
  0
LINE
  5
102
330
1F
100
AcDbEntity
  8
0
  6
Continuous
 62
     7
370
    25
100
AcDbLine
 10
121.7158001027
 20
63.6198559279
 30
0.0
 11
122.4173584133
 21
64.9572600579
 31
0.0
  0
LINE
  5
103
330
1F
100
AcDbEntity
  8
0
  6
Continuous
 62
     7
370
    25
100
AcDbLine
 10
124.5644886158
 20
61.580825268
 30
0.0
 11
107.5644876919
 21
61.580825268
 31
0.0
  0
LINE
  5
104
330
1F
100
AcDbEntity
  8
0
  6
Continuous
 62
     7
370
    25
100
AcDbLine
 10
119.806683354
 20
66.0513591921
 30
0.0
 11
119.5391290466
 21
65.3372922881
 31
0.0
  0
ELLIPSE
  5
105
330
1F
100
AcDbEntity
  8
0
  6
Continuous
 62
     7
370
    25
100
AcDbEllipse
 10
119.8770456664
 20
66.0274066568
 30
0.0
 11
0.07471508237065905
 21
0.0
 31
0.0
210
0.0
220
0.0
230
1.0
 40
0.9531667975
 41
0.3430239404208016
 42
2.79856871316874
  0
LINE
  5
106
330
1F
100
AcDbEntity
  8
0
  6
Continuous
 62
     7
370
    25
100
AcDbLine
 10
120.2149621322
 20
65.3372922881
 30
0.0
 11
119.9474080577
 21
66.0513591921
 31
0.0
  0
LINE
  5
107
330
1F
100
AcDbEntity
  8
0
  6
Continuous
 62
     7
370
    25
100
AcDbLine
 10
119.6094913985
 20
65.2421236938
 30
0.0
 11
120.1445997804
 21
65.2421236938
 31
0.0
  0
ELLIPSE
  5
108
330
1F
100
AcDbEntity
  8
0
  6
Continuous
 62
     7
370
    25
100
AcDbEllipse
 10
119.6094913217
 20
65.313339691
 30
0.0
 11
-0.07471508237065905
 21
0.0
 31
0.0
210
0.0
220
0.0
230
1.0
 40
0.9531667975
 41
5.940161364898076
 42
7.853981633974483
  0
ELLIPSE
  5
109
330
1F
100
AcDbEntity
  8
0
  6
Continuous
 62
     7
370
    25
100
AcDbEllipse
 10
120.1446000079
 20
65.313339691
 30
0.0
 11
0.07471508237061641
 21
2.842170943040401E-14
 31
0.0
210
0.0
220
0.0
230
1.0
 40
0.9531667975
 41
4.712388980384341
 42
6.626209245754491
  0
LWPOLYLINE
  5
10A
330
1F
100
AcDbEntity
  8
0
  6
Continuous
 62
     7
370
    25
100
AcDbPolyline
 90
        9
 70
   128
 43
0.0
 10
107.0644885413
 20
72.4748695704
 10
107.1620334051
 20
72.4792710009
 10
107.2558296955
 20
72.4923057916
 10
107.3422731943
 20
72.5134733568
 10
107.4180418736
 20
72.541960186
 10
107.4802225567
 20
72.5766715097
 10
107.5264282636
 20
72.6162732082
 10
107.5548810995
 20
72.6592435005
 10
107.5644876919
 20
72.7039311516
  0
LWPOLYLINE
  5
10B
330
1F
100
AcDbEntity
  8
0
  6
Continuous
 62
     7
370
    25
100
AcDbPolyline
 90
        9
 70
   128
 43
0.0
 10
125.0644877664
 20
64.6867813977
 10
124.9669429026
 20
64.6823799672
 10
124.8731466121
 20
64.6693451765
 10
124.7867031134
 20
64.6481776113
 10
124.710934434
 20
64.6196907821
 10
124.648753751
 20
64.5849794584
 10
124.6025480441
 20
64.5453777599
 10
124.5740952081
 20
64.5024074676
 10
124.5644886158
 20
64.4577198165
  0
LWPOLYLINE
  5
10C
330
1F
100
AcDbEntity
  8
0
  6
Continuous
 62
     7
370
    25
100
AcDbPolyline
 90
        9
 70
   128
 43
0.0
 10
119.9585322402
 20
77.080825946
 10
119.9629336706
 20
76.9832801508
 10
119.9759684614
 20
76.8894838604
 10
119.9971360265
 20
76.8030403616
 10
120.0256228558
 20
76.7272716823
 10
120.0603341795
 20
76.6650909992
 10
120.099935878
 20
76.6188852924
 10
120.1429061703
 20
76.5904324564
 10
120.1875938214
 20
76.580825864
  0
LWPOLYLINE
  5
10D
330
1F
100
AcDbEntity
  8
0
  6
Continuous
 62
     7
370
    25
100
AcDbPolyline
 90
        9
 70
   128
 43
0.0
 10
107.0644885413
 20
64.6867813977
 10
107.1620334051
 20
64.6823799672
 10
107.2558296955
 20
64.6693451765
 10
107.3422731943
 20
64.6481776113
 10
107.4180418736
 20
64.6196907821
 10
107.4802225567
 20
64.5849794584
 10
107.5264282636
 20
64.5453777599
 10
107.5548810995
 20
64.5024074676
 10
107.5644876919
 20
64.4577198165
  0
LWPOLYLINE
  5
10E
330
1F
100
AcDbEntity
  8
0
  6
Continuous
 62
     7
370
    25
100
AcDbPolyline
 90
        9
 70
   128
 43
0.0
 10
111.9413824863
 20
76.580825864
 10
111.9860701374
 20
76.5904324564
 10
112.0290404297
 20
76.6188852924
 10
112.0686421282
 20
76.6650909992
 10
112.1033534519
 20
76.7272716823
 10
112.1318402811
 20
76.8030403616
 10
112.1530078462
 20
76.8894838604
 10
112.166042637
 20
76.9832801508
 10
112.1704440675
 20
77.080825946
  0
LWPOLYLINE
  5
10F
330
1F
100
AcDbEntity
  8
0
  6
Continuous
 62
     7
370
    25
100
AcDbPolyline
 90
        9
 70
   128
 43
0.0
 10
124.5644886158
 20
72.7039311516
 10
124.5740952081
 20
72.6592435005
 10
124.6025480441
 20
72.6162732082
 10
124.648753751
 20
72.5766715097
 10
124.710934434
 20
72.541960186
 10
124.7867031134
 20
72.5134733568
 10
124.8731466121
 20
72.4923057916
 10
124.9669429026
 20
72.4792710009
 10
125.0644877664
 20
72.4748695704
  0
SPLINE
  5
110
330
1F
100
AcDbEntity
  8
0
  6
Continuous
 62
     7
370
    25
100
AcDbSpline
210
0.0
220
0.0
230
1.0
 70
     8
 71
     3
 72
     8
 73
     4
 74
     0
 42
0.000000001
 43
0.00000001
 40
0.0
 40
0.0
 40
0.0
 40
0.0
 40
1.0
 40
1.0
 40
1.0
 40
1.0
 10
107.3857224242959
 20
75.0808254840369
 30
0.0
 10
107.2887986878034
 20
75.0808254840369
 30
0.0
 10
107.1757931997135
 20
75.1239480424325
 30
0.0
 10
107.0644881538222
 20
75.19193659514801
 30
0.0
  0
SPLINE
  5
111
330
1F
100
AcDbEntity
  8
0
  6
Continuous
 62
     7
370
    25
100
AcDbSpline
210
0.0
220
0.0
230
1.0
 70
    24
 71
     3
 72
    10
 73
     6
 74
     0
 42
0.000000001
 43
0.00000001
 40
0.0
 40
0.0
 40
0.0
 40
0.0
 40
0.5
 40
0.5
 40
1.0
 40
1.0
 40
1.0
 40
1.0
 10
107.3857224242959
 20
75.0808254840369
 30
0.0
 10
107.448772446831
 20
75.0808254840369
 30
0.0
 10
107.4920796711369
 20
75.0808254840369
 30
0.0
 10
107.5502708467992
 20
75.0808254840369
 30
0.0
 10
107.5644881538222
 20
75.0808254840369
 30
0.0
 10
107.5644881538222
 20
75.0808254840369
 30
0.0
  0
SPLINE
  5
112
330
1F
100
AcDbEntity
  8
0
  6
Continuous
 62
     7
370
    25
100
AcDbSpline
210
0.0
220
0.0
230
1.0
 70
     8
 71
     3
 72
     8
 73
     4
 74
     0
 42
0.000000001
 43
0.00000001
 40
0.0
 40
0.0
 40
0.0
 40
0.0
 40
1.0
 40
1.0
 40
1.0
 40
1.0
 10
123.0644881538222
 20
76.79784785972849
 30
0.0
 10
123.0644881538222
 20
76.88597171718718
 30
0.0
 10
123.0957583474257
 20
76.98390918988657
 30
0.0
 10
123.1478214871555
 20
77.0808254840369
 30
0.0
  0
SPLINE
  5
113
330
1F
100
AcDbEntity
  8
0
  6
Continuous
 62
     7
370
    25
100
AcDbSpline
210
0.0
220
0.0
230
1.0
 70
    24
 71
     3
 72
    10
 73
     6
 74
     0
 42
0.000000001
 43
0.00000001
 40
0.0
 40
0.0
 40
0.0
 40
0.0
 40
0.5
 40
0.5
 40
1.0
 40
1.0
 40
1.0
 40
1.0
 10
123.0644881538222
 20
76.79784785972849
 30
0.0
 10
123.0644881538222
 20
76.71851069730694
 30
0.0
 10
123.0644881538222
 20
76.66701538879597
 30
0.0
 10
123.0644881538222
 20
76.59791304751045
 30
0.0
 10
123.0644881538222
 20
76.58082548403694
 30
0.0
 10
123.0644881538222
 20
76.5808254840369
 30
0.0
  0
SPLINE
  5
114
330
1F
100
AcDbEntity
  8
0
  6
Continuous
 62
     7
370
    25
100
AcDbSpline
210
0.0
220
0.0
230
1.0
 70
     8
 71
     3
 72
     8
 73
     4
 74
     0
 42
0.000000001
 43
0.00000001
 40
0.0
 40
0.0
 40
0.0
 40
0.0
 40
1.0
 40
1.0
 40
1.0
 40
1.0
 10
124.7815105295138
 20
61.5808254840369
 30
0.0
 10
124.8696343869725
 20
61.5808254840369
 30
0.0
 10
124.9675718596745
 20
61.54955529043484
 30
0.0
 10
125.0644881538222
 20
61.49749215070356
 30
0.0
  0
SPLINE
  5
115
330
1F
100
AcDbEntity
  8
0
  6
Continuous
 62
     7
370
    25
100
AcDbSpline
210
0.0
220
0.0
230
1.0
 70
    24
 71
     3
 72
    10
 73
     6
 74
     0
 42
0.000000001
 43
0.00000001
 40
0.0
 40
0.0
 40
0.0
 40
0.0
 40
0.5
 40
0.5
 40
1.0
 40
1.0
 40
1.0
 40
1.0
 10
124.7815105295138
 20
61.5808254840369
 30
0.0
 10
124.7021733670922
 20
61.5808254840369
 30
0.0
 10
124.6506780585812
 20
61.58082548403689
 30
0.0
 10
124.5815757172957
 20
61.5808254840369
 30
0.0
 10
124.5644881538222
 20
61.5808254840369
 30
0.0
 10
124.5644881538222
 20
61.5808254840369
 30
0.0
  0
SPLINE
  5
116
330
1F
100
AcDbEntity
  8
0
  6
Continuous
 62
     7
370
    25
100
AcDbSpline
210
0.0
220
0.0
230
1.0
 70
     8
 71
     3
 72
     8
 73
     4
 74
     0
 42
0.000000001
 43
0.00000001
 40
0.0
 40
0.0
 40
0.0
 40
0.0
 40
1.0
 40
1.0
 40
1.0
 40
1.0
 10
124.7432538833485
 20
75.0808254840369
 30
0.0
 10
124.840177619841
 20
75.0808254840369
 30
0.0
 10
124.9531831079309
 20
75.1239480424325
 30
0.0
 10
125.0644881538222
 20
75.19193659514801
 30
0.0
  0
SPLINE
  5
117
330
1F
100
AcDbEntity
  8
0
  6
Continuous
 62
     7
370
    25
100
AcDbSpline
210
0.0
220
0.0
230
1.0
 70
    24
 71
     3
 72
    10
 73
     6
 74
     0
 42
0.000000001
 43
0.00000001
 40
0.0
 40
0.0
 40
0.0
 40
0.0
 40
0.5
 40
0.5
 40
1.0
 40
1.0
 40
1.0
 40
1.0
 10
124.5644881538222
 20
75.08082548403809
 30
0.0
 10
124.5644881538222
 20
75.08082548403809
 30
0.0
 10
124.5787061235379
 20
75.0808254840369
 30
0.0
 10
124.6368826383289
 20
75.0808254840369
 30
0.0
 10
124.6802039956676
 20
75.0808254840369
 30
0.0
 10
124.7432538833485
 20
75.0808254840369
 30
0.0
  0
SPLINE
  5
118
330
1F
100
AcDbEntity
  8
0
  6
Continuous
 62
     7
370
    25
100
AcDbSpline
210
0.0
220
0.0
230
1.0
 70
     8
 71
     3
 72
     8
 73
     4
 74
     0
 42
0.000000001
 43
0.00000001
 40
0.0
 40
0.0
 40
0.0
 40
0.0
 40
1.0
 40
1.0
 40
1.0
 40
1.0
 10
107.3474657781306
 20
61.5808254840369
 30
0.0
 10
107.2593419206719
 20
61.5808254840369
 30
0.0
 10
107.1614044479698
 20
61.54955529043484
 30
0.0
 10
107.0644881538222
 20
61.49749215070356
 30
0.0
  0
SPLINE
  5
119
330
1F
100
AcDbEntity
  8
0
  6
Continuous
 62
     7
370
    25
100
AcDbSpline
210
0.0
220
0.0
230
1.0
 70
    24
 71
     3
 72
    10
 73
     6
 74
     0
 42
0.000000001
 43
0.00000001
 40
0.0
 40
0.0
 40
0.0
 40
0.0
 40
0.5
 40
0.5
 40
1.0
 40
1.0
 40
1.0
 40
1.0
 10
107.5644881538222
 20
61.58082548403677
 30
0.0
 10
107.5644881538222
 20
61.58082548403677
 30
0.0
 10
107.5476431382683
 20
61.58082548403689
 30
0.0
 10
107.4782834206407
 20
61.5808254840369
 30
0.0
 10
107.4270839345876
 20
61.5808254840369
 30
0.0
 10
107.3474657781307
 20
61.5808254840369
 30
0.0
  0
SPLINE
  5
11A
330
1F
100
AcDbEntity
  8
0
  6
Continuous
 62
     7
370
    25
100
AcDbSpline
210
0.0
220
0.0
230
1.0
 70
     8
 71
     3
 72
     8
 73
     4
 74
     0
 42
0.000000001
 43
0.00000001
 40
0.0
 40
0.0
 40
0.0
 40
0.0
 40
1.0
 40
1.0
 40
1.0
 40
1.0
 10
109.0644881538222
 20
76.7978478597285
 30
0.0
 10
109.0644881538222
 20
76.88597171718719
 30
0.0
 10
109.0332179602184
 20
76.98390918988619
 30
0.0
 10
108.9811548204888
 20
77.0808254840369
 30
0.0
  0
SPLINE
  5
11B
330
1F
100
AcDbEntity
  8
0
  6
Continuous
 62
     7
370
    25
100
AcDbSpline
210
0.0
220
0.0
230
1.0
 70
    24
 71
     3
 72
    10
 73
     6
 74
     0
 42
0.000000001
 43
0.00000001
 40
0.0
 40
0.0
 40
0.0
 40
0.0
 40
0.5
 40
0.5
 40
1.0
 40
1.0
 40
1.0
 40
1.0
 10
109.064488153822
 20
76.5808254840369
 30
0.0
 10
109.064488153822
 20
76.5808254840369
 30
0.0
 10
109.0644881538222
 20
76.59767049959082
 30
0.0
 10
109.0644881538222
 20
76.66703021721841
 30
0.0
 10
109.0644881538222
 20
76.71822970327149
 30
0.0
 10
109.0644881538222
 20
76.7978478597284
 30
0.0
  0
ARC
  5
11C
330
1F
100
AcDbEntity
  8
0
  6
Continuous
 62
     7
370
    25
100
AcDbCircle
 10
108.6026833821
 20
76.126657926
 30
0.0
 40
0.4640733516230608
100
AcDbArc
 50
265.2789919347
 51
354.3321397526
  0
LINE
  5
11D
330
1F
100
AcDbEntity
  8
0
  6
Continuous
 62
     7
370
    25
100
AcDbLine
 10
108.0644877738
 20
75.1919365923
 30
0.0
 11
108.0644877738
 21
75.0808256181
 31
0.0
  0
ARC
  5
11E
330
1F
100
AcDbEntity
  8
0
  6
Continuous
 62
     7
370
    25
100
AcDbCircle
 10
123.5262929255
 20
76.126657926
 30
0.0
 40
0.4640733516230608
100
AcDbArc
 50
185.6678602474
 51
274.7210080653
  0
LINE
  5
11F
330
1F
100
AcDbEntity
  8
0
  6
Continuous
 62
     7
370
    25
100
AcDbLine
 10
124.0644885338
 20
75.0808256181
 30
0.0
 11
124.0644885338
 21
75.1919365923
 31
0.0
  0
LINE
  5
120
330
1F
100
AcDbEntity
  8
0
  6
Continuous
 62
     7
370
    25
100
AcDbLine
 10
123.1478217169
 20
76.0808253164
 30
0.0
 11
123.0644883699
 21
76.0808253164
 31
0.0
  0
ARC
  5
121
330
1F
100
AcDbEntity
  8
0
  6
Continuous
 62
     7
370
    25
100
AcDbCircle
 10
123.7658855694
 20
76.2822228997
 30
0.0
 40
0.6500491615196006
100
AcDbArc
 50
198.0483231264
 51
251.9516768736
  0
ARC
  5
122
330
1F
100
AcDbEntity
  8
0
  6
Continuous
 62
     7
370
    25
100
AcDbCircle
 10
108.3630907382
 20
76.2822228997
 30
0.0
 40
0.6500491615195961
100
AcDbArc
 50
288.0483231264
 51
341.9516768736
  0
LINE
  5
123
330
1F
100
AcDbEntity
  8
0
  6
Continuous
 62
     7
370
    25
100
AcDbLine
 10
109.0644879378
 20
76.0808253164
 30
0.0
 11
108.9811545908
 21
76.0808253164
 31
0.0
  0
LINE
  5
124
330
1F
100
AcDbEntity
  8
0
  6
Continuous
 62
     8
370
    25
100
AcDbLine
 10
132.0644889138
 20
79.8308259311
 30
0.0
 11
132.0644889138
 21
57.330825037
 31
0.0
  0
LINE
  5
125
330
1F
100
AcDbEntity
  8
0
  6
Continuous
 62
     8
370
    25
100
AcDbLine
 10
100.0644873939
 20
68.580825484
 30
0.0
 11
100.0644873939
 21
79.8308259311
 31
0.0
  0
LINE
  5
126
330
1F
100
AcDbEntity
  8
0
  6
Continuous
 62
     8
370
    25
100
AcDbLine
 10
100.0644873939
 20
57.330825037
 30
0.0
 11
100.0644873939
 21
68.580825484
 31
0.0
  0
LINE
  5
127
330
1F
100
AcDbEntity
  8
0
  6
Continuous
 62
     8
370
    25
100
AcDbLine
 10
102.0644877217
 20
68.580825484
 30
0.0
 11
102.0644877217
 21
60.0808250221
 31
0.0
  0
LINE
  5
128
330
1F
100
AcDbEntity
  8
0
  6
Continuous
 62
     8
370
    25
100
AcDbLine
 10
102.0644877217
 20
77.080825946
 30
0.0
 11
102.0644877217
 21
68.580825484
 31
0.0
  0
LINE
  5
129
330
1F
100
AcDbEntity
  8
0
  6
Continuous
 62
     8
370
    25
100
AcDbLine
 10
124.5644886158
 20
82.5808259162
 30
0.0
 11
107.5644876919
 21
82.5808259162
 31
0.0
  0
LINE
  5
12A
330
1F
100
AcDbEntity
  8
0
  6
Continuous
 62
     8
370
    25
100
AcDbLine
 10
130.064488586
 20
60.0808250221
 30
0.0
 11
130.064488586
 21
77.080825946
 31
0.0
  0
LWPOLYLINE
  5
12B
330
1F
100
AcDbEntity
  8
0
  6
Continuous
 62
     8
370
    25
100
AcDbPolyline
 90
       10
 70
   128
 43
0.0
 10
125.0644877664
 20
77.080825946
 10
125.0454375631
 20
77.0628337252
 10
124.9883670471
 20
77.0089334311
 10
124.8935183621
 20
76.9193541693
 10
124.7612929083
 20
76.7944740566
 10
124.5922494791
 20
76.6348220842
 10
124.3871051929
 20
76.4410743924
 10
124.1467271111
 20
76.2140514764
 10
123.8721341006
 20
75.9547135296
 10
123.5644879862
 20
75.6641590471
  0
LWPOLYLINE
  5
12C
330
1F
100
AcDbEntity
  8
0
  6
Continuous
 62
     8
370
    25
100
AcDbPolyline
 90
       10
 70
   128
 43
0.0
 10
108.5644883215
 20
75.6641590471
 10
108.2568422071
 20
75.9547135296
 10
107.9822491965
 20
76.2140514764
 10
107.7418711147
 20
76.4410743924
 10
107.5367268286
 20
76.6348220842
 10
107.3676833994
 20
76.7944740566
 10
107.2354579455
 20
76.9193541693
 10
107.1406092606
 20
77.0089334311
 10
107.0835387445
 20
77.0628337252
 10
107.0644885413
 20
77.080825946
  0
LWPOLYLINE
  5
12D
330
1F
100
AcDbEntity
  8
0
  6
Continuous
 62
     8
370
    25
100
AcDbPolyline
 90
       10
 70
   128
 43
0.0
 10
107.5644876919
 20
77.5808250966
 10
107.5824799127
 20
77.5617748933
 10
107.6363802067
 20
77.5047043773
 10
107.7259594686
 20
77.4098556923
 10
107.8508395813
 20
77.2776302385
 10
108.0104915536
 20
77.1085868093
 10
108.2042392454
 20
76.9034425231
 10
108.4312621615
 20
76.6630644413
 10
108.6906001083
 20
76.3884714308
 10
108.9811545908
 20
76.0808253164
  0
LWPOLYLINE
  5
12E
330
1F
100
AcDbEntity
  8
0
  6
Continuous
 62
     8
370
    25
100
AcDbPolyline
 90
       10
 70
   128
 43
0.0
 10
123.1478217169
 20
76.0808253164
 10
123.4383761994
 20
76.3884714308
 10
123.6977141461
 20
76.6630644413
 10
123.9247370622
 20
76.9034425231
 10
124.118484754
 20
77.1085868093
 10
124.2781367264
 20
77.2776302385
 10
124.4030168391
 20
77.4098556923
 10
124.4925961009
 20
77.5047043773
 10
124.5464963949
 20
77.5617748933
 10
124.5644886158
 20
77.5808250966
  0
LINE
  5
12F
330
1F
100
AcDbEntity
  8
0
  6
Continuous
 62
     7
370
    18
100
AcDbLine
 10
125.4123482825
 20
96.5453013653
 30
0.0
 11
125.8146756538
 21
83.670825484
 31
0.0
  0
LINE
  5
130
330
1F
100
AcDbEntity
  8
0
  6
Continuous
 62
     7
370
    18
100
AcDbLine
 10
106.7166280251
 20
96.5453013653
 30
0.0
 11
106.3143006538
 21
83.670825484
 31
0.0
  0
LINE
  5
131
330
1F
100
AcDbEntity
  8
0
  6
Continuous
 62
     7
370
    18
100
AcDbLine
 10
105.4073006538
 20
83.670825484
 30
0.0
 11
126.7216756538
 21
83.670825484
 31
0.0
  0
LINE
  5
132
330
1F
100
AcDbEntity
  8
0
  6
CENTERX2
 62
     7
370
    18
100
AcDbLine
 10
116.0644881538
 20
94.8844342111
 30
0.0
 11
116.0644881538
 21
57.4568615205
 31
0.0
  0
LINE
  5
133
330
1F
100
AcDbEntity
  8
0
  6
CENTERX2
 62
     7
370
    18
100
AcDbLine
 10
116.0644881538
 20
94.8844342111
 30
0.0
 11
116.0644881538
 21
99.580825484
 31
0.0
  0
LINE
  5
134
330
1F
100
AcDbEntity
  8
0
  6
CENTERX2
 62
     7
370
    18
100
AcDbLine
 10
85.5644881538
 20
68.580825484
 30
0.0
 11
146.5644881538
 21
68.580825484
 31
0.0
  0
LINE
  5
135
330
1F
100
AcDbEntity
  8
0
  6
Continuous
 62
     7
370
    25
100
AcDbLine
 10
198.9584080002
 20
83.6675266238
 30
0.0
 11
198.6078796035
 21
94.8844334545
 31
0.0
  0
LINE
  5
136
330
1F
100
AcDbEntity
  8
0
  6
Continuous
 62
     7
370
    25
100
AcDbLine
 10
177.9943545407
 20
94.8844334545
 30
0.0
 11
177.643826144
 21
83.6675266238
 31
0.0
  0
ARC
  5
137
330
1F
100
AcDbEntity
  8
0
  6
Continuous
 62
     7
370
    25
100
AcDbCircle
 10
178.0511170721
 20
84.580825484
 30
0.0
 40
1.0
100
AcDbArc
 50
245.9652533387
 51
270.0
  0
ARC
  5
138
330
1F
100
AcDbEntity
  8
0
  6
Continuous
 62
     7
370
    25
100
AcDbCircle
 10
198.5511170721
 20
84.580825484
 30
0.0
 40
1.0
100
AcDbArc
 50
270.0
 51
294.0347466613
  0
LINE
  5
139
330
1F
100
AcDbEntity
  8
0
  6
Continuous
 62
     7
370
    25
100
AcDbLine
 10
198.6078796035
 20
94.8844334545
 30
0.0
 11
197.0511171094
 21
97.5808246496
 31
0.0
  0
LINE
  5
13A
330
1F
100
AcDbEntity
  8
0
  6
Continuous
 62
     7
370
    25
100
AcDbLine
 10
179.5511170348
 20
97.5808246496
 30
0.0
 11
177.9943545407
 21
94.8844334545
 31
0.0
  0
ARC
  5
13B
330
1F
100
AcDbEntity
  8
0
  6
Continuous
 62
     7
370
    25
100
AcDbCircle
 10
178.8011170721
 20
82.580825484
 30
0.0
 40
1.0
100
AcDbArc
 50
0.0
 51
90.0
  0
ARC
  5
13C
330
1F
100
AcDbEntity
  8
0
  6
Continuous
 62
     7
370
    25
100
AcDbCircle
 10
197.8011170721
 20
82.580825484
 30
0.0
 40
1.0
100
AcDbArc
 50
90.0
 51
180.0
  0
LINE
  5
13D
330
1F
100
AcDbEntity
  8
0
  6
Continuous
 62
     7
370
    25
100
AcDbLine
 10
196.801117534
 20
76.580825864
 30
0.0
 11
196.801117534
 21
82.5808259162
 31
0.0
  0
LINE
  5
13E
330
1F
100
AcDbEntity
  8
0
  6
Continuous
 62
     7
370
    25
100
AcDbLine
 10
179.8011166102
 20
82.5808259162
 30
0.0
 11
179.8011166102
 21
76.580825864
 31
0.0
  0
CIRCLE
  5
13F
330
1F
100
AcDbEntity
  8
0
  6
Continuous
 62
     7
370
    25
100
AcDbCircle
 10
188.3011170721
 20
68.580825484
 30
0.0
 40
8.5
  0
CIRCLE
  5
140
330
1F
100
AcDbEntity
  8
0
  6
Continuous
 62
     7
370
    25
100
AcDbCircle
 10
188.3011170721
 20
68.580825484
 30
0.0
 40
10.75000000000003
  0
CIRCLE
  5
141
330
1F
100
AcDbEntity
  8
0
  6
Continuous
 62
     7
370
    25
100
AcDbCircle
 10
188.3011170721
 20
68.580825484
 30
0.0
 40
11.25000000000003
  0
CIRCLE
  5
142
330
1F
100
AcDbEntity
  8
0
  6
Continuous
 62
     7
370
    25
100
AcDbCircle
 10
188.3011170721
 20
68.580825484
 30
0.0
 40
7.872175816270385
  0
CIRCLE
  5
143
330
1F
100
AcDbEntity
  8
0
  6
Continuous
 62
     7
370
    25
100
AcDbCircle
 10
188.3011170721
 20
68.580825484
 30
0.0
 40
7.547130357748898
  0
CIRCLE
  5
144
330
1F
100
AcDbEntity
  8
0
  6
Continuous
 62
     7
370
    25
100
AcDbCircle
 10
188.3011170721
 20
68.580825484
 30
0.0
 40
7.475000000000023
  0
CIRCLE
  5
145
330
1F
100
AcDbEntity
  8
0
  6
Continuous
 62
     7
370
    25
100
AcDbCircle
 10
188.3011170721
 20
68.580825484
 30
0.0
 40
4.999999999999972
  0
LINE
  5
146
330
1F
100
AcDbEntity
  8
0
  6
Continuous
 62
     7
370
    25
100
AcDbLine
 10
188.3011170721
 20
94.8844334545
 30
0.0
 11
177.9943545407
 21
94.8844334545
 31
0.0
  0
LINE
  5
147
330
1F
100
AcDbEntity
  8
0
  6
Continuous
 62
     7
370
    25
100
AcDbLine
 10
198.6078796035
 20
94.8844334545
 30
0.0
 11
188.3011170721
 21
94.8844334545
 31
0.0
  0
LINE
  5
148
330
1F
100
AcDbEntity
  8
0
  6
Continuous
 62
     7
370
    25
100
AcDbLine
 10
198.9584080002
 20
83.6675266238
 30
0.0
 11
177.643826144
 21
83.6675266238
 31
0.0
  0
LINE
  5
149
330
1F
100
AcDbEntity
  8
0
  6
Continuous
 62
     7
370
    25
100
AcDbLine
 10
198.5511173552
 20
83.5808251488
 30
0.0
 11
178.051116789
 21
83.5808251488
 31
0.0
  0
LINE
  5
14A
330
1F
100
AcDbEntity
  8
0
  6
Continuous
 62
     7
370
    25
100
AcDbLine
 10
179.5511170348
 20
97.5808246496
 30
0.0
 11
197.0511171094
 21
97.5808246496
 31
0.0
  0
SPLINE
  5
14B
330
1F
100
AcDbEntity
  8
0
  6
Continuous
 62
     7
370
    25
100
AcDbSpline
210
0.0
220
0.0
230
1.0
 70
     8
 71
     3
 72
    12
 73
     8
 74
     0
 42
0.000000001
 43
0.00000001
 40
0.0
 40
0.0
 40
0.0
 40
0.0
 40
0.2499999999999999
 40
0.2499999999999999
 40
0.4999999999999999
 40
0.4999999999999999
 40
1.0
 40
1.0
 40
1.0
 40
1.0
 10
196.356624734793
 20
76.92922213293163
 30
0.0
 10
196.429443222776
 20
76.88111402428724
 30
0.0
 10
196.4937388612344
 20
76.84490096682302
 30
0.0
 10
196.6044450248173
 20
76.77979675717013
 30
0.0
 10
196.6508985370588
 20
76.75155657688184
 30
0.0
 10
196.7629845596773
 20
76.67229174560886
 30
0.0
 10
196.8011170721001
 20
76.62642636241321
 30
0.0
 10
196.8011170721001
 20
76.5808254840369
 30
0.0
  0
SPLINE
  5
14C
330
1F
100
AcDbEntity
  8
0
  6
Continuous
 62
     7
370
    25
100
AcDbSpline
210
0.0
220
0.0
230
1.0
 70
     8
 71
     3
 72
     8
 73
     4
 74
     0
 42
0.000000001
 43
0.00000001
 40
0.0
 40
0.0
 40
0.0
 40
0.0
 40
1.0
 40
1.0
 40
1.0
 40
1.0
 10
195.8566726276557
 20
77.0808254840369
 30
0.0
 10
196.0558655501094
 20
77.0808254840369
 30
0.0
 10
196.2212439811986
 20
77.0186624959862
 30
0.0
 10
196.356624734793
 20
76.92922213293163
 30
0.0
  0
SPLINE
  5
14D
330
1F
100
AcDbEntity
  8
0
  6
Continuous
 62
     7
370
    25
100
AcDbSpline
210
0.0
220
0.0
230
1.0
 70
     8
 71
     3
 72
     8
 73
     4
 74
     0
 42
0.000000001
 43
0.00000001
 40
0.0
 40
0.0
 40
0.0
 40
0.0
 40
1.0
 40
1.0
 40
1.0
 40
1.0
 10
180.2456094094072
 20
76.92922213293164
 30
0.0
 10
180.3809901630017
 20
77.01866249598622
 30
0.0
 10
180.5463685940908
 20
77.0808254840369
 30
0.0
 10
180.7455615165446
 20
77.0808254840369
 30
0.0
  0
SPLINE
  5
14E
330
1F
100
AcDbEntity
  8
0
  6
Continuous
 62
     7
370
    25
100
AcDbSpline
210
0.0
220
0.0
230
1.0
 70
     8
 71
     3
 72
    12
 73
     8
 74
     0
 42
0.000000001
 43
0.00000001
 40
0.0
 40
0.0
 40
0.0
 40
0.0
 40
0.2500000000000002
 40
0.2500000000000002
 40
0.5000000000000001
 40
0.5000000000000001
 40
1.0
 40
1.0
 40
1.0
 40
1.0
 10
180.2456094094072
 20
76.92922213293164
 30
0.0
 10
180.1729582346541
 20
76.88122456109265
 30
0.0
 10
180.1086407120629
 20
76.84498598719357
 30
0.0
 10
179.9977615238557
 20
76.77978103196725
 30
0.0
 10
179.9511011573075
 20
76.7514139747071
 30
0.0
 10
179.8388424983565
 20
76.67195719921772
 30
0.0
 10
179.8011170721001
 20
76.62651121936739
 30
0.0
 10
179.8011170721001
 20
76.5808254840369
 30
0.0
  0
LINE
  5
14F
330
1F
100
AcDbEntity
  8
0
  6
Continuous
 62
     7
370
    25
100
AcDbLine
 10
196.801117534
 20
76.0808253164
 30
0.0
 11
196.801117534
 21
75.950526769
 31
0.0
  0
LINE
  5
150
330
1F
100
AcDbEntity
  8
0
  6
Continuous
 62
     7
370
    25
100
AcDbLine
 10
179.8011166102
 20
75.950526769
 30
0.0
 11
179.8011166102
 21
76.0808253164
 31
0.0
  0
ARC
  5
151
330
1F
100
AcDbEntity
  8
0
  6
Continuous
 62
     7
370
    25
100
AcDbCircle
 10
196.3011170721
 20
76.080825484
 30
0.0
 40
0.5
100
AcDbArc
 50
0.0
 51
90.0
  0
LINE
  5
152
330
1F
100
AcDbEntity
  8
0
  6
Continuous
 62
     7
370
    25
100
AcDbLine
 10
196.2107633299
 20
76.580825864
 30
0.0
 11
196.3011174521
 21
76.580825864
 31
0.0
  0
LINE
  5
153
330
1F
100
AcDbEntity
  8
0
  6
Continuous
 62
     7
370
    25
100
AcDbLine
 10
180.3011166921
 20
76.580825864
 30
0.0
 11
180.3914708143
 21
76.580825864
 31
0.0
  0
ARC
  5
154
330
1F
100
AcDbEntity
  8
0
  6
Continuous
 62
     7
370
    25
100
AcDbCircle
 10
180.3011170721
 20
76.080825484
 30
0.0
 40
0.5
100
AcDbArc
 50
90.0
 51
180.0
  0
ARC
  5
155
330
1F
100
AcDbEntity
  8
0
  6
Continuous
 62
     7
370
    25
100
AcDbCircle
 10
196.8151379065
 20
76.8916451121
 30
0.0
 40
0.4600508724522987
100
AcDbArc
 50
175.314811797
 51
237.181165302
  0
ARC
  5
156
330
1F
100
AcDbEntity
  8
0
  6
Continuous
 62
     7
370
    25
100
AcDbCircle
 10
179.7870962377
 20
76.8916451121
 30
0.0
 40
0.4600508724523106
100
AcDbArc
 50
302.818834698
 51
4.685188203
  0
SPLINE
  5
157
330
1F
100
AcDbEntity
  8
0
  6
Continuous
 62
     7
370
    25
100
AcDbSpline
210
0.0
220
0.0
230
1.0
 70
     8
 71
     3
 72
    12
 73
     8
 74
     0
 42
0.000000001
 43
0.00000001
 40
0.0
 40
0.0
 40
0.0
 40
0.0
 40
0.2500000000000002
 40
0.2500000000000002
 40
0.5000000000000001
 40
0.5000000000000001
 40
1.0
 40
1.0
 40
1.0
 40
1.0
 10
196.5657975994081
 20
76.50502380848425
 30
0.0
 10
196.6014842335119
 20
76.48275696633033
 30
0.0
 10
196.6350431098113
 20
76.4757189336759
 30
0.0
 10
196.6936868548665
 20
76.47484381219148
 30
0.0
 10
196.7189137708283
 20
76.48150780614056
 30
0.0
 10
196.7799475843288
 20
76.51216015555882
 30
0.0
 10
196.8011170721001
 20
76.54676883868333
 30
0.0
 10
196.8011170721001
 20
76.5808254840369
 30
0.0
  0
SPLINE
  5
158
330
1F
100
AcDbEntity
  8
0
  6
Continuous
 62
     7
370
    25
100
AcDbSpline
210
0.0
220
0.0
230
1.0
 70
    24
 71
     3
 72
    16
 73
    12
 74
     0
 42
0.000000001
 43
0.00000001
 40
0.0
 40
0.0
 40
0.0
 40
0.0
 40
0.2500000000000002
 40
0.2500000000000002
 40
0.5000000000000003
 40
0.5000000000000003
 40
0.7500000000000004
 40
0.7500000000000004
 40
0.8750000000000002
 40
0.8750000000000002
 40
1.0
 40
1.0
 40
1.0
 40
1.0
 10
196.8011170721001
 20
76.0808254840369
 30
0.0
 10
196.8011170721001
 20
76.0808254840369
 30
0.0
 10
196.8011170721001
 20
76.10075726972404
 30
0.0
 10
196.8011170721001
 20
76.16136381632761
 30
0.0
 10
196.8011170721001
 20
76.20247432377279
 30
0.0
 10
196.8011170721001
 20
76.296850780172
 30
0.0
 10
196.8011170721001
 20
76.35021614202829
 30
0.0
 10
196.8011170721001
 20
76.43452330196287
 30
0.0
 10
196.8011170721001
 20
76.46334817880474
 30
0.0
 10
196.8011170721001
 20
76.52170725737024
 30
0.0
 10
196.8011170721001
 20
76.55095837858833
 30
0.0
 10
196.8011170721001
 20
76.5808254840369
 30
0.0
  0
SPLINE
  5
159
330
1F
100
AcDbEntity
  8
0
  6
Continuous
 62
     7
370
    25
100
AcDbSpline
210
0.0
220
0.0
230
1.0
 70
     8
 71
     3
 72
    12
 73
     8
 74
     0
 42
0.000000001
 43
0.00000001
 40
0.0
 40
0.0
 40
0.0
 40
0.0
 40
0.2500000000000002
 40
0.2500000000000002
 40
0.5000000000000001
 40
0.5000000000000001
 40
1.0
 40
1.0
 40
1.0
 40
1.0
 10
180.0364365447921
 20
76.50502380848425
 30
0.0
 10
180.0007499106884
 20
76.48275696633034
 30
0.0
 10
179.967191034389
 20
76.4757189336759
 30
0.0
 10
179.9085472893337
 20
76.47484381219148
 30
0.0
 10
179.883320373372
 20
76.48150780614054
 30
0.0
 10
179.8222865598715
 20
76.51216015555879
 30
0.0
 10
179.8011170721001
 20
76.54676883868319
 30
0.0
 10
179.8011170721001
 20
76.5808254840369
 30
0.0
  0
SPLINE
  5
15A
330
1F
100
AcDbEntity
  8
0
  6
Continuous
 62
     7
370
    25
100
AcDbSpline
210
0.0
220
0.0
230
1.0
 70
    24
 71
     3
 72
    16
 73
    12
 74
     0
 42
0.000000001
 43
0.00000001
 40
0.0
 40
0.0
 40
0.0
 40
0.0
 40
0.2500000000000002
 40
0.2500000000000002
 40
0.5000000000000002
 40
0.5000000000000002
 40
0.7500000000000002
 40
0.7500000000000002
 40
0.8750000000000001
 40
0.8750000000000001
 40
1.0
 40
1.0
 40
1.0
 40
1.0
 10
179.8011170721001
 20
76.0808254840369
 30
0.0
 10
179.8011170721001
 20
76.0808254840369
 30
0.0
 10
179.8011170721001
 20
76.10075726972406
 30
0.0
 10
179.8011170721001
 20
76.16136381632762
 30
0.0
 10
179.8011170721001
 20
76.20247432377279
 30
0.0
 10
179.8011170721001
 20
76.296850780172
 30
0.0
 10
179.8011170721001
 20
76.35021614202829
 30
0.0
 10
179.8011170721001
 20
76.43452330196288
 30
0.0
 10
179.8011170721001
 20
76.46334817880474
 30
0.0
 10
179.8011170721001
 20
76.52170725737024
 30
0.0
 10
179.8011170721001
 20
76.55095837858832
 30
0.0
 10
179.8011170721001
 20
76.5808254840369
 30
0.0
  0
LINE
  5
15B
330
1F
100
AcDbEntity
  8
0
  6
Continuous
 62
     8
370
    25
100
AcDbLine
 10
196.801117534
 20
82.5808259162
 30
0.0
 11
179.8011166102
 21
82.5808259162
 31
0.0
  0
LINE
  5
15C
330
1F
100
AcDbEntity
  8
0
  6
Continuous
 62
     8
370
    25
100
AcDbLine
 10
195.670818357
 20
77.080825946
 30
0.0
 11
195.8566726243
 21
77.080825946
 31
0.0
  0
LINE
  5
15D
330
1F
100
AcDbEntity
  8
0
  6
Continuous
 62
     8
370
    25
100
AcDbLine
 10
180.7455615199
 20
77.080825946
 30
0.0
 11
180.9314157872
 21
77.080825946
 31
0.0
  0
LINE
  5
15E
330
1F
100
AcDbEntity
  8
0
  6
Continuous
 62
     8
370
    25
100
AcDbLine
 10
196.801117534
 20
76.0808253164
 30
0.0
 11
196.6863720736
 21
76.0808253164
 31
0.0
  0
LINE
  5
15F
330
1F
100
AcDbEntity
  8
0
  6
Continuous
 62
     8
370
    25
100
AcDbLine
 10
179.8011166102
 20
76.0808253164
 30
0.0
 11
179.9158620706
 21
76.0808253164
 31
0.0
  0
LWPOLYLINE
  5
160
330
1F
100
AcDbEntity
  8
0
  6
Continuous
 62
     8
370
    25
100
AcDbPolyline
 90
        3
 70
   128
 43
0.0
 10
196.3011174521
 20
76.580825864
 10
196.2144103891
 20
76.5904324564
 10
196.1965383089
 20
76.5948646205
  0
ARC
  5
161
330
1F
100
AcDbEntity
  8
0
  6
Continuous
 62
     8
370
    25
100
AcDbCircle
 10
196.4082870178
 20
77.0797125039
 30
0.0
 40
0.551615517180185
100
AcDbArc
 50
179.884347748
 51
200.8856234909
  0
ARC
  5
162
330
1F
100
AcDbEntity
  8
0
  6
Continuous
 62
     8
370
    25
100
AcDbCircle
 10
180.1939471264
 20
77.0797125039
 30
0.0
 40
0.551615517180185
100
AcDbArc
 50
339.1143765091
 51
0.115652252
  0
LWPOLYLINE
  5
163
330
1F
100
AcDbEntity
  8
0
  6
Continuous
 62
     8
370
    25
100
AcDbPolyline
 90
        3
 70
   128
 43
0.0
 10
180.4056958353
 20
76.5948646205
 10
180.3878237551
 20
76.5904324564
 10
180.3011166921
 20
76.580825864
  0
LINE
  5
164
330
1F
100
AcDbEntity
  8
0
  6
Continuous
 62
     8
370
    25
100
AcDbLine
 10
196.3011174521
 20
76.4904717418
 30
0.0
 11
196.3011174521
 21
76.580825864
 31
0.0
  0
LINE
  5
165
330
1F
100
AcDbEntity
  8
0
  6
Continuous
 62
     8
370
    25
100
AcDbLine
 10
180.3011166921
 20
76.580825864
 30
0.0
 11
180.3011166921
 21
76.4904717418
 31
0.0
  0
INSERT
  5
171
330
1F
100
AcDbEntity
  8
0
  6
Continuous
 62
     7
370
    18
100
AcDbBlockReference
  2
SW_CENTERMARKSYMBOL_0
 10
188.3011170721
 20
68.580825484
 30
0.0
  0
ARC
  5
172
330
1F
100
AcDbEntity
  8
0
  6
Continuous
 62
     7
370
    18
100
AcDbCircle
 10
188.3011170721
 20
68.580825484
 30
0.0
 40
8.334121500000009
100
AcDbArc
 50
75.0
 51
345.0
  0
ARC
  5
173
330
1F
100
AcDbEntity
  8
0
  6
Continuous
 62
     7
370
    18
100
AcDbCircle
 10
188.3011170721
 20
68.580825484
 30
0.0
 40
8.334121500000009
100
AcDbArc
 50
75.0
 51
345.0
  0
LINE
  5
174
330
1F
100
AcDbEntity
  8
0
  6
Continuous
 62
     7
370
    18
100
AcDbLine
 10
197.6489772008
 20
96.5453013653
 30
0.0
 11
198.0513045721
 21
83.670825484
 31
0.0
  0
LINE
  5
175
330
1F
100
AcDbEntity
  8
0
  6
Continuous
 62
     7
370
    18
100
AcDbLine
 10
178.9532569434
 20
96.5453013653
 30
0.0
 11
178.5509295721
 21
83.670825484
 31
0.0
  0
LINE
  5
176
330
1F
100
AcDbEntity
  8
0
  6
Continuous
 62
     7
370
    18
100
AcDbLine
 10
177.6439295721
 20
83.670825484
 30
0.0
 11
198.9583045721
 21
83.670825484
 31
0.0
  0
LINE
  5
177
330
1F
100
AcDbEntity
  8
0
  6
Continuous
 62
     7
370
    25
100
AcDbLine
 10
87.5644881389
 20
125.8795619695
 30
0.0
 11
100.0644873939
 21
125.8795619695
 31
0.0
  0
LINE
  5
178
330
1F
100
AcDbEntity
  8
0
  6
Continuous
 62
     7
370
    25
100
AcDbLine
 10
100.0644873939
 20
148.3795628636
 30
0.0
 11
87.5644881389
 21
148.3795628636
 31
0.0
  0
LINE
  5
179
330
1F
100
AcDbEntity
  8
0
  6
Continuous
 62
     7
370
    25
100
AcDbLine
 10
87.5644881389
 20
148.3795628636
 30
0.0
 11
87.0644889883
 21
147.8795627816
 31
0.0
  0
LINE
  5
17A
330
1F
100
AcDbEntity
  8
0
  6
Continuous
 62
     7
370
    25
100
AcDbLine
 10
87.0644889883
 20
126.3795620514
 30
0.0
 11
87.5644881389
 21
125.8795619695
 31
0.0
  0
ARC
  5
17B
330
1F
100
AcDbEntity
  8
0
  6
Continuous
 62
     7
370
    25
100
AcDbCircle
 10
100.0644881538
 20
126.8795624165
 30
0.0
 40
1.0
100
AcDbArc
 50
270.0
 51
0.0
  0
ARC
  5
17C
330
1F
100
AcDbEntity
  8
0
  6
Continuous
 62
     7
370
    25
100
AcDbCircle
 10
100.0644881538
 20
147.3795624165
 30
0.0
 40
1.0
100
AcDbArc
 50
0.0
 51
90.0
  0
LINE
  5
17D
330
1F
100
AcDbEntity
  8
0
  6
Continuous
 62
     7
370
    25
100
AcDbLine
 10
144.5644881687
 20
148.3795628636
 30
0.0
 11
132.0644889138
 21
148.3795628636
 31
0.0
  0
LINE
  5
17E
330
1F
100
AcDbEntity
  8
0
  6
Continuous
 62
     7
370
    25
100
AcDbLine
 10
132.0644889138
 20
125.8795619695
 30
0.0
 11
144.5644881687
 21
125.8795619695
 31
0.0
  0
ARC
  5
17F
330
1F
100
AcDbEntity
  8
0
  6
Continuous
 62
     7
370
    25
100
AcDbCircle
 10
132.0644881538
 20
147.3795624165
 30
0.0
 40
1.0
100
AcDbArc
 50
90.0
 51
180.0
  0
ARC
  5
180
330
1F
100
AcDbEntity
  8
0
  6
Continuous
 62
     7
370
    25
100
AcDbCircle
 10
132.0644881538
 20
126.8795624165
 30
0.0
 40
1.0
100
AcDbArc
 50
180.0
 51
270.0
  0
LINE
  5
181
330
1F
100
AcDbEntity
  8
0
  6
Continuous
 62
     7
370
    25
100
AcDbLine
 10
144.5644881687
 20
125.8795619695
 30
0.0
 11
145.0644873194
 21
126.3795620514
 31
0.0
  0
LINE
  5
182
330
1F
100
AcDbEntity
  8
0
  6
Continuous
 62
     7
370
    25
100
AcDbLine
 10
145.0644873194
 20
147.8795627816
 30
0.0
 11
144.5644881687
 21
148.3795628636
 31
0.0
  0
ARC
  5
183
330
1F
100
AcDbEntity
  8
0
  6
Continuous
 62
     7
370
    25
100
AcDbCircle
 10
102.0644881538
 20
127.6295624165
 30
0.0
 40
1.0
100
AcDbArc
 50
90.0
 51
180.0
  0
ARC
  5
184
330
1F
100
AcDbEntity
  8
0
  6
Continuous
 62
     7
370
    25
100
AcDbCircle
 10
102.0644881538
 20
146.6295624165
 30
0.0
 40
1.0
100
AcDbArc
 50
180.0
 51
270.0
  0
ARC
  5
185
330
1F
100
AcDbEntity
  8
0
  6
Continuous
 62
     7
370
    25
100
AcDbCircle
 10
130.0644881538
 20
146.6295624165
 30
0.0
 40
1.0
100
AcDbArc
 50
270.0
 51
0.0
  0
ARC
  5
186
330
1F
100
AcDbEntity
  8
0
  6
Continuous
 62
     7
370
    25
100
AcDbCircle
 10
130.0644881538
 20
127.6295624165
 30
0.0
 40
1.0
100
AcDbArc
 50
0.0
 51
90.0
  0
LINE
  5
187
330
1F
100
AcDbEntity
  8
0
  6
Continuous
 62
     7
370
    25
100
AcDbLine
 10
107.5644876919
 20
145.6295628785
 30
0.0
 11
102.0644877217
 21
145.6295628785
 31
0.0
  0
LINE
  5
188
330
1F
100
AcDbEntity
  8
0
  6
Continuous
 62
     7
370
    25
100
AcDbLine
 10
130.064488586
 20
145.6295628785
 30
0.0
 11
126.3144884369
 21
145.6295628785
 31
0.0
  0
LINE
  5
189
330
1F
100
AcDbEntity
  8
0
  6
Continuous
 62
     7
370
    25
100
AcDbLine
 10
124.8144881911
 20
145.6295628785
 30
0.0
 11
124.5644886158
 21
145.6295628785
 31
0.0
  0
LINE
  5
18A
330
1F
100
AcDbEntity
  8
0
  6
Continuous
 62
     7
370
    25
100
AcDbLine
 10
124.5644886158
 20
128.6295619546
 30
0.0
 11
130.064488586
 21
128.6295619546
 31
0.0
  0
LINE
  5
18B
330
1F
100
AcDbEntity
  8
0
  6
Continuous
 62
     7
370
    25
100
AcDbLine
 10
102.0644877217
 20
128.6295619546
 30
0.0
 11
107.5644876919
 21
128.6295619546
 31
0.0
  0
ARC
  5
18C
330
1F
100
AcDbEntity
  8
0
  6
Continuous
 62
     7
370
    25
100
AcDbCircle
 10
125.8562305843
 20
145.4295624165
 30
0.0
 40
0.500000000000009
100
AcDbArc
 50
23.5781784782
 51
90.0
  0
ARC
  5
18D
330
1F
100
AcDbEntity
  8
0
  6
Continuous
 62
     7
370
    25
100
AcDbCircle
 10
125.2727457233
 20
145.4295624165
 30
0.0
 40
0.500000000000009
100
AcDbArc
 50
90.0
 51
156.4218215218
  0
CIRCLE
  5
18E
330
1F
100
AcDbEntity
  8
0
  6
Continuous
 62
     7
370
    25
100
AcDbCircle
 10
116.0644881538
 20
137.1295624165
 30
0.0
 40
8.75
  0
CIRCLE
  5
18F
330
1F
100
AcDbEntity
  8
0
  6
Continuous
 62
     7
370
    25
100
AcDbCircle
 10
116.0644881538
 20
137.1295624165
 30
0.0
 40
10.30676222727976
  0
CIRCLE
  5
190
330
1F
100
AcDbEntity
  8
0
  6
Continuous
 62
     7
370
    25
100
AcDbCircle
 10
116.0644881538
 20
137.1295624165
 30
0.0
 40
6.999999999999986
  0
CIRCLE
  5
191
330
1F
100
AcDbEntity
  8
0
  6
Continuous
 62
     7
370
    25
100
AcDbCircle
 10
116.0644881538
 20
137.1295624165
 30
0.0
 40
6.499999999999986
  0
CIRCLE
  5
192
330
1F
100
AcDbEntity
  8
0
  6
Continuous
 62
     7
370
    25
100
AcDbCircle
 10
116.0644881538
 20
137.1295624165
 30
0.0
 40
10.65729058208825
  0
LINE
  5
193
330
1F
100
AcDbEntity
  8
0
  6
Continuous
 62
     7
370
    25
100
AcDbLine
 10
87.5644881389
 20
148.3795628636
 30
0.0
 11
87.5644881389
 21
125.8795619695
 31
0.0
  0
LINE
  5
194
330
1F
100
AcDbEntity
  8
0
  6
Continuous
 62
     7
370
    25
100
AcDbLine
 10
87.0644889883
 20
126.3795620514
 30
0.0
 11
87.0644889883
 21
147.8795627816
 31
0.0
  0
LINE
  5
195
330
1F
100
AcDbEntity
  8
0
  6
Continuous
 62
     7
370
    25
100
AcDbLine
 10
101.0644884891
 20
147.3795626996
 30
0.0
 11
101.0644884891
 21
126.8795621334
 31
0.0
  0
LINE
  5
196
330
1F
100
AcDbEntity
  8
0
  6
Continuous
 62
     7
370
    25
100
AcDbLine
 10
144.5644881687
 20
125.8795619695
 30
0.0
 11
144.5644881687
 21
148.3795628636
 31
0.0
  0
LINE
  5
197
330
1F
100
AcDbEntity
  8
0
  6
Continuous
 62
     7
370
    25
100
AcDbLine
 10
131.0644878185
 20
126.8795621334
 30
0.0
 11
131.0644878185
 21
147.3795626996
 31
0.0
  0
LINE
  5
198
330
1F
100
AcDbEntity
  8
0
  6
Continuous
 62
     7
370
    25
100
AcDbLine
 10
145.0644873194
 20
147.8795627816
 30
0.0
 11
145.0644873194
 21
126.3795620514
 31
0.0
  0
SPLINE
  5
199
330
1F
100
AcDbEntity
  8
0
  6
Continuous
 62
     7
370
    25
100
AcDbSpline
210
0.0
220
0.0
230
1.0
 70
     8
 71
     3
 72
    12
 73
     8
 74
     0
 42
0.000000001
 43
0.00000001
 40
0.0
 40
0.0
 40
0.0
 40
0.0
 40
0.2499999999999999
 40
0.2499999999999999
 40
0.5
 40
0.5
 40
1.0
 40
1.0
 40
1.0
 40
1.0
 10
124.9128848027169
 20
129.0740547538345
 30
0.0
 10
124.8649266470451
 20
129.0014632410754
 30
0.0
 10
124.8286442319508
 20
128.9370769751854
 30
0.0
 10
124.7633223549147
 20
128.8260020810694
 30
0.0
 10
124.7349618389602
 20
128.7793766636308
 30
0.0
 10
124.6557054323981
 20
128.6674240254287
 30
0.0
 10
124.6102346552711
 20
128.6295624165274
 30
0.0
 10
124.5644881538222
 20
128.6295624165274
 30
0.0
  0
SPLINE
  5
19A
330
1F
100
AcDbEntity
  8
0
  6
Continuous
 62
     7
370
    25
100
AcDbSpline
210
0.0
220
0.0
230
1.0
 70
     8
 71
     3
 72
     8
 73
     4
 74
     0
 42
0.000000001
 43
0.00000001
 40
0.0
 40
0.0
 40
0.0
 40
0.0
 40
1.0
 40
1.0
 40
1.0
 40
1.0
 10
125.0644881538222
 20
129.5740068609718
 30
0.0
 10
125.0644881538222
 20
129.3748139385181
 30
0.0
 10
125.0023251657715
 20
129.2094355074289
 30
0.0
 10
124.9128848027169
 20
129.0740547538345
 30
0.0
  0
SPLINE
  5
19B
330
1F
100
AcDbEntity
  8
0
  6
Continuous
 62
     7
370
    25
100
AcDbSpline
210
0.0
220
0.0
230
1.0
 70
     8
 71
     3
 72
     8
 73
     4
 74
     0
 42
0.000000001
 43
0.00000001
 40
0.0
 40
0.0
 40
0.0
 40
0.0
 40
1.0
 40
1.0
 40
1.0
 40
1.0
 10
124.9128848027169
 20
145.1850700792203
 30
0.0
 10
125.0023251657715
 20
145.0496893256258
 30
0.0
 10
125.0644881538222
 20
144.8843108945367
 30
0.0
 10
125.0644881538222
 20
144.6851179720829
 30
0.0
  0
SPLINE
  5
19C
330
1F
100
AcDbEntity
  8
0
  6
Continuous
 62
     7
370
    25
100
AcDbSpline
210
0.0
220
0.0
230
1.0
 70
     8
 71
     3
 72
    12
 73
     8
 74
     0
 42
0.000000001
 43
0.00000001
 40
0.0
 40
0.0
 40
0.0
 40
0.0
 40
0.2499999999999999
 40
0.2499999999999999
 40
0.4999999999999998
 40
0.4999999999999998
 40
1.0
 40
1.0
 40
1.0
 40
1.0
 10
124.9128848027169
 20
145.1850700792203
 30
0.0
 10
124.8647766940888
 20
145.2578885671786
 30
0.0
 10
124.8285636366334
 20
145.3221842056181
 30
0.0
 10
124.7634594269965
 20
145.4328903691755
 30
0.0
 10
124.7352192467146
 20
145.4793438814104
 30
0.0
 10
124.6559544154604
 20
145.5914299040279
 30
0.0
 10
124.6100890321701
 20
145.6295624165274
 30
0.0
 10
124.5644881538222
 20
145.6295624165274
 30
0.0
  0
SPLINE
  5
19D
330
1F
100
AcDbEntity
  8
0
  6
Continuous
 62
     7
370
    25
100
AcDbSpline
210
0.0
220
0.0
230
1.0
 70
     8
 71
     3
 72
    12
 73
     8
 74
     0
 42
0.000000001
 43
0.00000001
 40
0.0
 40
0.0
 40
0.0
 40
0.0
 40
0.25
 40
0.25
 40
0.4999999999999998
 40
0.4999999999999998
 40
1.0
 40
1.0
 40
1.0
 40
1.0
 10
107.2160915049274
 20
145.1850700792203
 30
0.0
 10
107.2641996135718
 20
145.2578885672033
 30
0.0
 10
107.3004126710361
 20
145.3221842056617
 30
0.0
 10
107.3655168806889
 20
145.4328903692445
 30
0.0
 10
107.3937570609772
 20
145.4793438814861
 30
0.0
 10
107.4730218922502
 20
145.5914299041046
 30
0.0
 10
107.5188872754459
 20
145.6295624165274
 30
0.0
 10
107.5644881538222
 20
145.6295624165274
 30
0.0
  0
SPLINE
  5
19E
330
1F
100
AcDbEntity
  8
0
  6
Continuous
 62
     7
370
    25
100
AcDbSpline
210
0.0
220
0.0
230
1.0
 70
     8
 71
     3
 72
     8
 73
     4
 74
     0
 42
0.000000001
 43
0.00000001
 40
0.0
 40
0.0
 40
0.0
 40
0.0
 40
1.0
 40
1.0
 40
1.0
 40
1.0
 10
107.0644881538222
 20
144.6851179720829
 30
0.0
 10
107.0644881538222
 20
144.8843108945367
 30
0.0
 10
107.1266511418729
 20
145.0496893256258
 30
0.0
 10
107.2160915049274
 20
145.1850700792203
 30
0.0
  0
SPLINE
  5
19F
330
1F
100
AcDbEntity
  8
0
  6
Continuous
 62
     7
370
    25
100
AcDbSpline
210
0.0
220
0.0
230
1.0
 70
     8
 71
     3
 72
     8
 73
     4
 74
     0
 42
0.000000001
 43
0.00000001
 40
0.0
 40
0.0
 40
0.0
 40
0.0
 40
1.0
 40
1.0
 40
1.0
 40
1.0
 10
107.2160915049274
 20
129.0740547538345
 30
0.0
 10
107.1266511418729
 20
129.2094355074289
 30
0.0
 10
107.0644881538222
 20
129.3748139385181
 30
0.0
 10
107.0644881538222
 20
129.5740068609718
 30
0.0
  0
SPLINE
  5
1A0
330
1F
100
AcDbEntity
  8
0
  6
Continuous
 62
     7
370
    25
100
AcDbSpline
210
0.0
220
0.0
230
1.0
 70
     8
 71
     3
 72
    12
 73
     8
 74
     0
 42
0.000000001
 43
0.00000001
 40
0.0
 40
0.0
 40
0.0
 40
0.0
 40
0.2499999999999998
 40
0.2499999999999998
 40
0.4999999999999999
 40
0.4999999999999999
 40
1.0
 40
1.0
 40
1.0
 40
1.0
 10
107.2160915049274
 20
129.0740547538345
 30
0.0
 10
107.2640890767664
 20
129.0014035790813
 30
0.0
 10
107.3003276506655
 20
128.9370860564901
 30
0.0
 10
107.3655326058918
 20
128.8262068682829
 30
0.0
 10
107.393899663152
 20
128.7795465017347
 30
0.0
 10
107.4733564386413
 20
128.6672878427838
 30
0.0
 10
107.5188024184918
 20
128.6295624165274
 30
0.0
 10
107.5644881538222
 20
128.6295624165274
 30
0.0
  0
ARC
  5
1A1
330
1F
100
AcDbEntity
  8
0
  6
Continuous
 62
     7
370
    25
100
AcDbCircle
 10
109.5644881538
 20
145.1295624165
 30
0.0
 40
0.5
100
AcDbArc
 50
90.0
 51
175.7282249686
  0
LINE
  5
1A2
330
1F
100
AcDbEntity
  8
0
  6
Continuous
 62
     7
370
    25
100
AcDbLine
 10
109.5644880197
 20
145.6295628785
 30
0.0
 11
109.6358147561
 21
145.6295628785
 31
0.0
  0
ARC
  5
1A3
330
1F
100
AcDbEntity
  8
0
  6
Continuous
 62
     7
370
    25
100
AcDbCircle
 10
122.5644881538
 20
145.1295624165
 30
0.0
 40
0.5
100
AcDbArc
 50
4.2717750314
 51
90.0
  0
LINE
  5
1A4
330
1F
100
AcDbEntity
  8
0
  6
Continuous
 62
     7
370
    25
100
AcDbLine
 10
122.4931615516
 20
145.6295628785
 30
0.0
 11
122.5644882879
 21
145.6295628785
 31
0.0
  0
ARC
  5
1A5
330
1F
100
AcDbEntity
  8
0
  6
Continuous
 62
     7
370
    25
100
AcDbCircle
 10
122.5644881538
 20
129.1295624165
 30
0.0
 40
0.5
100
AcDbArc
 50
270.0
 51
355.7282249686
  0
LINE
  5
1A6
330
1F
100
AcDbEntity
  8
0
  6
Continuous
 62
     7
370
    25
100
AcDbLine
 10
122.5644882879
 20
128.6295619546
 30
0.0
 11
122.4931615516
 21
128.6295619546
 31
0.0
  0
ARC
  5
1A7
330
1F
100
AcDbEntity
  8
0
  6
Continuous
 62
     7
370
    25
100
AcDbCircle
 10
109.5644881538
 20
129.1295624165
 30
0.0
 40
0.5
100
AcDbArc
 50
184.2717750314
 51
270.0
  0
LINE
  5
1A8
330
1F
100
AcDbEntity
  8
0
  6
Continuous
 62
     7
370
    25
100
AcDbLine
 10
109.6358147561
 20
128.6295619546
 30
0.0
 11
109.5644880197
 21
128.6295619546
 31
0.0
  0
LINE
  5
1A9
330
1F
100
AcDbEntity
  8
0
  6
Continuous
 62
     7
370
    25
100
AcDbLine
 10
124.0644885338
 20
145.6295628785
 30
0.0
 11
124.0644885338
 21
145.1295627965
 31
0.0
  0
LINE
  5
1AA
330
1F
100
AcDbEntity
  8
0
  6
Continuous
 62
     7
370
    25
100
AcDbLine
 10
122.5644882879
 20
145.6295628785
 30
0.0
 11
124.0644885338
 21
145.6295628785
 31
0.0
  0
LINE
  5
1AB
330
1F
100
AcDbEntity
  8
0
  6
Continuous
 62
     7
370
    25
100
AcDbLine
 10
108.0644877738
 20
145.6295628785
 30
0.0
 11
108.0644877738
 21
145.1295627965
 31
0.0
  0
LINE
  5
1AC
330
1F
100
AcDbEntity
  8
0
  6
Continuous
 62
     7
370
    25
100
AcDbLine
 10
108.0644877738
 20
145.6295628785
 30
0.0
 11
109.5644880197
 21
145.6295628785
 31
0.0
  0
LINE
  5
1AD
330
1F
100
AcDbEntity
  8
0
  6
Continuous
 62
     7
370
    25
100
AcDbLine
 10
108.0644877738
 20
128.6295619546
 30
0.0
 11
108.0644877738
 21
129.1295620365
 31
0.0
  0
LINE
  5
1AE
330
1F
100
AcDbEntity
  8
0
  6
Continuous
 62
     7
370
    25
100
AcDbLine
 10
109.5644880197
 20
128.6295619546
 30
0.0
 11
108.0644877738
 21
128.6295619546
 31
0.0
  0
LINE
  5
1AF
330
1F
100
AcDbEntity
  8
0
  6
Continuous
 62
     7
370
    25
100
AcDbLine
 10
124.0644885338
 20
128.6295619546
 30
0.0
 11
124.0644885338
 21
129.1295620365
 31
0.0
  0
LINE
  5
1B0
330
1F
100
AcDbEntity
  8
0
  6
Continuous
 62
     7
370
    25
100
AcDbLine
 10
124.0644885338
 20
128.6295619546
 30
0.0
 11
122.5644882879
 21
128.6295619546
 31
0.0
  0
ARC
  5
1B1
330
1F
100
AcDbEntity
  8
0
  6
Continuous
 62
     7
370
    25
100
AcDbCircle
 10
125.0382525731
 20
145.1590746677
 30
0.0
 40
0.4746822493593963
100
AcDbArc
 50
183.5644831647
 51
273.1682924318
  0
ARC
  5
1B2
330
1F
100
AcDbEntity
  8
0
  6
Continuous
 62
     7
370
    25
100
AcDbCircle
 10
107.0907237345
 20
145.1590746677
 30
0.0
 40
0.4746822493593845
100
AcDbArc
 50
266.8317075682
 51
356.4355168353
  0
ARC
  5
1B3
330
1F
100
AcDbEntity
  8
0
  6
Continuous
 62
     7
370
    25
100
AcDbCircle
 10
107.0907237345
 20
129.1000501653
 30
0.0
 40
0.4746822493593845
100
AcDbArc
 50
3.5644831647
 51
93.1682924318
  0
ARC
  5
1B4
330
1F
100
AcDbEntity
  8
0
  6
Continuous
 62
     7
370
    25
100
AcDbCircle
 10
125.0382525731
 20
129.1000501653
 30
0.0
 40
0.4746822493593963
100
AcDbArc
 50
86.8317075682
 51
176.4355168353
  0
LINE
  5
1B5
330
1F
100
AcDbEntity
  8
0
  6
Continuous
 62
     7
370
    25
100
AcDbLine
 10
108.0644877738
 20
145.1295627965
 30
0.0
 11
107.5644876919
 21
145.1295627965
 31
0.0
  0
ARC
  5
1B6
330
1F
100
AcDbEntity
  8
0
  6
Continuous
 62
     7
370
    25
100
AcDbCircle
 10
108.0644881538
 20
145.1295624165
 30
0.0
 40
0.5
100
AcDbArc
 50
90.0
 51
180.0
  0
LINE
  5
1B7
330
1F
100
AcDbEntity
  8
0
  6
Continuous
 62
     7
370
    25
100
AcDbLine
 10
124.5644886158
 20
145.1295627965
 30
0.0
 11
124.0644885338
 21
145.1295627965
 31
0.0
  0
ARC
  5
1B8
330
1F
100
AcDbEntity
  8
0
  6
Continuous
 62
     7
370
    25
100
AcDbCircle
 10
124.0644881538
 20
145.1295624165
 30
0.0
 40
0.5
100
AcDbArc
 50
0.0
 51
90.0
  0
LINE
  5
1B9
330
1F
100
AcDbEntity
  8
0
  6
Continuous
 62
     7
370
    25
100
AcDbLine
 10
124.5644886158
 20
143.5582358143
 30
0.0
 11
124.5644886158
 21
145.1295627965
 31
0.0
  0
LINE
  5
1BA
330
1F
100
AcDbEntity
  8
0
  6
Continuous
 62
     7
370
    25
100
AcDbLine
 10
107.5644876919
 20
143.5582358143
 30
0.0
 11
107.5644876919
 21
145.1295627965
 31
0.0
  0
LINE
  5
1BB
330
1F
100
AcDbEntity
  8
0
  6
Continuous
 62
     7
370
    25
100
AcDbLine
 10
107.5644876919
 20
129.1295620365
 30
0.0
 11
108.0644877738
 21
129.1295620365
 31
0.0
  0
LINE
  5
1BC
330
1F
100
AcDbEntity
  8
0
  6
Continuous
 62
     7
370
    25
100
AcDbLine
 10
107.5644876919
 20
129.1295620365
 30
0.0
 11
107.5644876919
 21
130.7008890188
 31
0.0
  0
LINE
  5
1BD
330
1F
100
AcDbEntity
  8
0
  6
Continuous
 62
     7
370
    25
100
AcDbLine
 10
124.5644886158
 20
129.1295620365
 30
0.0
 11
124.5644886158
 21
130.7008890188
 31
0.0
  0
LINE
  5
1BE
330
1F
100
AcDbEntity
  8
0
  6
Continuous
 62
     7
370
    25
100
AcDbLine
 10
124.0644885338
 20
129.1295620365
 30
0.0
 11
124.5644886158
 21
129.1295620365
 31
0.0
  0
ARC
  5
1BF
330
1F
100
AcDbEntity
  8
0
  6
Continuous
 62
     7
370
    25
100
AcDbCircle
 10
108.0644881538
 20
129.1295624165
 30
0.0
 40
0.5
100
AcDbArc
 50
180.0
 51
270.0
  0
ARC
  5
1C0
330
1F
100
AcDbEntity
  8
0
  6
Continuous
 62
     7
370
    25
100
AcDbCircle
 10
124.0644881538
 20
129.1295624165
 30
0.0
 40
0.5
100
AcDbArc
 50
270.0
 51
0.0
  0
SPLINE
  5
1C1
330
1F
100
AcDbEntity
  8
0
  6
Continuous
 62
     7
370
    25
100
AcDbSpline
210
0.0
220
0.0
230
1.0
 70
     8
 71
     3
 72
    18
 73
    14
 74
     0
 42
0.000000001
 43
0.00000001
 40
0.0
 40
0.0
 40
0.0
 40
0.0
 40
0.125
 40
0.125
 40
0.25
 40
0.25
 40
0.4999999999999999
 40
0.4999999999999999
 40
0.75
 40
0.75
 40
0.875
 40
0.875
 40
1.0
 40
1.0
 40
1.0
 40
1.0
 10
111.7924862811634
 20
142.0285419020937
 30
0.0
 10
112.1348153091279
 20
141.9981362288639
 30
0.0
 10
112.4782656637417
 20
141.9614631849693
 30
0.0
 10
113.1704756829859
 20
141.8797627123841
 30
0.0
 10
113.519142724901
 20
141.8345768413275
 30
0.0
 10
114.5826360871396
 20
141.7005927267331
 30
0.0
 10
115.3071077112328
 20
141.6141841562287
 30
0.0
 10
116.8210545687171
 20
141.6141263194652
 30
0.0
 10
117.5458615705729
 20
141.7005343587958
 30
0.0
 10
118.6096071730769
 20
141.8345473503958
 30
0.0
 10
118.9583353437967
 20
141.8797423789692
 30
0.0
 10
119.6506440417075
 20
141.961456149311
 30
0.0
 10
119.9941315122832
 20
141.9981336098959
 30
0.0
 10
120.3364900264809
 20
142.0285419020937
 30
0.0
  0
SPLINE
  5
1C2
330
1F
100
AcDbEntity
  8
0
  6
Continuous
 62
     7
370
    25
100
AcDbSpline
210
0.0
220
0.0
230
1.0
 70
     8
 71
     3
 72
    18
 73
    14
 74
     0
 42
0.000000001
 43
0.00000001
 40
0.0
 40
0.0
 40
0.0
 40
0.0
 40
0.125
 40
0.125
 40
0.2499999999999999
 40
0.2499999999999999
 40
0.4999999999999999
 40
0.4999999999999999
 40
0.7499999999999998
 40
0.7499999999999998
 40
0.8749999999999999
 40
0.8749999999999999
 40
1.0
 40
1.0
 40
1.0
 40
1.0
 10
120.3364900264809
 20
132.230582930961
 30
0.0
 10
119.9941609985164
 20
132.2609886041909
 30
0.0
 10
119.6507106439026
 20
132.2976616480854
 30
0.0
 10
118.9585006246584
 20
132.3793621206707
 30
0.0
 10
118.6098335827434
 20
132.4245479917273
 30
0.0
 10
117.5463402205047
 20
132.5585321063217
 30
0.0
 10
116.8218685964115
 20
132.644940676826
 30
0.0
 10
115.3079217389272
 20
132.6449985135895
 30
0.0
 10
114.5831147370715
 20
132.5585904742589
 30
0.0
 10
113.5193691345674
 20
132.4245774826589
 30
0.0
 10
113.1706409638476
 20
132.3793824540856
 30
0.0
 10
112.4783322659369
 20
132.2976686837438
 30
0.0
 10
112.1348447953611
 20
132.2609912231588
 30
0.0
 10
111.7924862811634
 20
132.230582930961
 30
0.0
  0
ARC
  5
1C3
330
1F
100
AcDbEntity
  8
0
  6
Continuous
 62
     7
370
    25
100
AcDbCircle
 10
107.2536691384
 20
145.6435818422
 30
0.0
 40
0.460049525243698
100
AcDbArc
 50
265.3147112477
 51
327.1812658513
  0
ARC
  5
1C4
330
1F
100
AcDbEntity
  8
0
  6
Continuous
 62
     7
370
    25
100
AcDbCircle
 10
124.8753071693
 20
145.6435818422
 30
0.0
 40
0.4600495252436969
100
AcDbArc
 50
212.8187341487
 51
274.6852887523
  0
ARC
  5
1C5
330
1F
100
AcDbEntity
  8
0
  6
Continuous
 62
     7
370
    25
100
AcDbCircle
 10
124.8753071693
 20
128.6155429908
 30
0.0
 40
0.4600495252436502
100
AcDbArc
 50
85.3147112477
 51
147.1812658513
  0
ARC
  5
1C6
330
1F
100
AcDbEntity
  8
0
  6
Continuous
 62
     7
370
    25
100
AcDbCircle
 10
107.2536691384
 20
128.6155429908
 30
0.0
 40
0.4600495252436502
100
AcDbArc
 50
32.8187341487
 51
94.6852887523
  0
SPLINE
  5
1C7
330
1F
100
AcDbEntity
  8
0
  6
Continuous
 62
     7
370
    25
100
AcDbSpline
210
0.0
220
0.0
230
1.0
 70
     8
 71
     3
 72
    12
 73
     8
 74
     0
 42
0.000000001
 43
0.00000001
 40
0.0
 40
0.0
 40
0.0
 40
0.0
 40
0.2499999999999998
 40
0.2499999999999998
 40
0.4999999999999998
 40
0.4999999999999998
 40
1.0
 40
1.0
 40
1.0
 40
1.0
 10
107.6402898293748
 20
145.3942429438354
 30
0.0
 10
107.6625566715287
 20
145.4299295779391
 30
0.0
 10
107.6695947041832
 20
145.4634884542385
 30
0.0
 10
107.6704698256676
 20
145.5221321992938
 30
0.0
 10
107.6638058317185
 20
145.5473591152555
 30
0.0
 10
107.6331534823002
 20
145.608392928756
 30
0.0
 10
107.5985447991759
 20
145.6295624165274
 30
0.0
 10
107.5644881538222
 20
145.6295624165274
 30
0.0
  0
SPLINE
  5
1C8
330
1F
100
AcDbEntity
  8
0
  6
Continuous
 62
     7
370
    25
100
AcDbSpline
210
0.0
220
0.0
230
1.0
 70
    24
 71
     3
 72
    16
 73
    12
 74
     0
 42
0.000000001
 43
0.00000001
 40
0.0
 40
0.0
 40
0.0
 40
0.0
 40
0.2500000000000002
 40
0.2500000000000002
 40
0.5000000000000004
 40
0.5000000000000004
 40
0.7500000000000004
 40
0.7500000000000004
 40
0.8750000000000002
 40
0.8750000000000002
 40
1.0
 40
1.0
 40
1.0
 40
1.0
 10
108.0644881538222
 20
145.6295624165274
 30
0.0
 10
108.0644881538222
 20
145.6295624165274
 30
0.0
 10
108.044556368135
 20
145.6295624165274
 30
0.0
 10
107.9839498215315
 20
145.6295624165274
 30
0.0
 10
107.9428393140863
 20
145.6295624165274
 30
0.0
 10
107.8484628576871
 20
145.6295624165274
 30
0.0
 10
107.7950974958308
 20
145.6295624165274
 30
0.0
 10
107.7107903358962
 20
145.6295624165274
 30
0.0
 10
107.6819654590543
 20
145.6295624165274
 30
0.0
 10
107.6236063804888
 20
145.6295624165274
 30
0.0
 10
107.5943552592707
 20
145.6295624165274
 30
0.0
 10
107.5644881538222
 20
145.6295624165274
 30
0.0
  0
SPLINE
  5
1C9
330
1F
100
AcDbEntity
  8
0
  6
Continuous
 62
     7
370
    25
100
AcDbSpline
210
0.0
220
0.0
230
1.0
 70
     8
 71
     3
 72
    12
 73
     8
 74
     0
 42
0.000000001
 43
0.00000001
 40
0.0
 40
0.0
 40
0.0
 40
0.0
 40
0.2500000000000001
 40
0.2500000000000001
 40
0.5
 40
0.5
 40
1.0
 40
1.0
 40
1.0
 40
1.0
 10
124.4886864782695
 20
145.3942429438354
 30
0.0
 10
124.4664196361173
 20
145.4299295779364
 30
0.0
 10
124.4593816034624
 20
145.4634884542335
 30
0.0
 10
124.4585064819758
 20
145.5221321992856
 30
0.0
 10
124.4651704759231
 20
145.5473591152464
 30
0.0
 10
124.4958228253357
 20
145.6083929287467
 30
0.0
 10
124.5304315081859
 20
145.6295624165274
 30
0.0
 10
124.5644881538222
 20
145.6295624165274
 30
0.0
  0
SPLINE
  5
1CA
330
1F
100
AcDbEntity
  8
0
  6
Continuous
 62
     7
370
    25
100
AcDbSpline
210
0.0
220
0.0
230
1.0
 70
    24
 71
     3
 72
    16
 73
    12
 74
     0
 42
0.000000001
 43
0.00000001
 40
0.0
 40
0.0
 40
0.0
 40
0.0
 40
0.2500000000000002
 40
0.2500000000000002
 40
0.5000000000000004
 40
0.5000000000000004
 40
0.7500000000000004
 40
0.7500000000000004
 40
0.8750000000000002
 40
0.8750000000000002
 40
1.0
 40
1.0
 40
1.0
 40
1.0
 10
124.0644881538222
 20
145.6295624165274
 30
0.0
 10
124.0644881538222
 20
145.6295624165274
 30
0.0
 10
124.0844199395093
 20
145.6295624165274
 30
0.0
 10
124.1450264861129
 20
145.6295624165274
 30
0.0
 10
124.1861369935581
 20
145.6295624165274
 30
0.0
 10
124.2805134499573
 20
145.6295624165274
 30
0.0
 10
124.3338788118136
 20
145.6295624165274
 30
0.0
 10
124.4181859717482
 20
145.6295624165274
 30
0.0
 10
124.44701084859
 20
145.6295624165274
 30
0.0
 10
124.5053699271555
 20
145.6295624165274
 30
0.0
 10
124.5346210483736
 20
145.6295624165274
 30
0.0
 10
124.5644881538222
 20
145.6295624165274
 30
0.0
  0
SPLINE
  5
1CB
330
1F
100
AcDbEntity
  8
0
  6
Continuous
 62
     7
370
    25
100
AcDbSpline
210
0.0
220
0.0
230
1.0
 70
     8
 71
     3
 72
    12
 73
     8
 74
     0
 42
0.000000001
 43
0.00000001
 40
0.0
 40
0.0
 40
0.0
 40
0.0
 40
0.25
 40
0.25
 40
0.5
 40
0.5
 40
1.0
 40
1.0
 40
1.0
 40
1.0
 10
124.4886864782695
 20
128.8648818892194
 30
0.0
 10
124.4664196361173
 20
128.8291952551183
 30
0.0
 10
124.4593816034624
 20
128.7956363788213
 30
0.0
 10
124.4585064819758
 20
128.7369926337692
 30
0.0
 10
124.4651704759231
 20
128.7117657178083
 30
0.0
 10
124.4958228253357
 20
128.6507319043081
 30
0.0
 10
124.5304315081858
 20
128.6295624165274
 30
0.0
 10
124.5644881538222
 20
128.6295624165274
 30
0.0
  0
SPLINE
  5
1CC
330
1F
100
AcDbEntity
  8
0
  6
Continuous
 62
     7
370
    25
100
AcDbSpline
210
0.0
220
0.0
230
1.0
 70
    24
 71
     3
 72
    16
 73
    12
 74
     0
 42
0.000000001
 43
0.00000001
 40
0.0
 40
0.0
 40
0.0
 40
0.0
 40
0.2500000000000002
 40
0.2500000000000002
 40
0.5000000000000002
 40
0.5000000000000002
 40
0.7500000000000002
 40
0.7500000000000002
 40
0.8750000000000001
 40
0.8750000000000001
 40
1.0
 40
1.0
 40
1.0
 40
1.0
 10
124.0644881538222
 20
128.6295624165274
 30
0.0
 10
124.0644881538222
 20
128.6295624165274
 30
0.0
 10
124.0844199395093
 20
128.6295624165274
 30
0.0
 10
124.1450264861129
 20
128.6295624165274
 30
0.0
 10
124.1861369935581
 20
128.6295624165274
 30
0.0
 10
124.2805134499573
 20
128.6295624165274
 30
0.0
 10
124.3338788118136
 20
128.6295624165274
 30
0.0
 10
124.4181859717482
 20
128.6295624165274
 30
0.0
 10
124.44701084859
 20
128.6295624165274
 30
0.0
 10
124.5053699271555
 20
128.6295624165274
 30
0.0
 10
124.5346210483736
 20
128.6295624165274
 30
0.0
 10
124.5644881538222
 20
128.6295624165274
 30
0.0
  0
SPLINE
  5
1CD
330
1F
100
AcDbEntity
  8
0
  6
Continuous
 62
     7
370
    25
100
AcDbSpline
210
0.0
220
0.0
230
1.0
 70
     8
 71
     3
 72
    12
 73
     8
 74
     0
 42
0.000000001
 43
0.00000001
 40
0.0
 40
0.0
 40
0.0
 40
0.0
 40
0.2500000000000002
 40
0.2500000000000002
 40
0.5000000000000001
 40
0.5000000000000001
 40
1.0
 40
1.0
 40
1.0
 40
1.0
 10
107.6402898293748
 20
128.8648818892194
 30
0.0
 10
107.6625566715287
 20
128.8291952551156
 30
0.0
 10
107.6695947041832
 20
128.7956363788163
 30
0.0
 10
107.6704698256676
 20
128.736992633761
 30
0.0
 10
107.6638058317185
 20
128.7117657177993
 30
0.0
 10
107.6331534823003
 20
128.6507319042988
 30
0.0
 10
107.5985447991757
 20
128.6295624165274
 30
0.0
 10
107.5644881538222
 20
128.6295624165274
 30
0.0
  0
SPLINE
  5
1CE
330
1F
100
AcDbEntity
  8
0
  6
Continuous
 62
     7
370
    25
100
AcDbSpline
210
0.0
220
0.0
230
1.0
 70
    24
 71
     3
 72
    16
 73
    12
 74
     0
 42
0.000000001
 43
0.00000001
 40
0.0
 40
0.0
 40
0.0
 40
0.0
 40
0.2499999999999999
 40
0.2499999999999999
 40
0.5
 40
0.5
 40
0.7500000000000001
 40
0.7500000000000001
 40
0.875
 40
0.875
 40
1.0
 40
1.0
 40
1.0
 40
1.0
 10
108.0644881538222
 20
128.6295624165274
 30
0.0
 10
108.0644881538222
 20
128.6295624165274
 30
0.0
 10
108.044556368135
 20
128.6295624165274
 30
0.0
 10
107.9839498215315
 20
128.6295624165274
 30
0.0
 10
107.9428393140863
 20
128.6295624165274
 30
0.0
 10
107.8484628576871
 20
128.6295624165274
 30
0.0
 10
107.7950974958308
 20
128.6295624165274
 30
0.0
 10
107.7107903358962
 20
128.6295624165274
 30
0.0
 10
107.6819654590543
 20
128.6295624165274
 30
0.0
 10
107.6236063804888
 20
128.6295624165274
 30
0.0
 10
107.5943552592707
 20
128.6295624165274
 30
0.0
 10
107.5644881538222
 20
128.6295624165274
 30
0.0
  0
LINE
  5
1CF
330
1F
100
AcDbEntity
  8
0
  6
Continuous
 62
     7
370
    25
100
AcDbLine
 10
125.2727454639
 20
145.9295623688
 30
0.0
 11
125.8562302328
 21
145.9295623688
 31
0.0
  0
LINE
  5
1D0
330
1F
100
AcDbEntity
  8
0
  6
Continuous
 62
     7
370
    25
100
AcDbLine
 10
124.8144881911
 20
145.6295628785
 30
0.0
 11
126.3144884369
 21
145.6295628785
 31
0.0
  0
LINE
  5
1D1
330
1F
100
AcDbEntity
  8
0
  6
Continuous
 62
     8
370
    25
100
AcDbLine
 10
100.0644873939
 20
125.8795619695
 30
0.0
 11
100.0644873939
 21
148.3795628636
 31
0.0
  0
LINE
  5
1D2
330
1F
100
AcDbEntity
  8
0
  6
Continuous
 62
     8
370
    25
100
AcDbLine
 10
132.0644889138
 20
148.3795628636
 30
0.0
 11
132.0644889138
 21
125.8795619695
 31
0.0
  0
LINE
  5
1D3
330
1F
100
AcDbEntity
  8
0
  6
Continuous
 62
     8
370
    25
100
AcDbLine
 10
102.0644877217
 20
145.6295628785
 30
0.0
 11
102.0644877217
 21
128.6295619546
 31
0.0
  0
LINE
  5
1D4
330
1F
100
AcDbEntity
  8
0
  6
Continuous
 62
     8
370
    25
100
AcDbLine
 10
130.064488586
 20
128.6295619546
 30
0.0
 11
130.064488586
 21
145.6295628785
 31
0.0
  0
LINE
  5
1D5
330
1F
100
AcDbEntity
  8
0
  6
Continuous
 62
     8
370
    25
100
AcDbLine
 10
125.0644877664
 20
131.4218621454
 30
0.0
 11
125.0644877664
 21
129.5740068643
 31
0.0
  0
LINE
  5
1D6
330
1F
100
AcDbEntity
  8
0
  6
Continuous
 62
     8
370
    25
100
AcDbLine
 10
125.0644877664
 20
144.6851179688
 30
0.0
 11
125.0644877664
 21
142.8372626877
 31
0.0
  0
LINE
  5
1D7
330
1F
100
AcDbEntity
  8
0
  6
Continuous
 62
     8
370
    25
100
AcDbLine
 10
107.0644885413
 20
142.8372626877
 30
0.0
 11
107.0644885413
 21
144.6851179688
 31
0.0
  0
LINE
  5
1D8
330
1F
100
AcDbEntity
  8
0
  6
Continuous
 62
     8
370
    25
100
AcDbLine
 10
107.0644885413
 20
129.5740068643
 30
0.0
 11
107.0644885413
 21
131.4218621454
 31
0.0
  0
LINE
  5
1D9
330
1F
100
AcDbEntity
  8
0
  6
Continuous
 62
     8
370
    25
100
AcDbLine
 10
124.0644885338
 20
145.1295627965
 30
0.0
 11
123.1056416518
 21
145.1295627965
 31
0.0
  0
LINE
  5
1DA
330
1F
100
AcDbEntity
  8
0
  6
Continuous
 62
     8
370
    25
100
AcDbLine
 10
124.0644885338
 20
144.1707159145
 30
0.0
 11
124.0644885338
 21
145.1295627965
 31
0.0
  0
LINE
  5
1DB
330
1F
100
AcDbEntity
  8
0
  6
Continuous
 62
     8
370
    25
100
AcDbLine
 10
108.0644877738
 20
129.1295620365
 30
0.0
 11
109.0233346558
 21
129.1295620365
 31
0.0
  0
LINE
  5
1DC
330
1F
100
AcDbEntity
  8
0
  6
Continuous
 62
     8
370
    25
100
AcDbLine
 10
108.0644877738
 20
129.1295620365
 30
0.0
 11
108.0644877738
 21
130.0884089185
 31
0.0
  0
LINE
  5
1DD
330
1F
100
AcDbEntity
  8
0
  6
Continuous
 62
     8
370
    25
100
AcDbLine
 10
109.0233346558
 20
145.1295627965
 30
0.0
 11
108.0644877738
 21
145.1295627965
 31
0.0
  0
LINE
  5
1DE
330
1F
100
AcDbEntity
  8
0
  6
Continuous
 62
     8
370
    25
100
AcDbLine
 10
108.0644877738
 20
144.1707159145
 30
0.0
 11
108.0644877738
 21
145.1295627965
 31
0.0
  0
LINE
  5
1DF
330
1F
100
AcDbEntity
  8
0
  6
Continuous
 62
     8
370
    25
100
AcDbLine
 10
123.1056416518
 20
129.1295620365
 30
0.0
 11
124.0644885338
 21
129.1295620365
 31
0.0
  0
LINE
  5
1E0
330
1F
100
AcDbEntity
  8
0
  6
Continuous
 62
     8
370
    25
100
AcDbLine
 10
124.0644885338
 20
129.1295620365
 30
0.0
 11
124.0644885338
 21
130.0884089185
 31
0.0
  0
INSERT
  5
1EC
330
1F
100
AcDbEntity
  8
0
  6
Continuous
 62
     7
370
    18
100
AcDbBlockReference
  2
SW_CENTERMARKSYMBOL_1
 10
116.0644881538
 20
137.1295624165
 30
0.0
  0
ARC
  5
1ED
330
1F
100
AcDbEntity
  8
0
  6
Continuous
 62
     7
370
    18
100
AcDbCircle
 10
116.0644881538
 20
137.1295624165
 30
0.0
 40
9.315500000000005
100
AcDbArc
 50
75.0
 51
345.0
  0
ENDSEC
  0
SECTION
  2
OBJECTS
  0
DICTIONARY
  5
C
330
0
100
AcDbDictionary
281
     1
  3
ACAD_GROUP
350
D
  3
ACAD_LAYOUT
350
1A
  3
ACAD_MLINESTYLE
350
17
  3
ACAD_PLOTSETTINGS
350
19
  3
ACAD_PLOTSTYLENAME
350
E
  3
ACAD_SCALELIST
350
47
  0
DICTIONARY
  5
D
102
{ACAD_REACTORS
330
C
102
}
330
C
100
AcDbDictionary
281
     1
  0
DICTIONARY
  5
1A
102
{ACAD_REACTORS
330
C
102
}
330
C
100
AcDbDictionary
281
     1
  3
Layout1
350
1E
  3
Layout2
350
26
  3
Model
350
22
  0
DICTIONARY
  5
17
102
{ACAD_REACTORS
330
C
102
}
330
C
100
AcDbDictionary
281
     1
  3
Standard
350
18
  0
DICTIONARY
  5
19
102
{ACAD_REACTORS
330
C
102
}
330
C
100
AcDbDictionary
281
     1
  0
ACDBDICTIONARYWDFLT
  5
E
102
{ACAD_REACTORS
330
C
102
}
330
C
100
AcDbDictionary
281
     1
  3
Normal
350
F
100
AcDbDictionaryWithDefault
340
F
  0
DICTIONARY
  5
47
102
{ACAD_REACTORS
330
C
102
}
330
C
100
AcDbDictionary
281
     1
  3
A0
350
48
  3
A1
350
49
  3
A2
350
4A
  3
A3
350
4B
  3
A4
350
4C
  3
A5
350
4D
  3
A6
350
4E
  3
A7
350
4F
  3
A8
350
50
  3
A9
350
51
  3
B0
350
52
  3
B1
350
53
  3
B2
350
54
  3
B3
350
55
  3
B4
350
56
  3
B5
350
57
  3
B6
350
58
  3
B7
350
59
  3
B8
350
5A
  3
B9
350
5B
  3
C0
350
5C
  3
C1
350
5D
  3
C2
350
5E
  3
C3
350
5F
  3
C4
350
60
  3
C5
350
61
  3
C6
350
62
  3
C7
350
63
  3
C8
350
64
  3
C9
350
65
  3
D0
350
66
  3
D1
350
67
  3
D2
350
68
  0
LAYOUT
  5
1E
102
{ACAD_REACTORS
330
1A
102
}
330
1A
100
AcDbPlotSettings
  1

  2
none_device
  4

  6

 40
0.0
 41
0.0
 42
0.0
 43
0.0
 44
0.0
 45
0.0
 46
0.0
 47
0.0
 48
0.0
 49
0.0
140
0.0
141
0.0
142
1.0
143
1.0
 70
   688
 72
     1
 73
     0
 74
     5
  7

 75
    16
147
1.0
148
0.0
149
0.0
100
AcDbLayout
  1
Layout1
 70
     1
 71
     1
 10
0.0
 20
0.0
 11
420.0
 21
297.0
 12
0.0
 22
0.0
 32
0.0
 14
1.0000000000E+20
 24
1.0000000000E+20
 34
1.0000000000E+20
 15
-1.0000000000E+20
 25
-1.0000000000E+20
 35
-1.0000000000E+20
146
0.0
 13
0.0
 23
0.0
 33
0.0
 16
1.0
 26
0.0
 36
0.0
 17
0.0
 27
1.0
 37
0.0
 76
     0
330
1B
  0
LAYOUT
  5
26
102
{ACAD_REACTORS
330
1A
102
}
330
1A
100
AcDbPlotSettings
  1

  2
none_device
  4

  6

 40
0.0
 41
0.0
 42
0.0
 43
0.0
 44
0.0
 45
0.0
 46
0.0
 47
0.0
 48
0.0
 49
0.0
140
0.0
141
0.0
142
1.0
143
1.0
 70
   688
 72
     1
 73
     0
 74
     5
  7

 75
    16
147
1.0
148
0.0
149
0.0
100
AcDbLayout
  1
Layout2
 70
     1
 71
     2
 10
0.0
 20
0.0
 11
0.0
 21
0.0
 12
0.0
 22
0.0
 32
0.0
 14
0.0
 24
0.0
 34
0.0
 15
0.0
 25
0.0
 35
0.0
146
0.0
 13
0.0
 23
0.0
 33
0.0
 16
1.0
 26
0.0
 36
0.0
 17
0.0
 27
1.0
 37
0.0
 76
     0
330
23
  0
LAYOUT
  5
22
102
{ACAD_REACTORS
330
1A
102
}
330
1A
100
AcDbPlotSettings
  1

  2
none_device
  4
Letter_(8.50_x_11.00_Inches)
  6

 40
6.35
 41
6.35
 42
6.35000508
 43
6.35000508
 44
215.9
 45
279.4
 46
0.0
 47
0.0
 48
0.0
 49
0.0
140
0.0
141
0.0
142
1.0
143
1.0
 70
  1712
 72
     1
 73
     0
 74
     0
  7

 75
     0
147
1.0
148
0.0
149
0.0
100
AcDbLayout
  1
Model
 70
     1
 71
     0
 10
0.0
 20
0.0
 11
431.8
 21
279.4
 12
0.0
 22
0.0
 32
0.0
 14
0.0
 24
0.0
 34
0.0
 15
431.8
 25
279.4
 35
0.0
146
0.0
 13
0.0
 23
0.0
 33
0.0
 16
1.0
 26
0.0
 36
0.0
 17
0.0
 27
1.0
 37
0.0
 76
     0
330
1F
331
29
  0
MLINESTYLE
  5
18
102
{ACAD_REACTORS
330
17
102
}
330
17
100
AcDbMlineStyle
  2
Standard
 70
     0
  3

 62
   256
 51
90.0
 52
90.0
 71
     2
 49
0.5
 62
   256
  6
BYLAYER
 49
-0.5
 62
   256
  6
BYLAYER
  0
ACDBPLACEHOLDER
  5
F
102
{ACAD_REACTORS
330
E
102
}
330
E
  0
SCALE
  5
48
102
{ACAD_REACTORS
330
47
102
}
330
47
100
AcDbScale
 70
     0
300
1:1
140
1.0
141
1.0
290
     1
  0
SCALE
  5
49
102
{ACAD_REACTORS
330
47
102
}
330
47
100
AcDbScale
 70
     0
300
1:2
140
1.0
141
2.0
290
     0
  0
SCALE
  5
4A
102
{ACAD_REACTORS
330
47
102
}
330
47
100
AcDbScale
 70
     0
300
1:4
140
1.0
141
4.0
290
     0
  0
SCALE
  5
4B
102
{ACAD_REACTORS
330
47
102
}
330
47
100
AcDbScale
 70
     0
300
1:5
140
1.0
141
5.0
290
     0
  0
SCALE
  5
4C
102
{ACAD_REACTORS
330
47
102
}
330
47
100
AcDbScale
 70
     0
300
1:8
140
1.0
141
8.0
290
     0
  0
SCALE
  5
4D
102
{ACAD_REACTORS
330
47
102
}
330
47
100
AcDbScale
 70
     0
300
1:10
140
1.0
141
10.0
290
     0
  0
SCALE
  5
4E
102
{ACAD_REACTORS
330
47
102
}
330
47
100
AcDbScale
 70
     0
300
1:16
140
1.0
141
16.0
290
     0
  0
SCALE
  5
4F
102
{ACAD_REACTORS
330
47
102
}
330
47
100
AcDbScale
 70
     0
300
1:20
140
1.0
141
20.0
290
     0
  0
SCALE
  5
50
102
{ACAD_REACTORS
330
47
102
}
330
47
100
AcDbScale
 70
     0
300
1:30
140
1.0
141
30.0
290
     0
  0
SCALE
  5
51
102
{ACAD_REACTORS
330
47
102
}
330
47
100
AcDbScale
 70
     0
300
1:40
140
1.0
141
40.0
290
     0
  0
SCALE
  5
52
102
{ACAD_REACTORS
330
47
102
}
330
47
100
AcDbScale
 70
     0
300
1:50
140
1.0
141
50.0
290
     0
  0
SCALE
  5
53
102
{ACAD_REACTORS
330
47
102
}
330
47
100
AcDbScale
 70
     0
300
1:100
140
1.0
141
100.0
290
     0
  0
SCALE
  5
54
102
{ACAD_REACTORS
330
47
102
}
330
47
100
AcDbScale
 70
     0
300
2:1
140
2.0
141
1.0
290
     0
  0
SCALE
  5
55
102
{ACAD_REACTORS
330
47
102
}
330
47
100
AcDbScale
 70
     0
300
4:1
140
4.0
141
1.0
290
     0
  0
SCALE
  5
56
102
{ACAD_REACTORS
330
47
102
}
330
47
100
AcDbScale
 70
     0
300
8:1
140
8.0
141
1.0
290
     0
  0
SCALE
  5
57
102
{ACAD_REACTORS
330
47
102
}
330
47
100
AcDbScale
 70
     0
300
10:1
140
10.0
141
1.0
290
     0
  0
SCALE
  5
58
102
{ACAD_REACTORS
330
47
102
}
330
47
100
AcDbScale
 70
     0
300
100:1
140
100.0
141
1.0
290
     0
  0
SCALE
  5
59
102
{ACAD_REACTORS
330
47
102
}
330
47
100
AcDbScale
 70
     0
300
1/128" = 1'-0"
140
0.0078125
141
12.0
290
     0
  0
SCALE
  5
5A
102
{ACAD_REACTORS
330
47
102
}
330
47
100
AcDbScale
 70
     0
300
1/64" = 1'-0"
140
0.015625
141
12.0
290
     0
  0
SCALE
  5
5B
102
{ACAD_REACTORS
330
47
102
}
330
47
100
AcDbScale
 70
     0
300
1/32" = 1'-0"
140
0.03125
141
12.0
290
     0
  0
SCALE
  5
5C
102
{ACAD_REACTORS
330
47
102
}
330
47
100
AcDbScale
 70
     0
300
1/16" = 1'-0"
140
0.0625
141
12.0
290
     0
  0
SCALE
  5
5D
102
{ACAD_REACTORS
330
47
102
}
330
47
100
AcDbScale
 70
     0
300
3/32" = 1'-0"
140
0.09375
141
12.0
290
     0
  0
SCALE
  5
5E
102
{ACAD_REACTORS
330
47
102
}
330
47
100
AcDbScale
 70
     0
300
1/8" = 1'-0"
140
0.125
141
12.0
290
     0
  0
SCALE
  5
5F
102
{ACAD_REACTORS
330
47
102
}
330
47
100
AcDbScale
 70
     0
300
3/16" = 1'-0"
140
0.1875
141
12.0
290
     0
  0
SCALE
  5
60
102
{ACAD_REACTORS
330
47
102
}
330
47
100
AcDbScale
 70
     0
300
1/4" = 1'-0"
140
0.25
141
12.0
290
     0
  0
SCALE
  5
61
102
{ACAD_REACTORS
330
47
102
}
330
47
100
AcDbScale
 70
     0
300
3/8" = 1'-0"
140
0.375
141
12.0
290
     0
  0
SCALE
  5
62
102
{ACAD_REACTORS
330
47
102
}
330
47
100
AcDbScale
 70
     0
300
1/2" = 1'-0"
140
0.5
141
12.0
290
     0
  0
SCALE
  5
63
102
{ACAD_REACTORS
330
47
102
}
330
47
100
AcDbScale
 70
     0
300
3/4" = 1'-0"
140
0.75
141
12.0
290
     0
  0
SCALE
  5
64
102
{ACAD_REACTORS
330
47
102
}
330
47
100
AcDbScale
 70
     0
300
1" = 1'-0"
140
1.0
141
12.0
290
     0
  0
SCALE
  5
65
102
{ACAD_REACTORS
330
47
102
}
330
47
100
AcDbScale
 70
     0
300
1-1/2" = 1'-0"
140
1.5
141
12.0
290
     0
  0
SCALE
  5
66
102
{ACAD_REACTORS
330
47
102
}
330
47
100
AcDbScale
 70
     0
300
3" = 1'-0"
140
3.0
141
12.0
290
     0
  0
SCALE
  5
67
102
{ACAD_REACTORS
330
47
102
}
330
47
100
AcDbScale
 70
     0
300
6" = 1'-0"
140
6.0
141
12.0
290
     0
  0
SCALE
  5
68
102
{ACAD_REACTORS
330
47
102
}
330
47
100
AcDbScale
 70
     0
300
1'-0" = 1'-0"
140
12.0
141
12.0
290
     0
  0
ENDSEC
  0
EOF
