  0
SECTION
  2
HEADER
  9
$ACADVER
  1
AC1015
  9
$ACADMAINTVER
 70
     6
  9
$DWGCODEPAGE
  3
DOS932
  9
$INSBASE
 10
0.0
 20
0.0
 30
0.0
  9
$EXTMIN
 10
0.0
 20
0.0
 30
0.0
  9
$EXTMAX
 10
431.8
 20
279.4
 30
0.0
  9
$LIMMIN
 10
0.0
 20
0.0
  9
$LIMMAX
 10
431.8
 20
279.4
  9
$ORTHOMODE
 70
     0
  9
$REGENMODE
 70
     1
  9
$FILLMODE
 70
     1
  9
$QTEXTMODE
 70
     0
  9
$MIRRTEXT
 70
     1
  9
$LTSCALE
 40
1.0
  9
$ATTMODE
 70
     1
  9
$TEXTSIZE
 40
3.5
  9
$TRACEWID
 40
1.0
  9
$TEXTSTYLE
  7
Standard
  9
$CLAYER
  8
0
  9
$CELTYPE
  6
ByLayer
  9
$CECOLOR
 62
   256
  9
$CELTSCALE
 40
1.0
  9
$DISPSILH
 70
     0
  9
$DIMSCALE
 40
1.0
  9
$DIMASZ
 40
3.302
  9
$DIMEXO
 40
1.0
  9
$DIMDLI
 40
3.75
  9
$DIMRND
 40
0.0
  9
$DIMDLE
 40
0.0
  9
$DIMEXE
 40
1.0
  9
$DIMTP
 40
0.0
  9
$DIMTM
 40
0.0
  9
$DIMTXT
 40
3.5
  9
$DIMCEN
 40
2.5
  9
$DIMTSZ
 40
0.0
  9
$DIMTOL
 70
     0
  9
$DIMLIM
 70
     0
  9
$DIMTIH
 70
     1
  9
$DIMTOH
 70
     1
  9
$DIMSE1
 70
     0
  9
$DIMSE2
 70
     0
  9
$DIMTAD
 70
     1
  9
$DIMZIN
 70
     1
  9
$DIMBLK
  1

  9
$DIMASO
 70
     1
  9
$DIMSHO
 70
     1
  9
$DIMPOST
  1

  9
$DIMAPOST
  1

  9
$DIMALT
 70
     0
  9
$DIMALTD
 70
     3
  9
$DIMALTF
 40
0.0393700787
  9
$DIMLFAC
 40
1.0
  9
$DIMTOFL
 70
     1
  9
$DIMTVP
 40
0.0
  9
$DIMTIX
 70
     0
  9
$DIMSOXD
 70
     0
  9
$DIMSAH
 70
     0
  9
$DIMBLK1
  1

  9
$DIMBLK2
  1

  9
$DIMSTYLE
  2
ISO-25
  9
$DIMCLRD
 70
     0
  9
$DIMCLRE
 70
     0
  9
$DIMCLRT
 70
     0
  9
$DIMTFAC
 40
1.0
  9
$DIMGAP
 40
1.524
  9
$DIMJUST
 70
     0
  9
$DIMSD1
 70
     0
  9
$DIMSD2
 70
     0
  9
$DIMTOLJ
 70
     0
  9
$DIMTZIN
 70
     1
  9
$DIMALTZ
 70
     0
  9
$DIMALTTZ
 70
     0
  9
$DIMUPT
 70
     0
  9
$DIMDEC
 70
     2
  9
$DIMTDEC
 70
     2
  9
$DIMALTU
 70
     2
  9
$DIMALTTD
 70
     3
  9
$DIMTXSTY
  7
Standard
  9
$DIMAUNIT
 70
     0
  9
$DIMADEC
 70
     2
  9
$DIMALTRND
 40
0.0
  9
$DIMAZIN
 70
     0
  9
$DIMDSEP
 70
    44
  9
$DIMATFIT
 70
     3
  9
$DIMFRAC
 70
     0
  9
$DIMLDRBLK
  1

  9
$DIMLUNIT
 70
     2
  9
$DIMLWD
 70
    -2
  9
$DIMLWE
 70
    -2
  9
$DIMTMOVE
 70
     0
  9
$LUNITS
 70
     2
  9
$LUPREC
 70
     2
  9
$SKETCHINC
 40
1.0
  9
$FILLETRAD
 40
10.0
  9
$AUNITS
 70
     0
  9
$AUPREC
 70
     2
  9
$MENU
  1
.
  9
$ELEVATION
 40
0.0
  9
$PELEVATION
 40
0.0
  9
$THICKNESS
 40
0.0
  9
$LIMCHECK
 70
     0
  9
$CHAMFERA
 40
0.0
  9
$CHAMFERB
 40
0.0
  9
$CHAMFERC
 40
0.0
  9
$CHAMFERD
 40
0.0
  9
$SKPOLY
 70
     0
  9
$TDCREATE
 40
2459229.401882072
  9
$TDUCREATE
 40
2459229.026882072
  9
$TDUPDATE
 40
2459229.401882616
  9
$TDUUPDATE
 40
2459229.026882616
  9
$TDINDWG
 40
0.0000000116
  9
$TDUSRTIMER
 40
0.0000000116
  9
$USRTIMER
 70
     1
  9
$ANGBASE
 50
0.0
  9
$ANGDIR
 70
     0
  9
$PDMODE
 70
     0
  9
$PDSIZE
 40
-1.0
  9
$PLINEWID
 40
0.0
  9
$SPLFRAME
 70
     0
  9
$SPLINETYPE
 70
     6
  9
$SPLINESEGS
 70
     8
  9
$HANDSEED
  5
238
  9
$SURFTAB1
 70
     6
  9
$SURFTAB2
 70
     6
  9
$SURFTYPE
 70
     6
  9
$SURFU
 70
     6
  9
$SURFV
 70
     6
  9
$UCSBASE
  2

  9
$UCSNAME
  2

  9
$UCSORG
 10
0.0
 20
0.0
 30
0.0
  9
$UCSXDIR
 10
1.0
 20
0.0
 30
0.0
  9
$UCSYDIR
 10
0.0
 20
1.0
 30
0.0
  9
$UCSORTHOREF
  2

  9
$UCSORTHOVIEW
 70
     0
  9
$UCSORGTOP
 10
0.0
 20
0.0
 30
0.0
  9
$UCSORGBOTTOM
 10
0.0
 20
0.0
 30
0.0
  9
$UCSORGLEFT
 10
0.0
 20
0.0
 30
0.0
  9
$UCSORGRIGHT
 10
0.0
 20
0.0
 30
0.0
  9
$UCSORGFRONT
 10
0.0
 20
0.0
 30
0.0
  9
$UCSORGBACK
 10
0.0
 20
0.0
 30
0.0
  9
$PUCSBASE
  2

  9
$PUCSNAME
  2

  9
$PUCSORG
 10
0.0
 20
0.0
 30
0.0
  9
$PUCSXDIR
 10
1.0
 20
0.0
 30
0.0
  9
$PUCSYDIR
 10
0.0
 20
1.0
 30
0.0
  9
$PUCSORTHOREF
  2

  9
$PUCSORTHOVIEW
 70
     0
  9
$PUCSORGTOP
 10
0.0
 20
0.0
 30
0.0
  9
$PUCSORGBOTTOM
 10
0.0
 20
0.0
 30
0.0
  9
$PUCSORGLEFT
 10
0.0
 20
0.0
 30
0.0
  9
$PUCSORGRIGHT
 10
0.0
 20
0.0
 30
0.0
  9
$PUCSORGFRONT
 10
0.0
 20
0.0
 30
0.0
  9
$PUCSORGBACK
 10
0.0
 20
0.0
 30
0.0
  9
$USERI1
 70
     0
  9
$USERI2
 70
     0
  9
$USERI3
 70
     0
  9
$USERI4
 70
     0
  9
$USERI5
 70
     0
  9
$USERR1
 40
0.0
  9
$USERR2
 40
0.0
  9
$USERR3
 40
0.0
  9
$USERR4
 40
0.0
  9
$USERR5
 40
0.0
  9
$WORLDVIEW
 70
     1
  9
$SHADEDGE
 70
     3
  9
$SHADEDIF
 70
    70
  9
$TILEMODE
 70
     1
  9
$MAXACTVP
 70
    64
  9
$PINSBASE
 10
0.0
 20
0.0
 30
0.0
  9
$PLIMCHECK
 70
     0
  9
$PEXTMIN
 10
1.0000000000E+20
 20
1.0000000000E+20
 30
1.0000000000E+20
  9
$PEXTMAX
 10
-1.0000000000E+20
 20
-1.0000000000E+20
 30
-1.0000000000E+20
  9
$PLIMMIN
 10
0.0
 20
0.0
  9
$PLIMMAX
 10
420.0
 20
297.0
  9
$UNITMODE
 70
     0
  9
$VISRETAIN
 70
     1
  9
$PLINEGEN
 70
     0
  9
$PSLTSCALE
 70
     1
  9
$TREEDEPTH
 70
  3020
  9
$CMLSTYLE
  2
Standard
  9
$CMLJUST
 70
     0
  9
$CMLSCALE
 40
20.0
  9
$PROXYGRAPHICS
 70
     1
  9
$MEASUREMENT
 70
     1
  9
$CELWEIGHT
370
    -1
  9
$ENDCAPS
280
     0
  9
$JOINSTYLE
280
     0
  9
$LWDISPLAY
290
     1
  9
$INSUNITS
 70
     4
  9
$HYPERLINKBASE
  1

  9
$STYLESHEET
  1

  9
$XEDIT
290
     1
  9
$CEPSNTYPE
380
     0
  9
$PSTYLEMODE
290
     1
  9
$FINGERPRINTGUID
  2
{E795B4A5-9345-4EF8-81C1-12D8865D3138}
  9
$VERSIONGUID
  2
{FAEB1C32-E019-11D5-929B-00C0DF256EC4}
  9
$EXTNAMES
290
     1
  9
$PSVPSCALE
 40
0.0
  9
$OLESTARTUP
290
     0
  0
ENDSEC
  0
SECTION
  2
CLASSES
  0
CLASS
  1
ACDBDICTIONARYWDFLT
  2
AcDbDictionaryWithDefault
  3
ObjectDBX Classes
 90
        0
280
     0
281
     0
  0
CLASS
  1
VISUALSTYLE
  2
AcDbVisualStyle
  3
ObjectDBX Classes
 90
     4095
280
     0
281
     0
  0
CLASS
  1
MATERIAL
  2
AcDbMaterial
  3
ObjectDBX Classes
 90
     1153
280
     0
281
     0
  0
CLASS
  1
SCALE
  2
AcDbScale
  3
ObjectDBX Classes
 90
     1153
280
     0
281
     0
  0
CLASS
  1
TABLESTYLE
  2
AcDbTableStyle
  3
ObjectDBX Classes
 90
     4095
280
     0
281
     0
  0
CLASS
  1
MLEADERSTYLE
  2
AcDbMLeaderStyle
  3
ACDB_MLEADERSTYLE_CLASS
 90
     4095
280
     0
281
     0
  0
CLASS
  1
SUN
  2
AcDbSun
  3
SCENEOE
 90
     1153
280
     0
281
     0
  0
CLASS
  1
ACDBPLACEHOLDER
  2
AcDbPlaceHolder
  3
ObjectDBX Classes
 90
        0
280
     0
281
     0
  0
CLASS
  1
LAYOUT
  2
AcDbLayout
  3
ObjectDBX Classes
 90
        0
280
     0
281
     0
  0
ENDSEC
  0
SECTION
  2
TABLES
  0
TABLE
  2
VPORT
  5
8
330
0
100
AcDbSymbolTable
 70
     1
  0
VPORT
  5
29
330
8
100
AcDbSymbolTableRecord
100
AcDbViewportTableRecord
  2
*Active
 70
     0
 10
0.0
 20
0.0
 11
1.0
 21
1.0
 12
215.9
 22
139.7
 13
0.0
 23
0.0
 14
10.0
 24
10.0
 15
10.0
 25
10.0
 16
0.0
 26
0.0
 36
1.0
 17
0.0
 27
0.0
 37
0.0
 40
279.4
 41
1.5454545455
 42
50.0
 43
0.0
 44
0.0
 50
0.0
 51
0.0
 71
     0
 72
  2000
 73
     1
 74
     3
 75
     0
 76
     0
 77
     0
 78
     0
281
     0
 65
     1
110
0.0
120
0.0
130
0.0
111
1.0
121
0.0
131
0.0
112
0.0
122
1.0
132
0.0
 79
     0
146
0.0
  0
ENDTAB
  0
TABLE
  2
LTYPE
  5
5
330
0
100
AcDbSymbolTable
 70
     6
  0
LTYPE
  5
14
330
5
100
AcDbSymbolTableRecord
100
AcDbLinetypeTableRecord
  2
ByBlock
 70
     0
  3

 72
    65
 73
     0
 40
0.0
  0
LTYPE
  5
15
330
5
100
AcDbSymbolTableRecord
100
AcDbLinetypeTableRecord
  2
ByLayer
 70
     0
  3

 72
    65
 73
     0
 40
0.0
  0
LTYPE
  5
16
330
5
100
AcDbSymbolTableRecord
100
AcDbLinetypeTableRecord
  2
Continuous
 70
     0
  3
Solid line
 72
    65
 73
     0
 40
0.0
  0
LTYPE
  5
6E
330
5
100
AcDbSymbolTableRecord
100
AcDbLinetypeTableRecord
  2
HIDDEN
 70
     0
  3
Hidden __ __ __ __ __ __ __ __ __ __ __ __ __ __
 72
    65
 73
     2
 40
1.905
 49
1.27
 74
     0
 49
-0.635
 74
     0
  0
LTYPE
  5
6F
330
5
100
AcDbSymbolTableRecord
100
AcDbLinetypeTableRecord
  2
PHANTOM
 70
     0
  3
Phantom ______  __  __  ______  __  __  ______
 72
    65
 73
     6
 40
12.7
 49
6.35
 74
     0
 49
-1.27
 74
     0
 49
1.27
 74
     0
 49
-1.27
 74
     0
 49
1.27
 74
     0
 49
-1.27
 74
     0
  0
LTYPE
  5
70
330
5
100
AcDbSymbolTableRecord
100
AcDbLinetypeTableRecord
  2
CENTER
 70
     0
  3
Center ____ _ ____ _ ____ _ ____ _ ____ _ ____
 72
    65
 73
     4
 40
10.16
 49
6.35
 74
     0
 49
-1.27
 74
     0
 49
1.27
 74
     0
 49
-1.27
 74
     0
  0
LTYPE
  5
71
330
5
100
AcDbSymbolTableRecord
100
AcDbLinetypeTableRecord
  2
CENTERX2
 70
     0
  3
Center (2x) ________  __  ________  __  _____
 72
    65
 73
     4
 40
20.32
 49
12.7
 74
     0
 49
-2.54
 74
     0
 49
2.54
 74
     0
 49
-2.54
 74
     0
  0
LTYPE
  5
72
330
5
100
AcDbSymbolTableRecord
100
AcDbLinetypeTableRecord
  2
DOT2
 70
     0
  3
Dot (.5x) ........................................
 72
    65
 73
     2
 40
0.635
 49
0.0
 74
     0
 49
-0.635
 74
     0
  0
ENDTAB
  0
TABLE
  2
LAYER
  5
2
330
0
100
AcDbSymbolTable
 70
     1
  0
LAYER
  5
10
330
2
100
AcDbSymbolTableRecord
100
AcDbLayerTableRecord
  2
0
 70
     0
 62
     7
  6
Continuous
370
    -3
390
F
  0
ENDTAB
  0
TABLE
  2
STYLE
  5
3
330
0
100
AcDbSymbolTable
 70
     2
  0
STYLE
  5
11
330
3
100
AcDbSymbolTableRecord
100
AcDbTextStyleTableRecord
  2
Standard
 70
     0
 40
0.0
 41
1.0
 50
0.0
 71
     0
 42
3.5
  3
txt
  4
bigfont
  0
STYLE
  5
73
330
3
100
AcDbSymbolTableRecord
100
AcDbTextStyleTableRecord
  2
SLDTEXTSTYLE0
 70
     0
 40
0.0
 41
0.7
 50
0.0
 71
     0
 42
3.5
  3
TXT
  4
bigfont
  0
ENDTAB
  0
TABLE
  2
VIEW
  5
6
330
0
100
AcDbSymbolTable
 70
     0
  0
ENDTAB
  0
TABLE
  2
UCS
  5
7
330
0
100
AcDbSymbolTable
 70
     0
  0
ENDTAB
  0
TABLE
  2
APPID
  5
9
330
0
100
AcDbSymbolTable
 70
     1
  0
APPID
  5
12
330
9
100
AcDbSymbolTableRecord
100
AcDbRegAppTableRecord
  2
ACAD
 70
     0
  0
ENDTAB
  0
TABLE
  2
DIMSTYLE
  5
A
330
0
100
AcDbSymbolTable
 70
     1
100
AcDbDimStyleTable
  0
DIMSTYLE
105
27
330
A
100
AcDbSymbolTableRecord
100
AcDbDimStyleTableRecord
  2
ISO-25
 70
     0
 41
2.5
 42
0.625
 43
3.75
 44
1.25
 73
     0
 74
     0
 77
     1
 78
     8
140
2.5
141
2.5
143
0.0393700787
147
0.625
171
     3
172
     1
178
     0
271
     2
272
     2
274
     3
278
    44
283
     0
284
     8
340
11
  0
ENDTAB
  0
TABLE
  2
BLOCK_RECORD
  5
1
330
0
100
AcDbSymbolTable
 70
     3
  0
BLOCK_RECORD
  5
1F
330
1
100
AcDbSymbolTableRecord
100
AcDbBlockTableRecord
  2
*Model_Space
340
22
  0
BLOCK_RECORD
  5
1B
330
1
100
AcDbSymbolTableRecord
100
AcDbBlockTableRecord
  2
*Paper_Space
340
1E
  0
BLOCK_RECORD
  5
23
330
1
100
AcDbSymbolTableRecord
100
AcDbBlockTableRecord
  2
*Paper_Space0
340
26
  0
BLOCK_RECORD
  5
164
330
1
100
AcDbSymbolTableRecord
100
AcDbBlockTableRecord
  2
SW_CENTERMARKSYMBOL_0
340
0
102
{BLKREFS
331
16F
102
}
  0
BLOCK_RECORD
  5
22B
330
1
100
AcDbSymbolTableRecord
100
AcDbBlockTableRecord
  2
SW_CENTERMARKSYMBOL_1
340
0
102
{BLKREFS
331
236
102
}
  0
ENDTAB
  0
ENDSEC
  0
SECTION
  2
BLOCKS
  0
BLOCK
  5
20
330
1F
100
AcDbEntity
  8
0
100
AcDbBlockBegin
  2
*Model_Space
 70
     0
 10
0.0
 20
0.0
 30
0.0
  3
*Model_Space
  1

  0
ENDBLK
  5
21
330
1F
100
AcDbEntity
  8
0
100
AcDbBlockEnd
  0
BLOCK
  5
1C
330
1B
100
AcDbEntity
 67
     1
  8
0
100
AcDbBlockBegin
  2
*Paper_Space
 70
     0
 10
0.0
 20
0.0
 30
0.0
  3
*Paper_Space
  1

  0
ENDBLK
  5
1D
330
1B
100
AcDbEntity
 67
     1
  8
0
100
AcDbBlockEnd
  0
BLOCK
  5
24
330
23
100
AcDbEntity
  8
0
100
AcDbBlockBegin
  2
*Paper_Space0
 70
     0
 10
0.0
 20
0.0
 30
0.0
  3
*Paper_Space0
  1

  0
ENDBLK
  5
25
330
23
100
AcDbEntity
  8
0
100
AcDbBlockEnd
  0
BLOCK
  5
165
330
164
100
AcDbEntity
  8
0
100
AcDbBlockBegin
  2
SW_CENTERMARKSYMBOL_0
 70
     0
 10
0.0
 20
0.0
 30
0.0
  3
SW_CENTERMARKSYMBOL_0
  1

  0
LINE
  5
167
330
164
100
AcDbEntity
  8
0
  6
Continuous
 62
     0
370
    18
100
AcDbLine
 10
0.0
 20
0.0
 30
0.0
 11
0.0
 21
2.5
 31
0.0
  0
LINE
  5
168
330
164
100
AcDbEntity
  8
0
  6
Continuous
 62
     0
370
    18
100
AcDbLine
 10
0.0
 20
0.0
 30
0.0
 11
-2.5
 21
0.0
 31
0.0
  0
LINE
  5
169
330
164
100
AcDbEntity
  8
0
  6
Continuous
 62
     0
370
    18
100
AcDbLine
 10
0.0
 20
0.0
 30
0.0
 11
0.0
 21
-2.5
 31
0.0
  0
LINE
  5
16A
330
164
100
AcDbEntity
  8
0
  6
Continuous
 62
     0
370
    18
100
AcDbLine
 10
0.0
 20
0.0
 30
0.0
 11
2.5
 21
0.0
 31
0.0
  0
LINE
  5
16B
330
164
100
AcDbEntity
  8
0
  6
Continuous
 62
     0
370
    18
100
AcDbLine
 10
0.0
 20
5.0
 30
0.0
 11
0.0
 21
30.1403407514
 31
0.0
  0
LINE
  5
16C
330
164
100
AcDbEntity
  8
0
  6
Continuous
 62
     0
370
    18
100
AcDbLine
 10
-5.0
 20
0.0
 30
0.0
 11
-13.75
 21
0.0
 31
0.0
  0
LINE
  5
16D
330
164
100
AcDbEntity
  8
0
  6
Continuous
 62
     0
370
    18
100
AcDbLine
 10
0.0
 20
-5.0
 30
0.0
 11
0.0
 21
-13.75
 31
0.0
  0
LINE
  5
16E
330
164
100
AcDbEntity
  8
0
  6
Continuous
 62
     0
370
    18
100
AcDbLine
 10
5.0
 20
0.0
 30
0.0
 11
13.75
 21
0.0
 31
0.0
  0
ENDBLK
  5
166
330
164
100
AcDbEntity
  8
0
100
AcDbBlockEnd
  0
BLOCK
  5
22C
330
22B
100
AcDbEntity
  8
0
100
AcDbBlockBegin
  2
SW_CENTERMARKSYMBOL_1
 70
     0
 10
0.0
 20
0.0
 30
0.0
  3
SW_CENTERMARKSYMBOL_1
  1

  0
LINE
  5
22E
330
22B
100
AcDbEntity
  8
0
  6
Continuous
 62
     0
370
    18
100
AcDbLine
 10
0.0
 20
0.0
 30
0.0
 11
0.0
 21
2.5
 31
0.0
  0
LINE
  5
22F
330
22B
100
AcDbEntity
  8
0
  6
Continuous
 62
     0
370
    18
100
AcDbLine
 10
0.0
 20
0.0
 30
0.0
 11
-2.5
 21
0.0
 31
0.0
  0
LINE
  5
230
330
22B
100
AcDbEntity
  8
0
  6
Continuous
 62
     0
370
    18
100
AcDbLine
 10
0.0
 20
0.0
 30
0.0
 11
0.0
 21
-2.5
 31
0.0
  0
LINE
  5
231
330
22B
100
AcDbEntity
  8
0
  6
Continuous
 62
     0
370
    18
100
AcDbLine
 10
0.0
 20
0.0
 30
0.0
 11
2.5
 21
0.0
 31
0.0
  0
LINE
  5
232
330
22B
100
AcDbEntity
  8
0
  6
Continuous
 62
     0
370
    18
100
AcDbLine
 10
0.0
 20
5.0
 30
0.0
 11
0.0
 21
10.2631451639
 31
0.0
  0
LINE
  5
233
330
22B
100
AcDbEntity
  8
0
  6
Continuous
 62
     0
370
    18
100
AcDbLine
 10
-5.0
 20
0.0
 30
0.0
 11
-30.9116561907
 21
0.0
 31
0.0
  0
LINE
  5
234
330
22B
100
AcDbEntity
  8
0
  6
Continuous
 62
     0
370
    18
100
AcDbLine
 10
0.0
 20
-5.0
 30
0.0
 11
0.0
 21
-10.2677290156
 31
0.0
  0
LINE
  5
235
330
22B
100
AcDbEntity
  8
0
  6
Continuous
 62
     0
370
    18
100
AcDbLine
 10
5.0
 20
0.0
 30
0.0
 11
30.8558960727
 21
0.0
 31
0.0
  0
ENDBLK
  5
22D
330
22B
100
AcDbEntity
  8
0
100
AcDbBlockEnd
  0
ENDSEC
  0
SECTION
  2
ENTITIES
  0
MTEXT
  5
74
330
1F
100
AcDbEntity
  8
0
  6
Continuous
 62
     7
370
     0
100
AcDbMText
 10
147.2920362301
 20
117.5974195562
 30
0.0
 40
5.2916666667
 41
0.0
 71
     1
 72
     1
  1
5R-TK1333
  7
SLDTEXTSTYLE0
 73
     1
 44
1.0
  0
LINE
  5
75
330
1F
100
AcDbEntity
  8
0
  6
Continuous
 62
     7
370
    25
100
AcDbLine
 10
147.9094318486
 20
61.7806093026
 30
0.0
 11
148.4094309992
 21
62.2806093846
 31
0.0
  0
LINE
  5
76
330
1F
100
AcDbEntity
  8
0
  6
Continuous
 62
     7
370
    25
100
AcDbLine
 10
148.4094309992
 20
83.7806101147
 30
0.0
 11
147.9094318486
 21
84.2806101967
 31
0.0
  0
LINE
  5
77
330
1F
100
AcDbEntity
  8
0
  6
Continuous
 62
     7
370
    25
100
AcDbLine
 10
90.9094318188
 20
61.7806093026
 30
0.0
 11
103.4094310737
 21
61.7806093026
 31
0.0
  0
LINE
  5
78
330
1F
100
AcDbEntity
  8
0
  6
Continuous
 62
     7
370
    25
100
AcDbLine
 10
103.4094310737
 20
84.2806101967
 30
0.0
 11
90.9094318188
 21
84.2806101967
 31
0.0
  0
ARC
  5
79
330
1F
100
AcDbEntity
  8
0
  6
Continuous
 62
     7
370
    25
100
AcDbCircle
 10
103.4094318337
 20
62.7806097496
 30
0.0
 40
1.0
100
AcDbArc
 50
270.0
 51
0.0
  0
ARC
  5
7A
330
1F
100
AcDbEntity
  8
0
  6
Continuous
 62
     7
370
    25
100
AcDbCircle
 10
103.4094318337
 20
83.2806097496
 30
0.0
 40
1.0
100
AcDbArc
 50
0.0
 51
90.0
  0
LINE
  5
7B
330
1F
100
AcDbEntity
  8
0
  6
Continuous
 62
     7
370
    25
100
AcDbLine
 10
147.9094318486
 20
84.2806101967
 30
0.0
 11
135.4094325936
 21
84.2806101967
 31
0.0
  0
LINE
  5
7C
330
1F
100
AcDbEntity
  8
0
  6
Continuous
 62
     7
370
    25
100
AcDbLine
 10
135.4094325936
 20
61.7806093026
 30
0.0
 11
147.9094318486
 21
61.7806093026
 31
0.0
  0
LINE
  5
7D
330
1F
100
AcDbEntity
  8
0
  6
Continuous
 62
     7
370
    25
100
AcDbLine
 10
90.9094318188
 20
84.2806101967
 30
0.0
 11
90.4094326681
 21
83.7806101147
 31
0.0
  0
LINE
  5
7E
330
1F
100
AcDbEntity
  8
0
  6
Continuous
 62
     7
370
    25
100
AcDbLine
 10
90.4094326681
 20
62.2806093846
 30
0.0
 11
90.9094318188
 21
61.7806093026
 31
0.0
  0
ARC
  5
7F
330
1F
100
AcDbEntity
  8
0
  6
Continuous
 62
     7
370
    25
100
AcDbCircle
 10
135.4094318337
 20
83.2806097496
 30
0.0
 40
1.0
100
AcDbArc
 50
90.0
 51
180.0
  0
ARC
  5
80
330
1F
100
AcDbEntity
  8
0
  6
Continuous
 62
     7
370
    25
100
AcDbCircle
 10
135.4094318337
 20
62.7806097496
 30
0.0
 40
1.0
100
AcDbArc
 50
180.0
 51
270.0
  0
ARC
  5
81
330
1F
100
AcDbEntity
  8
0
  6
Continuous
 62
     7
370
    25
100
AcDbCircle
 10
133.4094318337
 20
82.5306097496
 30
0.0
 40
1.0
100
AcDbArc
 50
270.0
 51
0.0
  0
ARC
  5
82
330
1F
100
AcDbEntity
  8
0
  6
Continuous
 62
     7
370
    25
100
AcDbCircle
 10
133.4094318337
 20
63.5306097496
 30
0.0
 40
1.0
100
AcDbArc
 50
0.0
 51
90.0
  0
ARC
  5
83
330
1F
100
AcDbEntity
  8
0
  6
Continuous
 62
     7
370
    25
100
AcDbCircle
 10
105.4094318337
 20
63.5306097496
 30
0.0
 40
1.0
100
AcDbArc
 50
90.0
 51
180.0
  0
ARC
  5
84
330
1F
100
AcDbEntity
  8
0
  6
Continuous
 62
     7
370
    25
100
AcDbCircle
 10
105.4094318337
 20
82.5306097496
 30
0.0
 40
1.0
100
AcDbArc
 50
180.0
 51
270.0
  0
ARC
  5
85
330
1F
100
AcDbEntity
  8
0
  6
Continuous
 62
     7
370
    25
100
AcDbCircle
 10
109.9094318337
 20
87.0306097496
 30
0.0
 40
1.0
100
AcDbArc
 50
0.0
 51
19.855604094
  0
ARC
  5
86
330
1F
100
AcDbEntity
  8
0
  6
Continuous
 62
     7
370
    25
100
AcDbCircle
 10
128.9094318337
 20
87.0306097496
 30
0.0
 40
1.000000000000014
100
AcDbArc
 50
160.144395906
 51
180.0
  0
LINE
  5
87
330
1F
100
AcDbEntity
  8
0
  6
Continuous
 62
     7
370
    25
100
AcDbLine
 10
127.9688804782
 20
87.3702607308
 30
0.0
 11
127.6068036816
 21
98.9567005266
 31
0.0
  0
LINE
  5
88
330
1F
100
AcDbEntity
  8
0
  6
Continuous
 62
     7
370
    25
100
AcDbLine
 10
111.2120599857
 20
98.9567005266
 30
0.0
 11
110.8499831891
 21
87.3702607308
 31
0.0
  0
LINE
  5
89
330
1F
100
AcDbEntity
  8
0
  6
Continuous
 62
     7
370
    25
100
AcDbLine
 10
127.9094322956
 20
82.0306093622
 30
0.0
 11
127.9094322956
 21
87.0306101818
 31
0.0
  0
LINE
  5
8A
330
1F
100
AcDbEntity
  8
0
  6
Continuous
 62
     7
370
    25
100
AcDbLine
 10
110.9094313717
 20
87.0306101818
 30
0.0
 11
110.9094313717
 21
82.0306093622
 31
0.0
  0
LINE
  5
8B
330
1F
100
AcDbEntity
  8
0
  6
Continuous
 62
     7
370
    25
100
AcDbLine
 10
110.4094322211
 20
81.5306102116
 30
0.0
 11
105.4094314015
 21
81.5306102116
 31
0.0
  0
LINE
  5
8C
330
1F
100
AcDbEntity
  8
0
  6
Continuous
 62
     7
370
    25
100
AcDbLine
 10
133.4094322658
 20
81.5306102116
 30
0.0
 11
128.4094314462
 21
81.5306102116
 31
0.0
  0
LINE
  5
8D
330
1F
100
AcDbEntity
  8
0
  6
Continuous
 62
     7
370
    25
100
AcDbLine
 10
105.4094314015
 20
64.5306092877
 30
0.0
 11
133.4094322658
 21
64.5306092877
 31
0.0
  0
LINE
  5
8E
330
1F
100
AcDbEntity
  8
0
  6
Continuous
 62
     7
370
    25
100
AcDbLine
 10
127.6068036816
 20
98.9567005266
 30
0.0
 11
126.4094320497
 21
101.0306106139
 31
0.0
  0
LINE
  5
8F
330
1F
100
AcDbEntity
  8
0
  6
Continuous
 62
     7
370
    25
100
AcDbLine
 10
112.4094316176
 20
101.0306106139
 30
0.0
 11
111.2120599857
 21
98.9567005266
 31
0.0
  0
ARC
  5
90
330
1F
100
AcDbEntity
  8
0
  6
Continuous
 62
     7
370
    25
100
AcDbCircle
 10
128.4094318337
 20
82.0306097496
 30
0.0
 40
0.5000000000000017
100
AcDbArc
 50
181.5808041358
 51
268.3141805808
  0
ARC
  5
91
330
1F
100
AcDbEntity
  8
0
  6
Continuous
 62
     7
370
    25
100
AcDbCircle
 10
110.4094318337
 20
82.0306097496
 30
0.0
 40
0.5000000000000017
100
AcDbArc
 50
271.5808041358
 51
358.3141805808
  0
LINE
  5
92
330
1F
100
AcDbEntity
  8
0
  6
Continuous
 62
     7
370
    25
100
AcDbLine
 10
148.4094309992
 20
83.7806101147
 30
0.0
 11
148.4094309992
 21
62.2806093846
 31
0.0
  0
LINE
  5
93
330
1F
100
AcDbEntity
  8
0
  6
Continuous
 62
     7
370
    25
100
AcDbLine
 10
147.9094318486
 20
61.7806093026
 30
0.0
 11
147.9094318486
 21
84.2806101967
 31
0.0
  0
LINE
  5
94
330
1F
100
AcDbEntity
  8
0
  6
Continuous
 62
     7
370
    25
100
AcDbLine
 10
90.9094318188
 20
73.0306097496
 30
0.0
 11
90.9094318188
 21
61.7806093026
 31
0.0
  0
LINE
  5
95
330
1F
100
AcDbEntity
  8
0
  6
Continuous
 62
     7
370
    25
100
AcDbLine
 10
90.9094318188
 20
84.2806101967
 30
0.0
 11
90.9094318188
 21
73.0306097496
 31
0.0
  0
LINE
  5
96
330
1F
100
AcDbEntity
  8
0
  6
Continuous
 62
     7
370
    25
100
AcDbLine
 10
104.4094321689
 20
73.0306097496
 30
0.0
 11
104.4094321689
 21
62.7806094665
 31
0.0
  0
LINE
  5
97
330
1F
100
AcDbEntity
  8
0
  6
Continuous
 62
     7
370
    25
100
AcDbLine
 10
104.4094321689
 20
83.2806100328
 30
0.0
 11
104.4094321689
 21
73.0306097496
 31
0.0
  0
LINE
  5
98
330
1F
100
AcDbEntity
  8
0
  6
Continuous
 62
     7
370
    25
100
AcDbLine
 10
90.4094326681
 20
73.0306097496
 30
0.0
 11
90.4094326681
 21
83.7806101147
 31
0.0
  0
LINE
  5
99
330
1F
100
AcDbEntity
  8
0
  6
Continuous
 62
     7
370
    25
100
AcDbLine
 10
90.4094326681
 20
62.2806093846
 30
0.0
 11
90.4094326681
 21
73.0306097496
 31
0.0
  0
LINE
  5
9A
330
1F
100
AcDbEntity
  8
0
  6
Continuous
 62
     7
370
    25
100
AcDbLine
 10
134.4094314984
 20
62.7806094665
 30
0.0
 11
134.4094314984
 21
83.2806100328
 31
0.0
  0
SPLINE
  5
9B
330
1F
100
AcDbEntity
  8
0
  6
Continuous
 62
     7
370
    25
100
AcDbSpline
210
0.0
220
0.0
230
1.0
 70
     8
 71
     3
 72
    16
 73
    12
 74
     0
 42
0.000000001
 43
0.00000001
 40
0.0
 40
0.0
 40
0.0
 40
0.0
 40
0.2500000000000001
 40
0.2500000000000001
 40
0.5000000000000001
 40
0.5000000000000001
 40
0.7500000000000002
 40
0.7500000000000002
 40
0.8750000000000001
 40
0.8750000000000001
 40
1.0
 40
1.0
 40
1.0
 40
1.0
 10
127.4094318336638
 20
70.15832842636183
 30
0.0
 10
127.4094318336638
 20
70.40462375862565
 30
0.0
 10
127.429363619351
 20
70.64814369339963
 30
0.0
 10
127.4899701659545
 20
71.13082966677489
 30
0.0
 10
127.5310806733997
 20
71.37027013554959
 30
0.0
 10
127.6254571297989
 20
71.84701121521267
 30
0.0
 10
127.6788224916552
 20
72.08429432533958
 30
0.0
 10
127.7631296515898
 20
72.43946921065435
 30
0.0
 10
127.7919545284316
 20
72.55773365108838
 30
0.0
 10
127.8503136069972
 20
72.79413766158949
 30
0.0
 10
127.8795647282153
 20
72.91114013314592
 30
0.0
 10
127.9094318336638
 20
73.03060974963086
 30
0.0
  0
SPLINE
  5
9C
330
1F
100
AcDbEntity
  8
0
  6
Continuous
 62
     7
370
    25
100
AcDbSpline
210
0.0
220
0.0
230
1.0
 70
     8
 71
     3
 72
    12
 73
     8
 74
     0
 42
0.000000001
 43
0.00000001
 40
0.0
 40
0.0
 40
0.0
 40
0.0
 40
0.2500000000000002
 40
0.2500000000000002
 40
0.5000000000000001
 40
0.5000000000000001
 40
1.0
 40
1.0
 40
1.0
 40
1.0
 10
127.8336301581112
 20
70.15832842636192
 30
0.0
 10
127.8113633159572
 20
70.39574098448222
 30
0.0
 10
127.8043252833028
 20
70.63385099864881
 30
0.0
 10
127.8034501618184
 20
71.11154912591084
 30
0.0
 10
127.8101141557675
 20
71.35117198252745
 30
0.0
 10
127.8407665051858
 20
72.06988773666345
 30
0.0
 10
127.8753751880365
 20
72.55070470130235
 30
0.0
 10
127.9094318336638
 20
73.03060974963086
 30
0.0
  0
LINE
  5
9D
330
1F
100
AcDbEntity
  8
0
  6
Continuous
 62
     7
370
    25
100
AcDbLine
 10
127.8336300886
 20
70.1583285075
 30
0.0
 11
127.4094322136
 21
70.1583285075
 31
0.0
  0
ARC
  5
9E
330
1F
100
AcDbEntity
  8
0
  6
Continuous
 62
     7
370
    25
100
AcDbCircle
 10
128.4261217539
 20
69.226891749
 30
0.0
 40
1.10391159445498
100
AcDbArc
 50
98.7690151238
 51
122.4606473444
  0
SPLINE
  5
9F
330
1F
100
AcDbEntity
  8
0
  6
Continuous
 62
     7
370
    25
100
AcDbSpline
210
0.0
220
0.0
230
1.0
 70
     8
 71
     3
 72
    12
 73
     8
 74
     0
 42
0.000000001
 43
0.00000001
 40
0.0
 40
0.0
 40
0.0
 40
0.0
 40
0.2499999999999999
 40
0.2499999999999999
 40
0.5
 40
0.5
 40
1.0
 40
1.0
 40
1.0
 40
1.0
 10
128.2578284825586
 20
70.31789961098798
 30
0.0
 10
128.2097203739141
 20
70.53413719552621
 30
0.0
 10
128.1735073164499
 20
70.75390279091987
 30
0.0
 10
128.1084031067971
 20
71.19834577703655
 30
0.0
 10
128.0801629265088
 20
71.4231058010128
 30
0.0
 10
128.0008980952358
 20
72.10406970611098
 30
0.0
 10
127.9550327120381
 20
72.57045263320526
 30
0.0
 10
127.9094318336638
 20
73.03060974963086
 30
0.0
  0
ARC
  5
A0
330
1F
100
AcDbEntity
  8
0
  6
Continuous
 62
     7
370
    25
100
AcDbCircle
 10
110.3927419135
 20
76.8343277502
 30
0.0
 40
1.103911594455097
100
AcDbArc
 50
278.7690151238
 51
302.4606473444
  0
SPLINE
  5
A1
330
1F
100
AcDbEntity
  8
0
  6
Continuous
 62
     7
370
    25
100
AcDbSpline
210
0.0
220
0.0
230
1.0
 70
     8
 71
     3
 72
    12
 73
     8
 74
     0
 42
0.000000001
 43
0.00000001
 40
0.0
 40
0.0
 40
0.0
 40
0.0
 40
0.2500000000000002
 40
0.2500000000000002
 40
0.5000000000000001
 40
0.5000000000000001
 40
1.0
 40
1.0
 40
1.0
 40
1.0
 10
110.9852335092165
 20
75.90289107289978
 30
0.0
 10
111.0075003513704
 20
75.66547851477958
 30
0.0
 10
111.0145383840248
 20
75.42736850061304
 30
0.0
 10
111.0154135055092
 20
74.94967037335115
 30
0.0
 10
111.0087495115602
 20
74.71004751673462
 30
0.0
 10
110.9780971621419
 20
73.99133176259885
 30
0.0
 10
110.9434884790174
 20
73.51051479797864
 30
0.0
 10
110.9094318336638
 20
73.03060974963086
 30
0.0
  0
SPLINE
  5
A2
330
1F
100
AcDbEntity
  8
0
  6
Continuous
 62
     7
370
    25
100
AcDbSpline
210
0.0
220
0.0
230
1.0
 70
     8
 71
     3
 72
    12
 73
     8
 74
     0
 42
0.000000001
 43
0.00000001
 40
0.0
 40
0.0
 40
0.0
 40
0.0
 40
0.2499999999999998
 40
0.2499999999999998
 40
0.4999999999999999
 40
0.4999999999999999
 40
1.0
 40
1.0
 40
1.0
 40
1.0
 10
110.5610351847691
 20
75.7433198882737
 30
0.0
 10
110.6090327566081
 20
75.5275791474585
 30
0.0
 10
110.6452713305072
 20
75.30787332718315
 30
0.0
 10
110.7104762857335
 20
74.86279013126736
 30
0.0
 10
110.7388433429936
 20
74.63698878257915
 30
0.0
 10
110.818300118483
 20
73.95407417110013
 30
0.0
 10
110.8637460983335
 20
73.49162317841035
 30
0.0
 10
110.9094318336638
 20
73.03060974963086
 30
0.0
  0
SPLINE
  5
A3
330
1F
100
AcDbEntity
  8
0
  6
Continuous
 62
     7
370
    25
100
AcDbSpline
210
0.0
220
0.0
230
1.0
 70
     8
 71
     3
 72
    16
 73
    12
 74
     0
 42
0.000000001
 43
0.00000001
 40
0.0
 40
0.0
 40
0.0
 40
0.0
 40
0.2499999999999999
 40
0.2499999999999999
 40
0.5
 40
0.5
 40
0.7500000000000001
 40
0.7500000000000001
 40
0.875
 40
0.875
 40
1.0
 40
1.0
 40
1.0
 40
1.0
 10
111.4094318336638
 20
75.90289107289986
 30
0.0
 10
111.4094318336638
 20
75.6565957406361
 30
0.0
 10
111.3895000479767
 20
75.41307580586206
 30
0.0
 10
111.3288935013731
 20
74.9303898324868
 30
0.0
 10
111.2877829939279
 20
74.69094936371211
 30
0.0
 10
111.1934065375287
 20
74.21420828404902
 30
0.0
 10
111.1400411756724
 20
73.97692517392211
 30
0.0
 10
111.0557340157378
 20
73.62175028860736
 30
0.0
 10
111.026909138896
 20
73.50348584817331
 30
0.0
 10
110.9685500603305
 20
73.26708183767222
 30
0.0
 10
110.9392989391124
 20
73.15007936611576
 30
0.0
 10
110.9094318336638
 20
73.03060974963086
 30
0.0
  0
LINE
  5
A4
330
1F
100
AcDbEntity
  8
0
  6
Continuous
 62
     7
370
    25
100
AcDbLine
 10
110.9852335787
 20
75.9028909918
 30
0.0
 11
111.4094314537
 21
75.9028909918
 31
0.0
  0
ARC
  5
A5
330
1F
100
AcDbEntity
  8
0
  6
Continuous
 62
     7
370
    25
100
AcDbCircle
 10
123.2131608575
 20
81.5473037345
 30
0.0
 40
1.103923121047331
100
AcDbArc
 50
188.7691406047
 51
212.4605218635
  0
SPLINE
  5
A6
330
1F
100
AcDbEntity
  8
0
  6
Continuous
 62
     7
370
    25
100
AcDbSpline
210
0.0
220
0.0
230
1.0
 70
     8
 71
     3
 72
    12
 73
     8
 74
     0
 42
0.000000001
 43
0.00000001
 40
0.0
 40
0.0
 40
0.0
 40
0.0
 40
0.2500000000000002
 40
0.2500000000000002
 40
0.5000000000000001
 40
0.5000000000000001
 40
1.0
 40
1.0
 40
1.0
 40
1.0
 10
122.2817131569328
 20
80.95480807407822
 30
0.0
 10
122.0443005988126
 20
80.9325412319243
 30
0.0
 10
121.8061905846461
 20
80.92550319926988
 30
0.0
 10
121.3284924573842
 20
80.92462807778544
 30
0.0
 10
121.0888696007676
 20
80.9312920717345
 30
0.0
 10
120.3701538466318
 20
80.96194442115275
 30
0.0
 10
119.8893368820116
 20
80.99655310427715
 30
0.0
 10
119.4094318336638
 20
81.03060974963086
 30
0.0
  0
SPLINE
  5
A7
330
1F
100
AcDbEntity
  8
0
  6
Continuous
 62
     7
370
    25
100
AcDbSpline
210
0.0
220
0.0
230
1.0
 70
     8
 71
     3
 72
    12
 73
     8
 74
     0
 42
0.000000001
 43
0.00000001
 40
0.0
 40
0.0
 40
0.0
 40
0.0
 40
0.2500000000000002
 40
0.2500000000000002
 40
0.5000000000000001
 40
0.5000000000000001
 40
1.0
 40
1.0
 40
1.0
 40
1.0
 10
122.1221419723067
 20
81.3790063985256
 30
0.0
 10
121.9064012314915
 20
81.33100882668661
 30
0.0
 10
121.6866954112162
 20
81.29477025278753
 30
0.0
 10
121.2416122153004
 20
81.22956529756121
 30
0.0
 10
121.0158108666122
 20
81.20119824030107
 30
0.0
 10
120.3328962551331
 20
81.12174146481168
 30
0.0
 10
119.8704452624433
 20
81.07629548496135
 30
0.0
 10
119.4094318336638
 20
81.03060974963086
 30
0.0
  0
SPLINE
  5
A8
330
1F
100
AcDbEntity
  8
0
  6
Continuous
 62
     7
370
    25
100
AcDbSpline
210
0.0
220
0.0
230
1.0
 70
     8
 71
     3
 72
    16
 73
    12
 74
     0
 42
0.000000001
 43
0.00000001
 40
0.0
 40
0.0
 40
0.0
 40
0.0
 40
0.2500000000000002
 40
0.2500000000000002
 40
0.5000000000000002
 40
0.5000000000000002
 40
0.7500000000000002
 40
0.7500000000000002
 40
0.8750000000000001
 40
0.8750000000000001
 40
1.0
 40
1.0
 40
1.0
 40
1.0
 10
122.2817131569328
 20
80.53060974963086
 30
0.0
 10
122.0354178246691
 20
80.53060974963086
 30
0.0
 10
121.791897889895
 20
80.55054153531802
 30
0.0
 10
121.3092119165198
 20
80.61114808192158
 30
0.0
 10
121.0697714477451
 20
80.65225858936675
 30
0.0
 10
120.593030368082
 20
80.74663504576596
 30
0.0
 10
120.3557472579551
 20
80.80000040762225
 30
0.0
 10
120.0005723726403
 20
80.88430756755685
 30
0.0
 10
119.8823079322063
 20
80.9131324443987
 30
0.0
 10
119.6459039217052
 20
80.9714915229642
 30
0.0
 10
119.5289014501487
 20
81.00074264418228
 30
0.0
 10
119.4094318336638
 20
81.03060974963086
 30
0.0
  0
LINE
  5
A9
330
1F
100
AcDbEntity
  8
0
  6
Continuous
 62
     7
370
    25
100
AcDbLine
 10
122.2817130758
 20
80.530609582
 30
0.0
 11
122.2817130758
 21
80.9548079226
 31
0.0
  0
ARC
  5
AA
330
1F
100
AcDbEntity
  8
0
  6
Continuous
 62
     7
370
    25
100
AcDbCircle
 10
115.6057028098
 20
81.5473037345
 30
0.0
 40
1.103923121047331
100
AcDbArc
 50
327.5394781365
 51
351.2308593953
  0
SPLINE
  5
AB
330
1F
100
AcDbEntity
  8
0
  6
Continuous
 62
     7
370
    25
100
AcDbSpline
210
0.0
220
0.0
230
1.0
 70
     8
 71
     3
 72
    12
 73
     8
 74
     0
 42
0.000000001
 43
0.00000001
 40
0.0
 40
0.0
 40
0.0
 40
0.0
 40
0.2499999999999999
 40
0.2499999999999999
 40
0.4999999999999998
 40
0.4999999999999998
 40
1.0
 40
1.0
 40
1.0
 40
1.0
 10
116.696721695021
 20
81.37900639852559
 30
0.0
 10
116.9129592794859
 20
81.33089828989749
 30
0.0
 10
117.132724874804
 20
81.2946852324421
 30
0.0
 10
117.5771678607666
 20
81.22958102280515
 30
0.0
 10
117.8019278846643
 20
81.20134084252324
 30
0.0
 10
118.4828917895225
 20
81.12207601126909
 30
0.0
 10
118.9492747173997
 20
81.07621062797735
 30
0.0
 10
119.4094318336638
 20
81.03060974963086
 30
0.0
  0
SPLINE
  5
AC
330
1F
100
AcDbEntity
  8
0
  6
Continuous
 62
     7
370
    25
100
AcDbSpline
210
0.0
220
0.0
230
1.0
 70
     8
 71
     3
 72
    12
 73
     8
 74
     0
 42
0.000000001
 43
0.00000001
 40
0.0
 40
0.0
 40
0.0
 40
0.0
 40
0.2500000000000001
 40
0.2500000000000001
 40
0.5000000000000002
 40
0.5000000000000002
 40
1.0
 40
1.0
 40
1.0
 40
1.0
 10
116.5371505103948
 20
80.95480807407822
 30
0.0
 10
116.7745630684973
 20
80.93254123192598
 30
0.0
 10
117.0126730826459
 20
80.92550319927103
 30
0.0
 10
117.4903712098718
 20
80.92462807778448
 30
0.0
 10
117.7299940664703
 20
80.9312920717318
 30
0.0
 10
118.448709820552
 20
80.96194442114438
 30
0.0
 10
118.9295267853553
 20
80.99655310425611
 30
0.0
 10
119.4094318336638
 20
81.03060974963086
 30
0.0
  0
LINE
  5
AD
330
1F
100
AcDbEntity
  8
0
  6
Continuous
 62
     7
370
    25
100
AcDbLine
 10
116.5371505915
 20
80.530609582
 30
0.0
 11
116.5371505915
 21
80.9548079226
 31
0.0
  0
SPLINE
  5
AE
330
1F
100
AcDbEntity
  8
0
  6
Continuous
 62
     7
370
    25
100
AcDbSpline
210
0.0
220
0.0
230
1.0
 70
     8
 71
     3
 72
    16
 73
    12
 74
     0
 42
0.000000001
 43
0.00000001
 40
0.0
 40
0.0
 40
0.0
 40
0.0
 40
0.2500000000000003
 40
0.2500000000000003
 40
0.5000000000000006
 40
0.5000000000000006
 40
0.7500000000000006
 40
0.7500000000000006
 40
0.8750000000000003
 40
0.8750000000000003
 40
1.0
 40
1.0
 40
1.0
 40
1.0
 10
116.5371505103948
 20
80.53060974963086
 30
0.0
 10
116.7834458426586
 20
80.53060974963086
 30
0.0
 10
117.0269657774326
 20
80.55054153531802
 30
0.0
 10
117.5096517508078
 20
80.61114808192157
 30
0.0
 10
117.7490922195826
 20
80.65225858936675
 30
0.0
 10
118.2258332992456
 20
80.74663504576596
 30
0.0
 10
118.4631164093725
 20
80.80000040762225
 30
0.0
 10
118.8182912946873
 20
80.88430756755685
 30
0.0
 10
118.9365557351213
 20
80.9131324443987
 30
0.0
 10
119.1729597456224
 20
80.9714915229642
 30
0.0
 10
119.2899622171789
 20
81.0007426441823
 30
0.0
 10
119.4094318336638
 20
81.03060974963086
 30
0.0
  0
LINE
  5
AF
330
1F
100
AcDbEntity
  8
0
  6
Continuous
 62
     7
370
    25
100
AcDbLine
 10
127.4094322136
 20
75.9028909918
 30
0.0
 11
127.8336300886
 21
75.9028909918
 31
0.0
  0
SPLINE
  5
B0
330
1F
100
AcDbEntity
  8
0
  6
Continuous
 62
     7
370
    25
100
AcDbSpline
210
0.0
220
0.0
230
1.0
 70
     8
 71
     3
 72
    12
 73
     8
 74
     0
 42
0.000000001
 43
0.00000001
 40
0.0
 40
0.0
 40
0.0
 40
0.0
 40
0.25
 40
0.25
 40
0.5
 40
0.5
 40
1.0
 40
1.0
 40
1.0
 40
1.0
 10
127.8336301581112
 20
75.90289107289985
 30
0.0
 10
127.8113633159589
 20
75.66547851479743
 30
0.0
 10
127.804325283304
 20
75.42736850064883
 30
0.0
 10
127.8034501618174
 20
74.94967037342299
 30
0.0
 10
127.8101141557648
 20
74.71004751682463
 30
0.0
 10
127.8407665051773
 20
73.99133176274346
 30
0.0
 10
127.8753751880275
 20
73.51051479792078
 30
0.0
 10
127.9094318336638
 20
73.03060974963086
 30
0.0
  0
SPLINE
  5
B1
330
1F
100
AcDbEntity
  8
0
  6
Continuous
 62
     7
370
    25
100
AcDbSpline
210
0.0
220
0.0
230
1.0
 70
     8
 71
     3
 72
    16
 73
    12
 74
     0
 42
0.000000001
 43
0.00000001
 40
0.0
 40
0.0
 40
0.0
 40
0.0
 40
0.2500000000000002
 40
0.2500000000000002
 40
0.5000000000000002
 40
0.5000000000000002
 40
0.7500000000000002
 40
0.7500000000000002
 40
0.8750000000000001
 40
0.8750000000000001
 40
1.0
 40
1.0
 40
1.0
 40
1.0
 10
127.4094318336638
 20
75.90289107289986
 30
0.0
 10
127.4094318336638
 20
75.6565957406361
 30
0.0
 10
127.429363619351
 20
75.41307580586208
 30
0.0
 10
127.4899701659545
 20
74.9303898324868
 30
0.0
 10
127.5310806733997
 20
74.69094936371211
 30
0.0
 10
127.6254571297989
 20
74.21420828404902
 30
0.0
 10
127.6788224916552
 20
73.97692517392213
 30
0.0
 10
127.7631296515898
 20
73.62175028860736
 30
0.0
 10
127.7919545284317
 20
73.50348584817331
 30
0.0
 10
127.8503136069972
 20
73.26708183767222
 30
0.0
 10
127.8795647282152
 20
73.15007936611576
 30
0.0
 10
127.9094318336638
 20
73.03060974963086
 30
0.0
  0
ARC
  5
B2
330
1F
100
AcDbEntity
  8
0
  6
Continuous
 62
     7
370
    25
100
AcDbCircle
 10
110.3927419135
 20
69.226891749
 30
0.0
 40
1.103911594455083
100
AcDbArc
 50
57.5393526556
 51
81.2309848762
  0
SPLINE
  5
B3
330
1F
100
AcDbEntity
  8
0
  6
Continuous
 62
     7
370
    25
100
AcDbSpline
210
0.0
220
0.0
230
1.0
 70
     8
 71
     3
 72
    12
 73
     8
 74
     0
 42
0.000000001
 43
0.00000001
 40
0.0
 40
0.0
 40
0.0
 40
0.0
 40
0.2499999999999999
 40
0.2499999999999999
 40
0.4999999999999998
 40
0.4999999999999998
 40
1.0
 40
1.0
 40
1.0
 40
1.0
 10
110.5610351847691
 20
70.317899610988
 30
0.0
 10
110.6091432933972
 20
70.53413719545296
 30
0.0
 10
110.6453563508526
 20
70.75390279077101
 30
0.0
 10
110.7104605604895
 20
71.19834577673363
 30
0.0
 10
110.7387007407714
 20
71.42310580063129
 30
0.0
 10
110.8179655720256
 20
72.10406970548956
 30
0.0
 10
110.8638309553173
 20
72.57045263336673
 30
0.0
 10
110.9094318336638
 20
73.03060974963086
 30
0.0
  0
SPLINE
  5
B4
330
1F
100
AcDbEntity
  8
0
  6
Continuous
 62
     7
370
    25
100
AcDbSpline
210
0.0
220
0.0
230
1.0
 70
     8
 71
     3
 72
    12
 73
     8
 74
     0
 42
0.000000001
 43
0.00000001
 40
0.0
 40
0.0
 40
0.0
 40
0.0
 40
0.2500000000000001
 40
0.2500000000000001
 40
0.5000000000000001
 40
0.5000000000000001
 40
1.0
 40
1.0
 40
1.0
 40
1.0
 10
110.9852335092164
 20
70.15832842636186
 30
0.0
 10
111.0075003513687
 20
70.3957409844643
 30
0.0
 10
111.0145383840236
 20
70.63385099861293
 30
0.0
 10
111.0154135055102
 20
71.1115491258388
 30
0.0
 10
111.0087495115629
 20
71.35117198243734
 30
0.0
 10
110.9780971621503
 20
72.06988773651908
 30
0.0
 10
110.9434884790385
 20
72.55070470132233
 30
0.0
 10
110.9094318336638
 20
73.03060974963086
 30
0.0
  0
LINE
  5
B5
330
1F
100
AcDbEntity
  8
0
  6
Continuous
 62
     7
370
    25
100
AcDbLine
 10
111.4094314537
 20
70.1583285075
 30
0.0
 11
110.9852335787
 21
70.1583285075
 31
0.0
  0
SPLINE
  5
B6
330
1F
100
AcDbEntity
  8
0
  6
Continuous
 62
     7
370
    25
100
AcDbSpline
210
0.0
220
0.0
230
1.0
 70
     8
 71
     3
 72
    16
 73
    12
 74
     0
 42
0.000000001
 43
0.00000001
 40
0.0
 40
0.0
 40
0.0
 40
0.0
 40
0.2500000000000001
 40
0.2500000000000001
 40
0.5000000000000001
 40
0.5000000000000001
 40
0.7500000000000002
 40
0.7500000000000002
 40
0.8750000000000001
 40
0.8750000000000001
 40
1.0
 40
1.0
 40
1.0
 40
1.0
 10
111.4094318336638
 20
70.15832842636183
 30
0.0
 10
111.4094318336638
 20
70.40462375862565
 30
0.0
 10
111.3895000479767
 20
70.64814369339963
 30
0.0
 10
111.3288935013731
 20
71.13082966677489
 30
0.0
 10
111.2877829939279
 20
71.37027013554959
 30
0.0
 10
111.1934065375287
 20
71.84701121521267
 30
0.0
 10
111.1400411756724
 20
72.08429432533958
 30
0.0
 10
111.0557340157378
 20
72.43946921065435
 30
0.0
 10
111.026909138896
 20
72.55773365108838
 30
0.0
 10
110.9685500603305
 20
72.79413766158949
 30
0.0
 10
110.9392989391124
 20
72.91114013314592
 30
0.0
 10
110.9094318336638
 20
73.03060974963086
 30
0.0
  0
ARC
  5
B7
330
1F
100
AcDbEntity
  8
0
  6
Continuous
 62
     7
370
    25
100
AcDbCircle
 10
128.4261217539
 20
76.8343277502
 30
0.0
 40
1.10391159445498
100
AcDbArc
 50
237.5393526556
 51
261.2309848762
  0
SPLINE
  5
B8
330
1F
100
AcDbEntity
  8
0
  6
Continuous
 62
     7
370
    25
100
AcDbSpline
210
0.0
220
0.0
230
1.0
 70
     8
 71
     3
 72
    12
 73
     8
 74
     0
 42
0.000000001
 43
0.00000001
 40
0.0
 40
0.0
 40
0.0
 40
0.0
 40
0.2499999999999999
 40
0.2499999999999999
 40
0.5
 40
0.5
 40
1.0
 40
1.0
 40
1.0
 40
1.0
 10
128.2578284825586
 20
75.74331988827377
 30
0.0
 10
128.2098703268867
 20
75.52775631627728
 30
0.0
 10
128.1735879117925
 20
75.30788630465553
 30
0.0
 10
128.1082660347563
 20
74.86191856304124
 30
0.0
 10
128.0799055188018
 20
74.63602533716731
 30
0.0
 10
128.0006491122397
 20
73.95476293835186
 30
0.0
 10
127.9551783351127
 20
73.49223636768134
 30
0.0
 10
127.9094318336638
 20
73.03060974963086
 30
0.0
  0
LINE
  5
B9
330
1F
100
AcDbEntity
  8
0
  6
Continuous
 62
     7
370
    25
100
AcDbLine
 10
110.8499831891
 20
87.3702607308
 30
0.0
 11
127.9688804782
 21
87.3702607308
 31
0.0
  0
LINE
  5
BA
330
1F
100
AcDbEntity
  8
0
  6
Continuous
 62
     7
370
    25
100
AcDbLine
 10
127.6068036816
 20
98.9567005266
 30
0.0
 11
111.2120599857
 21
98.9567005266
 31
0.0
  0
LINE
  5
BB
330
1F
100
AcDbEntity
  8
0
  6
Continuous
 62
     7
370
    25
100
AcDbLine
 10
116.5371505915
 20
80.530609582
 30
0.0
 11
112.9094316996
 21
80.530609582
 31
0.0
  0
LWPOLYLINE
  5
BC
330
1F
100
AcDbEntity
  8
0
  6
Continuous
 62
     7
370
    25
100
AcDbPolyline
 90
        9
 70
   128
 43
0.0
 10
112.9094316996
 20
80.530609582
 10
112.8118868357
 20
80.6281549115
 10
112.7180900796
 20
80.7219516676
 10
112.6316465809
 20
80.8083947007
 10
112.5558783672
 20
80.88416338
 10
112.4936972185
 20
80.9463449944
 10
112.4474919773
 20
80.99254977
 10
112.4190391413
 20
81.0210026059
 10
112.4094316176
 20
81.0306101296
  0
LINE
  5
BD
330
1F
100
AcDbEntity
  8
0
  6
Continuous
 62
     7
370
    25
100
AcDbLine
 10
112.4094316176
 20
81.0306101296
 30
0.0
 11
115.2863261661
 21
81.0306101296
 31
0.0
  0
SPLINE
  5
BE
330
1F
100
AcDbEntity
  8
0
  6
Continuous
 62
     7
370
    25
100
AcDbSpline
210
0.0
220
0.0
230
1.0
 70
     8
 71
     3
 72
     8
 73
     4
 74
     0
 42
0.000000001
 43
0.00000001
 40
0.0
 40
0.0
 40
0.0
 40
0.0
 40
1.0
 40
1.0
 40
1.0
 40
1.0
 10
116.5371505103948
 20
80.95480807407823
 30
0.0
 10
116.1178991710005
 20
80.9988542268673
 30
0.0
 10
115.7003762072394
 20
81.03060974963086
 30
0.0
 10
115.2863262080462
 20
81.03060974963086
 30
0.0
  0
LINE
  5
BF
330
1F
100
AcDbEntity
  8
0
  6
Continuous
 62
     7
370
    25
100
AcDbLine
 10
127.4094322136
 20
66.5306096155
 30
0.0
 11
127.4094322136
 21
70.1583285075
 31
0.0
  0
LINE
  5
C0
330
1F
100
AcDbEntity
  8
0
  6
Continuous
 62
     7
370
    25
100
AcDbLine
 10
111.4094314537
 20
66.5306096155
 30
0.0
 11
127.4094322136
 21
66.5306096155
 31
0.0
  0
LINE
  5
C1
330
1F
100
AcDbEntity
  8
0
  6
Continuous
 62
     7
370
    25
100
AcDbLine
 10
111.4094314537
 20
70.1583285075
 30
0.0
 11
111.4094314537
 21
66.5306096155
 31
0.0
  0
LINE
  5
C2
330
1F
100
AcDbEntity
  8
0
  6
Continuous
 62
     7
370
    25
100
AcDbLine
 10
111.4094314537
 20
79.0306098018
 30
0.0
 11
111.4094314537
 21
75.9028909918
 31
0.0
  0
ARC
  5
C3
330
1F
100
AcDbEntity
  8
0
  6
Continuous
 62
     7
370
    25
100
AcDbCircle
 10
111.4094318337
 20
80.5306097496
 30
0.0
 40
1.5
100
AcDbArc
 50
270.0
 51
0.0
  0
LINE
  5
C4
330
1F
100
AcDbEntity
  8
0
  6
Continuous
 62
     7
370
    25
100
AcDbLine
 10
125.9094319678
 20
80.530609582
 30
0.0
 11
122.2817130758
 21
80.530609582
 31
0.0
  0
ARC
  5
C5
330
1F
100
AcDbEntity
  8
0
  6
Continuous
 62
     7
370
    25
100
AcDbCircle
 10
127.4094318337
 20
80.5306097496
 30
0.0
 40
1.5
100
AcDbArc
 50
180.0
 51
270.0
  0
LINE
  5
C6
330
1F
100
AcDbEntity
  8
0
  6
Continuous
 62
     7
370
    25
100
AcDbLine
 10
127.4094322136
 20
75.9028909918
 30
0.0
 11
127.4094322136
 21
79.0306098018
 31
0.0
  0
LINE
  5
C7
330
1F
100
AcDbEntity
  8
0
  6
Continuous
 62
     7
370
    25
100
AcDbLine
 10
120.7271219603
 20
69.3820350528
 30
0.0
 11
120.6816765618
 21
69.4070443235
 31
0.0
  0
ELLIPSE
  5
C8
330
1F
100
AcDbEntity
  8
0
  6
Continuous
 62
     7
370
    25
100
AcDbEllipse
 10
121.4500620354
 20
68.1014888746
 30
0.0
 11
0.07471508237067326
 21
0.0
 31
0.0
210
0.0
220
0.0
230
1.0
 40
0.9531667975
 41
3.605240262591883
 42
5.462183310213375
  0
ELLIPSE
  5
C9
330
1F
100
AcDbEntity
  8
0
  6
Continuous
 62
     7
370
    25
100
AcDbEllipse
 10
124.9939166535
 20
68.1014888746
 30
0.0
 11
0.07471508237061641
 21
2.842170943040401E-14
 31
0.0
210
0.0
220
0.0
230
1.0
 40
0.9531667976
 41
3.962594650565228
 42
5.819537698169204
  0
LINE
  5
CA
330
1F
100
AcDbEntity
  8
0
  6
Continuous
 62
     7
370
    25
100
AcDbLine
 10
125.0607437826
 20
68.0696401935
 30
0.0
 11
125.7623020931
 21
69.4070443235
 31
0.0
  0
LINE
  5
CB
330
1F
100
AcDbEntity
  8
0
  6
Continuous
 62
     7
370
    25
100
AcDbLine
 10
125.7623020931
 20
69.4070443235
 30
0.0
 11
125.7256056554
 21
69.3860737331
 31
0.0
  0
ELLIPSE
  5
CC
330
1F
100
AcDbEntity
  8
0
  6
Continuous
 62
     7
370
    25
100
AcDbEllipse
 10
125.4182550095
 20
69.8747105059
 30
0.0
 11
-0.5977206589647892
 21
-1.705302565824240E-13
 31
0.0
210
0.0
220
0.0
230
1.0
 40
0.9531667975
 41
0.3285531705514071
 42
2.110876526947264
  0
LINE
  5
CD
330
1F
100
AcDbEntity
  8
0
  6
Continuous
 62
     7
370
    25
100
AcDbLine
 10
124.8525061085
 20
69.6908741914
 30
0.0
 11
123.742678333
 21
72.7939041347
 31
0.0
  0
ELLIPSE
  5
CE
330
1F
100
AcDbEntity
  8
0
  6
Continuous
 62
     7
370
    25
100
AcDbEllipse
 10
123.2219893445
 20
72.5628004324
 30
0.0
 11
0.5743721957241377
 21
1.236344360222574E-12
 31
0.0
210
0.0
220
0.0
230
1.0
 40
0.9531667975
 41
0.4357918987530369
 42
2.705800754832512
  0
LINE
  5
CF
330
1F
100
AcDbEntity
  8
0
  6
Continuous
 62
     7
370
    25
100
AcDbLine
 10
122.7013002056
 20
72.7939041347
 30
0.0
 11
121.5917311049
 21
69.6915973634
 31
0.0
  0
ELLIPSE
  5
D0
330
1F
100
AcDbEntity
  8
0
  6
Continuous
 62
     7
370
    25
100
AcDbEllipse
 10
121.0259823099
 20
69.8754336255
 30
0.0
 11
-0.5977206589639081
 21
5.684341886080801E-14
 31
0.0
210
0.0
220
0.0
230
1.0
 40
0.9531667975
 41
1.047197551195608
 42
2.813039483037407
  0
LINE
  5
D1
330
1F
100
AcDbEntity
  8
0
  6
Continuous
 62
     7
370
    25
100
AcDbLine
 10
120.6816765618
 20
69.4070443235
 30
0.0
 11
121.383234756
 21
68.0696401935
 31
0.0
  0
ELLIPSE
  5
D2
330
1F
100
AcDbEntity
  8
0
  6
Continuous
 62
     7
370
    25
100
AcDbEllipse
 10
123.2219893445
 20
66.28778629
 30
0.0
 11
2.525369784127108
 21
-1.563194018672220E-13
 31
0.0
210
0.0
220
0.0
230
1.0
 40
0.9531667975
 41
0.8210019969639367
 42
2.320590656625483
  0
LINE
  5
D3
330
1F
100
AcDbEntity
  8
0
  6
Continuous
 62
     7
370
    25
100
AcDbLine
 10
111.4094314537
 20
79.0306098018
 30
0.0
 11
111.4094314537
 21
79.5306098837
 31
0.0
  0
ARC
  5
D4
330
1F
100
AcDbEntity
  8
0
  6
Continuous
 62
     7
370
    25
100
AcDbCircle
 10
111.4094318337
 20
80.5306097496
 30
0.0
 40
1.0
100
AcDbArc
 50
270.0
 51
0.0
  0
LINE
  5
D5
330
1F
100
AcDbEntity
  8
0
  6
Continuous
 62
     7
370
    25
100
AcDbLine
 10
112.9094316996
 20
80.530609582
 30
0.0
 11
112.4094316176
 21
80.530609582
 31
0.0
  0
LINE
  5
D6
330
1F
100
AcDbEntity
  8
0
  6
Continuous
 62
     7
370
    25
100
AcDbLine
 10
127.4094322136
 20
79.0306098018
 30
0.0
 11
127.4094322136
 21
79.5306098837
 31
0.0
  0
LINE
  5
D7
330
1F
100
AcDbEntity
  8
0
  6
Continuous
 62
     7
370
    25
100
AcDbLine
 10
127.4094322136
 20
79.5306098837
 30
0.0
 11
127.9094322956
 21
79.5306098837
 31
0.0
  0
LWPOLYLINE
  5
D8
330
1F
100
AcDbEntity
  8
0
  6
Continuous
 62
     7
370
    25
100
AcDbPolyline
 90
        9
 70
   128
 43
0.0
 10
127.4094322136
 20
79.0306098018
 10
127.5069770775
 20
79.1281551313
 10
127.6007733679
 20
79.2219514217
 10
127.6872168667
 20
79.3083949205
 10
127.762985546
 20
79.3841631342
 10
127.825166229
 20
79.4463447485
 10
127.8713719359
 20
79.4925495241
 10
127.8998247719
 20
79.5210023601
 10
127.9094322956
 20
79.5306098837
  0
LINE
  5
D9
330
1F
100
AcDbEntity
  8
0
  6
Continuous
 62
     7
370
    25
100
AcDbLine
 10
127.9094322956
 20
79.5306098837
 30
0.0
 11
127.9094322956
 21
77.1537154172
 31
0.0
  0
SPLINE
  5
DA
330
1F
100
AcDbEntity
  8
0
  6
Continuous
 62
     7
370
    25
100
AcDbSpline
210
0.0
220
0.0
230
1.0
 70
     8
 71
     3
 72
     8
 73
     4
 74
     0
 42
0.000000001
 43
0.00000001
 40
0.0
 40
0.0
 40
0.0
 40
0.0
 40
1.0
 40
1.0
 40
1.0
 40
1.0
 10
127.8336301581112
 20
75.90289107289985
 30
0.0
 10
127.8776763109002
 20
76.32214241229418
 30
0.0
 10
127.9094318336638
 20
76.73966537605526
 30
0.0
 10
127.9094318336638
 20
77.15371537524852
 30
0.0
  0
LWPOLYLINE
  5
DB
330
1F
100
AcDbEntity
  8
0
  6
Continuous
 62
     7
370
    25
100
AcDbPolyline
 90
        9
 70
   128
 43
0.0
 10
125.9094319678
 20
80.530609582
 10
126.0069768316
 20
80.6281549115
 10
126.1007735877
 20
80.7219516676
 10
126.1872170864
 20
80.8083947007
 10
126.2629853002
 20
80.88416338
 10
126.3251664488
 20
80.9463449944
 10
126.3713716901
 20
80.99254977
 10
126.3998245261
 20
81.0210026059
 10
126.4094320497
 20
81.0306101296
  0
SPLINE
  5
DC
330
1F
100
AcDbEntity
  8
0
  6
Continuous
 62
     7
370
    25
100
AcDbSpline
210
0.0
220
0.0
230
1.0
 70
     8
 71
     3
 72
     8
 73
     4
 74
     0
 42
0.000000001
 43
0.00000001
 40
0.0
 40
0.0
 40
0.0
 40
0.0
 40
1.0
 40
1.0
 40
1.0
 40
1.0
 10
123.5325374592815
 20
81.03060974963086
 30
0.0
 10
123.1183485267991
 20
81.03060974963086
 30
0.0
 10
122.701038364006
 20
80.99886198734639
 30
0.0
 10
122.2817131569323
 20
80.9548080740889
 30
0.0
  0
LINE
  5
DD
330
1F
100
AcDbEntity
  8
0
  6
Continuous
 62
     7
370
    25
100
AcDbLine
 10
123.5325375012
 20
81.0306101296
 30
0.0
 11
126.4094320497
 21
81.0306101296
 31
0.0
  0
LWPOLYLINE
  5
DE
330
1F
100
AcDbEntity
  8
0
  6
Continuous
 62
     7
370
    25
100
AcDbPolyline
 90
        9
 70
   128
 43
0.0
 10
110.9094313717
 20
79.5306098837
 10
110.9190388954
 20
79.5210023601
 10
110.9474917314
 20
79.4925495241
 10
110.9936974383
 20
79.4463447485
 10
111.0558781213
 20
79.3841631342
 10
111.1316468007
 20
79.3083949205
 10
111.2180902994
 20
79.2219514217
 10
111.3118865899
 20
79.1281551313
 10
111.4094314537
 20
79.0306098018
  0
LINE
  5
DF
330
1F
100
AcDbEntity
  8
0
  6
Continuous
 62
     7
370
    25
100
AcDbLine
 10
110.9094313717
 20
79.5306098837
 30
0.0
 11
111.4094314537
 21
79.5306098837
 31
0.0
  0
SPLINE
  5
E0
330
1F
100
AcDbEntity
  8
0
  6
Continuous
 62
     7
370
    25
100
AcDbSpline
210
0.0
220
0.0
230
1.0
 70
     8
 71
     3
 72
     8
 73
     4
 74
     0
 42
0.000000001
 43
0.00000001
 40
0.0
 40
0.0
 40
0.0
 40
0.0
 40
1.0
 40
1.0
 40
1.0
 40
1.0
 10
115.5153876316916
 20
81.53060974963086
 30
0.0
 10
115.9018786712926
 20
81.53060974963086
 30
0.0
 10
116.2947028127135
 20
81.46844676158017
 30
0.0
 10
116.696721695021
 20
81.37900639852559
 30
0.0
  0
LINE
  5
E1
330
1F
100
AcDbEntity
  8
0
  6
Continuous
 62
     7
370
    25
100
AcDbLine
 10
112.3260982706
 20
81.5306102116
 30
0.0
 11
115.5153877473
 21
81.5306102116
 31
0.0
  0
LINE
  5
E2
330
1F
100
AcDbEntity
  8
0
  6
Continuous
 62
     7
370
    25
100
AcDbLine
 10
112.3260982706
 20
80.530609582
 30
0.0
 11
112.3260982706
 21
81.5306102116
 31
0.0
  0
LINE
  5
E3
330
1F
100
AcDbEntity
  8
0
  6
Continuous
 62
     7
370
    25
100
AcDbLine
 10
126.4927653967
 20
81.5306102116
 30
0.0
 11
126.4927653967
 21
80.530609582
 31
0.0
  0
LINE
  5
E4
330
1F
100
AcDbEntity
  8
0
  6
Continuous
 62
     7
370
    25
100
AcDbLine
 10
123.30347592
 20
81.5306102116
 30
0.0
 11
126.4927653967
 21
81.5306102116
 31
0.0
  0
SPLINE
  5
E5
330
1F
100
AcDbEntity
  8
0
  6
Continuous
 62
     7
370
    25
100
AcDbSpline
210
0.0
220
0.0
230
1.0
 70
     8
 71
     3
 72
     8
 73
     4
 74
     0
 42
0.000000001
 43
0.00000001
 40
0.0
 40
0.0
 40
0.0
 40
0.0
 40
1.0
 40
1.0
 40
1.0
 40
1.0
 10
122.1221419723067
 20
81.3790063985256
 30
0.0
 10
122.5241608546142
 20
81.46844676158018
 30
0.0
 10
122.916984996035
 20
81.53060974963086
 30
0.0
 10
123.3034760356361
 20
81.53060974963086
 30
0.0
  0
LINE
  5
E6
330
1F
100
AcDbEntity
  8
0
  6
Continuous
 62
     7
370
    25
100
AcDbLine
 10
112.4094316176
 20
80.530609582
 30
0.0
 11
112.4094316176
 21
81.0306101296
 31
0.0
  0
LWPOLYLINE
  5
E7
330
1F
100
AcDbEntity
  8
0
  6
Continuous
 62
     7
370
    25
100
AcDbPolyline
 90
        9
 70
   128
 43
0.0
 10
127.4094322136
 20
66.5306096155
 10
127.5069770775
 20
66.4330647517
 10
127.6007733679
 20
66.3392679956
 10
127.6872168667
 20
66.2528244969
 10
127.762985546
 20
66.1770562831
 10
127.825166229
 20
66.1148751345
 10
127.8713719359
 20
66.0686698932
 10
127.8998247719
 20
66.0402170572
 10
127.9094322956
 20
66.0306095336
  0
SPLINE
  5
E8
330
1F
100
AcDbEntity
  8
0
  6
Continuous
 62
     7
370
    25
100
AcDbSpline
210
0.0
220
0.0
230
1.0
 70
     8
 71
     3
 72
     8
 73
     4
 74
     0
 42
0.000000001
 43
0.00000001
 40
0.0
 40
0.0
 40
0.0
 40
0.0
 40
1.0
 40
1.0
 40
1.0
 40
1.0
 10
127.9094318336638
 20
68.9075041240132
 30
0.0
 10
127.9094318336638
 20
69.3216930564956
 30
0.0
 10
127.8776840713793
 20
69.7390032192887
 30
0.0
 10
127.8336301581218
 20
70.15832842636244
 30
0.0
  0
LINE
  5
E9
330
1F
100
AcDbEntity
  8
0
  6
Continuous
 62
     7
370
    25
100
AcDbLine
 10
127.9094322956
 20
68.9075040821
 30
0.0
 11
127.9094322956
 21
66.0306095336
 31
0.0
  0
SPLINE
  5
EA
330
1F
100
AcDbEntity
  8
0
  6
Continuous
 62
     7
370
    25
100
AcDbSpline
210
0.0
220
0.0
230
1.0
 70
     8
 71
     3
 72
     8
 73
     4
 74
     0
 42
0.000000001
 43
0.00000001
 40
0.0
 40
0.0
 40
0.0
 40
0.0
 40
1.0
 40
1.0
 40
1.0
 40
1.0
 10
128.4094318336638
 20
76.92465395160309
 30
0.0
 10
128.4094318336638
 20
76.53816291200205
 30
0.0
 10
128.3472688456131
 20
76.14533877058119
 30
0.0
 10
128.2578284825586
 20
75.74331988827377
 30
0.0
  0
LINE
  5
EB
330
1F
100
AcDbEntity
  8
0
  6
Continuous
 62
     7
370
    25
100
AcDbLine
 10
128.4094314462
 20
79.6417208578
 30
0.0
 11
128.4094314462
 21
76.924653836
 31
0.0
  0
LINE
  5
EC
330
1F
100
AcDbEntity
  8
0
  6
Continuous
 62
     7
370
    25
100
AcDbLine
 10
127.4094322136
 20
79.6417208578
 30
0.0
 11
128.4094314462
 21
79.6417208578
 31
0.0
  0
SPLINE
  5
ED
330
1F
100
AcDbEntity
  8
0
  6
Continuous
 62
     7
370
    25
100
AcDbSpline
210
0.0
220
0.0
230
1.0
 70
     8
 71
     3
 72
    14
 73
    10
 74
     0
 42
0.000000001
 43
0.00000001
 40
0.0
 40
0.0
 40
0.0
 40
0.0
 40
0.2499999999999995
 40
0.2499999999999995
 40
0.499999999999999
 40
0.499999999999999
 40
0.7499999999999984
 40
0.7499999999999984
 40
1.0
 40
1.0
 40
1.0
 40
1.0
 10
126.9094318336638
 20
80.11394308296418
 30
0.0
 10
126.9094318336638
 20
80.06599174043713
 30
0.0
 10
126.9169627236618
 20
80.01747791886407
 30
0.0
 10
126.9504432512941
 20
79.91972754832814
 30
0.0
 10
126.9765524542192
 20
79.87043437796073
 30
0.0
 10
127.0528434418612
 20
79.77775932897835
 30
0.0
 10
127.1037805226538
 20
79.73332651511393
 30
0.0
 10
127.2380691196776
 20
79.66449150663962
 30
0.0
 10
127.3216360473372
 20
79.64172086074197
 30
0.0
 10
127.4094318336638
 20
79.64172086074198
 30
0.0
  0
SPLINE
  5
EE
330
1F
100
AcDbEntity
  8
0
  6
Continuous
 62
     7
370
    25
100
AcDbSpline
210
0.0
220
0.0
230
1.0
 70
     8
 71
     3
 72
    14
 73
    10
 74
     0
 42
0.000000001
 43
0.00000001
 40
0.0
 40
0.0
 40
0.0
 40
0.0
 40
0.25
 40
0.25
 40
0.5
 40
0.5
 40
0.75
 40
0.75
 40
1.0
 40
1.0
 40
1.0
 40
1.0
 10
111.4094318336638
 20
79.64172086074197
 30
0.0
 10
111.4972276199905
 20
79.64172086074197
 30
0.0
 10
111.58079454765
 20
79.66449150663962
 30
0.0
 10
111.7150831446739
 20
79.73332651511393
 30
0.0
 10
111.7660202254664
 20
79.77775932897835
 30
0.0
 10
111.8423112131085
 20
79.87043437796073
 30
0.0
 10
111.8684204160335
 20
79.91972754832814
 30
0.0
 10
111.9019009436658
 20
80.01747791886407
 30
0.0
 10
111.9094318336638
 20
80.06599174043713
 30
0.0
 10
111.9094318336638
 20
80.1139430829642
 30
0.0
  0
LINE
  5
EF
330
1F
100
AcDbEntity
  8
0
  6
Continuous
 62
     7
370
    25
100
AcDbLine
 10
110.4094322211
 20
79.6417208578
 30
0.0
 11
111.4094314537
 21
79.6417208578
 31
0.0
  0
LINE
  5
F0
330
1F
100
AcDbEntity
  8
0
  6
Continuous
 62
     7
370
    25
100
AcDbLine
 10
110.4094322211
 20
76.924653836
 30
0.0
 11
110.4094322211
 21
79.6417208578
 31
0.0
  0
SPLINE
  5
F1
330
1F
100
AcDbEntity
  8
0
  6
Continuous
 62
     7
370
    25
100
AcDbSpline
210
0.0
220
0.0
230
1.0
 70
     8
 71
     3
 72
     8
 73
     4
 74
     0
 42
0.000000001
 43
0.00000001
 40
0.0
 40
0.0
 40
0.0
 40
0.0
 40
1.0
 40
1.0
 40
1.0
 40
1.0
 10
110.5610351847691
 20
75.7433198882737
 30
0.0
 10
110.4715948217145
 20
76.14533877058113
 30
0.0
 10
110.4094318336638
 20
76.53816291200204
 30
0.0
 10
110.4094318336638
 20
76.92465395160309
 30
0.0
  0
SPLINE
  5
F2
330
1F
100
AcDbEntity
  8
0
  6
Continuous
 62
     7
370
    25
100
AcDbSpline
210
0.0
220
0.0
230
1.0
 70
     8
 71
     3
 72
     8
 73
     4
 74
     0
 42
0.000000001
 43
0.00000001
 40
0.0
 40
0.0
 40
0.0
 40
0.0
 40
1.0
 40
1.0
 40
1.0
 40
1.0
 10
110.4094318336638
 20
69.13656554765862
 30
0.0
 10
110.4094318336638
 20
69.52305658725969
 30
0.0
 10
110.4715948217145
 20
69.91588072868058
 30
0.0
 10
110.5610351847691
 20
70.317899610988
 30
0.0
  0
LINE
  5
F3
330
1F
100
AcDbEntity
  8
0
  6
Continuous
 62
     7
370
    25
100
AcDbLine
 10
110.4094322211
 20
65.9472761866
 30
0.0
 11
110.4094322211
 21
69.1365656633
 31
0.0
  0
LINE
  5
F4
330
1F
100
AcDbEntity
  8
0
  6
Continuous
 62
     7
370
    25
100
AcDbLine
 10
128.4094314462
 20
65.9472761866
 30
0.0
 11
110.4094322211
 21
65.9472761866
 31
0.0
  0
LINE
  5
F5
330
1F
100
AcDbEntity
  8
0
  6
Continuous
 62
     7
370
    25
100
AcDbLine
 10
128.4094314462
 20
69.1365656633
 30
0.0
 11
128.4094314462
 21
65.9472761866
 31
0.0
  0
SPLINE
  5
F6
330
1F
100
AcDbEntity
  8
0
  6
Continuous
 62
     7
370
    25
100
AcDbSpline
210
0.0
220
0.0
230
1.0
 70
     8
 71
     3
 72
     8
 73
     4
 74
     0
 42
0.000000001
 43
0.00000001
 40
0.0
 40
0.0
 40
0.0
 40
0.0
 40
1.0
 40
1.0
 40
1.0
 40
1.0
 10
128.2578284825586
 20
70.31789961098798
 30
0.0
 10
128.3472688456131
 20
69.91588072868056
 30
0.0
 10
128.4094318336638
 20
69.52305658725967
 30
0.0
 10
128.4094318336638
 20
69.13656554765862
 30
0.0
  0
LINE
  5
F7
330
1F
100
AcDbEntity
  8
0
  6
Continuous
 62
     7
370
    25
100
AcDbLine
 10
125.9094319678
 20
80.530609582
 30
0.0
 11
126.4094320497
 21
80.530609582
 31
0.0
  0
ARC
  5
F8
330
1F
100
AcDbEntity
  8
0
  6
Continuous
 62
     7
370
    25
100
AcDbCircle
 10
127.4094318337
 20
80.5306097496
 30
0.0
 40
1.0
100
AcDbArc
 50
180.0
 51
270.0
  0
LINE
  5
F9
330
1F
100
AcDbEntity
  8
0
  6
Continuous
 62
     7
370
    25
100
AcDbLine
 10
126.4094320497
 20
81.0306101296
 30
0.0
 11
126.4094320497
 21
80.530609582
 31
0.0
  0
LINE
  5
FA
330
1F
100
AcDbEntity
  8
0
  6
Continuous
 62
     7
370
    25
100
AcDbLine
 10
123.1516270338
 20
70.5011434577
 30
0.0
 11
122.8840727265
 21
69.7870765537
 31
0.0
  0
ELLIPSE
  5
FB
330
1F
100
AcDbEntity
  8
0
  6
Continuous
 62
     7
370
    25
100
AcDbEllipse
 10
123.2219893462
 20
70.4771909224
 30
0.0
 11
0.07471508237067326
 21
0.0
 31
0.0
210
0.0
220
0.0
230
1.0
 40
0.9531667975
 41
0.3430239404208619
 42
2.79856871316868
  0
LINE
  5
FC
330
1F
100
AcDbEntity
  8
0
  6
Continuous
 62
     7
370
    25
100
AcDbLine
 10
122.9544350783
 20
69.6919079594
 30
0.0
 11
123.4895434602
 21
69.6919079594
 31
0.0
  0
LINE
  5
FD
330
1F
100
AcDbEntity
  8
0
  6
Continuous
 62
     7
370
    25
100
AcDbLine
 10
123.559905812
 20
69.7870765537
 30
0.0
 11
123.2923517375
 21
70.5011434577
 31
0.0
  0
ELLIPSE
  5
FE
330
1F
100
AcDbEntity
  8
0
  6
Continuous
 62
     7
370
    25
100
AcDbEllipse
 10
123.4895436877
 20
69.7631239566
 30
0.0
 11
0.07471508237061641
 21
1.421085471520200E-14
 31
0.0
210
0.0
220
0.0
230
1.0
 40
0.9531667975
 41
4.712388980384522
 42
6.626209245754752
  0
ELLIPSE
  5
FF
330
1F
100
AcDbEntity
  8
0
  6
Continuous
 62
     7
370
    25
100
AcDbEllipse
 10
122.9544350016
 20
69.7631239566
 30
0.0
 11
-0.07471508237067326
 21
0.0
 31
0.0
210
0.0
220
0.0
230
1.0
 40
0.9531667975
 41
5.940161364898016
 42
7.853981633974483
  0
LINE
  5
100
330
1F
100
AcDbEntity
  8
0
  6
Continuous
 62
     7
370
    25
100
AcDbLine
 10
127.9094322956
 20
66.0306095336
 30
0.0
 11
110.9094313717
 21
66.0306095336
 31
0.0
  0
LWPOLYLINE
  5
101
330
1F
100
AcDbEntity
  8
0
  6
Continuous
 62
     7
370
    25
100
AcDbPolyline
 90
        9
 70
   128
 43
0.0
 10
111.4094314537
 20
66.5306096155
 10
111.3118865899
 20
66.4330647517
 10
111.2180902994
 20
66.3392679956
 10
111.1316468007
 20
66.2528244969
 10
111.0558781213
 20
66.1770562831
 10
110.9936974383
 20
66.1148751345
 10
110.9474917314
 20
66.0686698932
 10
110.9190388954
 20
66.0402170572
 10
110.9094313717
 20
66.0306095336
  0
SPLINE
  5
102
330
1F
100
AcDbEntity
  8
0
  6
Continuous
 62
     7
370
    25
100
AcDbSpline
210
0.0
220
0.0
230
1.0
 70
     8
 71
     3
 72
     8
 73
     4
 74
     0
 42
0.000000001
 43
0.00000001
 40
0.0
 40
0.0
 40
0.0
 40
0.0
 40
1.0
 40
1.0
 40
1.0
 40
1.0
 10
110.9094318336638
 20
77.15371537524852
 30
0.0
 10
110.9094318336638
 20
76.7395264427661
 30
0.0
 10
110.9411795959483
 20
76.32221627997302
 30
0.0
 10
110.9852335092058
 20
75.90289107289927
 30
0.0
  0
LINE
  5
103
330
1F
100
AcDbEntity
  8
0
  6
Continuous
 62
     7
370
    25
100
AcDbLine
 10
110.9094313717
 20
77.1537154172
 30
0.0
 11
110.9094313717
 21
79.5306098837
 31
0.0
  0
LINE
  5
104
330
1F
100
AcDbEntity
  8
0
  6
Continuous
 62
     7
370
    25
100
AcDbLine
 10
110.9094313717
 20
66.0306095336
 30
0.0
 11
110.9094313717
 21
68.9075040821
 31
0.0
  0
SPLINE
  5
105
330
1F
100
AcDbEntity
  8
0
  6
Continuous
 62
     7
370
    25
100
AcDbSpline
210
0.0
220
0.0
230
1.0
 70
     8
 71
     3
 72
     8
 73
     4
 74
     0
 42
0.000000001
 43
0.00000001
 40
0.0
 40
0.0
 40
0.0
 40
0.0
 40
1.0
 40
1.0
 40
1.0
 40
1.0
 10
110.9852335092164
 20
70.15832842636186
 30
0.0
 10
110.9411873564274
 20
69.73907708696753
 30
0.0
 10
110.9094318336638
 20
69.32155412320645
 30
0.0
 10
110.9094318336638
 20
68.9075041240132
 30
0.0
  0
LWPOLYLINE
  5
106
330
1F
100
AcDbEntity
  8
0
  6
Continuous
 62
     7
370
    25
100
AcDbPolyline
 90
        9
 70
   128
 43
0.0
 10
110.4094322211
 20
76.924653836
 10
110.5069770849
 20
76.9290552665
 10
110.6007733754
 20
76.9420900572
 10
110.6872168741
 20
76.9632576223
 10
110.7629855535
 20
76.9917444516
 10
110.8251662365
 20
77.0264557753
 10
110.8713719434
 20
77.0660574738
 10
110.8998247794
 20
77.1090277661
 10
110.9094313717
 20
77.1537154172
  0
LWPOLYLINE
  5
107
330
1F
100
AcDbEntity
  8
0
  6
Continuous
 62
     7
370
    25
100
AcDbPolyline
 90
        9
 70
   128
 43
0.0
 10
128.4094314462
 20
69.1365656633
 10
128.3118865824
 20
69.1321642328
 10
128.218090292
 20
69.1191294421
 10
128.1316467932
 20
69.0979618769
 10
128.0558781138
 20
69.0694750477
 10
127.9936974308
 20
69.034763724
 10
127.9474917239
 20
68.9951620255
 10
127.919038888
 20
68.9521917332
 10
127.9094322956
 20
68.9075040821
  0
LWPOLYLINE
  5
108
330
1F
100
AcDbEntity
  8
0
  6
Continuous
 62
     7
370
    25
100
AcDbPolyline
 90
        9
 70
   128
 43
0.0
 10
123.30347592
 20
81.5306102116
 10
123.3078773505
 20
81.4330644164
 10
123.3209121412
 20
81.339268126
 10
123.3420797064
 20
81.2528246272
 10
123.3705665356
 20
81.1770559479
 10
123.4052778593
 20
81.1148752648
 10
123.4448795578
 20
81.0686695579
 10
123.4878498501
 20
81.040216722
 10
123.5325375012
 20
81.0306101296
  0
LWPOLYLINE
  5
109
330
1F
100
AcDbEntity
  8
0
  6
Continuous
 62
     7
370
    25
100
AcDbPolyline
 90
        9
 70
   128
 43
0.0
 10
110.4094322211
 20
69.1365656633
 10
110.5069770849
 20
69.1321642328
 10
110.6007733754
 20
69.1191294421
 10
110.6872168741
 20
69.0979618769
 10
110.7629855535
 20
69.0694750477
 10
110.8251662365
 20
69.034763724
 10
110.8713719434
 20
68.9951620255
 10
110.8998247794
 20
68.9521917332
 10
110.9094313717
 20
68.9075040821
  0
LWPOLYLINE
  5
10A
330
1F
100
AcDbEntity
  8
0
  6
Continuous
 62
     7
370
    25
100
AcDbPolyline
 90
        9
 70
   128
 43
0.0
 10
115.2863261661
 20
81.0306101296
 10
115.3310138172
 20
81.040216722
 10
115.3739841095
 20
81.0686695579
 10
115.413585808
 20
81.1148752648
 10
115.4482971317
 20
81.1770559479
 10
115.4767839609
 20
81.2528246272
 10
115.4979515261
 20
81.339268126
 10
115.5109863168
 20
81.4330644164
 10
115.5153877473
 20
81.5306102116
  0
LWPOLYLINE
  5
10B
330
1F
100
AcDbEntity
  8
0
  6
Continuous
 62
     7
370
    25
100
AcDbPolyline
 90
        9
 70
   128
 43
0.0
 10
127.9094322956
 20
77.1537154172
 10
127.919038888
 20
77.1090277661
 10
127.9474917239
 20
77.0660574738
 10
127.9936974308
 20
77.0264557753
 10
128.0558781138
 20
76.9917444516
 10
128.1316467932
 20
76.9632576223
 10
128.218090292
 20
76.9420900572
 10
128.3118865824
 20
76.9290552665
 10
128.4094314462
 20
76.924653836
  0
LINE
  5
10C
330
1F
100
AcDbEntity
  8
0
  6
Continuous
 62
     7
370
    25
100
AcDbLine
 10
112.4094316176
 20
101.0306106139
 30
0.0
 11
126.4094320497
 21
101.0306106139
 31
0.0
  0
SPLINE
  5
10D
330
1F
100
AcDbEntity
  8
0
  6
Continuous
 62
     7
370
    25
100
AcDbSpline
210
0.0
220
0.0
230
1.0
 70
    24
 71
     3
 72
    10
 73
     6
 74
     0
 42
0.000000001
 43
0.00000001
 40
0.0
 40
0.0
 40
0.0
 40
0.0
 40
0.5
 40
0.5
 40
1.0
 40
1.0
 40
1.0
 40
1.0
 10
112.4094318336637
 20
81.03060974963086
 30
0.0
 10
112.4094318336637
 20
81.03060974963086
 30
0.0
 10
112.4094318336638
 20
81.04745476518478
 30
0.0
 10
112.4094318336638
 20
81.11681448281237
 30
0.0
 10
112.4094318336638
 20
81.16801396886545
 30
0.0
 10
112.4094318336638
 20
81.24763212532237
 30
0.0
  0
SPLINE
  5
10E
330
1F
100
AcDbEntity
  8
0
  6
Continuous
 62
     7
370
    25
100
AcDbSpline
210
0.0
220
0.0
230
1.0
 70
     8
 71
     3
 72
     8
 73
     4
 74
     0
 42
0.000000001
 43
0.00000001
 40
0.0
 40
0.0
 40
0.0
 40
0.0
 40
1.0
 40
1.0
 40
1.0
 40
1.0
 10
112.4094318336638
 20
81.24763212532247
 30
0.0
 10
112.4094318336638
 20
81.33575598278115
 30
0.0
 10
112.37816164006
 20
81.43369345548015
 30
0.0
 10
112.3260985003305
 20
81.53060974963086
 30
0.0
  0
SPLINE
  5
10F
330
1F
100
AcDbEntity
  8
0
  6
Continuous
 62
     7
370
    25
100
AcDbSpline
210
0.0
220
0.0
230
1.0
 70
     8
 71
     3
 72
     8
 73
     4
 74
     0
 42
0.000000001
 43
0.00000001
 40
0.0
 40
0.0
 40
0.0
 40
0.0
 40
1.0
 40
1.0
 40
1.0
 40
1.0
 10
110.7306661041375
 20
79.53060974963086
 30
0.0
 10
110.633742367645
 20
79.53060974963086
 30
0.0
 10
110.5207368795551
 20
79.57373230802646
 30
0.0
 10
110.4094318336638
 20
79.64172086074197
 30
0.0
  0
SPLINE
  5
110
330
1F
100
AcDbEntity
  8
0
  6
Continuous
 62
     7
370
    25
100
AcDbSpline
210
0.0
220
0.0
230
1.0
 70
    24
 71
     3
 72
    10
 73
     6
 74
     0
 42
0.000000001
 43
0.00000001
 40
0.0
 40
0.0
 40
0.0
 40
0.0
 40
0.5
 40
0.5
 40
1.0
 40
1.0
 40
1.0
 40
1.0
 10
110.7306661041375
 20
79.53060974963086
 30
0.0
 10
110.7937161266727
 20
79.53060974963086
 30
0.0
 10
110.8370233509785
 20
79.53060974963086
 30
0.0
 10
110.8952145266408
 20
79.53060974963086
 30
0.0
 10
110.9094318336638
 20
79.53060974963086
 30
0.0
 10
110.9094318336638
 20
79.53060974963086
 30
0.0
  0
SPLINE
  5
111
330
1F
100
AcDbEntity
  8
0
  6
Continuous
 62
     7
370
    25
100
AcDbSpline
210
0.0
220
0.0
230
1.0
 70
     8
 71
     3
 72
     8
 73
     4
 74
     0
 42
0.000000001
 43
0.00000001
 40
0.0
 40
0.0
 40
0.0
 40
0.0
 40
1.0
 40
1.0
 40
1.0
 40
1.0
 10
128.1264542093554
 20
66.03060974963086
 30
0.0
 10
128.2145780668141
 20
66.03060974963086
 30
0.0
 10
128.3125155395161
 20
65.9993395560288
 30
0.0
 10
128.4094318336638
 20
65.94727641629753
 30
0.0
  0
SPLINE
  5
112
330
1F
100
AcDbEntity
  8
0
  6
Continuous
 62
     7
370
    25
100
AcDbSpline
210
0.0
220
0.0
230
1.0
 70
    24
 71
     3
 72
    10
 73
     6
 74
     0
 42
0.000000001
 43
0.00000001
 40
0.0
 40
0.0
 40
0.0
 40
0.0
 40
0.5
 40
0.5
 40
1.0
 40
1.0
 40
1.0
 40
1.0
 10
128.1264542093554
 20
66.03060974963086
 30
0.0
 10
128.0471170469339
 20
66.03060974963086
 30
0.0
 10
127.9956217384229
 20
66.03060974963086
 30
0.0
 10
127.9265193971374
 20
66.03060974963086
 30
0.0
 10
127.9094318336638
 20
66.03060974963086
 30
0.0
 10
127.9094318336638
 20
66.03060974963086
 30
0.0
  0
SPLINE
  5
113
330
1F
100
AcDbEntity
  8
0
  6
Continuous
 62
     7
370
    25
100
AcDbSpline
210
0.0
220
0.0
230
1.0
 70
     8
 71
     3
 72
     8
 73
     4
 74
     0
 42
0.000000001
 43
0.00000001
 40
0.0
 40
0.0
 40
0.0
 40
0.0
 40
1.0
 40
1.0
 40
1.0
 40
1.0
 10
126.4094318336638
 20
81.24763212532245
 30
0.0
 10
126.4094318336638
 20
81.33575598278112
 30
0.0
 10
126.4407020272674
 20
81.43369345548054
 30
0.0
 10
126.4927651669971
 20
81.53060974963086
 30
0.0
  0
SPLINE
  5
114
330
1F
100
AcDbEntity
  8
0
  6
Continuous
 62
     7
370
    25
100
AcDbSpline
210
0.0
220
0.0
230
1.0
 70
    24
 71
     3
 72
    10
 73
     6
 74
     0
 42
0.000000001
 43
0.00000001
 40
0.0
 40
0.0
 40
0.0
 40
0.0
 40
0.5
 40
0.5
 40
1.0
 40
1.0
 40
1.0
 40
1.0
 10
126.4094318336638
 20
81.24763212532245
 30
0.0
 10
126.4094318336638
 20
81.1682949629009
 30
0.0
 10
126.4094318336638
 20
81.11679965438994
 30
0.0
 10
126.4094318336638
 20
81.04769731310441
 30
0.0
 10
126.4094318336638
 20
81.0306097496309
 30
0.0
 10
126.4094318336638
 20
81.03060974963086
 30
0.0
  0
SPLINE
  5
115
330
1F
100
AcDbEntity
  8
0
  6
Continuous
 62
     7
370
    25
100
AcDbSpline
210
0.0
220
0.0
230
1.0
 70
     8
 71
     3
 72
     8
 73
     4
 74
     0
 42
0.000000001
 43
0.00000001
 40
0.0
 40
0.0
 40
0.0
 40
0.0
 40
1.0
 40
1.0
 40
1.0
 40
1.0
 10
110.6924094579722
 20
66.03060974963086
 30
0.0
 10
110.6042856005135
 20
66.03060974963086
 30
0.0
 10
110.5063481278115
 20
65.9993395560288
 30
0.0
 10
110.4094318336638
 20
65.94727641629753
 30
0.0
  0
SPLINE
  5
116
330
1F
100
AcDbEntity
  8
0
  6
Continuous
 62
     7
370
    25
100
AcDbSpline
210
0.0
220
0.0
230
1.0
 70
    24
 71
     3
 72
    10
 73
     6
 74
     0
 42
0.000000001
 43
0.00000001
 40
0.0
 40
0.0
 40
0.0
 40
0.0
 40
0.5
 40
0.5
 40
1.0
 40
1.0
 40
1.0
 40
1.0
 10
110.9094318336638
 20
66.03060974963074
 30
0.0
 10
110.9094318336638
 20
66.03060974963074
 30
0.0
 10
110.8925868181099
 20
66.03060974963086
 30
0.0
 10
110.8232271004823
 20
66.03060974963086
 30
0.0
 10
110.7720276144292
 20
66.03060974963086
 30
0.0
 10
110.6924094579723
 20
66.03060974963086
 30
0.0
  0
SPLINE
  5
117
330
1F
100
AcDbEntity
  8
0
  6
Continuous
 62
     7
370
    25
100
AcDbSpline
210
0.0
220
0.0
230
1.0
 70
     8
 71
     3
 72
     8
 73
     4
 74
     0
 42
0.000000001
 43
0.00000001
 40
0.0
 40
0.0
 40
0.0
 40
0.0
 40
1.0
 40
1.0
 40
1.0
 40
1.0
 10
128.0881975631901
 20
79.53060974963086
 30
0.0
 10
128.1851212996826
 20
79.53060974963086
 30
0.0
 10
128.2981267877725
 20
79.57373230802646
 30
0.0
 10
128.4094318336638
 20
79.64172086074197
 30
0.0
  0
SPLINE
  5
118
330
1F
100
AcDbEntity
  8
0
  6
Continuous
 62
     7
370
    25
100
AcDbSpline
210
0.0
220
0.0
230
1.0
 70
    24
 71
     3
 72
    10
 73
     6
 74
     0
 42
0.000000001
 43
0.00000001
 40
0.0
 40
0.0
 40
0.0
 40
0.0
 40
0.5
 40
0.5
 40
1.0
 40
1.0
 40
1.0
 40
1.0
 10
127.9094318336638
 20
79.53060974963205
 30
0.0
 10
127.9094318336638
 20
79.53060974963205
 30
0.0
 10
127.9236498033796
 20
79.53060974963086
 30
0.0
 10
127.9818263181705
 20
79.53060974963086
 30
0.0
 10
128.0251476755092
 20
79.53060974963086
 30
0.0
 10
128.0881975631901
 20
79.53060974963086
 30
0.0
  0
ARC
  5
119
330
1F
100
AcDbEntity
  8
0
  6
Continuous
 62
     7
370
    25
100
AcDbCircle
 10
111.947627062
 20
80.5764421916
 30
0.0
 40
0.4640733516230608
100
AcDbArc
 50
265.2789919347
 51
354.3321397526
  0
LINE
  5
11A
330
1F
100
AcDbEntity
  8
0
  6
Continuous
 62
     7
370
    25
100
AcDbLine
 10
111.4094314537
 20
79.6417208578
 30
0.0
 11
111.4094314537
 21
79.5306098837
 31
0.0
  0
ARC
  5
11B
330
1F
100
AcDbEntity
  8
0
  6
Continuous
 62
     7
370
    25
100
AcDbCircle
 10
126.8712366053
 20
80.5764421916
 30
0.0
 40
0.4640733516230749
100
AcDbArc
 50
185.6678602474
 51
274.7210080653
  0
LINE
  5
11C
330
1F
100
AcDbEntity
  8
0
  6
Continuous
 62
     7
370
    25
100
AcDbLine
 10
127.4094322136
 20
79.5306098837
 30
0.0
 11
127.4094322136
 21
79.6417208578
 31
0.0
  0
LINE
  5
11D
330
1F
100
AcDbEntity
  8
0
  6
Continuous
 62
     7
370
    25
100
AcDbLine
 10
126.4927653967
 20
80.530609582
 30
0.0
 11
126.4094320497
 21
80.530609582
 31
0.0
  0
ARC
  5
11E
330
1F
100
AcDbEntity
  8
0
  6
Continuous
 62
     7
370
    25
100
AcDbCircle
 10
127.1108292493
 20
80.7320071653
 30
0.0
 40
0.6500491615195961
100
AcDbArc
 50
198.0483231264
 51
251.9516768736
  0
ARC
  5
11F
330
1F
100
AcDbEntity
  8
0
  6
Continuous
 62
     7
370
    25
100
AcDbCircle
 10
111.708034418
 20
80.7320071653
 30
0.0
 40
0.6500491615196141
100
AcDbArc
 50
288.0483231264
 51
341.9516768736
  0
LINE
  5
120
330
1F
100
AcDbEntity
  8
0
  6
Continuous
 62
     7
370
    25
100
AcDbLine
 10
112.4094316176
 20
80.530609582
 30
0.0
 11
112.3260982706
 21
80.530609582
 31
0.0
  0
LINE
  5
121
330
1F
100
AcDbEntity
  8
0
  6
Continuous
 62
     8
370
    25
100
AcDbLine
 10
103.4094310737
 20
73.0306097496
 30
0.0
 11
103.4094310737
 21
84.2806101967
 31
0.0
  0
LINE
  5
122
330
1F
100
AcDbEntity
  8
0
  6
Continuous
 62
     8
370
    25
100
AcDbLine
 10
103.4094310737
 20
61.7806093026
 30
0.0
 11
103.4094310737
 21
73.0306097496
 31
0.0
  0
LINE
  5
123
330
1F
100
AcDbEntity
  8
0
  6
Continuous
 62
     8
370
    25
100
AcDbLine
 10
135.4094325936
 20
84.2806101967
 30
0.0
 11
135.4094325936
 21
61.7806093026
 31
0.0
  0
LINE
  5
124
330
1F
100
AcDbEntity
  8
0
  6
Continuous
 62
     8
370
    25
100
AcDbLine
 10
133.4094322658
 20
64.5306092877
 30
0.0
 11
133.4094322658
 21
81.5306102116
 31
0.0
  0
LINE
  5
125
330
1F
100
AcDbEntity
  8
0
  6
Continuous
 62
     8
370
    25
100
AcDbLine
 10
105.4094314015
 20
73.0306097496
 30
0.0
 11
105.4094314015
 21
64.5306092877
 31
0.0
  0
LINE
  5
126
330
1F
100
AcDbEntity
  8
0
  6
Continuous
 62
     8
370
    25
100
AcDbLine
 10
105.4094314015
 20
81.5306102116
 30
0.0
 11
105.4094314015
 21
73.0306097496
 31
0.0
  0
LINE
  5
127
330
1F
100
AcDbEntity
  8
0
  6
Continuous
 62
     8
370
    25
100
AcDbLine
 10
127.9094322956
 20
87.0306101818
 30
0.0
 11
110.9094313717
 21
87.0306101818
 31
0.0
  0
LWPOLYLINE
  5
128
330
1F
100
AcDbEntity
  8
0
  6
Continuous
 62
     8
370
    25
100
AcDbPolyline
 90
       10
 70
   128
 43
0.0
 10
110.9094313717
 20
82.0306093622
 10
110.9274235925
 20
82.0115591589
 10
110.9813238866
 20
81.9544886429
 10
111.0709031484
 20
81.8596399579
 10
111.1957832611
 20
81.7274145041
 10
111.3554352335
 20
81.5583710749
 10
111.5491829253
 20
81.3532267887
 10
111.7762058413
 20
81.1128487069
 10
112.0355437881
 20
80.8382556964
 10
112.3260982706
 20
80.530609582
  0
LWPOLYLINE
  5
129
330
1F
100
AcDbEntity
  8
0
  6
Continuous
 62
     8
370
    25
100
AcDbPolyline
 90
       10
 70
   128
 43
0.0
 10
126.4927653967
 20
80.530609582
 10
126.7833198792
 20
80.8382556964
 10
127.042657826
 20
81.1128487069
 10
127.2696807421
 20
81.3532267887
 10
127.4634284339
 20
81.5583710749
 10
127.6230804062
 20
81.7274145041
 10
127.7479605189
 20
81.8596399579
 10
127.8375397808
 20
81.9544886429
 10
127.8914400748
 20
82.0115591589
 10
127.9094322956
 20
82.0306093622
  0
LWPOLYLINE
  5
12A
330
1F
100
AcDbEntity
  8
0
  6
Continuous
 62
     8
370
    25
100
AcDbPolyline
 90
       10
 70
   128
 43
0.0
 10
128.4094314462
 20
81.5306102116
 10
128.390381243
 20
81.5126179907
 10
128.3333107269
 20
81.4587176967
 10
128.238462042
 20
81.3691384349
 10
128.1062365881
 20
81.2442583222
 10
127.9371931589
 20
81.0846063498
 10
127.7320488727
 20
80.890858658
 10
127.4916707909
 20
80.663835742
 10
127.2170777804
 20
80.4044977952
 10
126.909431666
 20
80.1139433127
  0
LWPOLYLINE
  5
12B
330
1F
100
AcDbEntity
  8
0
  6
Continuous
 62
     8
370
    25
100
AcDbPolyline
 90
       10
 70
   128
 43
0.0
 10
111.9094320013
 20
80.1139433127
 10
111.6017858869
 20
80.4044977952
 10
111.3271928764
 20
80.663835742
 10
111.0868147946
 20
80.890858658
 10
110.8816705084
 20
81.0846063498
 10
110.7126270792
 20
81.2442583222
 10
110.5804016254
 20
81.3691384349
 10
110.4855529404
 20
81.4587176967
 10
110.4284824244
 20
81.5126179907
 10
110.4094322211
 20
81.5306102116
  0
LINE
  5
12C
330
1F
100
AcDbEntity
  8
0
  6
Continuous
 62
     7
370
    18
100
AcDbLine
 10
126.9116131973
 20
100.1608061132
 30
0.0
 11
127.2906818337
 21
88.0306097496
 31
0.0
  0
LINE
  5
12D
330
1F
100
AcDbEntity
  8
0
  6
Continuous
 62
     7
370
    18
100
AcDbLine
 10
111.90725047
 20
100.1608061132
 30
0.0
 11
111.5281818337
 21
88.0306097496
 31
0.0
  0
LINE
  5
12E
330
1F
100
AcDbEntity
  8
0
  6
Continuous
 62
     7
370
    18
100
AcDbLine
 10
110.8706193337
 20
88.0306097496
 30
0.0
 11
127.9482443337
 21
88.0306097496
 31
0.0
  0
LINE
  5
12F
330
1F
100
AcDbEntity
  8
0
  6
CENTERX2
 62
     7
370
    18
100
AcDbLine
 10
119.4094318337
 20
98.956700316
 30
0.0
 11
119.4094318337
 21
62.3865776143
 31
0.0
  0
LINE
  5
130
330
1F
100
AcDbEntity
  8
0
  6
CENTERX2
 62
     7
370
    18
100
AcDbLine
 10
119.4094318337
 20
98.956700316
 30
0.0
 11
119.4094318337
 21
103.0306097496
 31
0.0
  0
LINE
  5
131
330
1F
100
AcDbEntity
  8
0
  6
CENTERX2
 62
     7
370
    18
100
AcDbLine
 10
88.9094318337
 20
73.0306097496
 30
0.0
 11
149.9094318337
 21
73.0306097496
 31
0.0
  0
ARC
  5
132
330
1F
100
AcDbEntity
  8
0
  6
Continuous
 62
     7
370
    25
100
AcDbCircle
 10
177.8888450289
 20
87.0306097496
 30
0.0
 40
1.000000000000026
100
AcDbArc
 50
0.0
 51
19.855604094
  0
ARC
  5
133
330
1F
100
AcDbEntity
  8
0
  6
Continuous
 62
     7
370
    25
100
AcDbCircle
 10
196.8888450289
 20
87.0306097496
 30
0.0
 40
1.0
100
AcDbArc
 50
160.144395906
 51
180.0
  0
LINE
  5
134
330
1F
100
AcDbEntity
  8
0
  6
Continuous
 62
     7
370
    25
100
AcDbLine
 10
195.9482936734
 20
87.3702607308
 30
0.0
 11
195.5862168768
 21
98.9567005266
 31
0.0
  0
LINE
  5
135
330
1F
100
AcDbEntity
  8
0
  6
Continuous
 62
     7
370
    25
100
AcDbLine
 10
179.191473181
 20
98.9567005266
 30
0.0
 11
178.8293963844
 21
87.3702607308
 31
0.0
  0
LINE
  5
136
330
1F
100
AcDbEntity
  8
0
  6
Continuous
 62
     7
370
    25
100
AcDbLine
 10
195.8888454908
 20
81.0306101296
 30
0.0
 11
195.8888454908
 21
87.0306101818
 31
0.0
  0
LINE
  5
137
330
1F
100
AcDbEntity
  8
0
  6
Continuous
 62
     7
370
    25
100
AcDbLine
 10
178.888844567
 20
87.0306101818
 30
0.0
 11
178.888844567
 21
81.0306101296
 31
0.0
  0
LINE
  5
138
330
1F
100
AcDbEntity
  8
0
  6
Continuous
 62
     7
370
    25
100
AcDbLine
 10
195.5862168768
 20
98.9567005266
 30
0.0
 11
194.388845245
 21
101.0306106139
 31
0.0
  0
LINE
  5
139
330
1F
100
AcDbEntity
  8
0
  6
Continuous
 62
     7
370
    25
100
AcDbLine
 10
180.3888448128
 20
101.0306106139
 30
0.0
 11
179.191473181
 21
98.9567005266
 31
0.0
  0
CIRCLE
  5
13A
330
1F
100
AcDbEntity
  8
0
  6
Continuous
 62
     7
370
    25
100
AcDbCircle
 10
187.3888450289
 20
73.0306097496
 30
0.0
 40
10.74999999999997
  0
CIRCLE
  5
13B
330
1F
100
AcDbEntity
  8
0
  6
Continuous
 62
     7
370
    25
100
AcDbCircle
 10
187.3888450289
 20
73.0306097496
 30
0.0
 40
9.775000000000006
  0
CIRCLE
  5
13C
330
1F
100
AcDbEntity
  8
0
  6
Continuous
 62
     7
370
    25
100
AcDbCircle
 10
187.3888450289
 20
73.0306097496
 30
0.0
 40
8.500000000000028
  0
CIRCLE
  5
13D
330
1F
100
AcDbEntity
  8
0
  6
Continuous
 62
     7
370
    25
100
AcDbCircle
 10
187.3888450289
 20
73.0306097496
 30
0.0
 40
9.525000000000006
  0
CIRCLE
  5
13E
330
1F
100
AcDbEntity
  8
0
  6
Continuous
 62
     7
370
    25
100
AcDbCircle
 10
187.3888450289
 20
73.0306097496
 30
0.0
 40
11.25
  0
CIRCLE
  5
13F
330
1F
100
AcDbEntity
  8
0
  6
Continuous
 62
     7
370
    25
100
AcDbCircle
 10
187.3888450289
 20
73.0306097496
 30
0.0
 40
9.650000000000006
  0
CIRCLE
  5
140
330
1F
100
AcDbEntity
  8
0
  6
Continuous
 62
     7
370
    25
100
AcDbCircle
 10
187.3888450289
 20
73.0306097496
 30
0.0
 40
7.872175816270357
  0
CIRCLE
  5
141
330
1F
100
AcDbEntity
  8
0
  6
Continuous
 62
     7
370
    25
100
AcDbCircle
 10
187.3888450289
 20
73.0306097496
 30
0.0
 40
7.547130357748898
  0
CIRCLE
  5
142
330
1F
100
AcDbEntity
  8
0
  6
Continuous
 62
     7
370
    25
100
AcDbCircle
 10
187.3888450289
 20
73.0306097496
 30
0.0
 40
7.474999999999994
  0
CIRCLE
  5
143
330
1F
100
AcDbEntity
  8
0
  6
Continuous
 62
     7
370
    25
100
AcDbCircle
 10
187.3888450289
 20
73.0306097496
 30
0.0
 40
5.0
  0
LINE
  5
144
330
1F
100
AcDbEntity
  8
0
  6
Continuous
 62
     7
370
    25
100
AcDbLine
 10
187.3888450289
 20
87.3702607308
 30
0.0
 11
195.9482936734
 21
87.3702607308
 31
0.0
  0
LINE
  5
145
330
1F
100
AcDbEntity
  8
0
  6
Continuous
 62
     7
370
    25
100
AcDbLine
 10
178.8293963844
 20
87.3702607308
 30
0.0
 11
187.3888450289
 21
87.3702607308
 31
0.0
  0
LINE
  5
146
330
1F
100
AcDbEntity
  8
0
  6
Continuous
 62
     7
370
    25
100
AcDbLine
 10
187.3888450289
 20
98.9567005266
 30
0.0
 11
179.191473181
 21
98.9567005266
 31
0.0
  0
LINE
  5
147
330
1F
100
AcDbEntity
  8
0
  6
Continuous
 62
     7
370
    25
100
AcDbLine
 10
195.5862168768
 20
98.9567005266
 30
0.0
 11
187.3888450289
 21
98.9567005266
 31
0.0
  0
SPLINE
  5
148
330
1F
100
AcDbEntity
  8
0
  6
Continuous
 62
     7
370
    25
100
AcDbSpline
210
0.0
220
0.0
230
1.0
 70
     8
 71
     3
 72
    12
 73
     8
 74
     0
 42
0.000000001
 43
0.00000001
 40
0.0
 40
0.0
 40
0.0
 40
0.0
 40
0.2499999999999999
 40
0.2499999999999999
 40
0.4999999999999999
 40
0.4999999999999999
 40
1.0
 40
1.0
 40
1.0
 40
1.0
 10
195.4443526915944
 20
81.37900639852559
 30
0.0
 10
195.5171711795773
 20
81.3308982898812
 30
0.0
 10
195.5814668180358
 20
81.29468523241698
 30
0.0
 10
195.6921729816186
 20
81.2295810227641
 30
0.0
 10
195.7386264938602
 20
81.2013408424758
 30
0.0
 10
195.8507125164786
 20
81.12207601120282
 30
0.0
 10
195.8888450289015
 20
81.07621062800717
 30
0.0
 10
195.8888450289015
 20
81.03060974963086
 30
0.0
  0
SPLINE
  5
149
330
1F
100
AcDbEntity
  8
0
  6
Continuous
 62
     7
370
    25
100
AcDbSpline
210
0.0
220
0.0
230
1.0
 70
     8
 71
     3
 72
     8
 73
     4
 74
     0
 42
0.000000001
 43
0.00000001
 40
0.0
 40
0.0
 40
0.0
 40
0.0
 40
1.0
 40
1.0
 40
1.0
 40
1.0
 10
194.944400584457
 20
81.53060974963086
 30
0.0
 10
195.1435935069108
 20
81.53060974963086
 30
0.0
 10
195.3089719379999
 20
81.46844676158017
 30
0.0
 10
195.4443526915944
 20
81.37900639852559
 30
0.0
  0
SPLINE
  5
14A
330
1F
100
AcDbEntity
  8
0
  6
Continuous
 62
     7
370
    25
100
AcDbSpline
210
0.0
220
0.0
230
1.0
 70
     8
 71
     3
 72
     8
 73
     4
 74
     0
 42
0.000000001
 43
0.00000001
 40
0.0
 40
0.0
 40
0.0
 40
0.0
 40
1.0
 40
1.0
 40
1.0
 40
1.0
 10
179.3333373662086
 20
81.3790063985256
 30
0.0
 10
179.468718119803
 20
81.46844676158018
 30
0.0
 10
179.6340965508922
 20
81.53060974963086
 30
0.0
 10
179.8332894733459
 20
81.53060974963086
 30
0.0
  0
SPLINE
  5
14B
330
1F
100
AcDbEntity
  8
0
  6
Continuous
 62
     7
370
    25
100
AcDbSpline
210
0.0
220
0.0
230
1.0
 70
     8
 71
     3
 72
    12
 73
     8
 74
     0
 42
0.000000001
 43
0.00000001
 40
0.0
 40
0.0
 40
0.0
 40
0.0
 40
0.2500000000000002
 40
0.2500000000000002
 40
0.5000000000000001
 40
0.5000000000000001
 40
1.0
 40
1.0
 40
1.0
 40
1.0
 10
179.3333373662086
 20
81.3790063985256
 30
0.0
 10
179.2606861914554
 20
81.33100882668661
 30
0.0
 10
179.1963686688642
 20
81.29477025278753
 30
0.0
 10
179.085489480657
 20
81.22956529756121
 30
0.0
 10
179.0388291141088
 20
81.20119824030107
 30
0.0
 10
178.9265704551579
 20
81.12174146481168
 30
0.0
 10
178.8888450289014
 20
81.07629548496135
 30
0.0
 10
178.8888450289014
 20
81.03060974963086
 30
0.0
  0
LINE
  5
14C
330
1F
100
AcDbEntity
  8
0
  6
Continuous
 62
     7
370
    25
100
AcDbLine
 10
180.3888448128
 20
101.0306106139
 30
0.0
 11
194.388845245
 21
101.0306106139
 31
0.0
  0
LINE
  5
14D
330
1F
100
AcDbEntity
  8
0
  6
Continuous
 62
     7
370
    25
100
AcDbLine
 10
195.8888454908
 20
80.530609582
 30
0.0
 11
195.8888454908
 21
80.4003110345
 31
0.0
  0
LINE
  5
14E
330
1F
100
AcDbEntity
  8
0
  6
Continuous
 62
     7
370
    25
100
AcDbLine
 10
178.888844567
 20
80.4003110345
 30
0.0
 11
178.888844567
 21
80.530609582
 31
0.0
  0
ARC
  5
14F
330
1F
100
AcDbEntity
  8
0
  6
Continuous
 62
     7
370
    25
100
AcDbCircle
 10
195.3888450289
 20
80.5306097496
 30
0.0
 40
0.5
100
AcDbArc
 50
0.0
 51
90.0
  0
LINE
  5
150
330
1F
100
AcDbEntity
  8
0
  6
Continuous
 62
     7
370
    25
100
AcDbLine
 10
195.2984912867
 20
81.0306101296
 30
0.0
 11
195.3888454089
 21
81.0306101296
 31
0.0
  0
LINE
  5
151
330
1F
100
AcDbEntity
  8
0
  6
Continuous
 62
     7
370
    25
100
AcDbLine
 10
179.3888446489
 20
81.0306101296
 30
0.0
 11
179.4791987711
 21
81.0306101296
 31
0.0
  0
ARC
  5
152
330
1F
100
AcDbEntity
  8
0
  6
Continuous
 62
     7
370
    25
100
AcDbCircle
 10
179.3888450289
 20
80.5306097496
 30
0.0
 40
0.5
100
AcDbArc
 50
90.0
 51
180.0
  0
ARC
  5
153
330
1F
100
AcDbEntity
  8
0
  6
Continuous
 62
     7
370
    25
100
AcDbCircle
 10
195.9028658633
 20
81.3414293777
 30
0.0
 40
0.4600508724523509
100
AcDbArc
 50
175.314811797
 51
237.181165302
  0
ARC
  5
154
330
1F
100
AcDbEntity
  8
0
  6
Continuous
 62
     7
370
    25
100
AcDbCircle
 10
178.8748241945
 20
81.3414293777
 30
0.0
 40
0.4600508724523226
100
AcDbArc
 50
302.818834698
 51
4.685188203
  0
SPLINE
  5
155
330
1F
100
AcDbEntity
  8
0
  6
Continuous
 62
     7
370
    25
100
AcDbSpline
210
0.0
220
0.0
230
1.0
 70
     8
 71
     3
 72
    12
 73
     8
 74
     0
 42
0.000000001
 43
0.00000001
 40
0.0
 40
0.0
 40
0.0
 40
0.0
 40
0.2500000000000002
 40
0.2500000000000002
 40
0.5000000000000001
 40
0.5000000000000001
 40
1.0
 40
1.0
 40
1.0
 40
1.0
 10
195.6535255562095
 20
80.95480807407822
 30
0.0
 10
195.6892121903132
 20
80.93254123192429
 30
0.0
 10
195.7227710666126
 20
80.92550319926987
 30
0.0
 10
195.7814148116679
 20
80.92462807778544
 30
0.0
 10
195.8066417276296
 20
80.93129207173452
 30
0.0
 10
195.8676755411301
 20
80.96194442115278
 30
0.0
 10
195.8888450289015
 20
80.9965531042773
 30
0.0
 10
195.8888450289015
 20
81.03060974963086
 30
0.0
  0
SPLINE
  5
156
330
1F
100
AcDbEntity
  8
0
  6
Continuous
 62
     7
370
    25
100
AcDbSpline
210
0.0
220
0.0
230
1.0
 70
    24
 71
     3
 72
    16
 73
    12
 74
     0
 42
0.000000001
 43
0.00000001
 40
0.0
 40
0.0
 40
0.0
 40
0.0
 40
0.2500000000000002
 40
0.2500000000000002
 40
0.5000000000000003
 40
0.5000000000000003
 40
0.7500000000000004
 40
0.7500000000000004
 40
0.8750000000000002
 40
0.8750000000000002
 40
1.0
 40
1.0
 40
1.0
 40
1.0
 10
195.8888450289015
 20
80.53060974963086
 30
0.0
 10
195.8888450289015
 20
80.53060974963086
 30
0.0
 10
195.8888450289015
 20
80.550541535318
 30
0.0
 10
195.8888450289015
 20
80.61114808192157
 30
0.0
 10
195.8888450289015
 20
80.65225858936675
 30
0.0
 10
195.8888450289015
 20
80.74663504576596
 30
0.0
 10
195.8888450289015
 20
80.80000040762225
 30
0.0
 10
195.8888450289015
 20
80.88430756755685
 30
0.0
 10
195.8888450289015
 20
80.9131324443987
 30
0.0
 10
195.8888450289015
 20
80.9714915229642
 30
0.0
 10
195.8888450289015
 20
81.0007426441823
 30
0.0
 10
195.8888450289015
 20
81.03060974963086
 30
0.0
  0
SPLINE
  5
157
330
1F
100
AcDbEntity
  8
0
  6
Continuous
 62
     7
370
    25
100
AcDbSpline
210
0.0
220
0.0
230
1.0
 70
     8
 71
     3
 72
    12
 73
     8
 74
     0
 42
0.000000001
 43
0.00000001
 40
0.0
 40
0.0
 40
0.0
 40
0.0
 40
0.2500000000000002
 40
0.2500000000000002
 40
0.5000000000000001
 40
0.5000000000000001
 40
1.0
 40
1.0
 40
1.0
 40
1.0
 10
179.1241645015935
 20
80.95480807407822
 30
0.0
 10
179.0884778674897
 20
80.9325412319243
 30
0.0
 10
179.0549189911903
 20
80.92550319926988
 30
0.0
 10
178.9962752461351
 20
80.92462807778544
 30
0.0
 10
178.9710483301733
 20
80.9312920717345
 30
0.0
 10
178.9100145166728
 20
80.96194442115275
 30
0.0
 10
178.8888450289014
 20
80.99655310427715
 30
0.0
 10
178.8888450289014
 20
81.03060974963086
 30
0.0
  0
SPLINE
  5
158
330
1F
100
AcDbEntity
  8
0
  6
Continuous
 62
     7
370
    25
100
AcDbSpline
210
0.0
220
0.0
230
1.0
 70
    24
 71
     3
 72
    16
 73
    12
 74
     0
 42
0.000000001
 43
0.00000001
 40
0.0
 40
0.0
 40
0.0
 40
0.0
 40
0.2500000000000002
 40
0.2500000000000002
 40
0.5000000000000002
 40
0.5000000000000002
 40
0.7500000000000002
 40
0.7500000000000002
 40
0.8750000000000001
 40
0.8750000000000001
 40
1.0
 40
1.0
 40
1.0
 40
1.0
 10
178.8888450289014
 20
80.53060974963086
 30
0.0
 10
178.8888450289014
 20
80.53060974963086
 30
0.0
 10
178.8888450289014
 20
80.55054153531802
 30
0.0
 10
178.8888450289014
 20
80.61114808192158
 30
0.0
 10
178.8888450289014
 20
80.65225858936675
 30
0.0
 10
178.8888450289014
 20
80.74663504576596
 30
0.0
 10
178.8888450289014
 20
80.80000040762225
 30
0.0
 10
178.8888450289014
 20
80.88430756755685
 30
0.0
 10
178.8888450289014
 20
80.9131324443987
 30
0.0
 10
178.8888450289014
 20
80.9714915229642
 30
0.0
 10
178.8888450289014
 20
81.00074264418228
 30
0.0
 10
178.8888450289014
 20
81.03060974963086
 30
0.0
  0
LINE
  5
159
330
1F
100
AcDbEntity
  8
0
  6
Continuous
 62
     8
370
    25
100
AcDbLine
 10
195.8888454908
 20
87.0306101818
 30
0.0
 11
178.888844567
 21
87.0306101818
 31
0.0
  0
LINE
  5
15A
330
1F
100
AcDbEntity
  8
0
  6
Continuous
 62
     8
370
    25
100
AcDbLine
 10
194.7585463138
 20
81.5306102116
 30
0.0
 11
194.9444005811
 21
81.5306102116
 31
0.0
  0
LINE
  5
15B
330
1F
100
AcDbEntity
  8
0
  6
Continuous
 62
     8
370
    25
100
AcDbLine
 10
179.8332894767
 20
81.5306102116
 30
0.0
 11
180.019143744
 21
81.5306102116
 31
0.0
  0
LINE
  5
15C
330
1F
100
AcDbEntity
  8
0
  6
Continuous
 62
     8
370
    25
100
AcDbLine
 10
195.8888454908
 20
80.530609582
 30
0.0
 11
195.7741000304
 21
80.530609582
 31
0.0
  0
LINE
  5
15D
330
1F
100
AcDbEntity
  8
0
  6
Continuous
 62
     8
370
    25
100
AcDbLine
 10
178.888844567
 20
80.530609582
 30
0.0
 11
179.0035900274
 21
80.530609582
 31
0.0
  0
LWPOLYLINE
  5
15E
330
1F
100
AcDbEntity
  8
0
  6
Continuous
 62
     8
370
    25
100
AcDbPolyline
 90
        3
 70
   128
 43
0.0
 10
195.3888454089
 20
81.0306101296
 10
195.3021383459
 20
81.040216722
 10
195.2842662657
 20
81.0446488861
  0
ARC
  5
15F
330
1F
100
AcDbEntity
  8
0
  6
Continuous
 62
     8
370
    25
100
AcDbCircle
 10
195.4960149746
 20
81.5294967695
 30
0.0
 40
0.5516155171802134
100
AcDbArc
 50
179.884347748
 51
200.8856234909
  0
ARC
  5
160
330
1F
100
AcDbEntity
  8
0
  6
Continuous
 62
     8
370
    25
100
AcDbCircle
 10
179.2816750832
 20
81.5294967695
 30
0.0
 40
0.551615517180185
100
AcDbArc
 50
339.1143765091
 51
0.115652252
  0
LWPOLYLINE
  5
161
330
1F
100
AcDbEntity
  8
0
  6
Continuous
 62
     8
370
    25
100
AcDbPolyline
 90
        3
 70
   128
 43
0.0
 10
179.4934237921
 20
81.0446488861
 10
179.4755517119
 20
81.040216722
 10
179.3888446489
 20
81.0306101296
  0
LINE
  5
162
330
1F
100
AcDbEntity
  8
0
  6
Continuous
 62
     8
370
    25
100
AcDbLine
 10
195.3888454089
 20
80.9402560074
 30
0.0
 11
195.3888454089
 21
81.0306101296
 31
0.0
  0
LINE
  5
163
330
1F
100
AcDbEntity
  8
0
  6
Continuous
 62
     8
370
    25
100
AcDbLine
 10
179.3888446489
 20
81.0306101296
 30
0.0
 11
179.3888446489
 21
80.9402560074
 31
0.0
  0
INSERT
  5
16F
330
1F
100
AcDbEntity
  8
0
  6
Continuous
 62
     7
370
    18
100
AcDbBlockReference
  2
SW_CENTERMARKSYMBOL_0
 10
187.3888450289
 20
73.0306097496
 30
0.0
  0
LINE
  5
170
330
1F
100
AcDbEntity
  8
0
  6
Continuous
 62
     7
370
    18
100
AcDbLine
 10
194.8910263925
 20
100.1608061132
 30
0.0
 11
195.2700950289
 21
88.0306097496
 31
0.0
  0
LINE
  5
171
330
1F
100
AcDbEntity
  8
0
  6
Continuous
 62
     7
370
    18
100
AcDbLine
 10
179.8866636653
 20
100.1608061132
 30
0.0
 11
179.5075950289
 21
88.0306097496
 31
0.0
  0
LINE
  5
172
330
1F
100
AcDbEntity
  8
0
  6
Continuous
 62
     7
370
    18
100
AcDbLine
 10
178.8500325289
 20
88.0306097496
 30
0.0
 11
195.9276575289
 21
88.0306097496
 31
0.0
  0
ARC
  5
173
330
1F
100
AcDbEntity
  8
0
  6
Continuous
 62
     7
370
    18
100
AcDbCircle
 10
187.3888450289
 20
73.0306097496
 30
0.0
 40
8.33391311411796
100
AcDbArc
 50
75.0
 51
345.0
  0
ARC
  5
174
330
1F
100
AcDbEntity
  8
0
  6
Continuous
 62
     7
370
    18
100
AcDbCircle
 10
187.3888450289
 20
73.0306097496
 30
0.0
 40
8.33391311411796
100
AcDbArc
 50
75.0
 51
345.0
  0
LINE
  5
175
330
1F
100
AcDbEntity
  8
0
  6
Continuous
 62
     7
370
    25
100
AcDbLine
 10
90.9094318188
 20
126.494588477
 30
0.0
 11
103.4094310737
 21
126.494588477
 31
0.0
  0
LINE
  5
176
330
1F
100
AcDbEntity
  8
0
  6
Continuous
 62
     7
370
    25
100
AcDbLine
 10
103.4094310737
 20
148.994589371
 30
0.0
 11
90.9094318188
 21
148.994589371
 31
0.0
  0
ARC
  5
177
330
1F
100
AcDbEntity
  8
0
  6
Continuous
 62
     7
370
    25
100
AcDbCircle
 10
103.4094318337
 20
127.494588924
 30
0.0
 40
1.0
100
AcDbArc
 50
270.0
 51
0.0
  0
ARC
  5
178
330
1F
100
AcDbEntity
  8
0
  6
Continuous
 62
     7
370
    25
100
AcDbCircle
 10
103.4094318337
 20
147.994588924
 30
0.0
 40
1.0
100
AcDbArc
 50
0.0
 51
90.0
  0
LINE
  5
179
330
1F
100
AcDbEntity
  8
0
  6
Continuous
 62
     7
370
    25
100
AcDbLine
 10
90.9094318188
 20
148.994589371
 30
0.0
 11
90.4094326681
 21
148.4945892891
 31
0.0
  0
LINE
  5
17A
330
1F
100
AcDbEntity
  8
0
  6
Continuous
 62
     7
370
    25
100
AcDbLine
 10
90.4094326681
 20
126.9945885589
 30
0.0
 11
90.9094318188
 21
126.494588477
 31
0.0
  0
LINE
  5
17B
330
1F
100
AcDbEntity
  8
0
  6
Continuous
 62
     7
370
    25
100
AcDbLine
 10
147.9094318486
 20
148.994589371
 30
0.0
 11
135.4094325936
 21
148.994589371
 31
0.0
  0
LINE
  5
17C
330
1F
100
AcDbEntity
  8
0
  6
Continuous
 62
     7
370
    25
100
AcDbLine
 10
135.4094325936
 20
126.494588477
 30
0.0
 11
147.9094318486
 21
126.494588477
 31
0.0
  0
LINE
  5
17D
330
1F
100
AcDbEntity
  8
0
  6
Continuous
 62
     7
370
    25
100
AcDbLine
 10
147.9094318486
 20
126.494588477
 30
0.0
 11
148.4094309992
 21
126.9945885589
 31
0.0
  0
LINE
  5
17E
330
1F
100
AcDbEntity
  8
0
  6
Continuous
 62
     7
370
    25
100
AcDbLine
 10
148.4094309992
 20
148.4945892891
 30
0.0
 11
147.9094318486
 21
148.994589371
 31
0.0
  0
ARC
  5
17F
330
1F
100
AcDbEntity
  8
0
  6
Continuous
 62
     7
370
    25
100
AcDbCircle
 10
135.4094318337
 20
147.994588924
 30
0.0
 40
1.0
100
AcDbArc
 50
90.0
 51
180.0
  0
ARC
  5
180
330
1F
100
AcDbEntity
  8
0
  6
Continuous
 62
     7
370
    25
100
AcDbCircle
 10
135.4094318337
 20
127.494588924
 30
0.0
 40
1.0
100
AcDbArc
 50
180.0
 51
270.0
  0
ARC
  5
181
330
1F
100
AcDbEntity
  8
0
  6
Continuous
 62
     7
370
    25
100
AcDbCircle
 10
105.4094318337
 20
128.244588924
 30
0.0
 40
1.0
100
AcDbArc
 50
90.0
 51
180.0
  0
ARC
  5
182
330
1F
100
AcDbEntity
  8
0
  6
Continuous
 62
     7
370
    25
100
AcDbCircle
 10
105.4094318337
 20
147.244588924
 30
0.0
 40
1.0
100
AcDbArc
 50
180.0
 51
270.0
  0
ARC
  5
183
330
1F
100
AcDbEntity
  8
0
  6
Continuous
 62
     7
370
    25
100
AcDbCircle
 10
133.4094318337
 20
147.244588924
 30
0.0
 40
1.0
100
AcDbArc
 50
270.0
 51
0.0
  0
ARC
  5
184
330
1F
100
AcDbEntity
  8
0
  6
Continuous
 62
     7
370
    25
100
AcDbCircle
 10
133.4094318337
 20
128.244588924
 30
0.0
 40
1.0
100
AcDbArc
 50
0.0
 51
90.0
  0
LINE
  5
185
330
1F
100
AcDbEntity
  8
0
  6
Continuous
 62
     7
370
    25
100
AcDbLine
 10
110.9094313717
 20
146.2445893859
 30
0.0
 11
105.4094314015
 21
146.2445893859
 31
0.0
  0
LINE
  5
186
330
1F
100
AcDbEntity
  8
0
  6
Continuous
 62
     7
370
    25
100
AcDbLine
 10
133.4094322658
 20
146.2445893859
 30
0.0
 11
127.9094322956
 21
146.2445893859
 31
0.0
  0
LINE
  5
187
330
1F
100
AcDbEntity
  8
0
  6
Continuous
 62
     7
370
    25
100
AcDbLine
 10
127.9094322956
 20
129.2445884621
 30
0.0
 11
133.4094322658
 21
129.2445884621
 31
0.0
  0
LINE
  5
188
330
1F
100
AcDbEntity
  8
0
  6
Continuous
 62
     7
370
    25
100
AcDbLine
 10
105.4094314015
 20
129.2445884621
 30
0.0
 11
110.9094313717
 21
129.2445884621
 31
0.0
  0
CIRCLE
  5
189
330
1F
100
AcDbEntity
  8
0
  6
Continuous
 62
     7
370
    25
100
AcDbCircle
 10
119.4094318337
 20
137.744588924
 30
0.0
 40
7.000000000000014
  0
CIRCLE
  5
18A
330
1F
100
AcDbEntity
  8
0
  6
Continuous
 62
     7
370
    25
100
AcDbCircle
 10
119.4094318337
 20
137.744588924
 30
0.0
 40
8.197372169802051
  0
CIRCLE
  5
18B
330
1F
100
AcDbEntity
  8
0
  6
Continuous
 62
     7
370
    25
100
AcDbCircle
 10
119.4094318337
 20
137.744588924
 30
0.0
 40
6.375000000000014
  0
CIRCLE
  5
18C
330
1F
100
AcDbEntity
  8
0
  6
Continuous
 62
     7
370
    25
100
AcDbCircle
 10
119.4094318337
 20
137.744588924
 30
0.0
 40
6.125000000000014
  0
CIRCLE
  5
18D
330
1F
100
AcDbEntity
  8
0
  6
Continuous
 62
     7
370
    25
100
AcDbCircle
 10
119.4094318337
 20
137.744588924
 30
0.0
 40
5.5
  0
CIRCLE
  5
18E
330
1F
100
AcDbEntity
  8
0
  6
Continuous
 62
     7
370
    25
100
AcDbCircle
 10
119.4094318337
 20
137.744588924
 30
0.0
 40
4.999999999999986
  0
CIRCLE
  5
18F
330
1F
100
AcDbEntity
  8
0
  6
Continuous
 62
     7
370
    25
100
AcDbCircle
 10
119.4094318337
 20
137.744588924
 30
0.0
 40
6.250000000000014
  0
CIRCLE
  5
190
330
1F
100
AcDbEntity
  8
0
  6
Continuous
 62
     7
370
    25
100
AcDbCircle
 10
119.4094318337
 20
137.744588924
 30
0.0
 40
8.559448410581282
  0
LINE
  5
191
330
1F
100
AcDbEntity
  8
0
  6
Continuous
 62
     7
370
    25
100
AcDbLine
 10
90.9094318188
 20
148.994589371
 30
0.0
 11
90.9094318188
 21
126.494588477
 31
0.0
  0
LINE
  5
192
330
1F
100
AcDbEntity
  8
0
  6
Continuous
 62
     7
370
    25
100
AcDbLine
 10
104.4094321689
 20
147.9945892071
 30
0.0
 11
104.4094321689
 21
127.4945886409
 31
0.0
  0
LINE
  5
193
330
1F
100
AcDbEntity
  8
0
  6
Continuous
 62
     7
370
    25
100
AcDbLine
 10
90.4094326681
 20
126.9945885589
 30
0.0
 11
90.4094326681
 21
148.4945892891
 31
0.0
  0
LINE
  5
194
330
1F
100
AcDbEntity
  8
0
  6
Continuous
 62
     7
370
    25
100
AcDbLine
 10
147.9094318486
 20
126.494588477
 30
0.0
 11
147.9094318486
 21
148.994589371
 31
0.0
  0
LINE
  5
195
330
1F
100
AcDbEntity
  8
0
  6
Continuous
 62
     7
370
    25
100
AcDbLine
 10
148.4094309992
 20
148.4945892891
 30
0.0
 11
148.4094309992
 21
126.9945885589
 31
0.0
  0
LINE
  5
196
330
1F
100
AcDbEntity
  8
0
  6
Continuous
 62
     7
370
    25
100
AcDbLine
 10
134.4094314984
 20
127.4945886409
 30
0.0
 11
134.4094314984
 21
147.9945892071
 31
0.0
  0
ELLIPSE
  5
197
330
1F
100
AcDbEntity
  8
0
  6
Continuous
 62
     7
370
    25
100
AcDbEllipse
 10
119.4094318337
 20
137.744588924
 30
0.0
 11
9.000000000000014
 21
0.0
 31
0.0
210
0.0
220
0.0
230
1.0
 40
0.9444444444
 41
5.697499763722449
 42
6.868870850636737
  0
ELLIPSE
  5
198
330
1F
100
AcDbEntity
  8
0
  6
Continuous
 62
     7
370
    25
100
AcDbEllipse
 10
119.4094318337
 20
137.744588924
 30
0.0
 11
9.000000000000014
 21
0.0
 31
0.0
210
0.0
220
0.0
230
1.0
 40
0.9444444444
 41
2.555907110132643
 42
3.727278197046957
  0
LINE
  5
199
330
1F
100
AcDbEntity
  8
0
  6
Continuous
 62
     7
370
    25
100
AcDbLine
 10
122.2817130758
 20
146.2445893859
 30
0.0
 11
122.2817130758
 21
146.009269317
 31
0.0
  0
SPLINE
  5
19A
330
1F
100
AcDbEntity
  8
0
  6
Continuous
 62
     7
370
    25
100
AcDbSpline
210
0.0
220
0.0
230
1.0
 70
    24
 71
     3
 72
    11
 73
     7
 74
     0
 42
0.000000001
 43
0.00000001
 40
0.0
 40
0.0
 40
0.0
 40
0.0
 40
0.2997977872172631
 40
0.6406113059324012
 40
0.9808804877681692
 40
1.0
 40
1.0
 40
1.0
 40
1.0
 10
120.1985920918005
 20
146.2445893859336
 30
0.0
 10
120.4035920431903
 20
146.2445893859336
 30
0.0
 10
120.8416382602584
 20
146.2445893859336
 30
0.0
 10
121.5229182852094
 20
146.2445893859336
 30
0.0
 10
122.0152996712476
 20
146.2445893859335
 30
0.0
 10
122.2682557867558
 20
146.2445893859336
 30
0.0
 10
122.2817130758258
 20
146.2445893859336
 30
0.0
  0
LINE
  5
19B
330
1F
100
AcDbEntity
  8
0
  6
Continuous
 62
     7
370
    25
100
AcDbLine
 10
116.5371505915
 20
129.2445884621
 30
0.0
 11
116.5371505915
 21
129.479908531
 31
0.0
  0
SPLINE
  5
19C
330
1F
100
AcDbEntity
  8
0
  6
Continuous
 62
     7
370
    25
100
AcDbSpline
210
0.0
220
0.0
230
1.0
 70
    24
 71
     3
 72
    11
 73
     7
 74
     0
 42
0.000000001
 43
0.00000001
 40
0.0
 40
0.0
 40
0.0
 40
0.0
 40
0.2193469802856317
 40
0.5993187908388865
 40
0.9786837220923267
 40
0.9999999999999999
 40
0.9999999999999999
 40
0.9999999999999999
 40
0.9999999999999999
 10
118.4083456312137
 20
129.2445884620616
 30
0.0
 10
118.2737466865267
 20
129.2445884620616
 30
0.0
 10
117.9059838084011
 20
129.2445884620616
 30
0.0
 10
117.2958289919737
 20
129.2445884620616
 30
0.0
 10
116.8035651431475
 20
129.2445884620616
 30
0.0
 10
116.5506079385135
 20
129.2445884620616
 30
0.0
 10
116.5371505915018
 20
129.2445884620616
 30
0.0
  0
LINE
  5
19D
330
1F
100
AcDbEntity
  8
0
  6
Continuous
 62
     7
370
    25
100
AcDbLine
 10
116.5371505915
 20
146.009269317
 30
0.0
 11
116.5371505915
 21
146.2445893859
 31
0.0
  0
SPLINE
  5
19E
330
1F
100
AcDbEntity
  8
0
  6
Continuous
 62
     7
370
    25
100
AcDbSpline
210
0.0
220
0.0
230
1.0
 70
    24
 71
     3
 72
    11
 73
     7
 74
     0
 42
0.000000001
 43
0.00000001
 40
0.0
 40
0.0
 40
0.0
 40
0.0
 40
0.0212502593641092
 40
0.3945605309004017
 40
0.7684521905753638
 40
1.0
 40
1.0
 40
1.0
 40
1.0
 10
116.5371505915018
 20
146.2445893859336
 30
0.0
 10
116.5506079356265
 20
146.2445893859336
 30
0.0
 10
116.8004748549596
 20
146.2445893859336
 30
0.0
 10
117.2865631960341
 20
146.2445893859336
 30
0.0
 10
117.8987863015415
 20
146.2445893859336
 30
0.0
 10
118.2714523075488
 20
146.2445893859336
 30
0.0
 10
118.4139768731611
 20
146.2445893859336
 30
0.0
  0
LINE
  5
19F
330
1F
100
AcDbEntity
  8
0
  6
Continuous
 62
     7
370
    25
100
AcDbLine
 10
122.2817130758
 20
129.2445884621
 30
0.0
 11
122.2817130758
 21
129.479908531
 31
0.0
  0
SPLINE
  5
1A0
330
1F
100
AcDbEntity
  8
0
  6
Continuous
 62
     7
370
    25
100
AcDbSpline
210
0.0
220
0.0
230
1.0
 70
    24
 71
     3
 72
    11
 73
     7
 74
     0
 42
0.000000001
 43
0.00000001
 40
0.0
 40
0.0
 40
0.0
 40
0.0
 40
0.0190931438217757
 40
0.3545086595790514
 40
0.6904465467181391
 40
1.0
 40
1.0
 40
1.0
 40
1.0
 10
122.2817130758258
 20
129.2445884620616
 30
0.0
 10
122.2682557882789
 20
129.2445884620616
 30
0.0
 10
122.0183899194431
 20
129.2445884620616
 30
0.0
 10
121.5321896600353
 20
129.2445884620616
 30
0.0
 10
120.8497858618326
 20
129.2445884620616
 30
0.0
 10
120.4077934322775
 20
129.2445884620616
 30
0.0
 10
120.1958304293285
 20
129.2445884620616
 30
0.0
  0
SPLINE
  5
1A1
330
1F
100
AcDbEntity
  8
0
  6
Continuous
 62
     7
370
    25
100
AcDbSpline
210
0.0
220
0.0
230
1.0
 70
     8
 71
     3
 72
     8
 73
     4
 74
     0
 42
0.000000001
 43
0.00000001
 40
0.0
 40
0.0
 40
0.0
 40
0.0
 40
1.0
 40
1.0
 40
1.0
 40
1.0
 10
115.2863262080462
 20
145.7445889239976
 30
0.0
 10
115.7005151405286
 20
145.8513229688467
 30
0.0
 10
116.1178253033217
 20
145.9386651028144
 30
0.0
 10
116.5371505103954
 20
146.0092694513079
 30
0.0
  0
SPLINE
  5
1A2
330
1F
100
AcDbEntity
  8
0
  6
Continuous
 62
     7
370
    25
100
AcDbSpline
210
0.0
220
0.0
230
1.0
 70
     8
 71
     3
 72
     8
 73
     4
 74
     0
 42
0.000000001
 43
0.00000001
 40
0.0
 40
0.0
 40
0.0
 40
0.0
 40
1.0
 40
1.0
 40
1.0
 40
1.0
 10
122.2817131569328
 20
146.0092694513056
 30
0.0
 10
122.7009644963271
 20
145.9386775403648
 30
0.0
 10
123.1184874600882
 20
145.8512871665576
 30
0.0
 10
123.5325374592815
 20
145.7445889239976
 30
0.0
  0
SPLINE
  5
1A3
330
1F
100
AcDbEntity
  8
0
  6
Continuous
 62
     7
370
    25
100
AcDbSpline
210
0.0
220
0.0
230
1.0
 70
     8
 71
     3
 72
     8
 73
     4
 74
     0
 42
0.000000001
 43
0.00000001
 40
0.0
 40
0.0
 40
0.0
 40
0.0
 40
1.0
 40
1.0
 40
1.0
 40
1.0
 10
116.5371505103948
 20
129.4799083966896
 30
0.0
 10
116.1178991710005
 20
129.5505003076303
 30
0.0
 10
115.7003762072394
 20
129.6378906814375
 30
0.0
 10
115.2863262080462
 20
129.7445889239975
 30
0.0
  0
SPLINE
  5
1A4
330
1F
100
AcDbEntity
  8
0
  6
Continuous
 62
     7
370
    25
100
AcDbSpline
210
0.0
220
0.0
230
1.0
 70
     8
 71
     3
 72
     8
 73
     4
 74
     0
 42
0.000000001
 43
0.00000001
 40
0.0
 40
0.0
 40
0.0
 40
0.0
 40
1.0
 40
1.0
 40
1.0
 40
1.0
 10
123.5325374592815
 20
129.7445889239975
 30
0.0
 10
123.1183485267991
 20
129.6378548791484
 30
0.0
 10
122.701038364006
 20
129.5505127451807
 30
0.0
 10
122.2817131569323
 20
129.4799083966873
 30
0.0
  0
SPLINE
  5
1A5
330
1F
100
AcDbEntity
  8
0
  6
Continuous
 62
     7
370
    25
100
AcDbSpline
210
0.0
220
0.0
230
1.0
 70
     8
 71
     3
 72
    12
 73
     8
 74
     0
 42
0.000000001
 43
0.00000001
 40
0.0
 40
0.0
 40
0.0
 40
0.0
 40
0.2499999999999999
 40
0.2499999999999999
 40
0.5
 40
0.5
 40
1.0
 40
1.0
 40
1.0
 40
1.0
 10
128.2578284825586
 20
129.6890812613047
 30
0.0
 10
128.2098703268867
 20
129.6164897485456
 30
0.0
 10
128.1735879117925
 20
129.5521034826555
 30
0.0
 10
128.1082660347563
 20
129.4410285885395
 30
0.0
 10
128.0799055188018
 20
129.3944031711009
 30
0.0
 10
128.0006491122397
 20
129.2824505328989
 30
0.0
 10
127.9551783351127
 20
129.2445889239975
 30
0.0
 10
127.9094318336638
 20
129.2445889239975
 30
0.0
  0
SPLINE
  5
1A6
330
1F
100
AcDbEntity
  8
0
  6
Continuous
 62
     7
370
    25
100
AcDbSpline
210
0.0
220
0.0
230
1.0
 70
     8
 71
     3
 72
     8
 73
     4
 74
     0
 42
0.000000001
 43
0.00000001
 40
0.0
 40
0.0
 40
0.0
 40
0.0
 40
1.0
 40
1.0
 40
1.0
 40
1.0
 10
128.4094318336638
 20
130.189033368442
 30
0.0
 10
128.4094318336638
 20
129.9898404459883
 30
0.0
 10
128.3472688456131
 20
129.8244620148991
 30
0.0
 10
128.2578284825586
 20
129.6890812613047
 30
0.0
  0
LINE
  5
1A7
330
1F
100
AcDbEntity
  8
0
  6
Continuous
 62
     7
370
    25
100
AcDbLine
 10
128.4094314462
 20
132.402004355
 30
0.0
 11
128.4094314462
 21
130.1890333718
 31
0.0
  0
LINE
  5
1A8
330
1F
100
AcDbEntity
  8
0
  6
Continuous
 62
     7
370
    25
100
AcDbLine
 10
127.4094322136
 20
132.402004355
 30
0.0
 11
128.4094314462
 21
132.402004355
 31
0.0
  0
SPLINE
  5
1A9
330
1F
100
AcDbEntity
  8
0
  6
Continuous
 62
     7
370
    25
100
AcDbSpline
210
0.0
220
0.0
230
1.0
 70
     8
 71
     3
 72
    14
 73
    10
 74
     0
 42
0.000000001
 43
0.00000001
 40
0.0
 40
0.0
 40
0.0
 40
0.0
 40
0.2499999999999995
 40
0.2499999999999995
 40
0.499999999999999
 40
0.499999999999999
 40
0.7499999999999984
 40
0.7499999999999984
 40
1.0
 40
1.0
 40
1.0
 40
1.0
 10
126.9094318336638
 20
133.0460371376607
 30
0.0
 10
126.9094318336638
 20
132.9737477688625
 30
0.0
 10
126.9169627236618
 20
132.9030157965885
 30
0.0
 10
126.9504432512941
 20
132.764908902353
 30
0.0
 10
126.9765524542192
 20
132.697536004564
 30
0.0
 10
127.0528434418612
 20
132.5742971844744
 30
0.0
 10
127.1037805226538
 20
132.5170973316494
 30
0.0
 10
127.2380691196776
 20
132.4300152609099
 30
0.0
 10
127.3216360473372
 20
132.4020043550325
 30
0.0
 10
127.4094318336638
 20
132.4020043550325
 30
0.0
  0
SPLINE
  5
1AA
330
1F
100
AcDbEntity
  8
0
  6
Continuous
 62
     7
370
    25
100
AcDbSpline
210
0.0
220
0.0
230
1.0
 70
     8
 71
     3
 72
    14
 73
    10
 74
     0
 42
0.000000001
 43
0.00000001
 40
0.0
 40
0.0
 40
0.0
 40
0.0
 40
0.2499999999999985
 40
0.2499999999999985
 40
0.499999999999999
 40
0.499999999999999
 40
0.7499999999999994
 40
0.7499999999999994
 40
1.0
 40
1.0
 40
1.0
 40
1.0
 10
127.4094318336638
 20
143.0871734929626
 30
0.0
 10
127.3216360473372
 20
143.0871734929626
 30
0.0
 10
127.2380691196776
 20
143.0591625870852
 30
0.0
 10
127.1037805226537
 20
142.9720805163458
 30
0.0
 10
127.0528434418612
 20
142.9148806635207
 30
0.0
 10
126.9765524542192
 20
142.7916418434311
 30
0.0
 10
126.9504432512941
 20
142.7242689456421
 30
0.0
 10
126.9169627236618
 20
142.5861620514066
 30
0.0
 10
126.9094318336638
 20
142.5154300791326
 30
0.0
 10
126.9094318336638
 20
142.4431407103344
 30
0.0
  0
LINE
  5
1AB
330
1F
100
AcDbEntity
  8
0
  6
Continuous
 62
     7
370
    25
100
AcDbLine
 10
128.4094314462
 20
143.087173493
 30
0.0
 11
127.4094322136
 21
143.087173493
 31
0.0
  0
LINE
  5
1AC
330
1F
100
AcDbEntity
  8
0
  6
Continuous
 62
     7
370
    25
100
AcDbLine
 10
128.4094314462
 20
145.3001444762
 30
0.0
 11
128.4094314462
 21
143.087173493
 31
0.0
  0
SPLINE
  5
1AD
330
1F
100
AcDbEntity
  8
0
  6
Continuous
 62
     7
370
    25
100
AcDbSpline
210
0.0
220
0.0
230
1.0
 70
     8
 71
     3
 72
     8
 73
     4
 74
     0
 42
0.000000001
 43
0.00000001
 40
0.0
 40
0.0
 40
0.0
 40
0.0
 40
1.0
 40
1.0
 40
1.0
 40
1.0
 10
128.2578284825586
 20
145.8000965866904
 30
0.0
 10
128.3472688456131
 20
145.664715833096
 30
0.0
 10
128.4094318336638
 20
145.4993374020068
 30
0.0
 10
128.4094318336638
 20
145.3001444795531
 30
0.0
  0
SPLINE
  5
1AE
330
1F
100
AcDbEntity
  8
0
  6
Continuous
 62
     7
370
    25
100
AcDbSpline
210
0.0
220
0.0
230
1.0
 70
     8
 71
     3
 72
    12
 73
     8
 74
     0
 42
0.000000001
 43
0.00000001
 40
0.0
 40
0.0
 40
0.0
 40
0.0
 40
0.2499999999999999
 40
0.2499999999999999
 40
0.4999999999999998
 40
0.4999999999999998
 40
1.0
 40
1.0
 40
1.0
 40
1.0
 10
128.2578284825586
 20
145.8000965866904
 30
0.0
 10
128.2097203739305
 20
145.8729150746487
 30
0.0
 10
128.1735073164751
 20
145.9372107130883
 30
0.0
 10
128.1084031068381
 20
146.0479168766457
 30
0.0
 10
128.0801629265562
 20
146.0943703888806
 30
0.0
 10
128.000898095302
 20
146.2064564114981
 30
0.0
 10
127.9550327120118
 20
146.2445889239976
 30
0.0
 10
127.9094318336638
 20
146.2445889239976
 30
0.0
  0
SPLINE
  5
1AF
330
1F
100
AcDbEntity
  8
0
  6
Continuous
 62
     7
370
    25
100
AcDbSpline
210
0.0
220
0.0
230
1.0
 70
     8
 71
     3
 72
    12
 73
     8
 74
     0
 42
0.000000001
 43
0.00000001
 40
0.0
 40
0.0
 40
0.0
 40
0.0
 40
0.25
 40
0.25
 40
0.4999999999999998
 40
0.4999999999999998
 40
1.0
 40
1.0
 40
1.0
 40
1.0
 10
110.5610351847691
 20
145.8000965866905
 30
0.0
 10
110.6091432934135
 20
145.8729150746734
 30
0.0
 10
110.6453563508777
 20
145.9372107131318
 30
0.0
 10
110.7104605605306
 20
146.0479168767147
 30
0.0
 10
110.7387007408189
 20
146.0943703889562
 30
0.0
 10
110.8179655720919
 20
146.2064564115747
 30
0.0
 10
110.8638309552876
 20
146.2445889239976
 30
0.0
 10
110.9094318336638
 20
146.2445889239976
 30
0.0
  0
SPLINE
  5
1B0
330
1F
100
AcDbEntity
  8
0
  6
Continuous
 62
     7
370
    25
100
AcDbSpline
210
0.0
220
0.0
230
1.0
 70
     8
 71
     3
 72
     8
 73
     4
 74
     0
 42
0.000000001
 43
0.00000001
 40
0.0
 40
0.0
 40
0.0
 40
0.0
 40
1.0
 40
1.0
 40
1.0
 40
1.0
 10
110.4094318336638
 20
145.3001444795531
 30
0.0
 10
110.4094318336638
 20
145.4993374020069
 30
0.0
 10
110.4715948217145
 20
145.664715833096
 30
0.0
 10
110.5610351847691
 20
145.8000965866905
 30
0.0
  0
LINE
  5
1B1
330
1F
100
AcDbEntity
  8
0
  6
Continuous
 62
     7
370
    25
100
AcDbLine
 10
110.4094322211
 20
143.087173493
 30
0.0
 11
110.4094322211
 21
145.3001444762
 31
0.0
  0
LINE
  5
1B2
330
1F
100
AcDbEntity
  8
0
  6
Continuous
 62
     7
370
    25
100
AcDbLine
 10
111.4094314537
 20
143.087173493
 30
0.0
 11
110.4094322211
 21
143.087173493
 31
0.0
  0
SPLINE
  5
1B3
330
1F
100
AcDbEntity
  8
0
  6
Continuous
 62
     7
370
    25
100
AcDbSpline
210
0.0
220
0.0
230
1.0
 70
     8
 71
     3
 72
    14
 73
    10
 74
     0
 42
0.000000001
 43
0.00000001
 40
0.0
 40
0.0
 40
0.0
 40
0.0
 40
0.2500000000000005
 40
0.2500000000000005
 40
0.500000000000001
 40
0.500000000000001
 40
0.7500000000000016
 40
0.7500000000000016
 40
1.0
 40
1.0
 40
1.0
 40
1.0
 10
111.9094318336638
 20
142.4431407103344
 30
0.0
 10
111.9094318336638
 20
142.5154300791326
 30
0.0
 10
111.9019009436658
 20
142.5861620514066
 30
0.0
 10
111.8684204160335
 20
142.7242689456421
 30
0.0
 10
111.8423112131085
 20
142.7916418434311
 30
0.0
 10
111.7660202254664
 20
142.9148806635207
 30
0.0
 10
111.7150831446739
 20
142.9720805163458
 30
0.0
 10
111.58079454765
 20
143.0591625870852
 30
0.0
 10
111.4972276199905
 20
143.0871734929626
 30
0.0
 10
111.4094318336638
 20
143.0871734929626
 30
0.0
  0
SPLINE
  5
1B4
330
1F
100
AcDbEntity
  8
0
  6
Continuous
 62
     7
370
    25
100
AcDbSpline
210
0.0
220
0.0
230
1.0
 70
     8
 71
     3
 72
    14
 73
    10
 74
     0
 42
0.000000001
 43
0.00000001
 40
0.0
 40
0.0
 40
0.0
 40
0.0
 40
0.25
 40
0.25
 40
0.5
 40
0.5
 40
0.75
 40
0.75
 40
1.0
 40
1.0
 40
1.0
 40
1.0
 10
111.4094318336638
 20
132.4020043550325
 30
0.0
 10
111.4972276199905
 20
132.4020043550325
 30
0.0
 10
111.58079454765
 20
132.4300152609099
 30
0.0
 10
111.7150831446739
 20
132.5170973316494
 30
0.0
 10
111.7660202254664
 20
132.5742971844744
 30
0.0
 10
111.8423112131085
 20
132.697536004564
 30
0.0
 10
111.8684204160335
 20
132.764908902353
 30
0.0
 10
111.9019009436658
 20
132.9030157965885
 30
0.0
 10
111.9094318336638
 20
132.9737477688625
 30
0.0
 10
111.9094318336638
 20
133.0460371376607
 30
0.0
  0
LINE
  5
1B5
330
1F
100
AcDbEntity
  8
0
  6
Continuous
 62
     7
370
    25
100
AcDbLine
 10
110.4094322211
 20
132.402004355
 30
0.0
 11
111.4094314537
 21
132.402004355
 31
0.0
  0
LINE
  5
1B6
330
1F
100
AcDbEntity
  8
0
  6
Continuous
 62
     7
370
    25
100
AcDbLine
 10
110.4094322211
 20
130.1890333718
 30
0.0
 11
110.4094322211
 21
132.402004355
 31
0.0
  0
SPLINE
  5
1B7
330
1F
100
AcDbEntity
  8
0
  6
Continuous
 62
     7
370
    25
100
AcDbSpline
210
0.0
220
0.0
230
1.0
 70
     8
 71
     3
 72
     8
 73
     4
 74
     0
 42
0.000000001
 43
0.00000001
 40
0.0
 40
0.0
 40
0.0
 40
0.0
 40
1.0
 40
1.0
 40
1.0
 40
1.0
 10
110.5610351847691
 20
129.6890812613046
 30
0.0
 10
110.4715948217145
 20
129.8244620148991
 30
0.0
 10
110.4094318336638
 20
129.9898404459882
 30
0.0
 10
110.4094318336638
 20
130.189033368442
 30
0.0
  0
SPLINE
  5
1B8
330
1F
100
AcDbEntity
  8
0
  6
Continuous
 62
     7
370
    25
100
AcDbSpline
210
0.0
220
0.0
230
1.0
 70
     8
 71
     3
 72
    12
 73
     8
 74
     0
 42
0.000000001
 43
0.00000001
 40
0.0
 40
0.0
 40
0.0
 40
0.0
 40
0.2499999999999998
 40
0.2499999999999998
 40
0.4999999999999999
 40
0.4999999999999999
 40
1.0
 40
1.0
 40
1.0
 40
1.0
 10
110.5610351847691
 20
129.6890812613046
 30
0.0
 10
110.6090327566081
 20
129.6164300865515
 30
0.0
 10
110.6452713305072
 20
129.5521125639603
 30
0.0
 10
110.7104762857335
 20
129.4412333757531
 30
0.0
 10
110.7388433429936
 20
129.3945730092049
 30
0.0
 10
110.818300118483
 20
129.282314350254
 30
0.0
 10
110.8637460983335
 20
129.2445889239975
 30
0.0
 10
110.9094318336638
 20
129.2445889239975
 30
0.0
  0
ARC
  5
1B9
330
1F
100
AcDbEntity
  8
0
  6
Continuous
 62
     7
370
    25
100
AcDbCircle
 10
119.4094318337
 20
137.744588924
 30
0.0
 40
9.000000000000004
100
AcDbArc
 50
38.942441269
 51
62.7339555493
  0
SPLINE
  5
1BA
330
1F
100
AcDbEntity
  8
0
  6
Continuous
 62
     7
370
    25
100
AcDbSpline
210
0.0
220
0.0
230
1.0
 70
    24
 71
     3
 72
    10
 73
     6
 74
     0
 42
0.000000001
 43
0.00000001
 40
0.0
 40
0.0
 40
0.0
 40
0.0
 40
0.5
 40
0.5
 40
1.0
 40
1.0
 40
1.0
 40
1.0
 10
126.4094318336638
 20
143.4014431734899
 30
0.0
 10
126.4094318336638
 20
143.2788974945859
 30
0.0
 10
126.4094318336638
 20
143.1592504059292
 30
0.0
 10
126.4094318336638
 20
142.9260940564582
 30
0.0
 10
126.4094318336638
 20
142.8138736736743
 30
0.0
 10
126.4094318336638
 20
142.7195261095306
 30
0.0
  0
SPLINE
  5
1BB
330
1F
100
AcDbEntity
  8
0
  6
Continuous
 62
     7
370
    25
100
AcDbSpline
210
0.0
220
0.0
230
1.0
 70
    24
 71
     3
 72
    10
 73
     6
 74
     0
 42
0.000000001
 43
0.00000001
 40
0.0
 40
0.0
 40
0.0
 40
0.0
 40
0.5
 40
0.5
 40
1.0
 40
1.0
 40
1.0
 40
1.0
 10
112.4094318336638
 20
142.7195261095306
 30
0.0
 10
112.4094318336638
 20
142.8135406955704
 30
0.0
 10
112.4094318336638
 20
142.926289426903
 30
0.0
 10
112.4094318336638
 20
143.1582900234006
 30
0.0
 10
112.4094318336638
 20
143.2791754028497
 30
0.0
 10
112.4094318336638
 20
143.4014431734899
 30
0.0
  0
ARC
  5
1BC
330
1F
100
AcDbEntity
  8
0
  6
Continuous
 62
     7
370
    25
100
AcDbCircle
 10
119.4094318337
 20
137.744588924
 30
0.0
 40
9.000000000000004
100
AcDbArc
 50
117.2660444507
 51
141.057558731
  0
ARC
  5
1BD
330
1F
100
AcDbEntity
  8
0
  6
Continuous
 62
     7
370
    25
100
AcDbCircle
 10
119.4094318337
 20
137.744588924
 30
0.0
 40
9.000000000000021
100
AcDbArc
 50
218.942441269
 51
242.7339555493
  0
SPLINE
  5
1BE
330
1F
100
AcDbEntity
  8
0
  6
Continuous
 62
     7
370
    25
100
AcDbSpline
210
0.0
220
0.0
230
1.0
 70
    24
 71
     3
 72
    10
 73
     6
 74
     0
 42
0.000000001
 43
0.00000001
 40
0.0
 40
0.0
 40
0.0
 40
0.0
 40
0.5
 40
0.5
 40
1.0
 40
1.0
 40
1.0
 40
1.0
 10
112.4094318336637
 20
132.0877346745053
 30
0.0
 10
112.4094318336637
 20
132.2102803534093
 30
0.0
 10
112.4094318336638
 20
132.329927442066
 30
0.0
 10
112.4094318336638
 20
132.563083791537
 30
0.0
 10
112.4094318336638
 20
132.6753041743208
 30
0.0
 10
112.4094318336638
 20
132.7696517384645
 30
0.0
  0
SPLINE
  5
1BF
330
1F
100
AcDbEntity
  8
0
  6
Continuous
 62
     7
370
    25
100
AcDbSpline
210
0.0
220
0.0
230
1.0
 70
    24
 71
     3
 72
    10
 73
     6
 74
     0
 42
0.000000001
 43
0.00000001
 40
0.0
 40
0.0
 40
0.0
 40
0.0
 40
0.5
 40
0.5
 40
1.0
 40
1.0
 40
1.0
 40
1.0
 10
126.4094318336638
 20
132.7696517384644
 30
0.0
 10
126.4094318336638
 20
132.6756371524247
 30
0.0
 10
126.4094318336638
 20
132.5628884210922
 30
0.0
 10
126.4094318336638
 20
132.3308878245948
 30
0.0
 10
126.4094318336638
 20
132.2100024451458
 30
0.0
 10
126.4094318336638
 20
132.0877346745056
 30
0.0
  0
ARC
  5
1C0
330
1F
100
AcDbEntity
  8
0
  6
Continuous
 62
     7
370
    25
100
AcDbCircle
 10
119.4094318337
 20
137.744588924
 30
0.0
 40
9.000000000000028
100
AcDbArc
 50
297.2660444507
 51
321.057558731
  0
LINE
  5
1C1
330
1F
100
AcDbEntity
  8
0
  6
Continuous
 62
     7
370
    25
100
AcDbLine
 10
126.4094320497
 20
145.744589304
 30
0.0
 11
123.5325375012
 21
145.744589304
 31
0.0
  0
ARC
  5
1C2
330
1F
100
AcDbEntity
  8
0
  6
Continuous
 62
     7
370
    25
100
AcDbCircle
 10
125.9094318337
 20
145.744588924
 30
0.0
 40
0.5
100
AcDbArc
 50
0.0
 51
90.0
  0
LINE
  5
1C3
330
1F
100
AcDbEntity
  8
0
  6
Continuous
 62
     7
370
    25
100
AcDbLine
 10
122.2817130758
 20
146.2445893859
 30
0.0
 11
125.9094319678
 21
146.2445893859
 31
0.0
  0
LINE
  5
1C4
330
1F
100
AcDbEntity
  8
0
  6
Continuous
 62
     7
370
    25
100
AcDbLine
 10
115.2863261661
 20
145.744589304
 30
0.0
 11
112.4094316176
 21
145.744589304
 31
0.0
  0
ARC
  5
1C5
330
1F
100
AcDbEntity
  8
0
  6
Continuous
 62
     7
370
    25
100
AcDbCircle
 10
112.9094318337
 20
145.744588924
 30
0.0
 40
0.5
100
AcDbArc
 50
90.0
 51
180.0
  0
LINE
  5
1C6
330
1F
100
AcDbEntity
  8
0
  6
Continuous
 62
     7
370
    25
100
AcDbLine
 10
112.9094316996
 20
146.2445893859
 30
0.0
 11
116.5371505915
 21
146.2445893859
 31
0.0
  0
LINE
  5
1C7
330
1F
100
AcDbEntity
  8
0
  6
Continuous
 62
     7
370
    25
100
AcDbLine
 10
112.4094316176
 20
143.4014431735
 30
0.0
 11
112.4094316176
 21
145.744589304
 31
0.0
  0
LINE
  5
1C8
330
1F
100
AcDbEntity
  8
0
  6
Continuous
 62
     7
370
    25
100
AcDbLine
 10
126.4094320497
 20
143.4014431735
 30
0.0
 11
126.4094320497
 21
145.744589304
 31
0.0
  0
LINE
  5
1C9
330
1F
100
AcDbEntity
  8
0
  6
Continuous
 62
     7
370
    25
100
AcDbLine
 10
112.4094316176
 20
129.744588544
 30
0.0
 11
115.2863261661
 21
129.744588544
 31
0.0
  0
LINE
  5
1CA
330
1F
100
AcDbEntity
  8
0
  6
Continuous
 62
     7
370
    25
100
AcDbLine
 10
112.4094316176
 20
129.744588544
 30
0.0
 11
112.4094316176
 21
132.0877346745
 31
0.0
  0
LINE
  5
1CB
330
1F
100
AcDbEntity
  8
0
  6
Continuous
 62
     7
370
    25
100
AcDbLine
 10
123.5325375012
 20
129.744588544
 30
0.0
 11
126.4094320497
 21
129.744588544
 31
0.0
  0
LINE
  5
1CC
330
1F
100
AcDbEntity
  8
0
  6
Continuous
 62
     7
370
    25
100
AcDbLine
 10
126.4094320497
 20
129.744588544
 30
0.0
 11
126.4094320497
 21
132.0877346745
 31
0.0
  0
ARC
  5
1CD
330
1F
100
AcDbEntity
  8
0
  6
Continuous
 62
     7
370
    25
100
AcDbCircle
 10
112.9094318337
 20
129.744588924
 30
0.0
 40
0.5
100
AcDbArc
 50
180.0
 51
270.0
  0
LINE
  5
1CE
330
1F
100
AcDbEntity
  8
0
  6
Continuous
 62
     7
370
    25
100
AcDbLine
 10
116.5371505915
 20
129.2445884621
 30
0.0
 11
112.9094316996
 21
129.2445884621
 31
0.0
  0
ARC
  5
1CF
330
1F
100
AcDbEntity
  8
0
  6
Continuous
 62
     7
370
    25
100
AcDbCircle
 10
125.9094318337
 20
129.744588924
 30
0.0
 40
0.5
100
AcDbArc
 50
270.0
 51
0.0
  0
LINE
  5
1D0
330
1F
100
AcDbEntity
  8
0
  6
Continuous
 62
     7
370
    25
100
AcDbLine
 10
125.9094319678
 20
129.2445884621
 30
0.0
 11
122.2817130758
 21
129.2445884621
 31
0.0
  0
LINE
  5
1D1
330
1F
100
AcDbEntity
  8
0
  6
Continuous
 62
     7
370
    25
100
AcDbLine
 10
127.4094322136
 20
145.744589304
 30
0.0
 11
126.4094320497
 21
145.744589304
 31
0.0
  0
LINE
  5
1D2
330
1F
100
AcDbEntity
  8
0
  6
Continuous
 62
     7
370
    25
100
AcDbLine
 10
127.4094322136
 20
143.4014431735
 30
0.0
 11
127.4094322136
 21
145.744589304
 31
0.0
  0
SPLINE
  5
1D3
330
1F
100
AcDbEntity
  8
0
  6
Continuous
 62
     7
370
    25
100
AcDbSpline
210
0.0
220
0.0
230
1.0
 70
     8
 71
     3
 72
    14
 73
    10
 74
     0
 42
0.000000001
 43
0.00000001
 40
0.0
 40
0.0
 40
0.0
 40
0.0
 40
0.25
 40
0.25
 40
0.5
 40
0.5
 40
0.75
 40
0.75
 40
1.0
 40
1.0
 40
1.0
 40
1.0
 10
126.4094318336638
 20
142.7195261095307
 30
0.0
 10
126.4094318336638
 20
142.8075272730861
 30
0.0
 10
126.4292634439571
 20
142.8913065195244
 30
0.0
 10
126.5132431830464
 20
143.0508485477974
 30
0.0
 10
126.5771245857382
 20
143.1247339020177
 30
0.0
 10
126.7507397737148
 20
143.2525544403579
 30
0.0
 10
126.8613235751135
 20
143.3064699606601
 30
0.0
 10
127.1181176724261
 20
143.3811849488997
 30
0.0
 10
127.2623881195846
 20
143.4014431734899
 30
0.0
 10
127.4094318336638
 20
143.4014431734899
 30
0.0
  0
LINE
  5
1D4
330
1F
100
AcDbEntity
  8
0
  6
Continuous
 62
     7
370
    25
100
AcDbLine
 10
127.4094322136
 20
143.087173493
 30
0.0
 11
127.4094322136
 21
143.4014431735
 31
0.0
  0
SPLINE
  5
1D5
330
1F
100
AcDbEntity
  8
0
  6
Continuous
 62
     7
370
    25
100
AcDbSpline
210
0.0
220
0.0
230
1.0
 70
     8
 71
     3
 72
    14
 73
    10
 74
     0
 42
0.000000001
 43
0.00000001
 40
0.0
 40
0.0
 40
0.0
 40
0.0
 40
0.25
 40
0.25
 40
0.5
 40
0.5
 40
0.75
 40
0.75
 40
1.0
 40
1.0
 40
1.0
 40
1.0
 10
112.4094318336638
 20
132.7696517384644
 30
0.0
 10
112.4094318336638
 20
132.681650574909
 30
0.0
 10
112.3896002233705
 20
132.5978713284707
 30
0.0
 10
112.3056204842813
 20
132.4383293001977
 30
0.0
 10
112.2417390815894
 20
132.3644439459773
 30
0.0
 10
112.0681238936128
 20
132.2366234076372
 30
0.0
 10
111.9575400922141
 20
132.1827078873351
 30
0.0
 10
111.7007459949015
 20
132.1079928990954
 30
0.0
 10
111.556475547743
 20
132.0877346745052
 30
0.0
 10
111.4094318336638
 20
132.0877346745052
 30
0.0
  0
LINE
  5
1D6
330
1F
100
AcDbEntity
  8
0
  6
Continuous
 62
     7
370
    25
100
AcDbLine
 10
111.4094314537
 20
132.402004355
 30
0.0
 11
111.4094314537
 21
132.0877346745
 31
0.0
  0
LINE
  5
1D7
330
1F
100
AcDbEntity
  8
0
  6
Continuous
 62
     7
370
    25
100
AcDbLine
 10
111.4094314537
 20
129.744588544
 30
0.0
 11
112.4094316176
 21
129.744588544
 31
0.0
  0
LINE
  5
1D8
330
1F
100
AcDbEntity
  8
0
  6
Continuous
 62
     7
370
    25
100
AcDbLine
 10
111.4094314537
 20
129.744588544
 30
0.0
 11
111.4094314537
 21
132.0877346745
 31
0.0
  0
LINE
  5
1D9
330
1F
100
AcDbEntity
  8
0
  6
Continuous
 62
     7
370
    25
100
AcDbLine
 10
112.4094316176
 20
145.744589304
 30
0.0
 11
111.4094314537
 21
145.744589304
 31
0.0
  0
SPLINE
  5
1DA
330
1F
100
AcDbEntity
  8
0
  6
Continuous
 62
     7
370
    25
100
AcDbSpline
210
0.0
220
0.0
230
1.0
 70
     8
 71
     3
 72
    14
 73
    10
 74
     0
 42
0.000000001
 43
0.00000001
 40
0.0
 40
0.0
 40
0.0
 40
0.0
 40
0.25
 40
0.25
 40
0.5
 40
0.5
 40
0.75
 40
0.75
 40
1.0
 40
1.0
 40
1.0
 40
1.0
 10
111.4094318336638
 20
143.4014431734899
 30
0.0
 10
111.556475547743
 20
143.4014431734899
 30
0.0
 10
111.7007459949015
 20
143.3811849488997
 30
0.0
 10
111.9575400922142
 20
143.30646996066
 30
0.0
 10
112.0681238936129
 20
143.2525544403578
 30
0.0
 10
112.2417390815894
 20
143.1247339020177
 30
0.0
 10
112.3056204842813
 20
143.0508485477973
 30
0.0
 10
112.3896002233706
 20
142.8913065195243
 30
0.0
 10
112.4094318336638
 20
142.8075272730861
 30
0.0
 10
112.4094318336638
 20
142.7195261095307
 30
0.0
  0
LINE
  5
1DB
330
1F
100
AcDbEntity
  8
0
  6
Continuous
 62
     7
370
    25
100
AcDbLine
 10
111.4094314537
 20
143.4014431735
 30
0.0
 11
111.4094314537
 21
145.744589304
 31
0.0
  0
LINE
  5
1DC
330
1F
100
AcDbEntity
  8
0
  6
Continuous
 62
     7
370
    25
100
AcDbLine
 10
111.4094314537
 20
143.087173493
 30
0.0
 11
111.4094314537
 21
143.4014431735
 31
0.0
  0
SPLINE
  5
1DD
330
1F
100
AcDbEntity
  8
0
  6
Continuous
 62
     7
370
    25
100
AcDbSpline
210
0.0
220
0.0
230
1.0
 70
     8
 71
     3
 72
    14
 73
    10
 74
     0
 42
0.000000001
 43
0.00000001
 40
0.0
 40
0.0
 40
0.0
 40
0.0
 40
0.25
 40
0.25
 40
0.5
 40
0.5
 40
0.75
 40
0.75
 40
1.0
 40
1.0
 40
1.0
 40
1.0
 10
127.4094318336638
 20
132.0877346745052
 30
0.0
 10
127.2623881195846
 20
132.0877346745052
 30
0.0
 10
127.1181176724261
 20
132.1079928990954
 30
0.0
 10
126.8613235751135
 20
132.1827078873351
 30
0.0
 10
126.7507397737148
 20
132.2366234076373
 30
0.0
 10
126.5771245857382
 20
132.3644439459774
 30
0.0
 10
126.5132431830464
 20
132.4383293001978
 30
0.0
 10
126.4292634439571
 20
132.5978713284708
 30
0.0
 10
126.4094318336638
 20
132.681650574909
 30
0.0
 10
126.4094318336638
 20
132.7696517384644
 30
0.0
  0
LINE
  5
1DE
330
1F
100
AcDbEntity
  8
0
  6
Continuous
 62
     7
370
    25
100
AcDbLine
 10
127.4094322136
 20
132.0877346745
 30
0.0
 11
127.4094322136
 21
132.402004355
 31
0.0
  0
LINE
  5
1DF
330
1F
100
AcDbEntity
  8
0
  6
Continuous
 62
     7
370
    25
100
AcDbLine
 10
126.4094320497
 20
129.744588544
 30
0.0
 11
127.4094322136
 21
129.744588544
 31
0.0
  0
LINE
  5
1E0
330
1F
100
AcDbEntity
  8
0
  6
Continuous
 62
     7
370
    25
100
AcDbLine
 10
127.4094322136
 20
129.744588544
 30
0.0
 11
127.4094322136
 21
132.0877346745
 31
0.0
  0
LINE
  5
1E1
330
1F
100
AcDbEntity
  8
0
  6
Continuous
 62
     7
370
    25
100
AcDbLine
 10
111.4094314537
 20
146.2445893859
 30
0.0
 11
111.4094314537
 21
145.744589304
 31
0.0
  0
LINE
  5
1E2
330
1F
100
AcDbEntity
  8
0
  6
Continuous
 62
     7
370
    25
100
AcDbLine
 10
111.4094314537
 20
146.2445893859
 30
0.0
 11
112.9094316996
 21
146.2445893859
 31
0.0
  0
LINE
  5
1E3
330
1F
100
AcDbEntity
  8
0
  6
Continuous
 62
     7
370
    25
100
AcDbLine
 10
127.4094322136
 20
146.2445893859
 30
0.0
 11
127.4094322136
 21
145.744589304
 31
0.0
  0
LINE
  5
1E4
330
1F
100
AcDbEntity
  8
0
  6
Continuous
 62
     7
370
    25
100
AcDbLine
 10
125.9094319678
 20
146.2445893859
 30
0.0
 11
127.4094322136
 21
146.2445893859
 31
0.0
  0
LINE
  5
1E5
330
1F
100
AcDbEntity
  8
0
  6
Continuous
 62
     7
370
    25
100
AcDbLine
 10
111.4094314537
 20
129.2445884621
 30
0.0
 11
111.4094314537
 21
129.744588544
 31
0.0
  0
LINE
  5
1E6
330
1F
100
AcDbEntity
  8
0
  6
Continuous
 62
     7
370
    25
100
AcDbLine
 10
112.9094316996
 20
129.2445884621
 30
0.0
 11
111.4094314537
 21
129.2445884621
 31
0.0
  0
LINE
  5
1E7
330
1F
100
AcDbEntity
  8
0
  6
Continuous
 62
     7
370
    25
100
AcDbLine
 10
127.4094322136
 20
129.2445884621
 30
0.0
 11
127.4094322136
 21
129.744588544
 31
0.0
  0
LINE
  5
1E8
330
1F
100
AcDbEntity
  8
0
  6
Continuous
 62
     7
370
    25
100
AcDbLine
 10
127.4094322136
 20
129.2445884621
 30
0.0
 11
125.9094319678
 21
129.2445884621
 31
0.0
  0
SPLINE
  5
1E9
330
1F
100
AcDbEntity
  8
0
  6
Continuous
 62
     7
370
    25
100
AcDbSpline
210
0.0
220
0.0
230
1.0
 70
     8
 71
     3
 72
     8
 73
     4
 74
     0
 42
0.000000001
 43
0.00000001
 40
0.0
 40
0.0
 40
0.0
 40
0.0
 40
1.0
 40
1.0
 40
1.0
 40
1.0
 10
110.7306661041375
 20
143.4014431734899
 30
0.0
 10
110.633742367645
 20
143.2776634254538
 30
0.0
 10
110.5207368795551
 20
143.1713050346319
 30
0.0
 10
110.4094318336638
 20
143.0871734929626
 30
0.0
  0
ARC
  5
1EA
330
1F
100
AcDbEntity
  8
0
  6
Continuous
 62
     7
370
    25
100
AcDbCircle
 10
110.4356674143
 20
145.7741011752
 30
0.0
 40
0.4746822493593837
100
AcDbArc
 50
266.8317075682
 51
356.4355168353
  0
SPLINE
  5
1EB
330
1F
100
AcDbEntity
  8
0
  6
Continuous
 62
     7
370
    25
100
AcDbSpline
210
0.0
220
0.0
230
1.0
 70
     8
 71
     3
 72
    10
 73
     6
 74
     0
 42
0.000000001
 43
0.00000001
 40
0.0
 40
0.0
 40
0.0
 40
0.0
 40
0.5
 40
0.5
 40
1.0
 40
1.0
 40
1.0
 40
1.0
 10
110.9094318336638
 20
143.9695387229919
 30
0.0
 10
110.9094318336638
 20
143.8677104531113
 30
0.0
 10
110.8952138639482
 20
143.7683084262326
 30
0.0
 10
110.8370373491573
 20
143.5745794896883
 30
0.0
 10
110.7937159918186
 20
143.4819631729584
 30
0.0
 10
110.7306661041375
 20
143.4014431734899
 30
0.0
  0
ARC
  5
1EC
330
1F
100
AcDbEntity
  8
0
  6
Continuous
 62
     7
370
    25
100
AcDbCircle
 10
128.383196253
 20
145.7741011752
 30
0.0
 40
0.4746822493593837
100
AcDbArc
 50
183.5644831647
 51
273.1682924318
  0
SPLINE
  5
1ED
330
1F
100
AcDbEntity
  8
0
  6
Continuous
 62
     7
370
    25
100
AcDbSpline
210
0.0
220
0.0
230
1.0
 70
     8
 71
     3
 72
     8
 73
     4
 74
     0
 42
0.000000001
 43
0.00000001
 40
0.0
 40
0.0
 40
0.0
 40
0.0
 40
1.0
 40
1.0
 40
1.0
 40
1.0
 10
128.0881975631901
 20
143.4014431734899
 30
0.0
 10
128.1851212996826
 20
143.2776634254538
 30
0.0
 10
128.2981267877725
 20
143.1713050346319
 30
0.0
 10
128.4094318336638
 20
143.0871734929626
 30
0.0
  0
SPLINE
  5
1EE
330
1F
100
AcDbEntity
  8
0
  6
Continuous
 62
     7
370
    25
100
AcDbSpline
210
0.0
220
0.0
230
1.0
 70
     8
 71
     3
 72
    10
 73
     6
 74
     0
 42
0.000000001
 43
0.00000001
 40
0.0
 40
0.0
 40
0.0
 40
0.0
 40
0.5
 40
0.5
 40
1.0
 40
1.0
 40
1.0
 40
1.0
 10
128.0881975631901
 20
143.4014431734899
 30
0.0
 10
128.025147540655
 20
143.4819633451785
 30
0.0
 10
127.9818403163491
 20
143.5745412131289
 30
0.0
 10
127.9236491406868
 20
143.7683022972718
 30
0.0
 10
127.9094318336638
 20
143.8677120739674
 30
0.0
 10
127.9094318336638
 20
143.9695387229919
 30
0.0
  0
LINE
  5
1EF
330
1F
100
AcDbEntity
  8
0
  6
Continuous
 62
     7
370
    25
100
AcDbLine
 10
127.4094322136
 20
143.4014431735
 30
0.0
 11
128.0881978012
 21
143.4014431735
 31
0.0
  0
LINE
  5
1F0
330
1F
100
AcDbEntity
  8
0
  6
Continuous
 62
     7
370
    25
100
AcDbLine
 10
110.7306658662
 20
143.4014431735
 30
0.0
 11
111.4094314537
 21
143.4014431735
 31
0.0
  0
LINE
  5
1F1
330
1F
100
AcDbEntity
  8
0
  6
Continuous
 62
     7
370
    25
100
AcDbLine
 10
128.0881978012
 20
132.0877346745
 30
0.0
 11
127.4094322136
 21
132.0877346745
 31
0.0
  0
SPLINE
  5
1F2
330
1F
100
AcDbEntity
  8
0
  6
Continuous
 62
     7
370
    25
100
AcDbSpline
210
0.0
220
0.0
230
1.0
 70
     8
 71
     3
 72
     8
 73
     4
 74
     0
 42
0.000000001
 43
0.00000001
 40
0.0
 40
0.0
 40
0.0
 40
0.0
 40
1.0
 40
1.0
 40
1.0
 40
1.0
 10
128.0881975631901
 20
132.0877346745052
 30
0.0
 10
128.1851212996826
 20
132.2115144225413
 30
0.0
 10
128.2981267877725
 20
132.3178728133632
 30
0.0
 10
128.4094318336638
 20
132.4020043550325
 30
0.0
  0
LINE
  5
1F3
330
1F
100
AcDbEntity
  8
0
  6
Continuous
 62
     7
370
    25
100
AcDbLine
 10
111.4094314537
 20
132.0877346745
 30
0.0
 11
110.7306658662
 21
132.0877346745
 31
0.0
  0
SPLINE
  5
1F4
330
1F
100
AcDbEntity
  8
0
  6
Continuous
 62
     7
370
    25
100
AcDbSpline
210
0.0
220
0.0
230
1.0
 70
     8
 71
     3
 72
     8
 73
     4
 74
     0
 42
0.000000001
 43
0.00000001
 40
0.0
 40
0.0
 40
0.0
 40
0.0
 40
1.0
 40
1.0
 40
1.0
 40
1.0
 10
110.7306661041375
 20
132.0877346745052
 30
0.0
 10
110.633742367645
 20
132.2115144225413
 30
0.0
 10
110.5207368795551
 20
132.3178728133632
 30
0.0
 10
110.4094318336638
 20
132.4020043550325
 30
0.0
  0
SPLINE
  5
1F5
330
1F
100
AcDbEntity
  8
0
  6
Continuous
 62
     7
370
    25
100
AcDbSpline
210
0.0
220
0.0
230
1.0
 70
     8
 71
     3
 72
    10
 73
     6
 74
     0
 42
0.000000001
 43
0.00000001
 40
0.0
 40
0.0
 40
0.0
 40
0.0
 40
0.5
 40
0.5
 40
1.0
 40
1.0
 40
1.0
 40
1.0
 10
127.9094318336638
 20
131.5196391250044
 30
0.0
 10
127.9094318336638
 20
131.6214673948848
 30
0.0
 10
127.9236498033796
 20
131.7208694217633
 30
0.0
 10
127.9818263181705
 20
131.9145983583072
 30
0.0
 10
128.0251476755092
 20
132.0072146750368
 30
0.0
 10
128.0881975631901
 20
132.0877346745052
 30
0.0
  0
ARC
  5
1F6
330
1F
100
AcDbEntity
  8
0
  6
Continuous
 62
     7
370
    25
100
AcDbCircle
 10
128.383196253
 20
129.7150766728
 30
0.0
 40
0.4746822493593662
100
AcDbArc
 50
86.8317075682
 51
176.4355168353
  0
ARC
  5
1F7
330
1F
100
AcDbEntity
  8
0
  6
Continuous
 62
     7
370
    25
100
AcDbCircle
 10
110.4356674143
 20
129.7150766728
 30
0.0
 40
0.4746822493593837
100
AcDbArc
 50
3.5644831647
 51
93.1682924318
  0
SPLINE
  5
1F8
330
1F
100
AcDbEntity
  8
0
  6
Continuous
 62
     7
370
    25
100
AcDbSpline
210
0.0
220
0.0
230
1.0
 70
     8
 71
     3
 72
    10
 73
     6
 74
     0
 42
0.000000001
 43
0.00000001
 40
0.0
 40
0.0
 40
0.0
 40
0.0
 40
0.5
 40
0.5
 40
1.0
 40
1.0
 40
1.0
 40
1.0
 10
110.7306661041375
 20
132.0877346745052
 30
0.0
 10
110.7937161266727
 20
132.0072145028166
 30
0.0
 10
110.8370233509785
 20
131.9146366348662
 30
0.0
 10
110.8952145266408
 20
131.7208755507233
 30
0.0
 10
110.9094318336638
 20
131.6214657740277
 30
0.0
 10
110.9094318336638
 20
131.5196391250032
 30
0.0
  0
ARC
  5
1F9
330
1F
100
AcDbEntity
  8
0
  6
Continuous
 62
     7
370
    25
100
AcDbCircle
 10
127.4094318337
 20
145.744588924
 30
0.0
 40
0.5
100
AcDbArc
 50
0.0
 51
90.0
  0
LINE
  5
1FA
330
1F
100
AcDbEntity
  8
0
  6
Continuous
 62
     7
370
    25
100
AcDbLine
 10
127.9094322956
 20
145.744589304
 30
0.0
 11
127.4094322136
 21
145.744589304
 31
0.0
  0
LINE
  5
1FB
330
1F
100
AcDbEntity
  8
0
  6
Continuous
 62
     7
370
    25
100
AcDbLine
 10
111.4094314537
 20
145.744589304
 30
0.0
 11
110.9094313717
 21
145.744589304
 31
0.0
  0
ARC
  5
1FC
330
1F
100
AcDbEntity
  8
0
  6
Continuous
 62
     7
370
    25
100
AcDbCircle
 10
111.4094318337
 20
145.744588924
 30
0.0
 40
0.5
100
AcDbArc
 50
90.0
 51
180.0
  0
LINE
  5
1FD
330
1F
100
AcDbEntity
  8
0
  6
Continuous
 62
     7
370
    25
100
AcDbLine
 10
110.9094313717
 20
143.9695387682
 30
0.0
 11
110.9094313717
 21
145.744589304
 31
0.0
  0
LINE
  5
1FE
330
1F
100
AcDbEntity
  8
0
  6
Continuous
 62
     7
370
    25
100
AcDbLine
 10
127.9094322956
 20
143.9695387682
 30
0.0
 11
127.9094322956
 21
145.744589304
 31
0.0
  0
LINE
  5
1FF
330
1F
100
AcDbEntity
  8
0
  6
Continuous
 62
     7
370
    25
100
AcDbLine
 10
127.9094322956
 20
129.744588544
 30
0.0
 11
127.9094322956
 21
131.5196390798
 31
0.0
  0
LINE
  5
200
330
1F
100
AcDbEntity
  8
0
  6
Continuous
 62
     7
370
    25
100
AcDbLine
 10
127.4094322136
 20
129.744588544
 30
0.0
 11
127.9094322956
 21
129.744588544
 31
0.0
  0
LINE
  5
201
330
1F
100
AcDbEntity
  8
0
  6
Continuous
 62
     7
370
    25
100
AcDbLine
 10
110.9094313717
 20
129.744588544
 30
0.0
 11
111.4094314537
 21
129.744588544
 31
0.0
  0
LINE
  5
202
330
1F
100
AcDbEntity
  8
0
  6
Continuous
 62
     7
370
    25
100
AcDbLine
 10
110.9094313717
 20
129.744588544
 30
0.0
 11
110.9094313717
 21
131.5196390798
 31
0.0
  0
ARC
  5
203
330
1F
100
AcDbEntity
  8
0
  6
Continuous
 62
     7
370
    25
100
AcDbCircle
 10
127.4094318337
 20
129.744588924
 30
0.0
 40
0.5
100
AcDbArc
 50
270.0
 51
0.0
  0
ARC
  5
204
330
1F
100
AcDbEntity
  8
0
  6
Continuous
 62
     7
370
    25
100
AcDbCircle
 10
111.4094318337
 20
129.744588924
 30
0.0
 40
0.5
100
AcDbArc
 50
180.0
 51
270.0
  0
SPLINE
  5
205
330
1F
100
AcDbEntity
  8
0
  6
Continuous
 62
     7
370
    25
100
AcDbSpline
210
0.0
220
0.0
230
1.0
 70
     8
 71
     3
 72
    10
 73
     6
 74
     0
 42
0.000000001
 43
0.00000001
 40
0.0
 40
0.0
 40
0.0
 40
0.0
 40
0.5
 40
0.5
 40
1.0
 40
1.0
 40
1.0
 40
1.0
 10
118.4094318336638
 20
142.6435684095639
 30
0.0
 10
118.7379668024455
 20
142.634408693746
 30
0.0
 10
119.0689616581664
 20
142.62892716842
 30
0.0
 10
119.7367598903461
 20
142.6287910501132
 30
0.0
 10
120.0757378646884
 20
142.6342648582942
 30
0.0
 10
120.4094318336638
 20
142.6435684095639
 30
0.0
  0
SPLINE
  5
206
330
1F
100
AcDbEntity
  8
0
  6
Continuous
 62
     7
370
    25
100
AcDbSpline
210
0.0
220
0.0
230
1.0
 70
     8
 71
     3
 72
    10
 73
     6
 74
     0
 42
0.000000001
 43
0.00000001
 40
0.0
 40
0.0
 40
0.0
 40
0.0
 40
0.5
 40
0.5
 40
1.0
 40
1.0
 40
1.0
 40
1.0
 10
120.4094318336638
 20
132.8456094384312
 30
0.0
 10
120.0808968648822
 20
132.8547691542491
 30
0.0
 10
119.7499020091612
 20
132.8602506795751
 30
0.0
 10
119.0821037769815
 20
132.8603867978819
 30
0.0
 10
118.7431258026393
 20
132.8549129897009
 30
0.0
 10
118.4094318336638
 20
132.8456094384312
 30
0.0
  0
ARC
  5
207
330
1F
100
AcDbEntity
  8
0
  6
Continuous
 62
     7
370
    25
100
AcDbCircle
 10
110.5986128182
 20
146.2586083497
 30
0.0
 40
0.4600495252436775
100
AcDbArc
 50
265.3147112477
 51
327.1812658513
  0
ARC
  5
208
330
1F
100
AcDbEntity
  8
0
  6
Continuous
 62
     7
370
    25
100
AcDbCircle
 10
128.2202508491
 20
146.2586083497
 30
0.0
 40
0.4600495252436708
100
AcDbArc
 50
212.8187341487
 51
274.6852887523
  0
ARC
  5
209
330
1F
100
AcDbEntity
  8
0
  6
Continuous
 62
     7
370
    25
100
AcDbCircle
 10
128.2202508491
 20
129.2305694983
 30
0.0
 40
0.4600495252436502
100
AcDbArc
 50
85.3147112477
 51
147.1812658513
  0
ARC
  5
20A
330
1F
100
AcDbEntity
  8
0
  6
Continuous
 62
     7
370
    25
100
AcDbCircle
 10
110.5986128182
 20
129.2305694983
 30
0.0
 40
0.4600495252436708
100
AcDbArc
 50
32.8187341487
 51
94.6852887523
  0
SPLINE
  5
20B
330
1F
100
AcDbEntity
  8
0
  6
Continuous
 62
     7
370
    25
100
AcDbSpline
210
0.0
220
0.0
230
1.0
 70
     8
 71
     3
 72
    12
 73
     8
 74
     0
 42
0.000000001
 43
0.00000001
 40
0.0
 40
0.0
 40
0.0
 40
0.0
 40
0.2499999999999998
 40
0.2499999999999998
 40
0.4999999999999998
 40
0.4999999999999998
 40
1.0
 40
1.0
 40
1.0
 40
1.0
 10
110.9852335092164
 20
146.0092694513056
 30
0.0
 10
111.0075003513704
 20
146.0449560854093
 30
0.0
 10
111.0145383840248
 20
146.0785149617087
 30
0.0
 10
111.0154135055092
 20
146.137158706764
 30
0.0
 10
111.0087495115601
 20
146.1623856227257
 30
0.0
 10
110.9780971621419
 20
146.2234194362262
 30
0.0
 10
110.9434884790176
 20
146.2445889239976
 30
0.0
 10
110.9094318336638
 20
146.2445889239976
 30
0.0
  0
SPLINE
  5
20C
330
1F
100
AcDbEntity
  8
0
  6
Continuous
 62
     7
370
    25
100
AcDbSpline
210
0.0
220
0.0
230
1.0
 70
    24
 71
     3
 72
    16
 73
    12
 74
     0
 42
0.000000001
 43
0.00000001
 40
0.0
 40
0.0
 40
0.0
 40
0.0
 40
0.2500000000000002
 40
0.2500000000000002
 40
0.5000000000000004
 40
0.5000000000000004
 40
0.7500000000000004
 40
0.7500000000000004
 40
0.8750000000000002
 40
0.8750000000000002
 40
1.0
 40
1.0
 40
1.0
 40
1.0
 10
111.4094318336638
 20
146.2445889239976
 30
0.0
 10
111.4094318336638
 20
146.2445889239976
 30
0.0
 10
111.3895000479767
 20
146.2445889239976
 30
0.0
 10
111.3288935013731
 20
146.2445889239976
 30
0.0
 10
111.2877829939279
 20
146.2445889239976
 30
0.0
 10
111.1934065375287
 20
146.2445889239976
 30
0.0
 10
111.1400411756724
 20
146.2445889239976
 30
0.0
 10
111.0557340157378
 20
146.2445889239976
 30
0.0
 10
111.026909138896
 20
146.2445889239976
 30
0.0
 10
110.9685500603305
 20
146.2445889239976
 30
0.0
 10
110.9392989391124
 20
146.2445889239976
 30
0.0
 10
110.9094318336638
 20
146.2445889239976
 30
0.0
  0
SPLINE
  5
20D
330
1F
100
AcDbEntity
  8
0
  6
Continuous
 62
     7
370
    25
100
AcDbSpline
210
0.0
220
0.0
230
1.0
 70
     8
 71
     3
 72
    12
 73
     8
 74
     0
 42
0.000000001
 43
0.00000001
 40
0.0
 40
0.0
 40
0.0
 40
0.0
 40
0.2500000000000001
 40
0.2500000000000001
 40
0.5
 40
0.5
 40
1.0
 40
1.0
 40
1.0
 40
1.0
 10
127.8336301581112
 20
146.0092694513056
 30
0.0
 10
127.8113633159589
 20
146.0449560854066
 30
0.0
 10
127.804325283304
 20
146.0785149617037
 30
0.0
 10
127.8034501618174
 20
146.1371587067557
 30
0.0
 10
127.8101141557648
 20
146.1623856227166
 30
0.0
 10
127.8407665051773
 20
146.2234194362168
 30
0.0
 10
127.8753751880276
 20
146.2445889239976
 30
0.0
 10
127.9094318336638
 20
146.2445889239976
 30
0.0
  0
SPLINE
  5
20E
330
1F
100
AcDbEntity
  8
0
  6
Continuous
 62
     7
370
    25
100
AcDbSpline
210
0.0
220
0.0
230
1.0
 70
    24
 71
     3
 72
    16
 73
    12
 74
     0
 42
0.000000001
 43
0.00000001
 40
0.0
 40
0.0
 40
0.0
 40
0.0
 40
0.2500000000000002
 40
0.2500000000000002
 40
0.5000000000000004
 40
0.5000000000000004
 40
0.7500000000000004
 40
0.7500000000000004
 40
0.8750000000000002
 40
0.8750000000000002
 40
1.0
 40
1.0
 40
1.0
 40
1.0
 10
127.4094318336638
 20
146.2445889239976
 30
0.0
 10
127.4094318336638
 20
146.2445889239976
 30
0.0
 10
127.429363619351
 20
146.2445889239976
 30
0.0
 10
127.4899701659545
 20
146.2445889239976
 30
0.0
 10
127.5310806733997
 20
146.2445889239976
 30
0.0
 10
127.6254571297989
 20
146.2445889239976
 30
0.0
 10
127.6788224916552
 20
146.2445889239976
 30
0.0
 10
127.7631296515898
 20
146.2445889239976
 30
0.0
 10
127.7919545284316
 20
146.2445889239976
 30
0.0
 10
127.8503136069972
 20
146.2445889239976
 30
0.0
 10
127.8795647282153
 20
146.2445889239976
 30
0.0
 10
127.9094318336638
 20
146.2445889239976
 30
0.0
  0
SPLINE
  5
20F
330
1F
100
AcDbEntity
  8
0
  6
Continuous
 62
     7
370
    25
100
AcDbSpline
210
0.0
220
0.0
230
1.0
 70
     8
 71
     3
 72
    12
 73
     8
 74
     0
 42
0.000000001
 43
0.00000001
 40
0.0
 40
0.0
 40
0.0
 40
0.0
 40
0.25
 40
0.25
 40
0.5
 40
0.5
 40
1.0
 40
1.0
 40
1.0
 40
1.0
 10
127.8336301581112
 20
129.4799083966896
 30
0.0
 10
127.8113633159589
 20
129.4442217625885
 30
0.0
 10
127.804325283304
 20
129.4106628862914
 30
0.0
 10
127.8034501618174
 20
129.3520191412394
 30
0.0
 10
127.8101141557648
 20
129.3267922252785
 30
0.0
 10
127.8407665051773
 20
129.2657584117783
 30
0.0
 10
127.8753751880275
 20
129.2445889239975
 30
0.0
 10
127.9094318336638
 20
129.2445889239975
 30
0.0
  0
SPLINE
  5
210
330
1F
100
AcDbEntity
  8
0
  6
Continuous
 62
     7
370
    25
100
AcDbSpline
210
0.0
220
0.0
230
1.0
 70
    24
 71
     3
 72
    16
 73
    12
 74
     0
 42
0.000000001
 43
0.00000001
 40
0.0
 40
0.0
 40
0.0
 40
0.0
 40
0.2500000000000002
 40
0.2500000000000002
 40
0.5000000000000002
 40
0.5000000000000002
 40
0.7500000000000002
 40
0.7500000000000002
 40
0.8750000000000001
 40
0.8750000000000001
 40
1.0
 40
1.0
 40
1.0
 40
1.0
 10
127.4094318336638
 20
129.2445889239975
 30
0.0
 10
127.4094318336638
 20
129.2445889239975
 30
0.0
 10
127.429363619351
 20
129.2445889239975
 30
0.0
 10
127.4899701659545
 20
129.2445889239975
 30
0.0
 10
127.5310806733997
 20
129.2445889239975
 30
0.0
 10
127.6254571297989
 20
129.2445889239975
 30
0.0
 10
127.6788224916552
 20
129.2445889239975
 30
0.0
 10
127.7631296515898
 20
129.2445889239975
 30
0.0
 10
127.7919545284317
 20
129.2445889239975
 30
0.0
 10
127.8503136069972
 20
129.2445889239975
 30
0.0
 10
127.8795647282152
 20
129.2445889239975
 30
0.0
 10
127.9094318336638
 20
129.2445889239975
 30
0.0
  0
SPLINE
  5
211
330
1F
100
AcDbEntity
  8
0
  6
Continuous
 62
     7
370
    25
100
AcDbSpline
210
0.0
220
0.0
230
1.0
 70
     8
 71
     3
 72
    12
 73
     8
 74
     0
 42
0.000000001
 43
0.00000001
 40
0.0
 40
0.0
 40
0.0
 40
0.0
 40
0.2500000000000002
 40
0.2500000000000002
 40
0.5000000000000001
 40
0.5000000000000001
 40
1.0
 40
1.0
 40
1.0
 40
1.0
 10
110.9852335092165
 20
129.4799083966895
 30
0.0
 10
111.0075003513704
 20
129.4442217625858
 30
0.0
 10
111.0145383840248
 20
129.4106628862864
 30
0.0
 10
111.0154135055092
 20
129.3520191412312
 30
0.0
 10
111.0087495115602
 20
129.3267922252694
 30
0.0
 10
110.9780971621419
 20
129.2657584117689
 30
0.0
 10
110.9434884790174
 20
129.2445889239975
 30
0.0
 10
110.9094318336638
 20
129.2445889239975
 30
0.0
  0
SPLINE
  5
212
330
1F
100
AcDbEntity
  8
0
  6
Continuous
 62
     7
370
    25
100
AcDbSpline
210
0.0
220
0.0
230
1.0
 70
    24
 71
     3
 72
    16
 73
    12
 74
     0
 42
0.000000001
 43
0.00000001
 40
0.0
 40
0.0
 40
0.0
 40
0.0
 40
0.2499999999999999
 40
0.2499999999999999
 40
0.5
 40
0.5
 40
0.7500000000000001
 40
0.7500000000000001
 40
0.875
 40
0.875
 40
1.0
 40
1.0
 40
1.0
 40
1.0
 10
111.4094318336638
 20
129.2445889239975
 30
0.0
 10
111.4094318336638
 20
129.2445889239975
 30
0.0
 10
111.3895000479767
 20
129.2445889239975
 30
0.0
 10
111.3288935013731
 20
129.2445889239975
 30
0.0
 10
111.2877829939279
 20
129.2445889239975
 30
0.0
 10
111.1934065375287
 20
129.2445889239975
 30
0.0
 10
111.1400411756724
 20
129.2445889239975
 30
0.0
 10
111.0557340157378
 20
129.2445889239975
 30
0.0
 10
111.026909138896
 20
129.2445889239975
 30
0.0
 10
110.9685500603305
 20
129.2445889239975
 30
0.0
 10
110.9392989391124
 20
129.2445889239975
 30
0.0
 10
110.9094318336638
 20
129.2445889239975
 30
0.0
  0
LINE
  5
213
330
1F
100
AcDbEntity
  8
0
  6
Continuous
 62
     8
370
    25
100
AcDbLine
 10
103.4094310737
 20
126.494588477
 30
0.0
 11
103.4094310737
 21
148.994589371
 31
0.0
  0
LINE
  5
214
330
1F
100
AcDbEntity
  8
0
  6
Continuous
 62
     8
370
    25
100
AcDbLine
 10
135.4094325936
 20
148.994589371
 30
0.0
 11
135.4094325936
 21
126.494588477
 31
0.0
  0
LINE
  5
215
330
1F
100
AcDbEntity
  8
0
  6
Continuous
 62
     8
370
    25
100
AcDbLine
 10
105.4094314015
 20
146.2445893859
 30
0.0
 11
105.4094314015
 21
129.2445884621
 31
0.0
  0
LINE
  5
216
330
1F
100
AcDbEntity
  8
0
  6
Continuous
 62
     8
370
    25
100
AcDbLine
 10
133.4094322658
 20
129.2445884621
 30
0.0
 11
133.4094322658
 21
146.2445893859
 31
0.0
  0
ARC
  5
217
330
1F
100
AcDbEntity
  8
0
  6
Continuous
 62
     8
370
    25
100
AcDbCircle
 10
126.6464276611
 20
142.95290089
 30
0.0
 40
0.5736084111078072
100
AcDbArc
 50
265.8115516549
 51
297.2908687542
  0
ARC
  5
218
330
1F
100
AcDbEntity
  8
0
  6
Continuous
 62
     8
370
    25
100
AcDbCircle
 10
126.6464276611
 20
132.536276958
 30
0.0
 40
0.5736084111078331
100
AcDbArc
 50
62.7091312458
 51
94.1884483451
  0
ARC
  5
219
330
1F
100
AcDbEntity
  8
0
  6
Continuous
 62
     8
370
    25
100
AcDbCircle
 10
112.1690442112
 20
142.9363056214
 30
0.0
 40
0.5573241327367523
100
AcDbArc
 50
242.2367561758
 51
274.6608234151
  0
ARC
  5
21A
330
1F
100
AcDbEntity
  8
0
  6
Continuous
 62
     8
370
    25
100
AcDbCircle
 10
112.1690442112
 20
132.5528722266
 30
0.0
 40
0.5573241327367774
100
AcDbArc
 50
85.3391765849
 51
117.7632438242
  0
SPLINE
  5
21B
330
1F
100
AcDbEntity
  8
0
  6
Continuous
 62
     8
370
    25
100
AcDbSpline
210
0.0
220
0.0
230
1.0
 70
     8
 71
     3
 72
     9
 73
     5
 74
     0
 42
0.000000001
 43
0.00000001
 40
0.0
 40
0.0
 40
0.0
 40
0.0
 40
0.3429438679438352
 40
1.0
 40
1.0
 40
1.0
 40
1.0
 10
120.7672341399657
 20
146.1787188028761
 30
0.0
 10
120.9410963792455
 20
146.1675641095932
 30
0.0
 10
121.4480663400215
 20
146.1350378149845
 30
0.0
 10
121.9511553541334
 20
146.0591390596474
 30
0.0
 10
122.2817130758258
 20
146.0092693170377
 30
0.0
  0
SPLINE
  5
21C
330
1F
100
AcDbEntity
  8
0
  6
Continuous
 62
     8
370
    25
100
AcDbSpline
210
0.0
220
0.0
230
1.0
 70
     8
 71
     3
 72
     9
 73
     5
 74
     0
 42
0.000000001
 43
0.00000001
 40
0.0
 40
0.0
 40
0.0
 40
0.0
 40
0.356079271503235
 40
0.9999999999999999
 40
0.9999999999999999
 40
0.9999999999999999
 40
0.9999999999999999
 10
118.0826275515201
 20
129.3081651976177
 30
0.0
 10
117.8984174144695
 20
129.3199143594661
 30
0.0
 10
117.3810884043506
 20
129.3529102757936
 30
0.0
 10
116.8677194819814
 20
129.4301635477807
 30
0.0
 10
116.5371505915018
 20
129.4799085309574
 30
0.0
  0
SPLINE
  5
21D
330
1F
100
AcDbEntity
  8
0
  6
Continuous
 62
     8
370
    25
100
AcDbSpline
210
0.0
220
0.0
230
1.0
 70
     8
 71
     3
 72
     9
 73
     5
 74
     0
 42
0.000000001
 43
0.00000001
 40
0.0
 40
0.0
 40
0.0
 40
0.0
 40
0.6421064643344466
 40
1.0
 40
1.0
 40
1.0
 40
1.0
 10
116.5371505915018
 20
146.0092693170377
 30
0.0
 10
116.8677210168762
 20
146.0589970879859
 30
0.0
 10
117.3825428474226
 20
146.1364418322929
 30
0.0
 10
117.9013360074282
 20
146.1695040107048
 30
0.0
 10
118.0870087257417
 20
146.1813367506334
 30
0.0
  0
SPLINE
  5
21E
330
1F
100
AcDbEntity
  8
0
  6
Continuous
 62
     8
370
    25
100
AcDbSpline
210
0.0
220
0.0
230
1.0
 70
     8
 71
     3
 72
     9
 73
     5
 74
     0
 42
0.000000001
 43
0.00000001
 40
0.0
 40
0.0
 40
0.0
 40
0.0
 40
0.6641293947467451
 40
1.0
 40
1.0
 40
1.0
 40
1.0
 10
122.2817130758258
 20
129.4799085309574
 30
0.0
 10
121.9511613647598
 20
129.4299715954169
 30
0.0
 10
121.4534395146494
 20
129.3547800198964
 30
0.0
 10
120.9518780628193
 20
129.3224989787709
 30
0.0
 10
120.7834183144214
 20
129.3116567259499
 30
0.0
  0
LWPOLYLINE
  5
21F
330
1F
100
AcDbEntity
  8
0
  6
Continuous
 62
     8
370
    25
100
AcDbPolyline
 90
        7
 70
   128
 43
0.0
 10
115.4881530813
 20
145.3529877191
 10
115.4767839609
 20
145.3750470256
 10
115.4482971317
 20
145.4303191578
 10
115.413585808
 20
145.4976686811
 10
115.3739841095
 20
145.5745074501
 10
115.3310138172
 20
145.657882241
 10
115.2863261661
 20
145.744589304
  0
ARC
  5
220
330
1F
100
AcDbEntity
  8
0
  6
Continuous
 62
     8
370
    25
100
AcDbCircle
 10
117.3247548483
 20
146.3526595183
 30
0.0
 40
0.8592073647628734
100
AcDbArc
 50
203.5568804824
 51
216.4990432925
  0
LWPOLYLINE
  5
221
330
1F
100
AcDbEntity
  8
0
  6
Continuous
 62
     8
370
    25
100
AcDbPolyline
 90
        7
 70
   128
 43
0.0
 10
123.5325375012
 20
145.744589304
 10
123.4878498501
 20
145.657882241
 10
123.4448795578
 20
145.5745074501
 10
123.4052778593
 20
145.4976686811
 10
123.3705665356
 20
145.4303191578
 10
123.3420797064
 20
145.3750470256
 10
123.3307105861
 20
145.3529877191
  0
ARC
  5
222
330
1F
100
AcDbEntity
  8
0
  6
Continuous
 62
     8
370
    25
100
AcDbCircle
 10
121.5269122008
 20
146.3336991257
 30
0.0
 40
0.8215710934720704
100
AcDbArc
 50
323.2031596499
 51
336.7409165751
  0
LWPOLYLINE
  5
223
330
1F
100
AcDbEntity
  8
0
  6
Continuous
 62
     8
370
    25
100
AcDbPolyline
 90
        7
 70
   128
 43
0.0
 10
115.2863261661
 20
129.744588544
 10
115.3310138172
 20
129.831295607
 10
115.3739841095
 20
129.9146703979
 10
115.413585808
 20
129.9915091669
 10
115.4482971317
 20
130.0588586902
 10
115.4767839609
 20
130.1141308224
 10
115.4881530813
 20
130.1361901289
  0
ARC
  5
224
330
1F
100
AcDbEntity
  8
0
  6
Continuous
 62
     8
370
    25
100
AcDbCircle
 10
117.2919514665
 20
129.1554787223
 30
0.0
 40
0.8215710934720704
100
AcDbArc
 50
143.2031596499
 51
156.7409165751
  0
LWPOLYLINE
  5
225
330
1F
100
AcDbEntity
  8
0
  6
Continuous
 62
     8
370
    25
100
AcDbPolyline
 90
        7
 70
   128
 43
0.0
 10
123.3307105861
 20
130.1361901289
 10
123.3420797064
 20
130.1141308224
 10
123.3705665356
 20
130.0588586902
 10
123.4052778593
 20
129.9915091669
 10
123.4448795578
 20
129.9146703979
 10
123.4878498501
 20
129.831295607
 10
123.5325375012
 20
129.744588544
  0
ARC
  5
226
330
1F
100
AcDbEntity
  8
0
  6
Continuous
 62
     8
370
    25
100
AcDbCircle
 10
121.494108819
 20
129.1365183297
 30
0.0
 40
0.8592073647628473
100
AcDbArc
 50
23.5568804824
 51
36.4990432925
  0
ARC
  5
227
330
1F
100
AcDbEntity
  8
0
  6
Continuous
 62
     8
370
    25
100
AcDbCircle
 10
126.8668210408
 20
143.0465480954
 30
0.0
 40
0.6049100850442881
100
AcDbArc
 50
227.4818481012
 51
274.039331797
  0
ARC
  5
228
330
1F
100
AcDbEntity
  8
0
  6
Continuous
 62
     8
370
    25
100
AcDbCircle
 10
111.9520426265
 20
132.4426297526
 30
0.0
 40
0.60491008504426
100
AcDbArc
 50
47.4818481012
 51
94.039331797
  0
ARC
  5
229
330
1F
100
AcDbEntity
  8
0
  6
Continuous
 62
     8
370
    25
100
AcDbCircle
 10
111.9520426265
 20
143.0465480954
 30
0.0
 40
0.6049100850442871
100
AcDbArc
 50
265.960668203
 51
312.5181518988
  0
ARC
  5
22A
330
1F
100
AcDbEntity
  8
0
  6
Continuous
 62
     8
370
    25
100
AcDbCircle
 10
126.8668210408
 20
132.4426297526
 30
0.0
 40
0.6049100850442597
100
AcDbArc
 50
85.960668203
 51
132.5181518988
  0
INSERT
  5
236
330
1F
100
AcDbEntity
  8
0
  6
Continuous
 62
     7
370
    18
100
AcDbBlockReference
  2
SW_CENTERMARKSYMBOL_1
 10
119.4094318337
 20
137.744588924
 30
0.0
  0
ARC
  5
237
330
1F
100
AcDbEntity
  8
0
  6
Continuous
 62
     7
370
    18
100
AcDbCircle
 10
119.4094318337
 20
137.744588924
 30
0.0
 40
7.475000000000013
100
AcDbArc
 50
75.0
 51
345.0
  0
ENDSEC
  0
SECTION
  2
OBJECTS
  0
DICTIONARY
  5
C
330
0
100
AcDbDictionary
281
     1
  3
ACAD_GROUP
350
D
  3
ACAD_LAYOUT
350
1A
  3
ACAD_MLINESTYLE
350
17
  3
ACAD_PLOTSETTINGS
350
19
  3
ACAD_PLOTSTYLENAME
350
E
  3
ACAD_SCALELIST
350
47
  0
DICTIONARY
  5
D
102
{ACAD_REACTORS
330
C
102
}
330
C
100
AcDbDictionary
281
     1
  0
DICTIONARY
  5
1A
102
{ACAD_REACTORS
330
C
102
}
330
C
100
AcDbDictionary
281
     1
  3
Layout1
350
1E
  3
Layout2
350
26
  3
Model
350
22
  0
DICTIONARY
  5
17
102
{ACAD_REACTORS
330
C
102
}
330
C
100
AcDbDictionary
281
     1
  3
Standard
350
18
  0
DICTIONARY
  5
19
102
{ACAD_REACTORS
330
C
102
}
330
C
100
AcDbDictionary
281
     1
  0
ACDBDICTIONARYWDFLT
  5
E
102
{ACAD_REACTORS
330
C
102
}
330
C
100
AcDbDictionary
281
     1
  3
Normal
350
F
100
AcDbDictionaryWithDefault
340
F
  0
DICTIONARY
  5
47
102
{ACAD_REACTORS
330
C
102
}
330
C
100
AcDbDictionary
281
     1
  3
A0
350
48
  3
A1
350
49
  3
A2
350
4A
  3
A3
350
4B
  3
A4
350
4C
  3
A5
350
4D
  3
A6
350
4E
  3
A7
350
4F
  3
A8
350
50
  3
A9
350
51
  3
B0
350
52
  3
B1
350
53
  3
B2
350
54
  3
B3
350
55
  3
B4
350
56
  3
B5
350
57
  3
B6
350
58
  3
B7
350
59
  3
B8
350
5A
  3
B9
350
5B
  3
C0
350
5C
  3
C1
350
5D
  3
C2
350
5E
  3
C3
350
5F
  3
C4
350
60
  3
C5
350
61
  3
C6
350
62
  3
C7
350
63
  3
C8
350
64
  3
C9
350
65
  3
D0
350
66
  3
D1
350
67
  3
D2
350
68
  0
LAYOUT
  5
1E
102
{ACAD_REACTORS
330
1A
102
}
330
1A
100
AcDbPlotSettings
  1

  2
none_device
  4

  6

 40
0.0
 41
0.0
 42
0.0
 43
0.0
 44
0.0
 45
0.0
 46
0.0
 47
0.0
 48
0.0
 49
0.0
140
0.0
141
0.0
142
1.0
143
1.0
 70
   688
 72
     1
 73
     0
 74
     5
  7

 75
    16
147
1.0
148
0.0
149
0.0
100
AcDbLayout
  1
Layout1
 70
     1
 71
     1
 10
0.0
 20
0.0
 11
420.0
 21
297.0
 12
0.0
 22
0.0
 32
0.0
 14
1.0000000000E+20
 24
1.0000000000E+20
 34
1.0000000000E+20
 15
-1.0000000000E+20
 25
-1.0000000000E+20
 35
-1.0000000000E+20
146
0.0
 13
0.0
 23
0.0
 33
0.0
 16
1.0
 26
0.0
 36
0.0
 17
0.0
 27
1.0
 37
0.0
 76
     0
330
1B
  0
LAYOUT
  5
26
102
{ACAD_REACTORS
330
1A
102
}
330
1A
100
AcDbPlotSettings
  1

  2
none_device
  4

  6

 40
0.0
 41
0.0
 42
0.0
 43
0.0
 44
0.0
 45
0.0
 46
0.0
 47
0.0
 48
0.0
 49
0.0
140
0.0
141
0.0
142
1.0
143
1.0
 70
   688
 72
     1
 73
     0
 74
     5
  7

 75
    16
147
1.0
148
0.0
149
0.0
100
AcDbLayout
  1
Layout2
 70
     1
 71
     2
 10
0.0
 20
0.0
 11
0.0
 21
0.0
 12
0.0
 22
0.0
 32
0.0
 14
0.0
 24
0.0
 34
0.0
 15
0.0
 25
0.0
 35
0.0
146
0.0
 13
0.0
 23
0.0
 33
0.0
 16
1.0
 26
0.0
 36
0.0
 17
0.0
 27
1.0
 37
0.0
 76
     0
330
23
  0
LAYOUT
  5
22
102
{ACAD_REACTORS
330
1A
102
}
330
1A
100
AcDbPlotSettings
  1

  2
none_device
  4
Letter_(8.50_x_11.00_Inches)
  6

 40
6.35
 41
6.35
 42
6.35000508
 43
6.35000508
 44
215.9
 45
279.4
 46
0.0
 47
0.0
 48
0.0
 49
0.0
140
0.0
141
0.0
142
1.0
143
1.0
 70
  1712
 72
     1
 73
     0
 74
     0
  7

 75
     0
147
1.0
148
0.0
149
0.0
100
AcDbLayout
  1
Model
 70
     1
 71
     0
 10
0.0
 20
0.0
 11
431.8
 21
279.4
 12
0.0
 22
0.0
 32
0.0
 14
0.0
 24
0.0
 34
0.0
 15
431.8
 25
279.4
 35
0.0
146
0.0
 13
0.0
 23
0.0
 33
0.0
 16
1.0
 26
0.0
 36
0.0
 17
0.0
 27
1.0
 37
0.0
 76
     0
330
1F
331
29
  0
MLINESTYLE
  5
18
102
{ACAD_REACTORS
330
17
102
}
330
17
100
AcDbMlineStyle
  2
Standard
 70
     0
  3

 62
   256
 51
90.0
 52
90.0
 71
     2
 49
0.5
 62
   256
  6
BYLAYER
 49
-0.5
 62
   256
  6
BYLAYER
  0
ACDBPLACEHOLDER
  5
F
102
{ACAD_REACTORS
330
E
102
}
330
E
  0
SCALE
  5
48
102
{ACAD_REACTORS
330
47
102
}
330
47
100
AcDbScale
 70
     0
300
1:1
140
1.0
141
1.0
290
     1
  0
SCALE
  5
49
102
{ACAD_REACTORS
330
47
102
}
330
47
100
AcDbScale
 70
     0
300
1:2
140
1.0
141
2.0
290
     0
  0
SCALE
  5
4A
102
{ACAD_REACTORS
330
47
102
}
330
47
100
AcDbScale
 70
     0
300
1:4
140
1.0
141
4.0
290
     0
  0
SCALE
  5
4B
102
{ACAD_REACTORS
330
47
102
}
330
47
100
AcDbScale
 70
     0
300
1:5
140
1.0
141
5.0
290
     0
  0
SCALE
  5
4C
102
{ACAD_REACTORS
330
47
102
}
330
47
100
AcDbScale
 70
     0
300
1:8
140
1.0
141
8.0
290
     0
  0
SCALE
  5
4D
102
{ACAD_REACTORS
330
47
102
}
330
47
100
AcDbScale
 70
     0
300
1:10
140
1.0
141
10.0
290
     0
  0
SCALE
  5
4E
102
{ACAD_REACTORS
330
47
102
}
330
47
100
AcDbScale
 70
     0
300
1:16
140
1.0
141
16.0
290
     0
  0
SCALE
  5
4F
102
{ACAD_REACTORS
330
47
102
}
330
47
100
AcDbScale
 70
     0
300
1:20
140
1.0
141
20.0
290
     0
  0
SCALE
  5
50
102
{ACAD_REACTORS
330
47
102
}
330
47
100
AcDbScale
 70
     0
300
1:30
140
1.0
141
30.0
290
     0
  0
SCALE
  5
51
102
{ACAD_REACTORS
330
47
102
}
330
47
100
AcDbScale
 70
     0
300
1:40
140
1.0
141
40.0
290
     0
  0
SCALE
  5
52
102
{ACAD_REACTORS
330
47
102
}
330
47
100
AcDbScale
 70
     0
300
1:50
140
1.0
141
50.0
290
     0
  0
SCALE
  5
53
102
{ACAD_REACTORS
330
47
102
}
330
47
100
AcDbScale
 70
     0
300
1:100
140
1.0
141
100.0
290
     0
  0
SCALE
  5
54
102
{ACAD_REACTORS
330
47
102
}
330
47
100
AcDbScale
 70
     0
300
2:1
140
2.0
141
1.0
290
     0
  0
SCALE
  5
55
102
{ACAD_REACTORS
330
47
102
}
330
47
100
AcDbScale
 70
     0
300
4:1
140
4.0
141
1.0
290
     0
  0
SCALE
  5
56
102
{ACAD_REACTORS
330
47
102
}
330
47
100
AcDbScale
 70
     0
300
8:1
140
8.0
141
1.0
290
     0
  0
SCALE
  5
57
102
{ACAD_REACTORS
330
47
102
}
330
47
100
AcDbScale
 70
     0
300
10:1
140
10.0
141
1.0
290
     0
  0
SCALE
  5
58
102
{ACAD_REACTORS
330
47
102
}
330
47
100
AcDbScale
 70
     0
300
100:1
140
100.0
141
1.0
290
     0
  0
SCALE
  5
59
102
{ACAD_REACTORS
330
47
102
}
330
47
100
AcDbScale
 70
     0
300
1/128" = 1'-0"
140
0.0078125
141
12.0
290
     0
  0
SCALE
  5
5A
102
{ACAD_REACTORS
330
47
102
}
330
47
100
AcDbScale
 70
     0
300
1/64" = 1'-0"
140
0.015625
141
12.0
290
     0
  0
SCALE
  5
5B
102
{ACAD_REACTORS
330
47
102
}
330
47
100
AcDbScale
 70
     0
300
1/32" = 1'-0"
140
0.03125
141
12.0
290
     0
  0
SCALE
  5
5C
102
{ACAD_REACTORS
330
47
102
}
330
47
100
AcDbScale
 70
     0
300
1/16" = 1'-0"
140
0.0625
141
12.0
290
     0
  0
SCALE
  5
5D
102
{ACAD_REACTORS
330
47
102
}
330
47
100
AcDbScale
 70
     0
300
3/32" = 1'-0"
140
0.09375
141
12.0
290
     0
  0
SCALE
  5
5E
102
{ACAD_REACTORS
330
47
102
}
330
47
100
AcDbScale
 70
     0
300
1/8" = 1'-0"
140
0.125
141
12.0
290
     0
  0
SCALE
  5
5F
102
{ACAD_REACTORS
330
47
102
}
330
47
100
AcDbScale
 70
     0
300
3/16" = 1'-0"
140
0.1875
141
12.0
290
     0
  0
SCALE
  5
60
102
{ACAD_REACTORS
330
47
102
}
330
47
100
AcDbScale
 70
     0
300
1/4" = 1'-0"
140
0.25
141
12.0
290
     0
  0
SCALE
  5
61
102
{ACAD_REACTORS
330
47
102
}
330
47
100
AcDbScale
 70
     0
300
3/8" = 1'-0"
140
0.375
141
12.0
290
     0
  0
SCALE
  5
62
102
{ACAD_REACTORS
330
47
102
}
330
47
100
AcDbScale
 70
     0
300
1/2" = 1'-0"
140
0.5
141
12.0
290
     0
  0
SCALE
  5
63
102
{ACAD_REACTORS
330
47
102
}
330
47
100
AcDbScale
 70
     0
300
3/4" = 1'-0"
140
0.75
141
12.0
290
     0
  0
SCALE
  5
64
102
{ACAD_REACTORS
330
47
102
}
330
47
100
AcDbScale
 70
     0
300
1" = 1'-0"
140
1.0
141
12.0
290
     0
  0
SCALE
  5
65
102
{ACAD_REACTORS
330
47
102
}
330
47
100
AcDbScale
 70
     0
300
1-1/2" = 1'-0"
140
1.5
141
12.0
290
     0
  0
SCALE
  5
66
102
{ACAD_REACTORS
330
47
102
}
330
47
100
AcDbScale
 70
     0
300
3" = 1'-0"
140
3.0
141
12.0
290
     0
  0
SCALE
  5
67
102
{ACAD_REACTORS
330
47
102
}
330
47
100
AcDbScale
 70
     0
300
6" = 1'-0"
140
6.0
141
12.0
290
     0
  0
SCALE
  5
68
102
{ACAD_REACTORS
330
47
102
}
330
47
100
AcDbScale
 70
     0
300
1'-0" = 1'-0"
140
12.0
141
12.0
290
     0
  0
ENDSEC
  0
EOF
