  0
SECTION
  2
HEADER
  9
$ACADVER
  1
AC1015
  9
$ACADMAINTVER
 70
     6
  9
$DWGCODEPAGE
  3
DOS932
  9
$INSBASE
 10
0.0
 20
0.0
 30
0.0
  9
$EXTMIN
 10
0.0
 20
0.0
 30
0.0
  9
$EXTMAX
 10
215.9
 20
139.7
 30
0.0
  9
$LIMMIN
 10
0.0
 20
0.0
  9
$LIMMAX
 10
215.9
 20
139.7
  9
$ORTHOMODE
 70
     0
  9
$REGENMODE
 70
     1
  9
$FILLMODE
 70
     1
  9
$QTEXTMODE
 70
     0
  9
$MIRRTEXT
 70
     1
  9
$LTSCALE
 40
0.5
  9
$ATTMODE
 70
     1
  9
$TEXTSIZE
 40
1.75
  9
$TRACEWID
 40
1.0
  9
$TEXTSTYLE
  7
Standard
  9
$CLAYER
  8
0
  9
$CELTYPE
  6
ByLayer
  9
$CECOLOR
 62
   256
  9
$CELTSCALE
 40
1.0
  9
$DISPSILH
 70
     0
  9
$DIMSCALE
 40
1.0
  9
$DIMASZ
 40
1.651
  9
$DIMEXO
 40
0.5
  9
$DIMDLI
 40
3.75
  9
$DIMRND
 40
0.0
  9
$DIMDLE
 40
0.0
  9
$DIMEXE
 40
0.5
  9
$DIMTP
 40
0.0
  9
$DIMTM
 40
0.0
  9
$DIMTXT
 40
1.75
  9
$DIMCEN
 40
2.5
  9
$DIMTSZ
 40
0.0
  9
$DIMTOL
 70
     0
  9
$DIMLIM
 70
     0
  9
$DIMTIH
 70
     1
  9
$DIMTOH
 70
     1
  9
$DIMSE1
 70
     0
  9
$DIMSE2
 70
     0
  9
$DIMTAD
 70
     1
  9
$DIMZIN
 70
     1
  9
$DIMBLK
  1

  9
$DIMASO
 70
     1
  9
$DIMSHO
 70
     1
  9
$DIMPOST
  1

  9
$DIMAPOST
  1

  9
$DIMALT
 70
     0
  9
$DIMALTD
 70
     3
  9
$DIMALTF
 40
0.0393700787
  9
$DIMLFAC
 40
1.0
  9
$DIMTOFL
 70
     1
  9
$DIMTVP
 40
0.0
  9
$DIMTIX
 70
     0
  9
$DIMSOXD
 70
     0
  9
$DIMSAH
 70
     0
  9
$DIMBLK1
  1

  9
$DIMBLK2
  1

  9
$DIMSTYLE
  2
ISO-25
  9
$DIMCLRD
 70
     0
  9
$DIMCLRE
 70
     0
  9
$DIMCLRT
 70
     0
  9
$DIMTFAC
 40
1.0
  9
$DIMGAP
 40
0.762
  9
$DIMJUST
 70
     0
  9
$DIMSD1
 70
     0
  9
$DIMSD2
 70
     0
  9
$DIMTOLJ
 70
     0
  9
$DIMTZIN
 70
     1
  9
$DIMALTZ
 70
     0
  9
$DIMALTTZ
 70
     0
  9
$DIMUPT
 70
     0
  9
$DIMDEC
 70
     2
  9
$DIMTDEC
 70
     2
  9
$DIMALTU
 70
     2
  9
$DIMALTTD
 70
     3
  9
$DIMTXSTY
  7
Standard
  9
$DIMAUNIT
 70
     0
  9
$DIMADEC
 70
     2
  9
$DIMALTRND
 40
0.0
  9
$DIMAZIN
 70
     0
  9
$DIMDSEP
 70
    44
  9
$DIMATFIT
 70
     3
  9
$DIMFRAC
 70
     0
  9
$DIMLDRBLK
  1

  9
$DIMLUNIT
 70
     2
  9
$DIMLWD
 70
    -2
  9
$DIMLWE
 70
    -2
  9
$DIMTMOVE
 70
     0
  9
$LUNITS
 70
     2
  9
$LUPREC
 70
     2
  9
$SKETCHINC
 40
1.0
  9
$FILLETRAD
 40
10.0
  9
$AUNITS
 70
     0
  9
$AUPREC
 70
     2
  9
$MENU
  1
.
  9
$ELEVATION
 40
0.0
  9
$PELEVATION
 40
0.0
  9
$THICKNESS
 40
0.0
  9
$LIMCHECK
 70
     0
  9
$CHAMFERA
 40
0.0
  9
$CHAMFERB
 40
0.0
  9
$CHAMFERC
 40
0.0
  9
$CHAMFERD
 40
0.0
  9
$SKPOLY
 70
     0
  9
$TDCREATE
 40
2459229.39476493
  9
$TDUCREATE
 40
2459229.01976493
  9
$TDUPDATE
 40
2459229.394765833
  9
$TDUUPDATE
 40
2459229.019765833
  9
$TDINDWG
 40
0.0000000116
  9
$TDUSRTIMER
 40
0.0000000116
  9
$USRTIMER
 70
     1
  9
$ANGBASE
 50
0.0
  9
$ANGDIR
 70
     0
  9
$PDMODE
 70
     0
  9
$PDSIZE
 40
-1.0
  9
$PLINEWID
 40
0.0
  9
$SPLFRAME
 70
     0
  9
$SPLINETYPE
 70
     6
  9
$SPLINESEGS
 70
     8
  9
$HANDSEED
  5
2A0
  9
$SURFTAB1
 70
     6
  9
$SURFTAB2
 70
     6
  9
$SURFTYPE
 70
     6
  9
$SURFU
 70
     6
  9
$SURFV
 70
     6
  9
$UCSBASE
  2

  9
$UCSNAME
  2

  9
$UCSORG
 10
0.0
 20
0.0
 30
0.0
  9
$UCSXDIR
 10
1.0
 20
0.0
 30
0.0
  9
$UCSYDIR
 10
0.0
 20
1.0
 30
0.0
  9
$UCSORTHOREF
  2

  9
$UCSORTHOVIEW
 70
     0
  9
$UCSORGTOP
 10
0.0
 20
0.0
 30
0.0
  9
$UCSORGBOTTOM
 10
0.0
 20
0.0
 30
0.0
  9
$UCSORGLEFT
 10
0.0
 20
0.0
 30
0.0
  9
$UCSORGRIGHT
 10
0.0
 20
0.0
 30
0.0
  9
$UCSORGFRONT
 10
0.0
 20
0.0
 30
0.0
  9
$UCSORGBACK
 10
0.0
 20
0.0
 30
0.0
  9
$PUCSBASE
  2

  9
$PUCSNAME
  2

  9
$PUCSORG
 10
0.0
 20
0.0
 30
0.0
  9
$PUCSXDIR
 10
1.0
 20
0.0
 30
0.0
  9
$PUCSYDIR
 10
0.0
 20
1.0
 30
0.0
  9
$PUCSORTHOREF
  2

  9
$PUCSORTHOVIEW
 70
     0
  9
$PUCSORGTOP
 10
0.0
 20
0.0
 30
0.0
  9
$PUCSORGBOTTOM
 10
0.0
 20
0.0
 30
0.0
  9
$PUCSORGLEFT
 10
0.0
 20
0.0
 30
0.0
  9
$PUCSORGRIGHT
 10
0.0
 20
0.0
 30
0.0
  9
$PUCSORGFRONT
 10
0.0
 20
0.0
 30
0.0
  9
$PUCSORGBACK
 10
0.0
 20
0.0
 30
0.0
  9
$USERI1
 70
     0
  9
$USERI2
 70
     0
  9
$USERI3
 70
     0
  9
$USERI4
 70
     0
  9
$USERI5
 70
     0
  9
$USERR1
 40
0.0
  9
$USERR2
 40
0.0
  9
$USERR3
 40
0.0
  9
$USERR4
 40
0.0
  9
$USERR5
 40
0.0
  9
$WORLDVIEW
 70
     1
  9
$SHADEDGE
 70
     3
  9
$SHADEDIF
 70
    70
  9
$TILEMODE
 70
     1
  9
$MAXACTVP
 70
    64
  9
$PINSBASE
 10
0.0
 20
0.0
 30
0.0
  9
$PLIMCHECK
 70
     0
  9
$PEXTMIN
 10
1.0000000000E+20
 20
1.0000000000E+20
 30
1.0000000000E+20
  9
$PEXTMAX
 10
-1.0000000000E+20
 20
-1.0000000000E+20
 30
-1.0000000000E+20
  9
$PLIMMIN
 10
0.0
 20
0.0
  9
$PLIMMAX
 10
420.0
 20
297.0
  9
$UNITMODE
 70
     0
  9
$VISRETAIN
 70
     1
  9
$PLINEGEN
 70
     0
  9
$PSLTSCALE
 70
     1
  9
$TREEDEPTH
 70
  3020
  9
$CMLSTYLE
  2
Standard
  9
$CMLJUST
 70
     0
  9
$CMLSCALE
 40
20.0
  9
$PROXYGRAPHICS
 70
     1
  9
$MEASUREMENT
 70
     1
  9
$CELWEIGHT
370
    -1
  9
$ENDCAPS
280
     0
  9
$JOINSTYLE
280
     0
  9
$LWDISPLAY
290
     1
  9
$INSUNITS
 70
     4
  9
$HYPERLINKBASE
  1

  9
$STYLESHEET
  1

  9
$XEDIT
290
     1
  9
$CEPSNTYPE
380
     0
  9
$PSTYLEMODE
290
     1
  9
$FINGERPRINTGUID
  2
{D2E32B15-C557-4517-8BEB-FE793F1937D8}
  9
$VERSIONGUID
  2
{FAEB1C32-E019-11D5-929B-00C0DF256EC4}
  9
$EXTNAMES
290
     1
  9
$PSVPSCALE
 40
0.0
  9
$OLESTARTUP
290
     0
  0
ENDSEC
  0
SECTION
  2
CLASSES
  0
CLASS
  1
ACDBDICTIONARYWDFLT
  2
AcDbDictionaryWithDefault
  3
ObjectDBX Classes
 90
        0
280
     0
281
     0
  0
CLASS
  1
VISUALSTYLE
  2
AcDbVisualStyle
  3
ObjectDBX Classes
 90
     4095
280
     0
281
     0
  0
CLASS
  1
MATERIAL
  2
AcDbMaterial
  3
ObjectDBX Classes
 90
     1153
280
     0
281
     0
  0
CLASS
  1
SCALE
  2
AcDbScale
  3
ObjectDBX Classes
 90
     1153
280
     0
281
     0
  0
CLASS
  1
TABLESTYLE
  2
AcDbTableStyle
  3
ObjectDBX Classes
 90
     4095
280
     0
281
     0
  0
CLASS
  1
MLEADERSTYLE
  2
AcDbMLeaderStyle
  3
ACDB_MLEADERSTYLE_CLASS
 90
     4095
280
     0
281
     0
  0
CLASS
  1
SUN
  2
AcDbSun
  3
SCENEOE
 90
     1153
280
     0
281
     0
  0
CLASS
  1
ACDBPLACEHOLDER
  2
AcDbPlaceHolder
  3
ObjectDBX Classes
 90
        0
280
     0
281
     0
  0
CLASS
  1
LAYOUT
  2
AcDbLayout
  3
ObjectDBX Classes
 90
        0
280
     0
281
     0
  0
ENDSEC
  0
SECTION
  2
TABLES
  0
TABLE
  2
VPORT
  5
8
330
0
100
AcDbSymbolTable
 70
     1
  0
VPORT
  5
29
330
8
100
AcDbSymbolTableRecord
100
AcDbViewportTableRecord
  2
*Active
 70
     0
 10
0.0
 20
0.0
 11
1.0
 21
1.0
 12
107.95
 22
69.85
 13
0.0
 23
0.0
 14
10.0
 24
10.0
 15
10.0
 25
10.0
 16
0.0
 26
0.0
 36
1.0
 17
0.0
 27
0.0
 37
0.0
 40
139.7
 41
1.5454545455
 42
50.0
 43
0.0
 44
0.0
 50
0.0
 51
0.0
 71
     0
 72
  2000
 73
     1
 74
     3
 75
     0
 76
     0
 77
     0
 78
     0
281
     0
 65
     1
110
0.0
120
0.0
130
0.0
111
1.0
121
0.0
131
0.0
112
0.0
122
1.0
132
0.0
 79
     0
146
0.0
  0
ENDTAB
  0
TABLE
  2
LTYPE
  5
5
330
0
100
AcDbSymbolTable
 70
     6
  0
LTYPE
  5
14
330
5
100
AcDbSymbolTableRecord
100
AcDbLinetypeTableRecord
  2
ByBlock
 70
     0
  3

 72
    65
 73
     0
 40
0.0
  0
LTYPE
  5
15
330
5
100
AcDbSymbolTableRecord
100
AcDbLinetypeTableRecord
  2
ByLayer
 70
     0
  3

 72
    65
 73
     0
 40
0.0
  0
LTYPE
  5
16
330
5
100
AcDbSymbolTableRecord
100
AcDbLinetypeTableRecord
  2
Continuous
 70
     0
  3
Solid line
 72
    65
 73
     0
 40
0.0
  0
LTYPE
  5
6E
330
5
100
AcDbSymbolTableRecord
100
AcDbLinetypeTableRecord
  2
HIDDEN
 70
     0
  3
Hidden __ __ __ __ __ __ __ __ __ __ __ __ __ __
 72
    65
 73
     2
 40
1.905
 49
1.27
 74
     0
 49
-0.635
 74
     0
  0
LTYPE
  5
6F
330
5
100
AcDbSymbolTableRecord
100
AcDbLinetypeTableRecord
  2
PHANTOM
 70
     0
  3
Phantom ______  __  __  ______  __  __  ______
 72
    65
 73
     6
 40
12.7
 49
6.35
 74
     0
 49
-1.27
 74
     0
 49
1.27
 74
     0
 49
-1.27
 74
     0
 49
1.27
 74
     0
 49
-1.27
 74
     0
  0
LTYPE
  5
70
330
5
100
AcDbSymbolTableRecord
100
AcDbLinetypeTableRecord
  2
CENTER
 70
     0
  3
Center ____ _ ____ _ ____ _ ____ _ ____ _ ____
 72
    65
 73
     4
 40
10.16
 49
6.35
 74
     0
 49
-1.27
 74
     0
 49
1.27
 74
     0
 49
-1.27
 74
     0
  0
LTYPE
  5
71
330
5
100
AcDbSymbolTableRecord
100
AcDbLinetypeTableRecord
  2
CENTERX2
 70
     0
  3
Center (2x) ________  __  ________  __  _____
 72
    65
 73
     4
 40
20.32
 49
12.7
 74
     0
 49
-2.54
 74
     0
 49
2.54
 74
     0
 49
-2.54
 74
     0
  0
LTYPE
  5
72
330
5
100
AcDbSymbolTableRecord
100
AcDbLinetypeTableRecord
  2
DOT2
 70
     0
  3
Dot (.5x) ........................................
 72
    65
 73
     2
 40
0.635
 49
0.0
 74
     0
 49
-0.635
 74
     0
  0
ENDTAB
  0
TABLE
  2
LAYER
  5
2
330
0
100
AcDbSymbolTable
 70
     1
  0
LAYER
  5
10
330
2
100
AcDbSymbolTableRecord
100
AcDbLayerTableRecord
  2
0
 70
     0
 62
     7
  6
Continuous
370
    -3
390
F
  0
ENDTAB
  0
TABLE
  2
STYLE
  5
3
330
0
100
AcDbSymbolTable
 70
     2
  0
STYLE
  5
11
330
3
100
AcDbSymbolTableRecord
100
AcDbTextStyleTableRecord
  2
Standard
 70
     0
 40
0.0
 41
1.0
 50
0.0
 71
     0
 42
1.75
  3
txt
  4
bigfont
  0
STYLE
  5
73
330
3
100
AcDbSymbolTableRecord
100
AcDbTextStyleTableRecord
  2
SLDTEXTSTYLE0
 70
     0
 40
0.0
 41
0.7
 50
0.0
 71
     0
 42
1.75
  3
TXT
  4
bigfont
  0
ENDTAB
  0
TABLE
  2
VIEW
  5
6
330
0
100
AcDbSymbolTable
 70
     0
  0
ENDTAB
  0
TABLE
  2
UCS
  5
7
330
0
100
AcDbSymbolTable
 70
     0
  0
ENDTAB
  0
TABLE
  2
APPID
  5
9
330
0
100
AcDbSymbolTable
 70
     1
  0
APPID
  5
12
330
9
100
AcDbSymbolTableRecord
100
AcDbRegAppTableRecord
  2
ACAD
 70
     0
  0
ENDTAB
  0
TABLE
  2
DIMSTYLE
  5
A
330
0
100
AcDbSymbolTable
 70
     1
100
AcDbDimStyleTable
  0
DIMSTYLE
105
27
330
A
100
AcDbSymbolTableRecord
100
AcDbDimStyleTableRecord
  2
ISO-25
 70
     0
 41
2.5
 42
0.625
 43
3.75
 44
1.25
 73
     0
 74
     0
 77
     1
 78
     8
140
2.5
141
2.5
143
0.0393700787
147
0.625
171
     3
172
     1
178
     0
271
     2
272
     2
274
     3
278
    44
283
     0
284
     8
340
11
  0
ENDTAB
  0
TABLE
  2
BLOCK_RECORD
  5
1
330
0
100
AcDbSymbolTable
 70
     3
  0
BLOCK_RECORD
  5
1F
330
1
100
AcDbSymbolTableRecord
100
AcDbBlockTableRecord
  2
*Model_Space
340
22
  0
BLOCK_RECORD
  5
1B
330
1
100
AcDbSymbolTableRecord
100
AcDbBlockTableRecord
  2
*Paper_Space
340
1E
  0
BLOCK_RECORD
  5
23
330
1
100
AcDbSymbolTableRecord
100
AcDbBlockTableRecord
  2
*Paper_Space0
340
26
  0
BLOCK_RECORD
  5
1CB
330
1
100
AcDbSymbolTableRecord
100
AcDbBlockTableRecord
  2
SW_CENTERMARKSYMBOL_0
340
0
102
{BLKREFS
331
1D6
102
}
  0
BLOCK_RECORD
  5
293
330
1
100
AcDbSymbolTableRecord
100
AcDbBlockTableRecord
  2
SW_CENTERMARKSYMBOL_1
340
0
102
{BLKREFS
331
29E
102
}
  0
ENDTAB
  0
ENDSEC
  0
SECTION
  2
BLOCKS
  0
BLOCK
  5
20
330
1F
100
AcDbEntity
  8
0
100
AcDbBlockBegin
  2
*Model_Space
 70
     0
 10
0.0
 20
0.0
 30
0.0
  3
*Model_Space
  1

  0
ENDBLK
  5
21
330
1F
100
AcDbEntity
  8
0
100
AcDbBlockEnd
  0
BLOCK
  5
1C
330
1B
100
AcDbEntity
 67
     1
  8
0
100
AcDbBlockBegin
  2
*Paper_Space
 70
     0
 10
0.0
 20
0.0
 30
0.0
  3
*Paper_Space
  1

  0
ENDBLK
  5
1D
330
1B
100
AcDbEntity
 67
     1
  8
0
100
AcDbBlockEnd
  0
BLOCK
  5
24
330
23
100
AcDbEntity
  8
0
100
AcDbBlockBegin
  2
*Paper_Space0
 70
     0
 10
0.0
 20
0.0
 30
0.0
  3
*Paper_Space0
  1

  0
ENDBLK
  5
25
330
23
100
AcDbEntity
  8
0
100
AcDbBlockEnd
  0
BLOCK
  5
1CC
330
1CB
100
AcDbEntity
  8
0
100
AcDbBlockBegin
  2
SW_CENTERMARKSYMBOL_0
 70
     0
 10
0.0
 20
0.0
 30
0.0
  3
SW_CENTERMARKSYMBOL_0
  1

  0
LINE
  5
1CE
330
1CB
100
AcDbEntity
  8
0
  6
Continuous
 62
     0
370
    18
100
AcDbLine
 10
0.0
 20
0.0
 30
0.0
 11
0.0
 21
2.5
 31
0.0
  0
LINE
  5
1CF
330
1CB
100
AcDbEntity
  8
0
  6
Continuous
 62
     0
370
    18
100
AcDbLine
 10
0.0
 20
0.0
 30
0.0
 11
-2.5
 21
0.0
 31
0.0
  0
LINE
  5
1D0
330
1CB
100
AcDbEntity
  8
0
  6
Continuous
 62
     0
370
    18
100
AcDbLine
 10
0.0
 20
0.0
 30
0.0
 11
0.0
 21
-2.5
 31
0.0
  0
LINE
  5
1D1
330
1CB
100
AcDbEntity
  8
0
  6
Continuous
 62
     0
370
    18
100
AcDbLine
 10
0.0
 20
0.0
 30
0.0
 11
2.5
 21
0.0
 31
0.0
  0
LINE
  5
1D2
330
1CB
100
AcDbEntity
  8
0
  6
Continuous
 62
     0
370
    18
100
AcDbLine
 10
0.0
 20
5.0
 30
0.0
 11
0.0
 21
23.9192258417
 31
0.0
  0
LINE
  5
1D3
330
1CB
100
AcDbEntity
  8
0
  6
Continuous
 62
     0
370
    18
100
AcDbLine
 10
-5.0
 20
0.0
 30
0.0
 11
-9.75
 21
0.0
 31
0.0
  0
LINE
  5
1D4
330
1CB
100
AcDbEntity
  8
0
  6
Continuous
 62
     0
370
    18
100
AcDbLine
 10
0.0
 20
-5.0
 30
0.0
 11
0.0
 21
-9.75
 31
0.0
  0
LINE
  5
1D5
330
1CB
100
AcDbEntity
  8
0
  6
Continuous
 62
     0
370
    18
100
AcDbLine
 10
5.0
 20
0.0
 30
0.0
 11
9.75
 21
0.0
 31
0.0
  0
ENDBLK
  5
1CD
330
1CB
100
AcDbEntity
  8
0
100
AcDbBlockEnd
  0
BLOCK
  5
294
330
293
100
AcDbEntity
  8
0
100
AcDbBlockBegin
  2
SW_CENTERMARKSYMBOL_1
 70
     0
 10
0.0
 20
0.0
 30
0.0
  3
SW_CENTERMARKSYMBOL_1
  1

  0
LINE
  5
296
330
293
100
AcDbEntity
  8
0
  6
Continuous
 62
     0
370
    18
100
AcDbLine
 10
0.0
 20
0.0
 30
0.0
 11
0.0
 21
2.5
 31
0.0
  0
LINE
  5
297
330
293
100
AcDbEntity
  8
0
  6
Continuous
 62
     0
370
    18
100
AcDbLine
 10
0.0
 20
0.0
 30
0.0
 11
-2.5
 21
0.0
 31
0.0
  0
LINE
  5
298
330
293
100
AcDbEntity
  8
0
  6
Continuous
 62
     0
370
    18
100
AcDbLine
 10
0.0
 20
0.0
 30
0.0
 11
0.0
 21
-2.5
 31
0.0
  0
LINE
  5
299
330
293
100
AcDbEntity
  8
0
  6
Continuous
 62
     0
370
    18
100
AcDbLine
 10
0.0
 20
0.0
 30
0.0
 11
2.5
 21
0.0
 31
0.0
  0
LINE
  5
29A
330
293
100
AcDbEntity
  8
0
  6
Continuous
 62
     0
370
    18
100
AcDbLine
 10
0.0
 20
5.0
 30
0.0
 11
0.0
 21
8.0061215142
 31
0.0
  0
LINE
  5
29B
330
293
100
AcDbEntity
  8
0
  6
Continuous
 62
     0
370
    18
100
AcDbLine
 10
-5.0
 20
0.0
 30
0.0
 11
-23.475589091
 21
0.0
 31
0.0
  0
LINE
  5
29C
330
293
100
AcDbEntity
  8
0
  6
Continuous
 62
     0
370
    18
100
AcDbLine
 10
0.0
 20
-5.0
 30
0.0
 11
0.0
 21
-7.6958938184
 31
0.0
  0
LINE
  5
29D
330
293
100
AcDbEntity
  8
0
  6
Continuous
 62
     0
370
    18
100
AcDbLine
 10
5.0
 20
0.0
 30
0.0
 11
23.1487999947
 21
0.0
 31
0.0
  0
ENDBLK
  5
295
330
293
100
AcDbEntity
  8
0
100
AcDbBlockEnd
  0
ENDSEC
  0
SECTION
  2
ENTITIES
  0
MTEXT
  5
74
330
1F
100
AcDbEntity
  8
0
  6
Continuous
 62
     7
370
     0
100
AcDbMText
 10
78.7255303554
 20
62.2913008744
 30
0.0
 40
2.6458333333
 41
0.0
 71
     1
 72
     1
  1
5R-TK1112
  7
SLDTEXTSTYLE0
 73
     1
 44
1.0
  0
ARC
  5
75
330
1F
100
AcDbEntity
  8
0
  6
Continuous
 62
     7
370
    25
100
AcDbCircle
 10
43.0667431651
 20
23.8212739954
 30
0.0
 40
1.000000000000001
100
AcDbArc
 50
270.0
 51
338.1276005171
  0
ARC
  5
76
330
1F
100
AcDbEntity
  8
0
  6
Continuous
 62
     7
370
    25
100
AcDbCircle
 10
43.0667431651
 20
36.3212739954
 30
0.0
 40
1.000000000000008
100
AcDbArc
 50
21.7839281367
 51
90.0
  0
ARC
  5
77
330
1F
100
AcDbEntity
  8
0
  6
Continuous
 62
     7
370
    25
100
AcDbCircle
 10
65.0667431651
 20
36.3212739954
 30
0.0
 40
1.000000000000013
100
AcDbArc
 50
90.0
 51
158.1276005171
  0
ARC
  5
78
330
1F
100
AcDbEntity
  8
0
  6
Continuous
 62
     7
370
    25
100
AcDbCircle
 10
65.0667431651
 20
23.8212739954
 30
0.0
 40
1.000000000000008
100
AcDbArc
 50
201.7839281367
 51
270.0
  0
LINE
  5
79
330
1F
100
AcDbEntity
  8
0
  6
Continuous
 62
     7
370
    25
100
AcDbLine
 10
32.566742435
 20
37.3212737868
 30
0.0
 11
32.0667432843
 21
36.8212741705
 31
0.0
  0
LINE
  5
7A
330
1F
100
AcDbEntity
  8
0
  6
Continuous
 62
     7
370
    25
100
AcDbLine
 10
32.0667432843
 20
23.3212738203
 30
0.0
 11
32.566742435
 21
22.821274204
 31
0.0
  0
LINE
  5
7B
330
1F
100
AcDbEntity
  8
0
  6
Continuous
 62
     7
370
    25
100
AcDbLine
 10
32.566742435
 20
22.821274204
 30
0.0
 11
43.0667432247
 21
22.821274204
 31
0.0
  0
LINE
  5
7C
330
1F
100
AcDbEntity
  8
0
  6
Continuous
 62
     7
370
    25
100
AcDbLine
 10
43.0667432247
 20
37.3212737868
 30
0.0
 11
32.566742435
 21
37.3212737868
 31
0.0
  0
LINE
  5
7D
330
1F
100
AcDbEntity
  8
0
  6
Continuous
 62
     7
370
    25
100
AcDbLine
 10
75.5667438953
 20
37.3212737868
 30
0.0
 11
65.0667431055
 21
37.3212737868
 31
0.0
  0
LINE
  5
7E
330
1F
100
AcDbEntity
  8
0
  6
Continuous
 62
     7
370
    25
100
AcDbLine
 10
65.0667431055
 20
22.821274204
 30
0.0
 11
75.5667438953
 21
22.821274204
 31
0.0
  0
LINE
  5
7F
330
1F
100
AcDbEntity
  8
0
  6
Continuous
 62
     7
370
    25
100
AcDbLine
 10
75.5667438953
 20
22.821274204
 30
0.0
 11
76.0667430459
 21
23.3212738203
 31
0.0
  0
LINE
  5
80
330
1F
100
AcDbEntity
  8
0
  6
Continuous
 62
     7
370
    25
100
AcDbLine
 10
76.0667430459
 20
36.8212741705
 30
0.0
 11
75.5667438953
 21
37.3212737868
 31
0.0
  0
ARC
  5
81
330
1F
100
AcDbEntity
  8
0
  6
Continuous
 62
     7
370
    25
100
AcDbCircle
 10
47.8167431651
 20
41.0712739954
 30
0.0
 40
1.000000000000003
100
AcDbArc
 50
239.2294876038
 51
248.2607265255
  0
ARC
  5
82
330
1F
100
AcDbEntity
  8
0
  6
Continuous
 62
     7
370
    25
100
AcDbCircle
 10
60.3167431651
 20
41.0712739954
 30
0.0
 40
1.000000000000003
100
AcDbArc
 50
291.8578361251
 51
300.7705123962
  0
LINE
  5
83
330
1F
100
AcDbEntity
  8
0
  6
Continuous
 62
     7
370
    25
100
AcDbLine
 10
60.8283438942
 20
40.2120506296
 30
0.0
 11
60.5230358652
 21
49.98191501
 31
0.0
  0
LINE
  5
84
330
1F
100
AcDbEntity
  8
0
  6
Continuous
 62
     7
370
    25
100
AcDbLine
 10
47.6104504651
 20
49.98191501
 30
0.0
 11
47.3051424361
 21
40.2120506296
 31
0.0
  0
SPLINE
  5
85
330
1F
100
AcDbEntity
  8
0
  6
Continuous
 62
     7
370
    25
100
AcDbSpline
210
0.0
220
0.0
230
1.0
 70
     8
 71
     3
 72
    11
 73
     7
 74
     0
 42
0.000000001
 43
0.00000001
 40
0.0
 40
0.0
 40
0.0
 40
0.0
 40
0.2500538626994269
 40
0.4999819337220742
 40
0.749932391486029
 40
1.0
 40
1.0
 40
1.0
 40
1.0
 10
64.13890926527482
 20
36.69342686408956
 30
0.0
 10
64.09368020020084
 20
36.60525161099828
 30
0.0
 10
64.00324482291049
 20
36.42894546211066
 30
0.0
 10
63.77821408304041
 20
36.2297109908563
 30
0.0
 10
63.50882900943214
 20
36.09640669191032
 30
0.0
 10
63.31142050851359
 20
36.07913761254403
 30
0.0
 10
63.21269313233596
 20
36.07050104984839
 30
0.0
  0
SPLINE
  5
86
330
1F
100
AcDbEntity
  8
0
  6
Continuous
 62
     7
370
    25
100
AcDbSpline
210
0.0
220
0.0
230
1.0
 70
     8
 71
     3
 72
    11
 73
     7
 74
     0
 42
0.000000001
 43
0.00000001
 40
0.0
 40
0.0
 40
0.0
 40
0.0
 40
0.2500765330476004
 40
0.5000300275733256
 40
0.7499566387606212
 40
1.0
 40
1.0
 40
1.0
 40
1.0
 10
63.21269313233596
 20
24.07277244129975
 30
0.0
 10
63.31142001526549
 20
24.06413486641165
 30
0.0
 10
63.50882520715562
 20
24.04686396635225
 30
0.0
 10
63.77821214716427
 20
23.91358457920624
 30
0.0
 10
64.00324116557418
 20
23.71437310706738
 30
0.0
 10
64.09367952582967
 20
23.53808613364682
 30
0.0
 10
64.13890926527482
 20
23.44992206418712
 30
0.0
  0
SPLINE
  5
87
330
1F
100
AcDbEntity
  8
0
  6
Continuous
 62
     7
370
    25
100
AcDbSpline
210
0.0
220
0.0
230
1.0
 70
     8
 71
     3
 72
    11
 73
     7
 74
     0
 42
0.000000001
 43
0.00000001
 40
0.0
 40
0.0
 40
0.0
 40
0.0
 40
0.2500538626994269
 40
0.4999819337220742
 40
0.749932391486029
 40
1.0
 40
1.0
 40
1.0
 40
1.0
 10
43.99457706498605
 20
23.44912112677295
 30
0.0
 10
44.03980613006003
 20
23.53729637986423
 30
0.0
 10
44.13024150735037
 20
23.71360252875185
 30
0.0
 10
44.35527224722046
 20
23.91283700000621
 30
0.0
 10
44.62465732082872
 20
24.04614129895219
 30
0.0
 10
44.82206582174727
 20
24.06341037831847
 30
0.0
 10
44.92079319792491
 20
24.07204694101412
 30
0.0
  0
SPLINE
  5
88
330
1F
100
AcDbEntity
  8
0
  6
Continuous
 62
     7
370
    25
100
AcDbSpline
210
0.0
220
0.0
230
1.0
 70
     8
 71
     3
 72
    11
 73
     7
 74
     0
 42
0.000000001
 43
0.00000001
 40
0.0
 40
0.0
 40
0.0
 40
0.0
 40
0.2500765330476004
 40
0.5000300275733256
 40
0.7499566387606212
 40
1.0
 40
1.0
 40
1.0
 40
1.0
 10
44.92079319792491
 20
36.06977554956276
 30
0.0
 10
44.82206631499538
 20
36.07841312445086
 30
0.0
 10
44.62466112310524
 20
36.09568402451026
 30
0.0
 10
44.3552741830966
 20
36.22896341165627
 30
0.0
 10
44.13024516468667
 20
36.42817488379513
 30
0.0
 10
44.03980680443119
 20
36.60446185721568
 30
0.0
 10
43.99457706498605
 20
36.69262592667539
 30
0.0
  0
SPLINE
  5
89
330
1F
100
AcDbEntity
  8
0
  6
Continuous
 62
     7
370
    25
100
AcDbSpline
210
0.0
220
0.0
230
1.0
 70
     8
 71
     3
 72
    11
 73
     7
 74
     0
 42
0.000000001
 43
0.00000001
 40
0.0
 40
0.0
 40
0.0
 40
0.0
 40
0.2500433612393788
 40
0.4999699724266744
 40
0.7499234669523995
 40
1.0
 40
1.0
 40
1.0
 40
1.0
 10
47.4453912338863
 20
40.14344009557564
 30
0.0
 10
47.533555303346
 20
40.09821035613049
 30
0.0
 10
47.70984227676656
 20
40.00777199587501
 30
0.0
 10
47.90905374890541
 20
39.78274297746509
 30
0.0
 10
48.04233313605143
 20
39.51335603745644
 30
0.0
 10
48.05960403611082
 20
39.31595084556631
 30
0.0
 10
48.06824161099892
 20
39.21722396263678
 30
0.0
  0
SPLINE
  5
8A
330
1F
100
AcDbEntity
  8
0
  6
Continuous
 62
     7
370
    25
100
AcDbSpline
210
0.0
220
0.0
230
1.0
 70
     8
 71
     3
 72
    11
 73
     7
 74
     0
 42
0.000000001
 43
0.00000001
 40
0.0
 40
0.0
 40
0.0
 40
0.0
 40
0.2500676085139711
 40
0.5000180662779259
 40
0.7499461373005731
 40
1.0
 40
1.0
 40
1.0
 40
1.0
 10
60.06597021954757
 20
39.21722396263678
 30
0.0
 10
60.07460678224321
 20
39.31595133881441
 30
0.0
 10
60.0918758616095
 20
39.51335983973296
 30
0.0
 10
60.22518016055547
 20
39.78274491334123
 30
0.0
 10
60.42441463180984
 20
40.00777565321131
 30
0.0
 10
60.60072078069746
 20
40.09821103050167
 30
0.0
 10
60.68889603378874
 20
40.14344009557564
 30
0.0
  0
LINE
  5
8B
330
1F
100
AcDbEntity
  8
0
  6
Continuous
 62
     7
370
    25
100
AcDbLine
 10
60.5230358652
 20
49.98191501
 30
0.0
 11
59.3167430943
 21
52.0712738762
 31
0.0
  0
LINE
  5
8C
330
1F
100
AcDbEntity
  8
0
  6
Continuous
 62
     7
370
    25
100
AcDbLine
 10
48.8167432359
 20
52.0712738762
 30
0.0
 11
47.6104504651
 21
49.98191501
 31
0.0
  0
LINE
  5
8D
330
1F
100
AcDbEntity
  8
0
  6
Continuous
 62
     7
370
    25
100
AcDbLine
 10
47.8667429871
 20
36.0712740476
 30
0.0
 11
44.9207931979
 21
36.0712740476
 31
0.0
  0
LINE
  5
8E
330
1F
100
AcDbEntity
  8
0
  6
Continuous
 62
     7
370
    25
100
AcDbLine
 10
63.2126931323
 20
36.0712740476
 30
0.0
 11
60.2667433432
 21
36.0712740476
 31
0.0
  0
LINE
  5
8F
330
1F
100
AcDbEntity
  8
0
  6
Continuous
 62
     7
370
    25
100
AcDbLine
 10
44.9207931979
 20
24.0712739433
 30
0.0
 11
63.2126931323
 21
24.0712739433
 31
0.0
  0
LINE
  5
90
330
1F
100
AcDbEntity
  8
0
  6
Continuous
 62
     7
370
    25
100
AcDbLine
 10
48.066743113
 20
39.2172239626
 30
0.0
 11
48.066743113
 21
36.2712741735
 31
0.0
  0
LINE
  5
91
330
1F
100
AcDbEntity
  8
0
  6
Continuous
 62
     7
370
    25
100
AcDbLine
 10
60.0667432173
 20
36.2712741735
 30
0.0
 11
60.0667432173
 21
39.2172239626
 31
0.0
  0
ARC
  5
92
330
1F
100
AcDbEntity
  8
0
  6
Continuous
 62
     7
370
    25
100
AcDbCircle
 10
60.2667431651
 20
36.2712739954
 30
0.0
 40
0.2000000000000062
100
AcDbArc
 50
180.9243785428
 51
268.0272653466
  0
ARC
  5
93
330
1F
100
AcDbEntity
  8
0
  6
Continuous
 62
     7
370
    25
100
AcDbCircle
 10
47.8667431651
 20
36.2712739954
 30
0.0
 40
0.2000000000000037
100
AcDbArc
 50
271.8400723276
 51
358.0272653466
  0
LINE
  5
94
330
1F
100
AcDbEntity
  8
0
  6
Continuous
 62
     7
370
    25
100
AcDbLine
 10
32.566742435
 20
37.3212737868
 30
0.0
 11
32.566742435
 21
22.821274204
 31
0.0
  0
LINE
  5
95
330
1F
100
AcDbEntity
  8
0
  6
Continuous
 62
     7
370
    25
100
AcDbLine
 10
32.0667432843
 20
30.0712739954
 30
0.0
 11
32.0667432843
 21
36.8212741705
 31
0.0
  0
LINE
  5
96
330
1F
100
AcDbEntity
  8
0
  6
Continuous
 62
     7
370
    25
100
AcDbLine
 10
32.0667432843
 20
23.3212738203
 30
0.0
 11
32.0667432843
 21
30.0712739954
 31
0.0
  0
LINE
  5
97
330
1F
100
AcDbEntity
  8
0
  6
Continuous
 62
     7
370
    25
100
AcDbLine
 10
75.5667438953
 20
22.821274204
 30
0.0
 11
75.5667438953
 21
37.3212737868
 31
0.0
  0
LINE
  5
98
330
1F
100
AcDbEntity
  8
0
  6
Continuous
 62
     7
370
    25
100
AcDbLine
 10
76.0667430459
 20
36.8212741705
 30
0.0
 11
76.0667430459
 21
23.3212738203
 31
0.0
  0
LINE
  5
99
330
1F
100
AcDbEntity
  8
0
  6
Continuous
 62
     7
370
    25
100
AcDbLine
 10
60.8283438942
 20
40.2120506296
 30
0.0
 11
47.3051424361
 21
40.2120506296
 31
0.0
  0
LINE
  5
9A
330
1F
100
AcDbEntity
  8
0
  6
Continuous
 62
     7
370
    25
100
AcDbLine
 10
47.4468752964
 20
40.1428403238
 30
0.0
 11
47.4471565558
 21
40.1429455633
 31
0.0
  0
LINE
  5
9B
330
1F
100
AcDbEntity
  8
0
  6
Continuous
 62
     7
370
    25
100
AcDbLine
 10
60.5230358652
 20
49.98191501
 30
0.0
 11
47.6104504651
 21
49.98191501
 31
0.0
  0
SPLINE
  5
9C
330
1F
100
AcDbEntity
  8
0
  6
Continuous
 62
     7
370
    25
100
AcDbSpline
210
0.0
220
0.0
230
1.0
 70
     8
 71
     3
 72
     9
 73
     5
 74
     0
 42
0.000000001
 43
0.00000001
 40
0.001813512106624
 40
0.001813512106624
 40
0.001813512106624
 40
0.001813512106624
 40
0.501813512106624
 40
1.0
 40
1.0
 40
1.0
 40
1.0
 10
63.21269354335652
 20
30.06640620253857
 30
0.0
 10
63.41042680207307
 20
30.06639029468025
 30
0.0
 10
63.804730394074
 20
30.06631919473018
 30
0.0
 10
64.06462447117278
 20
30.06604049646432
 30
0.0
 10
64.13890931749805
 20
30.06590066782967
 30
0.0
  0
SPLINE
  5
9D
330
1F
100
AcDbEntity
  8
0
  6
Continuous
 62
     7
370
    25
100
AcDbSpline
210
0.0
220
0.0
230
1.0
 70
    24
 71
     3
 72
     9
 73
     5
 74
     0
 42
0.000000001
 43
0.00000001
 40
0.0
 40
0.0
 40
0.0
 40
0.0
 40
0.8815729555810312
 40
1.0
 40
1.0
 40
1.0
 40
1.0
 10
63.21269313233596
 20
24.0736693049391
 30
0.0
 10
63.21269313233595
 20
24.07217652116942
 30
0.0
 10
63.21269313233595
 20
24.0704832026979
 30
0.0
 10
63.21269313233596
 20
24.07147250185479
 30
0.0
 10
63.21269313233596
 20
24.07158966162999
 30
0.0
  0
SPLINE
  5
9E
330
1F
100
AcDbEntity
  8
0
  6
Continuous
 62
     7
370
    25
100
AcDbSpline
210
0.0
220
0.0
230
1.0
 70
     8
 71
     3
 72
     9
 73
     5
 74
     0
 42
0.000000001
 43
0.00000001
 40
0.001813512106624
 40
0.001813512106624
 40
0.001813512106624
 40
0.001813512106624
 40
0.501813512106624
 40
1.0
 40
1.0
 40
1.0
 40
1.0
 10
44.92079278690434
 20
30.07614178832393
 30
0.0
 10
44.7230595281878
 20
30.07615769618226
 30
0.0
 10
44.32875593618687
 20
30.07622879613233
 30
0.0
 10
44.06886185908808
 20
30.07650749439819
 30
0.0
 10
43.9945770127628
 20
30.07664732303283
 30
0.0
  0
SPLINE
  5
9F
330
1F
100
AcDbEntity
  8
0
  6
Continuous
 62
     7
370
    25
100
AcDbSpline
210
0.0
220
0.0
230
1.0
 70
    24
 71
     3
 72
     9
 73
     5
 74
     0
 42
0.000000001
 43
0.00000001
 40
0.0
 40
0.0
 40
0.0
 40
0.0
 40
0.8815729555810312
 40
1.0
 40
1.0
 40
1.0
 40
1.0
 10
44.92079319792491
 20
36.06887868592341
 30
0.0
 10
44.92079319792491
 20
36.07037146969309
 30
0.0
 10
44.92079319792492
 20
36.0720647881646
 30
0.0
 10
44.92079319792491
 20
36.07107548900772
 30
0.0
 10
44.92079319792491
 20
36.07095832923252
 30
0.0
  0
SPLINE
  5
A0
330
1F
100
AcDbEntity
  8
0
  6
Continuous
 62
     7
370
    25
100
AcDbSpline
210
0.0
220
0.0
230
1.0
 70
    24
 71
     3
 72
     9
 73
     5
 74
     0
 42
0.000000001
 43
0.00000001
 40
0.0
 40
0.0
 40
0.0
 40
0.0
 40
0.1184270444189687
 40
1.0
 40
1.0
 40
1.0
 40
1.0
 10
48.06705883132916
 20
39.21722396263678
 30
0.0
 10
48.06694167155397
 20
39.21722396263678
 30
0.0
 10
48.06595237239707
 20
39.21722396263679
 30
0.0
 10
48.06764569086859
 20
39.21722396263679
 30
0.0
 10
48.06913847463828
 20
39.21722396263678
 30
0.0
  0
SPLINE
  5
A1
330
1F
100
AcDbEntity
  8
0
  6
Continuous
 62
     7
370
    25
100
AcDbSpline
210
0.0
220
0.0
230
1.0
 70
     8
 71
     3
 72
     9
 73
     5
 74
     0
 42
0.000000001
 43
0.00000001
 40
0.0018135121066271
 40
0.0018135121066271
 40
0.0018135121066271
 40
0.0018135121066271
 40
0.5018135121066271
 40
1.0
 40
1.0
 40
1.0
 40
1.0
 10
54.06187537223775
 20
39.21722437365734
 30
0.0
 10
54.06185946437943
 20
39.41495763237388
 30
0.0
 10
54.06178836442935
 20
39.80926122437481
 30
0.0
 10
54.0615096661635
 20
40.06915530147361
 30
0.0
 10
54.06136983752885
 20
40.14344014779888
 30
0.0
  0
LINE
  5
A2
330
1F
100
AcDbEntity
  8
0
  6
Continuous
 62
     7
370
    25
100
AcDbLine
 10
48.8167432359
 20
52.0712738762
 30
0.0
 11
59.3167430943
 21
52.0712738762
 31
0.0
  0
SPLINE
  5
A3
330
1F
100
AcDbEntity
  8
0
  6
Continuous
 62
     7
370
    25
100
AcDbSpline
210
0.0
220
0.0
230
1.0
 70
     8
 71
     3
 72
    10
 73
     6
 74
     0
 42
0.000000001
 43
0.00000001
 40
0.0
 40
0.0
 40
0.0
 40
0.0
 40
0.5
 40
0.5
 40
1.0
 40
1.0
 40
1.0
 40
1.0
 10
48.06674316513043
 20
35.10353205994739
 30
0.0
 10
48.19435702658784
 20
35.10353205994739
 30
0.0
 10
48.31417885202217
 20
35.1344474761034
 30
0.0
 10
48.50484081558506
 20
35.22194071270395
 30
0.0
 10
48.5760500910039
 20
35.27572826250383
 30
0.0
 10
48.63242859007964
 20
35.33028810031907
 30
0.0
  0
LINE
  5
A4
330
1F
100
AcDbEntity
  8
0
  6
Continuous
 62
     7
370
    25
100
AcDbLine
 10
47.7667431569
 20
35.1035321037
 30
0.0
 11
48.066743113
 21
35.1035321037
 31
0.0
  0
SPLINE
  5
A5
330
1F
100
AcDbEntity
  8
0
  6
Continuous
 62
     7
370
    25
100
AcDbSpline
210
0.0
220
0.0
230
1.0
 70
     8
 71
     3
 72
    14
 73
    10
 74
     0
 42
0.000000001
 43
0.00000001
 40
0.0
 40
0.0
 40
0.0
 40
0.0
 40
0.25
 40
0.25
 40
0.5
 40
0.5
 40
0.75
 40
0.75
 40
1.0
 40
1.0
 40
1.0
 40
1.0
 10
47.76674316513043
 20
35.10353205994739
 30
0.0
 10
47.6957894755902
 20
35.10353205994739
 30
0.0
 10
47.62960283133161
 20
35.08439348619772
 30
0.0
 10
47.52707316899067
 20
35.03141358755934
 30
0.0
 10
47.48774093460511
 20
34.99775132811101
 30
0.0
 10
47.42643545723839
 20
34.92519736598859
 30
0.0
 10
47.40408772346867
 20
34.88542354167323
 30
0.0
 10
47.37442046876576
 20
34.80350213007015
 30
0.0
 10
47.36674316513042
 20
34.76088076162672
 30
0.0
 10
47.36674316513042
 20
34.71643528575383
 30
0.0
  0
LINE
  5
A6
330
1F
100
AcDbEntity
  8
0
  6
Continuous
 62
     7
370
    25
100
AcDbLine
 10
47.3667433708
 20
32.1914903725
 30
0.0
 11
47.3667433708
 21
34.7164353261
 31
0.0
  0
SPLINE
  5
A7
330
1F
100
AcDbEntity
  8
0
  6
Continuous
 62
     7
370
    25
100
AcDbSpline
210
0.0
220
0.0
230
1.0
 70
    24
 71
     3
 72
    14
 73
    10
 74
     0
 42
0.000000001
 43
0.00000001
 40
0.0
 40
0.0
 40
0.0
 40
0.0
 40
0.25
 40
0.25
 40
0.5
 40
0.5
 40
0.75
 40
0.75
 40
1.0
 40
1.0
 40
1.0
 40
1.0
 10
47.36674316513043
 20
30.07127399543126
 30
0.0
 10
47.36674316513043
 20
30.24983902612654
 30
0.0
 10
47.36674316513043
 20
30.42840487434614
 30
0.0
 10
47.36674316513043
 20
30.78486500966857
 30
0.0
 10
47.36674316513043
 20
30.96276093489708
 30
0.0
 10
47.36674316513042
 20
31.31716221812792
 30
0.0
 10
47.36674316513043
 20
31.49366922163788
 30
0.0
 10
47.36674316513043
 20
31.84447533365237
 30
0.0
 10
47.36674316513042
 20
32.01877609370079
 30
0.0
 10
47.36674316513043
 20
32.19149034706415
 30
0.0
  0
SPLINE
  5
A8
330
1F
100
AcDbEntity
  8
0
  6
Continuous
 62
     7
370
    25
100
AcDbSpline
210
0.0
220
0.0
230
1.0
 70
    24
 71
     3
 72
    14
 73
    10
 74
     0
 42
0.000000001
 43
0.00000001
 40
0.0
 40
0.0
 40
0.0
 40
0.0
 40
0.25
 40
0.25
 40
0.5
 40
0.5
 40
0.75
 40
0.75
 40
1.0
 40
1.0
 40
1.0
 40
1.0
 10
47.36674316513043
 20
30.07127399543126
 30
0.0
 10
47.36674316513043
 20
29.89270896473597
 30
0.0
 10
47.36674316513043
 20
29.71414311651637
 30
0.0
 10
47.36674316513042
 20
29.35768298119394
 30
0.0
 10
47.36674316513042
 20
29.17978705596543
 30
0.0
 10
47.36674316513042
 20
28.8253857727346
 30
0.0
 10
47.36674316513042
 20
28.64887876922462
 30
0.0
 10
47.36674316513042
 20
28.29807265721014
 30
0.0
 10
47.36674316513042
 20
28.12377189716171
 30
0.0
 10
47.36674316513043
 20
27.95105764379836
 30
0.0
  0
LINE
  5
A9
330
1F
100
AcDbEntity
  8
0
  6
Continuous
 62
     7
370
    25
100
AcDbLine
 10
47.3667433708
 20
25.4261126647
 30
0.0
 11
47.3667433708
 21
27.9510576184
 31
0.0
  0
SPLINE
  5
AA
330
1F
100
AcDbEntity
  8
0
  6
Continuous
 62
     7
370
    25
100
AcDbSpline
210
0.0
220
0.0
230
1.0
 70
     8
 71
     3
 72
    12
 73
     8
 74
     0
 42
0.000000001
 43
0.00000001
 40
0.0
 40
0.0
 40
0.0
 40
0.0
 40
0.5000000000000001
 40
0.5000000000000001
 40
0.75
 40
0.75
 40
1.0
 40
1.0
 40
1.0
 40
1.0
 10
47.36674316513043
 20
25.42611270510868
 30
0.0
 10
47.36674316513043
 20
25.33729728584549
 30
0.0
 10
47.39615078971291
 20
25.25309493897399
 30
0.0
 10
47.48780735478132
 20
25.14476678547375
 30
0.0
 10
47.52716910075159
 20
25.111076856733
 30
0.0
 10
47.62959532093721
 20
25.05816636836964
 30
0.0
 10
47.69573218440758
 20
25.03901593091512
 30
0.0
 10
47.76674316513043
 20
25.03901593091513
 30
0.0
  0
LINE
  5
AB
330
1F
100
AcDbEntity
  8
0
  6
Continuous
 62
     7
370
    25
100
AcDbLine
 10
60.3667431733
 20
25.0390158872
 30
0.0
 11
47.7667431569
 21
25.0390158872
 31
0.0
  0
SPLINE
  5
AC
330
1F
100
AcDbEntity
  8
0
  6
Continuous
 62
     7
370
    25
100
AcDbSpline
210
0.0
220
0.0
230
1.0
 70
     8
 71
     3
 72
    14
 73
    10
 74
     0
 42
0.000000001
 43
0.00000001
 40
0.0
 40
0.0
 40
0.0
 40
0.0
 40
0.25
 40
0.25
 40
0.5
 40
0.5
 40
0.75
 40
0.75
 40
1.0
 40
1.0
 40
1.0
 40
1.0
 10
60.36674316513043
 20
25.03901593091513
 30
0.0
 10
60.43769685467066
 20
25.03901593091513
 30
0.0
 10
60.50388349892926
 20
25.05815450466478
 30
0.0
 10
60.60641316127019
 20
25.11113440330316
 30
0.0
 10
60.64574539565574
 20
25.14479666275149
 30
0.0
 10
60.70705087302247
 20
25.21735062487392
 30
0.0
 10
60.72939860679219
 20
25.25712444918927
 30
0.0
 10
60.7590658614951
 20
25.33904586079235
 30
0.0
 10
60.76674316513044
 20
25.38166722923579
 30
0.0
 10
60.76674316513044
 20
25.42611270510867
 30
0.0
  0
LINE
  5
AD
330
1F
100
AcDbEntity
  8
0
  6
Continuous
 62
     7
370
    25
100
AcDbLine
 10
60.7667429595
 20
27.9510576184
 30
0.0
 11
60.7667429595
 21
25.4261126647
 31
0.0
  0
SPLINE
  5
AE
330
1F
100
AcDbEntity
  8
0
  6
Continuous
 62
     7
370
    25
100
AcDbSpline
210
0.0
220
0.0
230
1.0
 70
    24
 71
     3
 72
    14
 73
    10
 74
     0
 42
0.000000001
 43
0.00000001
 40
0.0
 40
0.0
 40
0.0
 40
0.0
 40
0.25
 40
0.25
 40
0.5
 40
0.5
 40
0.75
 40
0.75
 40
1.0
 40
1.0
 40
1.0
 40
1.0
 10
60.76674316513043
 20
30.07127399543126
 30
0.0
 10
60.76674316513043
 20
29.89270896473597
 30
0.0
 10
60.76674316513043
 20
29.71414311651638
 30
0.0
 10
60.76674316513043
 20
29.35768298119394
 30
0.0
 10
60.76674316513043
 20
29.17978705596543
 30
0.0
 10
60.76674316513044
 20
28.8253857727346
 30
0.0
 10
60.76674316513043
 20
28.64887876922463
 30
0.0
 10
60.76674316513043
 20
28.29807265721015
 30
0.0
 10
60.76674316513044
 20
28.12377189716171
 30
0.0
 10
60.76674316513043
 20
27.95105764379836
 30
0.0
  0
SPLINE
  5
AF
330
1F
100
AcDbEntity
  8
0
  6
Continuous
 62
     7
370
    25
100
AcDbSpline
210
0.0
220
0.0
230
1.0
 70
    24
 71
     3
 72
    14
 73
    10
 74
     0
 42
0.000000001
 43
0.00000001
 40
0.0
 40
0.0
 40
0.0
 40
0.0
 40
0.25
 40
0.25
 40
0.5
 40
0.5
 40
0.75
 40
0.75
 40
1.0
 40
1.0
 40
1.0
 40
1.0
 10
60.76674316513043
 20
30.07127399543126
 30
0.0
 10
60.76674316513043
 20
30.24983902612654
 30
0.0
 10
60.76674316513043
 20
30.42840487434614
 30
0.0
 10
60.76674316513044
 20
30.78486500966858
 30
0.0
 10
60.76674316513044
 20
30.96276093489708
 30
0.0
 10
60.76674316513044
 20
31.31716221812792
 30
0.0
 10
60.76674316513044
 20
31.49366922163788
 30
0.0
 10
60.76674316513044
 20
31.84447533365237
 30
0.0
 10
60.76674316513044
 20
32.01877609370079
 30
0.0
 10
60.76674316513043
 20
32.19149034706415
 30
0.0
  0
LINE
  5
B0
330
1F
100
AcDbEntity
  8
0
  6
Continuous
 62
     7
370
    25
100
AcDbLine
 10
60.7667429595
 20
34.7164353261
 30
0.0
 11
60.7667429595
 21
32.1914903725
 31
0.0
  0
SPLINE
  5
B1
330
1F
100
AcDbEntity
  8
0
  6
Continuous
 62
     7
370
    25
100
AcDbSpline
210
0.0
220
0.0
230
1.0
 70
     8
 71
     3
 72
    12
 73
     8
 74
     0
 42
0.000000001
 43
0.00000001
 40
0.0
 40
0.0
 40
0.0
 40
0.0
 40
0.4999999999999979
 40
0.4999999999999979
 40
0.7499999999999989
 40
0.7499999999999989
 40
1.0
 40
1.0
 40
1.0
 40
1.0
 10
60.76674316513043
 20
34.71643528575383
 30
0.0
 10
60.76674316513044
 20
34.80525070501702
 30
0.0
 10
60.73733554054796
 20
34.88945305188852
 30
0.0
 10
60.64567897547956
 20
34.99778120538876
 30
0.0
 10
60.60631722950927
 20
35.03147113412952
 30
0.0
 10
60.50389100932365
 20
35.08438162249287
 30
0.0
 10
60.43775414585328
 20
35.10353205994739
 30
0.0
 10
60.36674316513042
 20
35.10353205994738
 30
0.0
  0
LINE
  5
B2
330
1F
100
AcDbEntity
  8
0
  6
Continuous
 62
     7
370
    25
100
AcDbLine
 10
60.0667432173
 20
35.1035321037
 30
0.0
 11
60.3667431733
 21
35.1035321037
 31
0.0
  0
SPLINE
  5
B3
330
1F
100
AcDbEntity
  8
0
  6
Continuous
 62
     7
370
    25
100
AcDbSpline
210
0.0
220
0.0
230
1.0
 70
     8
 71
     3
 72
    10
 73
     6
 74
     0
 42
0.000000001
 43
0.00000001
 40
0.0
 40
0.0
 40
0.0
 40
0.0
 40
0.5
 40
0.5
 40
1.0
 40
1.0
 40
1.0
 40
1.0
 10
59.50105774018123
 20
35.33028810031905
 30
0.0
 10
59.55743623925697
 20
35.27572826250383
 30
0.0
 10
59.62864551467584
 20
35.22194071270392
 30
0.0
 10
59.81930747823872
 20
35.13444747610339
 30
0.0
 10
59.93912930367304
 20
35.10353205994739
 30
0.0
 10
60.06674316513043
 20
35.10353205994739
 30
0.0
  0
SPLINE
  5
B4
330
1F
100
AcDbEntity
  8
0
  6
Continuous
 62
     7
370
    25
100
AcDbSpline
210
0.0
220
0.0
230
1.0
 70
     8
 71
     3
 72
    10
 73
     6
 74
     0
 42
0.000000001
 43
0.00000001
 40
0.0
 40
0.0
 40
0.0
 40
0.0
 40
0.5
 40
0.5
 40
1.0
 40
1.0
 40
1.0
 40
1.0
 10
48.80772906024263
 20
35.50558857048205
 30
0.0
 10
48.86228889805786
 20
35.5619670695578
 30
0.0
 10
48.91607644785777
 20
35.63317634497666
 30
0.0
 10
49.00356968445829
 20
35.82383830853954
 30
0.0
 10
49.0344851006143
 20
35.94366013397386
 30
0.0
 10
49.0344851006143
 20
36.07127399543126
 30
0.0
  0
LINE
  5
B5
330
1F
100
AcDbEntity
  8
0
  6
Continuous
 62
     7
370
    25
100
AcDbLine
 10
56.1869595422
 20
36.7712737898
 30
0.0
 11
59.0667430534
 21
36.7712737898
 31
0.0
  0
SPLINE
  5
B6
330
1F
100
AcDbEntity
  8
0
  6
Continuous
 62
     7
370
    25
100
AcDbSpline
210
0.0
220
0.0
230
1.0
 70
    24
 71
     3
 72
    14
 73
    10
 74
     0
 42
0.000000001
 43
0.00000001
 40
0.0
 40
0.0
 40
0.0
 40
0.0
 40
0.25
 40
0.25
 40
0.5
 40
0.5
 40
0.75
 40
0.75
 40
1.0
 40
1.0
 40
1.0
 40
1.0
 10
54.06674316513043
 20
36.77127399543125
 30
0.0
 10
54.24530819582571
 20
36.77127399543125
 30
0.0
 10
54.42387404404531
 20
36.77127399543125
 30
0.0
 10
54.78033417936774
 20
36.77127399543126
 30
0.0
 10
54.95823010459625
 20
36.77127399543126
 30
0.0
 10
55.31263138782709
 20
36.77127399543126
 30
0.0
 10
55.48913839133706
 20
36.77127399543126
 30
0.0
 10
55.83994450335155
 20
36.77127399543126
 30
0.0
 10
56.01424526339997
 20
36.77127399543126
 30
0.0
 10
56.18695951676333
 20
36.77127399543126
 30
0.0
  0
SPLINE
  5
B7
330
1F
100
AcDbEntity
  8
0
  6
Continuous
 62
     7
370
    25
100
AcDbSpline
210
0.0
220
0.0
230
1.0
 70
    24
 71
     3
 72
    14
 73
    10
 74
     0
 42
0.000000001
 43
0.00000001
 40
0.0
 40
0.0
 40
0.0
 40
0.0
 40
0.25
 40
0.25
 40
0.5
 40
0.5
 40
0.75
 40
0.75
 40
1.0
 40
1.0
 40
1.0
 40
1.0
 10
54.06674316513043
 20
36.77127399543125
 30
0.0
 10
53.88817813443514
 20
36.77127399543125
 30
0.0
 10
53.70961228621554
 20
36.77127399543125
 30
0.0
 10
53.35315215089311
 20
36.77127399543125
 30
0.0
 10
53.1752562256646
 20
36.77127399543125
 30
0.0
 10
52.82085494243377
 20
36.77127399543125
 30
0.0
 10
52.6443479389238
 20
36.77127399543125
 30
0.0
 10
52.29354182690932
 20
36.77127399543125
 30
0.0
 10
52.11924106686089
 20
36.77127399543125
 30
0.0
 10
51.94652681349753
 20
36.77127399543125
 30
0.0
  0
LINE
  5
B8
330
1F
100
AcDbEntity
  8
0
  6
Continuous
 62
     7
370
    25
100
AcDbLine
 10
49.4215818344
 20
36.7712737898
 30
0.0
 11
51.9465267881
 21
36.7712737898
 31
0.0
  0
SPLINE
  5
B9
330
1F
100
AcDbEntity
  8
0
  6
Continuous
 62
     7
370
    25
100
AcDbSpline
210
0.0
220
0.0
230
1.0
 70
     8
 71
     3
 72
    12
 73
     8
 74
     0
 42
0.000000001
 43
0.00000001
 40
0.0
 40
0.0
 40
0.0
 40
0.0
 40
0.4999999999999986
 40
0.4999999999999986
 40
0.7499999999999992
 40
0.7499999999999992
 40
1.0
 40
1.0
 40
1.0
 40
1.0
 10
49.42158187480785
 20
36.77127399543125
 30
0.0
 10
49.33276645554466
 20
36.77127399543126
 30
0.0
 10
49.24856410867316
 20
36.74186637084878
 30
0.0
 10
49.14023595517293
 20
36.65020980578037
 30
0.0
 10
49.10654602643218
 20
36.61084805981009
 30
0.0
 10
49.05363553806882
 20
36.50842183962448
 30
0.0
 10
49.0344851006143
 20
36.44228497615411
 30
0.0
 10
49.0344851006143
 20
36.37127399543125
 30
0.0
  0
LINE
  5
BA
330
1F
100
AcDbEntity
  8
0
  6
Continuous
 62
     7
370
    25
100
AcDbLine
 10
49.0344850569
 20
36.0712740476
 30
0.0
 11
49.0344850569
 21
36.3712740036
 31
0.0
  0
LINE
  5
BB
330
1F
100
AcDbEntity
  8
0
  6
Continuous
 62
     7
370
    25
100
AcDbLine
 10
58.8667433931
 20
36.3712740036
 30
0.0
 11
56.2576334214
 21
36.3712740036
 31
0.0
  0
SPLINE
  5
BC
330
1F
100
AcDbEntity
  8
0
  6
Continuous
 62
     7
370
    25
100
AcDbSpline
210
0.0
220
0.0
230
1.0
 70
     8
 71
     3
 72
    10
 73
     6
 74
     0
 42
0.000000001
 43
0.00000001
 40
0.0
 40
0.0
 40
0.0
 40
0.0
 40
0.5
 40
0.5
 40
1.0
 40
1.0
 40
1.0
 40
1.0
 10
56.2472512264948
 20
36.51269535166703
 30
0.0
 10
56.24988989702963
 20
36.48981066865426
 30
0.0
 10
56.25248543919371
 20
36.46336523367638
 30
0.0
 10
56.25635718825444
 20
36.41300680114595
 30
0.0
 10
56.2576333951511
 20
36.38909380359339
 30
0.0
 10
56.2576333951511
 20
36.37127399543125
 30
0.0
  0
SPLINE
  5
BD
330
1F
100
AcDbEntity
  8
0
  6
Continuous
 62
     7
370
    25
100
AcDbSpline
210
0.0
220
0.0
230
1.0
 70
     8
 71
     3
 72
    12
 73
     8
 74
     0
 42
0.000000001
 43
0.00000001
 40
0.0
 40
0.0
 40
0.0
 40
0.0
 40
0.25
 40
0.25
 40
0.5
 40
0.5
 40
1.0
 40
1.0
 40
1.0
 40
1.0
 10
56.2472512264948
 20
36.51269535166703
 30
0.0
 10
56.24593189122737
 20
36.52413769317342
 30
0.0
 10
56.24442762367472
 20
36.53352002916188
 30
0.0
 10
56.24214581592257
 20
36.54879440293257
 30
0.0
 10
56.24136827572308
 20
36.5546864407148
 30
0.0
 10
56.24177063403986
 20
36.56807167599659
 30
0.0
 10
56.24568551147135
 20
36.57127399543126
 30
0.0
 10
56.2576333951511
 20
36.57127399543126
 30
0.0
  0
LINE
  5
BE
330
1F
100
AcDbEntity
  8
0
  6
Continuous
 62
     7
370
    25
100
AcDbLine
 10
56.2576334214
 20
36.5712741295
 30
0.0
 11
59.0667430534
 21
36.5712741295
 31
0.0
  0
LWPOLYLINE
  5
BF
330
1F
100
AcDbEntity
  8
0
  6
Continuous
 62
     7
370
    25
100
AcDbPolyline
 90
        9
 70
   128
 43
0.0
 10
58.8667433931
 20
36.3712740036
 10
58.9057611524
 20
36.4102922286
 10
58.943279948
 20
36.4478105585
 10
58.9778571612
 20
36.4823882374
 10
59.0081647261
 20
36.5126953366
 10
59.0330370924
 20
36.5375677029
 10
59.0515191889
 20
36.5560497994
 10
59.0629004164
 20
36.5674310269
 10
59.0667430534
 20
36.5712741295
  0
LINE
  5
C0
330
1F
100
AcDbEntity
  8
0
  6
Continuous
 62
     7
370
    25
100
AcDbLine
 10
60.3667431733
 20
32.2621642517
 30
0.0
 11
60.3667431733
 21
34.8712742234
 31
0.0
  0
LINE
  5
C1
330
1F
100
AcDbEntity
  8
0
  6
Continuous
 62
     7
370
    25
100
AcDbLine
 10
60.3667431733
 20
32.2621642517
 30
0.0
 11
60.3667431733
 21
30.0712739954
 31
0.0
  0
LINE
  5
C2
330
1F
100
AcDbEntity
  8
0
  6
Continuous
 62
     7
370
    25
100
AcDbLine
 10
60.3667431733
 20
30.0712739954
 30
0.0
 11
60.3667431733
 21
27.8803837391
 31
0.0
  0
LINE
  5
C3
330
1F
100
AcDbEntity
  8
0
  6
Continuous
 62
     7
370
    25
100
AcDbLine
 10
60.3667431733
 20
25.2712737674
 30
0.0
 11
60.3667431733
 21
27.8803837391
 31
0.0
  0
LINE
  5
C4
330
1F
100
AcDbEntity
  8
0
  6
Continuous
 62
     7
370
    25
100
AcDbLine
 10
47.7667431569
 20
25.2712737674
 30
0.0
 11
60.3667431733
 21
25.2712737674
 31
0.0
  0
LINE
  5
C5
330
1F
100
AcDbEntity
  8
0
  6
Continuous
 62
     7
370
    25
100
AcDbLine
 10
47.7667431569
 20
27.8803837391
 30
0.0
 11
47.7667431569
 21
25.2712737674
 31
0.0
  0
LINE
  5
C6
330
1F
100
AcDbEntity
  8
0
  6
Continuous
 62
     7
370
    25
100
AcDbLine
 10
47.7667431569
 20
27.8803837391
 30
0.0
 11
47.7667431569
 21
30.0712739954
 31
0.0
  0
LINE
  5
C7
330
1F
100
AcDbEntity
  8
0
  6
Continuous
 62
     7
370
    25
100
AcDbLine
 10
47.7667431569
 20
30.0712739954
 30
0.0
 11
47.7667431569
 21
32.2621642517
 31
0.0
  0
LINE
  5
C8
330
1F
100
AcDbEntity
  8
0
  6
Continuous
 62
     7
370
    25
100
AcDbLine
 10
47.7667431569
 20
34.8712742234
 30
0.0
 11
47.7667431569
 21
32.2621642517
 31
0.0
  0
LINE
  5
C9
330
1F
100
AcDbEntity
  8
0
  6
Continuous
 62
     7
370
    25
100
AcDbLine
 10
48.066743113
 20
34.8712742234
 30
0.0
 11
47.7667431569
 21
34.8712742234
 31
0.0
  0
ARC
  5
CA
330
1F
100
AcDbEntity
  8
0
  6
Continuous
 62
     7
370
    25
100
AcDbCircle
 10
48.0667431651
 20
36.0712739954
 30
0.0
 40
1.200000000000003
100
AcDbArc
 50
270.0
 51
0.0
  0
LINE
  5
CB
330
1F
100
AcDbEntity
  8
0
  6
Continuous
 62
     7
370
    25
100
AcDbLine
 10
49.2667429371
 20
36.3712740036
 30
0.0
 11
49.2667429371
 21
36.0712740476
 31
0.0
  0
LINE
  5
CC
330
1F
100
AcDbEntity
  8
0
  6
Continuous
 62
     7
370
    25
100
AcDbLine
 10
51.8758529088
 20
36.3712740036
 30
0.0
 11
49.2667429371
 21
36.3712740036
 31
0.0
  0
LINE
  5
CD
330
1F
100
AcDbEntity
  8
0
  6
Continuous
 62
     7
370
    25
100
AcDbLine
 10
51.8758529088
 20
36.3712740036
 30
0.0
 11
54.0667431651
 21
36.3712740036
 31
0.0
  0
LINE
  5
CE
330
1F
100
AcDbEntity
  8
0
  6
Continuous
 62
     7
370
    25
100
AcDbLine
 10
54.0667431651
 20
36.3712740036
 30
0.0
 11
56.2576334214
 21
36.3712740036
 31
0.0
  0
LINE
  5
CF
330
1F
100
AcDbEntity
  8
0
  6
Continuous
 62
     7
370
    25
100
AcDbLine
 10
58.8667433931
 20
36.0712740476
 30
0.0
 11
58.8667433931
 21
36.3712740036
 31
0.0
  0
ARC
  5
D0
330
1F
100
AcDbEntity
  8
0
  6
Continuous
 62
     7
370
    25
100
AcDbCircle
 10
60.0667431651
 20
36.0712739954
 30
0.0
 40
1.200000000000003
100
AcDbArc
 50
180.0
 51
270.0
  0
LINE
  5
D1
330
1F
100
AcDbEntity
  8
0
  6
Continuous
 62
     7
370
    25
100
AcDbLine
 10
60.3667431733
 20
34.8712742234
 30
0.0
 11
60.0667432173
 21
34.8712742234
 31
0.0
  0
LINE
  5
D2
330
1F
100
AcDbEntity
  8
0
  6
Continuous
 62
     7
370
    25
100
AcDbLine
 10
55.2738405986
 20
27.7737894467
 30
0.0
 11
56.3696764166
 21
30.837698283
 31
0.0
  0
SPLINE
  5
D3
330
1F
100
AcDbEntity
  8
0
  6
Continuous
 62
     7
370
    25
100
AcDbSpline
210
0.0
220
0.0
230
1.0
 70
     8
 71
     3
 72
    10
 73
     6
 74
     0
 42
0.000000001
 43
0.00000001
 40
0.0
 40
0.0
 40
0.0
 40
0.0
 40
0.5000000000000002
 40
0.5000000000000002
 40
1.0
 40
1.0
 40
1.0
 40
1.0
 10
54.70759065016822
 20
27.57696877004189
 30
0.0
 10
54.80755094283502
 20
27.52195951071402
 30
0.0
 10
54.92903926113116
 20
27.512039299137
 30
0.0
 10
55.14356131478473
 20
27.5835601840605
 30
0.0
 10
55.2353625077893
 20
27.66620628894872
 30
0.0
 10
55.27384063356931
 20
27.77378943326251
 30
0.0
  0
LINE
  5
D4
330
1F
100
AcDbEntity
  8
0
  6
Continuous
 62
     7
370
    25
100
AcDbLine
 10
54.0805850924
 20
27.922016885
 30
0.0
 11
54.7075906525
 21
27.576968856
 31
0.0
  0
LINE
  5
D5
330
1F
100
AcDbEntity
  8
0
  6
Continuous
 62
     7
370
    25
100
AcDbLine
 10
55.0798343484
 20
26.0171146038
 30
0.0
 11
54.0805850924
 21
27.922016885
 31
0.0
  0
SPLINE
  5
D6
330
1F
100
AcDbEntity
  8
0
  6
Continuous
 62
     7
370
    25
100
AcDbSpline
210
0.0
220
0.0
230
1.0
 70
     8
 71
     3
 72
    10
 73
     6
 74
     0
 42
0.000000001
 43
0.00000001
 40
0.0
 40
0.0
 40
0.0
 40
0.0
 40
0.5
 40
0.5
 40
1.0
 40
1.0
 40
1.0
 40
1.0
 10
55.50560092186686
 20
25.94049378243487
 30
0.0
 10
55.44300109614002
 20
25.88493013263489
 30
0.0
 10
55.35561619798555
 20
25.86108336302722
 30
0.0
 10
55.19285860605152
 20
25.89001361570748
 30
0.0
 10
55.11872046091463
 20
25.94298456348442
 30
0.0
 10
55.07983429770579
 20
26.01711456279301
 30
0.0
  0
SPLINE
  5
D7
330
1F
100
AcDbEntity
  8
0
  6
Continuous
 62
     7
370
    25
100
AcDbSpline
210
0.0
220
0.0
230
1.0
 70
     8
 71
     3
 72
    16
 73
    12
 74
     0
 42
0.000000001
 43
0.00000001
 40
0.0
 40
0.0
 40
0.0
 40
0.0
 40
0.5000000000000006
 40
0.5000000000000006
 40
0.6250000000000004
 40
0.6250000000000004
 40
0.7500000000000003
 40
0.7500000000000003
 40
0.8750000000000003
 40
0.8750000000000003
 40
1.0
 40
1.0
 40
1.0
 40
1.0
 10
58.62788540839399
 20
25.94049378243484
 30
0.0
 10
58.19914450023249
 20
26.32104451719188
 30
0.0
 10
57.63478307576346
 20
26.52537795456323
 30
0.0
 10
56.92495411656951
 20
26.52543006072867
 30
0.0
 10
56.78141490634376
 20
26.51265039222824
 30
0.0
 10
56.50277735534667
 20
26.46263729636314
 30
0.0
 10
56.3662701070492
 20
26.42550233612917
 30
0.0
 10
56.099083060162
 20
26.326093867226
 30
0.0
 10
55.96987004304203
 20
26.26411115513701
 30
0.0
 10
55.7272890074272
 20
26.11907435656382
 30
0.0
 10
55.61279692152913
 20
26.03564102791093
 30
0.0
 10
55.50560092186686
 20
25.94049378243487
 30
0.0
  0
SPLINE
  5
D8
330
1F
100
AcDbEntity
  8
0
  6
Continuous
 62
     7
370
    25
100
AcDbSpline
210
0.0
220
0.0
230
1.0
 70
     8
 71
     3
 72
    10
 73
     6
 74
     0
 42
0.000000001
 43
0.00000001
 40
0.0
 40
0.0
 40
0.0
 40
0.0
 40
0.5
 40
0.5
 40
1.0
 40
1.0
 40
1.0
 40
1.0
 10
59.05365203255526
 20
26.01711456279322
 30
0.0
 10
59.01476974535604
 20
25.94299195245177
 30
0.0
 10
58.94105562925917
 20
25.8902077937599
 30
0.0
 10
58.77820659211856
 20
25.86102560430048
 30
0.0
 10
58.69047495508905
 20
25.88493925631071
 30
0.0
 10
58.62788540839399
 20
25.94049378243484
 30
0.0
  0
LINE
  5
D9
330
1F
100
AcDbEntity
  8
0
  6
Continuous
 62
     7
370
    25
100
AcDbLine
 10
60.062149003
 20
27.9396461228
 30
0.0
 11
59.0536519176
 21
26.0171146038
 31
0.0
  0
LINE
  5
DA
330
1F
100
AcDbEntity
  8
0
  6
Continuous
 62
     7
370
    25
100
AcDbLine
 10
59.4317008963
 20
27.5793698056
 30
0.0
 11
60.062149003
 21
27.9396461228
 31
0.0
  0
SPLINE
  5
DB
330
1F
100
AcDbEntity
  8
0
  6
Continuous
 62
     7
370
    25
100
AcDbSpline
210
0.0
220
0.0
230
1.0
 70
     8
 71
     3
 72
    10
 73
     6
 74
     0
 42
0.000000001
 43
0.00000001
 40
0.0
 40
0.0
 40
0.0
 40
0.0
 40
0.5
 40
0.5
 40
1.0
 40
1.0
 40
1.0
 40
1.0
 10
58.85990025432116
 20
27.77307770134378
 30
0.0
 10
58.89881032003044
 20
27.66428687201968
 30
0.0
 10
58.99238131843611
 20
27.58120161968622
 30
0.0
 10
59.208493800145
 20
27.5110017582608
 30
0.0
 10
59.33154815992915
 20
27.52213671512964
 30
0.0
 10
59.43170067288082
 20
27.57936990332784
 30
0.0
  0
LINE
  5
DC
330
1F
100
AcDbEntity
  8
0
  6
Continuous
 62
     7
370
    25
100
AcDbLine
 10
57.763809733
 20
30.837698283
 30
0.0
 11
58.8599000348
 21
27.7730776834
 31
0.0
  0
SPLINE
  5
DD
330
1F
100
AcDbEntity
  8
0
  6
Continuous
 62
     7
370
    25
100
AcDbSpline
210
0.0
220
0.0
230
1.0
 70
     8
 71
     3
 72
    18
 73
    14
 74
     0
 42
0.000000001
 43
0.00000001
 40
0.0
 40
0.0
 40
0.0
 40
0.0
 40
0.1250000000000005
 40
0.1250000000000005
 40
0.2500000000000009
 40
0.2500000000000009
 40
0.5000000000000011
 40
0.5000000000000011
 40
0.6250000000000009
 40
0.6250000000000009
 40
0.7500000000000006
 40
0.7500000000000006
 40
1.0
 40
1.0
 40
1.0
 40
1.0
 10
56.3696765199336
 20
30.83769828839536
 30
0.0
 10
56.40158680084094
 20
30.90301736230691
 30
0.0
 10
56.4414902917829
 20
30.96444218279466
 30
0.0
 10
56.53816152820839
 20
31.0715011984539
 30
0.0
 10
56.59335505176051
 20
31.11734493917623
 30
0.0
 10
56.77926696810761
 20
31.23173852663576
 30
0.0
 10
56.92251150868221
 20
31.27115493724519
 30
0.0
 10
57.1378747355025
 20
31.27133311736296
 30
0.0
 10
57.21094602031972
 20
31.26142475227588
 30
0.0
 10
57.35041774652259
 20
31.22223834447265
 30
0.0
 10
57.41620878378017
 20
31.19356937897773
 30
0.0
 10
57.60145569230891
 20
31.07966403170436
 30
0.0
 10
57.69998502974761
 20
30.96834507186176
 30
0.0
 10
57.76380981032719
 20
30.83769828839566
 30
0.0
  0
SPLINE
  5
DE
330
1F
100
AcDbEntity
  8
0
  6
Continuous
 62
     7
370
    25
100
AcDbSpline
210
0.0
220
0.0
230
1.0
 70
     8
 71
     3
 72
    14
 73
    10
 74
     0
 42
0.000000001
 43
0.00000001
 40
0.0
 40
0.0
 40
0.0
 40
0.0
 40
0.0484828720475278
 40
0.1220284832782636
 40
0.2276256188317521
 40
0.3675218964939739
 40
0.5426290638215259
 40
0.7533807556067993
 40
1.0
 40
1.0
 40
1.0
 40
1.0
 10
47.56674316513043
 20
32.26216422545192
 30
0.0
 10
47.56675020271528
 20
32.26007386526962
 30
0.0
 10
47.5667679158946
 20
32.25481255396982
 30
0.0
 10
47.56737713310594
 20
32.25149662912484
 30
0.0
 10
47.56944576374061
 20
32.24865604284372
 30
0.0
 10
47.57437995588749
 20
32.24747885060506
 30
0.0
 10
47.58405849257181
 20
32.24751488841525
 30
0.0
 10
47.60019730651252
 20
32.24893202709048
 30
0.0
 10
47.61652028585607
 20
32.25078364489759
 30
0.0
 10
47.62532180889465
 20
32.25178205679562
 30
0.0
  0
LINE
  5
DF
330
1F
100
AcDbEntity
  8
0
  6
Continuous
 62
     7
370
    25
100
AcDbLine
 10
47.566743031
 20
32.2621642517
 30
0.0
 11
47.566743031
 21
34.8712742234
 31
0.0
  0
LINE
  5
E0
330
1F
100
AcDbEntity
  8
0
  6
Continuous
 62
     7
370
    25
100
AcDbLine
 10
47.566743031
 20
34.8712742234
 30
0.0
 11
47.7667431569
 21
34.8712742234
 31
0.0
  0
SPLINE
  5
E1
330
1F
100
AcDbEntity
  8
0
  6
Continuous
 62
     7
370
    25
100
AcDbSpline
210
0.0
220
0.0
230
1.0
 70
     8
 71
     3
 72
     8
 73
     4
 74
     0
 42
0.000000001
 43
0.00000001
 40
0.0
 40
0.0
 40
0.0
 40
0.0
 40
1.0
 40
1.0
 40
1.0
 40
1.0
 10
47.62532180889465
 20
32.25178205679562
 30
0.0
 10
47.66234583337919
 20
32.25524277968105
 30
0.0
 10
47.71438328757132
 20
32.25870350256648
 30
0.0
 10
47.76674316513043
 20
32.26216422545192
 30
0.0
  0
SPLINE
  5
E2
330
1F
100
AcDbEntity
  8
0
  6
Continuous
 62
     7
370
    25
100
AcDbSpline
210
0.0
220
0.0
230
1.0
 70
     8
 71
     3
 72
     8
 73
     4
 74
     0
 42
0.000000001
 43
0.00000001
 40
0.0
 40
0.0
 40
0.0
 40
0.0
 40
1.0
 40
1.0
 40
1.0
 40
1.0
 10
60.36674316513043
 20
32.26216422545192
 30
0.0
 10
60.41910304268954
 20
32.25870350256648
 30
0.0
 10
60.47114049688167
 20
32.25524277968105
 30
0.0
 10
60.50816452136621
 20
32.25178205679562
 30
0.0
  0
LINE
  5
E3
330
1F
100
AcDbEntity
  8
0
  6
Continuous
 62
     7
370
    25
100
AcDbLine
 10
60.3667431733
 20
34.8712742234
 30
0.0
 11
60.5667432992
 21
34.8712742234
 31
0.0
  0
LINE
  5
E4
330
1F
100
AcDbEntity
  8
0
  6
Continuous
 62
     7
370
    25
100
AcDbLine
 10
60.5667432992
 20
34.8712742234
 30
0.0
 11
60.5667432992
 21
32.2621642517
 31
0.0
  0
SPLINE
  5
E5
330
1F
100
AcDbEntity
  8
0
  6
Continuous
 62
     7
370
    25
100
AcDbSpline
210
0.0
220
0.0
230
1.0
 70
     8
 71
     3
 72
    13
 73
     9
 74
     0
 42
0.000000001
 43
0.00000001
 40
0.0
 40
0.0
 40
0.0
 40
0.0
 40
0.2842878077881049
 40
0.519827892959309
 40
0.7070197221587997
 40
0.8467888349864454
 40
0.9415879344586823
 40
0.9999999999999999
 40
0.9999999999999999
 40
0.9999999999999999
 40
0.9999999999999999
 10
60.50816452136621
 20
32.25178205679562
 30
0.0
 10
60.51821743752534
 20
32.25063602909215
 30
0.0
 10
60.53659946475946
 20
32.24854048665227
 30
0.0
 10
60.55326001955397
 20
32.24733402766856
 30
0.0
 10
60.56204557822873
 20
32.24766025307972
 30
0.0
 10
60.56564537438437
 20
32.2503951391678
 30
0.0
 10
60.56669745013571
 20
32.25344026355734
 30
0.0
 10
60.56673054691616
 20
32.25975624485059
 30
0.0
 10
60.56674316513043
 20
32.26216422545192
 30
0.0
  0
LINE
  5
E6
330
1F
100
AcDbEntity
  8
0
  6
Continuous
 62
     7
370
    25
100
AcDbLine
 10
47.566743031
 20
25.2712737674
 30
0.0
 11
47.566743031
 21
27.8803837391
 31
0.0
  0
SPLINE
  5
E7
330
1F
100
AcDbEntity
  8
0
  6
Continuous
 62
     7
370
    25
100
AcDbSpline
210
0.0
220
0.0
230
1.0
 70
     8
 71
     3
 72
    12
 73
     8
 74
     0
 42
0.000000001
 43
0.00000001
 40
0.0
 40
0.0
 40
0.0
 40
0.0
 40
0.25
 40
0.25
 40
0.5
 40
0.5
 40
1.0
 40
1.0
 40
1.0
 40
1.0
 10
47.62532180889465
 20
27.89076593406689
 30
0.0
 10
47.61387946738827
 20
27.89208526933431
 30
0.0
 10
47.6044971313998
 20
27.89358953688697
 30
0.0
 10
47.58922275762912
 20
27.89587134463912
 30
0.0
 10
47.58333071984688
 20
27.8966488848386
 30
0.0
 10
47.5699454845651
 20
27.89624652652183
 30
0.0
 10
47.56674316513043
 20
27.89233164909033
 30
0.0
 10
47.56674316513043
 20
27.88038376541059
 30
0.0
  0
SPLINE
  5
E8
330
1F
100
AcDbEntity
  8
0
  6
Continuous
 62
     7
370
    25
100
AcDbSpline
210
0.0
220
0.0
230
1.0
 70
     8
 71
     3
 72
    10
 73
     6
 74
     0
 42
0.000000001
 43
0.00000001
 40
0.0
 40
0.0
 40
0.0
 40
0.0
 40
0.5
 40
0.5
 40
1.0
 40
1.0
 40
1.0
 40
1.0
 10
47.62532180889465
 20
27.89076593406689
 30
0.0
 10
47.64820649190743
 20
27.88812726353205
 30
0.0
 10
47.6746519268853
 20
27.88553172136798
 30
0.0
 10
47.72501035941574
 20
27.88165997230724
 30
0.0
 10
47.74892335696829
 20
27.88038376541059
 30
0.0
 10
47.76674316513043
 20
27.88038376541059
 30
0.0
  0
LINE
  5
E9
330
1F
100
AcDbEntity
  8
0
  6
Continuous
 62
     7
370
    25
100
AcDbLine
 10
47.566743031
 20
25.2712737674
 30
0.0
 11
47.7667431569
 21
25.2712737674
 31
0.0
  0
SPLINE
  5
EA
330
1F
100
AcDbEntity
  8
0
  6
Continuous
 62
     7
370
    25
100
AcDbSpline
210
0.0
220
0.0
230
1.0
 70
     8
 71
     3
 72
    10
 73
     6
 74
     0
 42
0.000000001
 43
0.00000001
 40
0.0
 40
0.0
 40
0.0
 40
0.0
 40
0.5
 40
0.5
 40
1.0
 40
1.0
 40
1.0
 40
1.0
 10
60.50816452136621
 20
27.89076593406689
 30
0.0
 10
60.48527983835343
 20
27.88812726353206
 30
0.0
 10
60.45883440337555
 20
27.88553172136798
 30
0.0
 10
60.40847597084512
 20
27.88165997230725
 30
0.0
 10
60.38456297329257
 20
27.88038376541059
 30
0.0
 10
60.36674316513043
 20
27.88038376541059
 30
0.0
  0
SPLINE
  5
EB
330
1F
100
AcDbEntity
  8
0
  6
Continuous
 62
     7
370
    25
100
AcDbSpline
210
0.0
220
0.0
230
1.0
 70
     8
 71
     3
 72
    12
 73
     8
 74
     0
 42
0.000000001
 43
0.00000001
 40
0.0
 40
0.0
 40
0.0
 40
0.0
 40
0.25
 40
0.25
 40
0.5
 40
0.5
 40
1.0
 40
1.0
 40
1.0
 40
1.0
 10
60.50816452136621
 20
27.89076593406689
 30
0.0
 10
60.5196068628726
 20
27.89208526933432
 30
0.0
 10
60.52898919886105
 20
27.89358953688697
 30
0.0
 10
60.54426357263175
 20
27.89587134463912
 30
0.0
 10
60.55015561041398
 20
27.8966488848386
 30
0.0
 10
60.56354084569576
 20
27.89624652652183
 30
0.0
 10
60.56674316513043
 20
27.89233164909034
 30
0.0
 10
60.56674316513043
 20
27.8803837654106
 30
0.0
  0
LINE
  5
EC
330
1F
100
AcDbEntity
  8
0
  6
Continuous
 62
     7
370
    25
100
AcDbLine
 10
60.5667432992
 20
27.8803837391
 30
0.0
 11
60.5667432992
 21
25.2712737674
 31
0.0
  0
LINE
  5
ED
330
1F
100
AcDbEntity
  8
0
  6
Continuous
 62
     7
370
    25
100
AcDbLine
 10
60.3667431733
 20
25.2712737674
 30
0.0
 11
60.5667432992
 21
25.2712737674
 31
0.0
  0
LINE
  5
EE
330
1F
100
AcDbEntity
  8
0
  6
Continuous
 62
     7
370
    25
100
AcDbLine
 10
49.2667429371
 20
36.5712741295
 30
0.0
 11
51.8758529088
 21
36.5712741295
 31
0.0
  0
SPLINE
  5
EF
330
1F
100
AcDbEntity
  8
0
  6
Continuous
 62
     7
370
    25
100
AcDbSpline
210
0.0
220
0.0
230
1.0
 70
     8
 71
     3
 72
    12
 73
     8
 74
     0
 42
0.000000001
 43
0.00000001
 40
0.0
 40
0.0
 40
0.0
 40
0.0
 40
0.25
 40
0.25
 40
0.5
 40
0.5
 40
1.0
 40
1.0
 40
1.0
 40
1.0
 10
51.88623510376607
 20
36.51269535166703
 30
0.0
 10
51.88755443903349
 20
36.52413769317342
 30
0.0
 10
51.88905870658616
 20
36.53352002916188
 30
0.0
 10
51.8913405143383
 20
36.54879440293257
 30
0.0
 10
51.89211805453778
 20
36.5546864407148
 30
0.0
 10
51.89171569622101
 20
36.56807167599658
 30
0.0
 10
51.88780081878951
 20
36.57127399543126
 30
0.0
 10
51.87585293510977
 20
36.57127399543126
 30
0.0
  0
SPLINE
  5
F0
330
1F
100
AcDbEntity
  8
0
  6
Continuous
 62
     7
370
    25
100
AcDbSpline
210
0.0
220
0.0
230
1.0
 70
     8
 71
     3
 72
    10
 73
     6
 74
     0
 42
0.000000001
 43
0.00000001
 40
0.0
 40
0.0
 40
0.0
 40
0.0
 40
0.5
 40
0.5
 40
1.0
 40
1.0
 40
1.0
 40
1.0
 10
51.88623510376607
 20
36.51269535166703
 30
0.0
 10
51.88359643323123
 20
36.48981066865426
 30
0.0
 10
51.88100089106715
 20
36.46336523367638
 30
0.0
 10
51.87712914200642
 20
36.41300680114595
 30
0.0
 10
51.87585293510977
 20
36.38909380359339
 30
0.0
 10
51.87585293510977
 20
36.37127399543125
 30
0.0
  0
LINE
  5
F1
330
1F
100
AcDbEntity
  8
0
  6
Continuous
 62
     7
370
    25
100
AcDbLine
 10
49.2667429371
 20
36.5712741295
 30
0.0
 11
49.2667429371
 21
36.3712740036
 31
0.0
  0
SPLINE
  5
F2
330
1F
100
AcDbEntity
  8
0
  6
Continuous
 62
     7
370
    25
100
AcDbSpline
210
0.0
220
0.0
230
1.0
 70
    24
 71
     3
 72
    10
 73
     6
 74
     0
 42
0.000000001
 43
0.00000001
 40
0.0
 40
0.0
 40
0.0
 40
0.0
 40
0.5
 40
0.5
 40
1.0
 40
1.0
 40
1.0
 40
1.0
 10
47.56545937282706
 20
30.07127399543126
 30
0.0
 10
47.59820720049662
 20
30.07127399543126
 30
0.0
 10
47.63334337503125
 20
30.07127399543126
 30
0.0
 10
47.70608232603853
 20
30.07127399543126
 30
0.0
 10
47.73250584492637
 20
30.07127399543126
 30
0.0
 10
47.76674316513043
 20
30.07127399543126
 30
0.0
  0
SPLINE
  5
F3
330
1F
100
AcDbEntity
  8
0
  6
Continuous
 62
     7
370
    25
100
AcDbSpline
210
0.0
220
0.0
230
1.0
 70
     8
 71
     3
 72
    12
 73
     8
 74
     0
 42
0.000000001
 43
0.00000001
 40
0.0
 40
0.0
 40
0.0
 40
0.0
 40
0.25
 40
0.25
 40
0.5
 40
0.5
 40
1.0
 40
1.0
 40
1.0
 40
1.0
 10
47.56545937282706
 20
30.07127399543126
 30
0.0
 10
47.57364632974444
 20
29.89008819937629
 30
0.0
 10
47.57966496152495
 20
29.70914221428811
 30
0.0
 10
47.59110179876846
 20
29.34608105191808
 30
0.0
 10
47.59652000423146
 20
29.16396587463625
 30
0.0
 10
47.61747831707863
 20
28.61339333330942
 30
0.0
 10
47.62522755389556
 20
28.25429120220032
 30
0.0
 10
47.62532180889465
 20
27.89076593406689
 30
0.0
  0
SPLINE
  5
F4
330
1F
100
AcDbEntity
  8
0
  6
Continuous
 62
     7
370
    25
100
AcDbSpline
210
0.0
220
0.0
230
1.0
 70
     8
 71
     3
 72
    12
 73
     8
 74
     0
 42
0.000000001
 43
0.00000001
 40
0.0
 40
0.0
 40
0.0
 40
0.0
 40
0.25
 40
0.25
 40
0.5
 40
0.5
 40
1.0
 40
1.0
 40
1.0
 40
1.0
 10
60.56802695743379
 20
30.07127399543126
 30
0.0
 10
60.55984000051641
 20
30.25245979148622
 30
0.0
 10
60.5538213687359
 20
30.4334057765744
 30
0.0
 10
60.5423845314924
 20
30.79646693894442
 30
0.0
 10
60.53696632602939
 20
30.97858211622626
 30
0.0
 10
60.51600801318224
 20
31.52915465755309
 30
0.0
 10
60.5082587763653
 20
31.88825678866218
 30
0.0
 10
60.50816452136621
 20
32.25178205679562
 30
0.0
  0
SPLINE
  5
F5
330
1F
100
AcDbEntity
  8
0
  6
Continuous
 62
     7
370
    25
100
AcDbSpline
210
0.0
220
0.0
230
1.0
 70
    24
 71
     3
 72
    10
 73
     6
 74
     0
 42
0.000000001
 43
0.00000001
 40
0.0
 40
0.0
 40
0.0
 40
0.0
 40
0.5
 40
0.5
 40
1.0
 40
1.0
 40
1.0
 40
1.0
 10
60.56802695743379
 20
30.07127399543126
 30
0.0
 10
60.53527912976424
 20
30.07127399543126
 30
0.0
 10
60.50014295522961
 20
30.07127399543126
 30
0.0
 10
60.42740400422233
 20
30.07127399543126
 30
0.0
 10
60.40098048533449
 20
30.07127399543126
 30
0.0
 10
60.36674316513043
 20
30.07127399543126
 30
0.0
  0
SPLINE
  5
F6
330
1F
100
AcDbEntity
  8
0
  6
Continuous
 62
     7
370
    25
100
AcDbSpline
210
0.0
220
0.0
230
1.0
 70
     8
 71
     3
 72
    12
 73
     8
 74
     0
 42
0.000000001
 43
0.00000001
 40
0.0
 40
0.0
 40
0.0
 40
0.0
 40
0.25
 40
0.25
 40
0.5
 40
0.5
 40
1.0
 40
1.0
 40
1.0
 40
1.0
 10
54.06674316513043
 20
36.57255778773462
 30
0.0
 10
54.24792896118539
 20
36.56437083081723
 30
0.0
 10
54.42887494627357
 20
36.55835219903673
 30
0.0
 10
54.7919361086436
 20
36.54691536179322
 30
0.0
 10
54.97405128592544
 20
36.54149715633022
 30
0.0
 10
55.52462382725226
 20
36.52053884348306
 30
0.0
 10
55.88372595836136
 20
36.51278960666613
 30
0.0
 10
56.2472512264948
 20
36.51269535166703
 30
0.0
  0
SPLINE
  5
F7
330
1F
100
AcDbEntity
  8
0
  6
Continuous
 62
     7
370
    25
100
AcDbSpline
210
0.0
220
0.0
230
1.0
 70
    24
 71
     3
 72
    10
 73
     6
 74
     0
 42
0.000000001
 43
0.00000001
 40
0.0
 40
0.0
 40
0.0
 40
0.0
 40
0.5
 40
0.5
 40
1.0
 40
1.0
 40
1.0
 40
1.0
 10
54.06674316513043
 20
36.57255778773462
 30
0.0
 10
54.06674316513043
 20
36.53980996006506
 30
0.0
 10
54.06674316513043
 20
36.50467378553044
 30
0.0
 10
54.06674316513043
 20
36.43193483452315
 30
0.0
 10
54.06674316513043
 20
36.40551131563531
 30
0.0
 10
54.06674316513043
 20
36.37127399543125
 30
0.0
  0
SPLINE
  5
F8
330
1F
100
AcDbEntity
  8
0
  6
Continuous
 62
     7
370
    25
100
AcDbSpline
210
0.0
220
0.0
230
1.0
 70
     8
 71
     3
 72
    12
 73
     8
 74
     0
 42
0.000000001
 43
0.00000001
 40
0.0
 40
0.0
 40
0.0
 40
0.0
 40
0.25
 40
0.25
 40
0.5
 40
0.5
 40
1.0
 40
1.0
 40
1.0
 40
1.0
 10
60.56802695743379
 20
30.07127399543126
 30
0.0
 10
60.5598400005164
 20
29.89008819937629
 30
0.0
 10
60.5538213687359
 20
29.70914221428811
 30
0.0
 10
60.54238453149239
 20
29.34608105191808
 30
0.0
 10
60.53696632602939
 20
29.16396587463625
 30
0.0
 10
60.51600801318223
 20
28.61339333330943
 30
0.0
 10
60.5082587763653
 20
28.25429120220033
 30
0.0
 10
60.50816452136621
 20
27.89076593406689
 30
0.0
  0
SPLINE
  5
F9
330
1F
100
AcDbEntity
  8
0
  6
Continuous
 62
     7
370
    25
100
AcDbSpline
210
0.0
220
0.0
230
1.0
 70
     8
 71
     3
 72
    12
 73
     8
 74
     0
 42
0.000000001
 43
0.00000001
 40
0.0
 40
0.0
 40
0.0
 40
0.0
 40
0.25
 40
0.25
 40
0.5
 40
0.5
 40
1.0
 40
1.0
 40
1.0
 40
1.0
 10
54.06674316513043
 20
36.57255778773462
 30
0.0
 10
53.88555736907546
 20
36.56437083081723
 30
0.0
 10
53.70461138398728
 20
36.55835219903672
 30
0.0
 10
53.34155022161726
 20
36.54691536179321
 30
0.0
 10
53.15943504433542
 20
36.5414971563302
 30
0.0
 10
52.60886250300861
 20
36.52053884348306
 30
0.0
 10
52.24976037189951
 20
36.51278960666613
 30
0.0
 10
51.88623510376607
 20
36.51269535166703
 30
0.0
  0
SPLINE
  5
FA
330
1F
100
AcDbEntity
  8
0
  6
Continuous
 62
     7
370
    25
100
AcDbSpline
210
0.0
220
0.0
230
1.0
 70
     8
 71
     3
 72
    12
 73
     8
 74
     0
 42
0.000000001
 43
0.00000001
 40
0.0
 40
0.0
 40
0.0
 40
0.0
 40
0.25
 40
0.25
 40
0.5
 40
0.5
 40
1.0
 40
1.0
 40
1.0
 40
1.0
 10
47.56545937282706
 20
30.07127399543126
 30
0.0
 10
47.57364632974446
 20
30.25245979148622
 30
0.0
 10
47.57966496152496
 20
30.4334057765744
 30
0.0
 10
47.59110179876847
 20
30.79646693894442
 30
0.0
 10
47.59652000423147
 20
30.97858211622626
 30
0.0
 10
47.61747831707864
 20
31.52915465755307
 30
0.0
 10
47.62522755389556
 20
31.88825678866218
 30
0.0
 10
47.62532180889465
 20
32.25178205679562
 30
0.0
  0
LINE
  5
FB
330
1F
100
AcDbEntity
  8
0
  6
Continuous
 62
     7
370
    25
100
AcDbLine
 10
58.671582885
 20
27.705724202
 30
0.0
 11
57.5792325417
 21
30.7598873878
 31
0.0
  0
SPLINE
  5
FC
330
1F
100
AcDbEntity
  8
0
  6
Continuous
 62
     7
370
    25
100
AcDbSpline
210
0.0
220
0.0
230
1.0
 70
    24
 71
     3
 72
    10
 73
     6
 74
     0
 42
0.000000001
 43
0.00000001
 40
0.0
 40
0.0
 40
0.0
 40
0.0
 40
0.5
 40
0.5
 40
1.0
 40
1.0
 40
1.0
 40
1.0
 10
57.57923243468951
 20
30.75988737816416
 30
0.0
 10
57.5792324346895
 20
30.75988737816417
 30
0.0
 10
57.59926427379386
 20
30.76833205145603
 30
0.0
 10
57.66735300765097
 20
30.79703571212749
 30
0.0
 10
57.71577424539309
 20
30.81744829287255
 30
0.0
 10
57.7638098103272
 20
30.83769828839566
 30
0.0
  0
LWPOLYLINE
  5
FD
330
1F
100
AcDbEntity
  8
0
  6
Continuous
 62
     7
370
    25
100
AcDbPolyline
 90
        9
 70
   128
 43
0.0
 10
58.671582885
 20
27.705724202
 10
58.6752010732
 20
27.7070182747
 10
58.6859173364
 20
27.7108511327
 10
58.70332003
 20
27.7170751615
 10
58.7267395331
 20
27.7254514767
 10
58.7552766538
 20
27.7356580737
 10
58.787834294
 20
27.7473026326
 10
58.8231612219
 20
27.7599376532
 10
58.8599000348
 20
27.7730776834
  0
SPLINE
  5
FE
330
1F
100
AcDbEntity
  8
0
  6
Continuous
 62
     7
370
    25
100
AcDbSpline
210
0.0
220
0.0
230
1.0
 70
     8
 71
     3
 72
    14
 73
    10
 74
     0
 42
0.000000001
 43
0.00000001
 40
0.0
 40
0.0
 40
0.0
 40
0.0
 40
0.25
 40
0.25
 40
0.5
 40
0.5
 40
0.75
 40
0.75
 40
1.0
 40
1.0
 40
1.0
 40
1.0
 10
57.57923243468951
 20
30.75988737816416
 30
0.0
 10
57.53647381204213
 20
30.84741257548709
 30
0.0
 10
57.46330069296444
 20
30.93049581664057
 30
0.0
 10
57.27794319327108
 20
31.04311835967302
 30
0.0
 10
57.16803609112603
 20
31.07127399543119
 30
0.0
 10
56.9654502391345
 20
31.07127399543131
 30
0.0
 10
56.85554313698952
 20
31.04311835967322
 30
0.0
 10
56.67018563729617
 20
30.93049581664069
 30
0.0
 10
56.59701251821854
 20
30.84741257548707
 30
0.0
 10
56.55425389557134
 20
30.75988737816403
 30
0.0
  0
SPLINE
  5
FF
330
1F
100
AcDbEntity
  8
0
  6
Continuous
 62
     7
370
    25
100
AcDbSpline
210
0.0
220
0.0
230
1.0
 70
    24
 71
     3
 72
    10
 73
     6
 74
     0
 42
0.000000001
 43
0.00000001
 40
0.0
 40
0.0
 40
0.0
 40
0.0
 40
0.5
 40
0.5
 40
1.0
 40
1.0
 40
1.0
 40
1.0
 10
56.55425389557134
 20
30.75988737816403
 30
0.0
 10
56.55425389557134
 20
30.75988737816404
 30
0.0
 10
56.53422205646697
 20
30.76833205145588
 30
0.0
 10
56.46613332260986
 20
30.79703571212728
 30
0.0
 10
56.41771208486774
 20
30.81744829287232
 30
0.0
 10
56.36967651993361
 20
30.83769828839535
 30
0.0
  0
LINE
  5
100
330
1F
100
AcDbEntity
  8
0
  6
Continuous
 62
     7
370
    25
100
AcDbLine
 10
56.5542538407
 20
30.7598873878
 30
0.0
 11
55.4621582142
 21
27.7064359652
 31
0.0
  0
LWPOLYLINE
  5
101
330
1F
100
AcDbEntity
  8
0
  6
Continuous
 62
     7
370
    25
100
AcDbPolyline
 90
        9
 70
   128
 43
0.0
 10
55.2738405986
 20
27.7737894467
 10
55.310579528
 20
27.7606494165
 10
55.3459066887
 20
27.7480143959
 10
55.3784642125
 20
27.7363698369
 10
55.4070012168
 20
27.72616324
 10
55.4304209527
 20
27.7177869248
 10
55.4478234135
 20
27.711562896
 10
55.4585396767
 20
27.707730038
 10
55.4621582142
 20
27.7064359652
  0
SPLINE
  5
102
330
1F
100
AcDbEntity
  8
0
  6
Continuous
 62
     7
370
    25
100
AcDbSpline
210
0.0
220
0.0
230
1.0
 70
    24
 71
     3
 72
    10
 73
     6
 74
     0
 42
0.000000001
 43
0.00000001
 40
0.0
 40
0.0
 40
0.0
 40
0.0
 40
0.5
 40
0.5
 40
1.0
 40
1.0
 40
1.0
 40
1.0
 10
60.56802695743379
 20
30.07127399543126
 30
0.0
 10
60.60077478510335
 20
30.07127399543126
 30
0.0
 10
60.63553181262212
 20
30.07127399543126
 30
0.0
 10
60.70680797052007
 20
30.07127399543126
 30
0.0
 10
60.73281028318098
 20
30.07127399543126
 30
0.0
 10
60.76674316513043
 20
30.07127399543126
 30
0.0
  0
SPLINE
  5
103
330
1F
100
AcDbEntity
  8
0
  6
Continuous
 62
     7
370
    25
100
AcDbSpline
210
0.0
220
0.0
230
1.0
 70
     8
 71
     3
 72
    10
 73
     6
 74
     0
 42
0.000000001
 43
0.00000001
 40
0.0
 40
0.0
 40
0.0
 40
0.0
 40
0.5
 40
0.5
 40
1.0
 40
1.0
 40
1.0
 40
1.0
 10
60.62531756134771
 20
27.93985050855125
 30
0.0
 10
60.64820169284408
 20
27.94548805799028
 30
0.0
 10
60.67573283805916
 20
27.94848307611807
 30
0.0
 10
60.72617358533842
 20
27.95118411808135
 30
0.0
 10
60.74892206152295
 20
27.95105764379836
 30
0.0
 10
60.76674316513043
 20
27.95105764379836
 30
0.0
  0
SPLINE
  5
104
330
1F
100
AcDbEntity
  8
0
  6
Continuous
 62
     7
370
    25
100
AcDbSpline
210
0.0
220
0.0
230
1.0
 70
     8
 71
     3
 72
    14
 73
    10
 74
     0
 42
0.000000001
 43
0.00000001
 40
0.0
 40
0.0
 40
0.0
 40
0.0
 40
0.25
 40
0.25
 40
0.5
 40
0.5
 40
0.75
 40
0.75
 40
1.0
 40
1.0
 40
1.0
 40
1.0
 10
60.56802695743379
 20
30.07127399543126
 30
0.0
 10
60.57621391435118
 20
29.89008819937629
 30
0.0
 10
60.58796593414742
 20
29.71007353079201
 30
0.0
 10
60.61345190124649
 20
29.35238254886026
 30
0.0
 10
60.62718584854935
 20
29.1747062355128
 30
0.0
 10
60.65148747241053
 20
28.82168806435021
 30
0.0
 10
60.65619556013608
 20
28.64435661913373
 30
0.0
 10
60.65132346711329
 20
28.29069305636284
 30
0.0
 10
60.64174328636494
 20
28.11436093880842
 30
0.0
 10
60.62531756134771
 20
27.93985050855125
 30
0.0
  0
SPLINE
  5
105
330
1F
100
AcDbEntity
  8
0
  6
Continuous
 62
     7
370
    25
100
AcDbSpline
210
0.0
220
0.0
230
1.0
 70
     8
 71
     3
 72
    12
 73
     8
 74
     0
 42
0.000000001
 43
0.00000001
 40
0.0
 40
0.0
 40
0.0
 40
0.0
 40
0.25
 40
0.25
 40
0.5
 40
0.5
 40
1.0
 40
1.0
 40
1.0
 40
1.0
 10
47.56545937282706
 20
30.07127399543126
 30
0.0
 10
47.55727241590967
 20
29.89008819937629
 30
0.0
 10
47.54552039611342
 20
29.710073530792
 30
0.0
 10
47.52003442901435
 20
29.35238254886026
 30
0.0
 10
47.50630048171151
 20
29.1747062355128
 30
0.0
 10
47.46984804591973
 20
28.64517897876891
 30
0.0
 10
47.47531731887869
 20
28.28887136906559
 30
0.0
 10
47.50816876891315
 20
27.93985050855125
 30
0.0
  0
SPLINE
  5
106
330
1F
100
AcDbEntity
  8
0
  6
Continuous
 62
     7
370
    25
100
AcDbSpline
210
0.0
220
0.0
230
1.0
 70
     8
 71
     3
 72
    10
 73
     6
 74
     0
 42
0.000000001
 43
0.00000001
 40
0.0
 40
0.0
 40
0.0
 40
0.0
 40
0.5
 40
0.5
 40
1.0
 40
1.0
 40
1.0
 40
1.0
 10
47.50816876891315
 20
27.93985050855125
 30
0.0
 10
47.48528463741678
 20
27.94548805799028
 30
0.0
 10
47.4577534922017
 20
27.94848307611806
 30
0.0
 10
47.40731274492243
 20
27.95118411808134
 30
0.0
 10
47.38456426873791
 20
27.95105764379836
 30
0.0
 10
47.36674316513043
 20
27.95105764379836
 30
0.0
  0
SPLINE
  5
107
330
1F
100
AcDbEntity
  8
0
  6
Continuous
 62
     7
370
    25
100
AcDbSpline
210
0.0
220
0.0
230
1.0
 70
    24
 71
     3
 72
    10
 73
     6
 74
     0
 42
0.000000001
 43
0.00000001
 40
0.0
 40
0.0
 40
0.0
 40
0.0
 40
0.5
 40
0.5
 40
1.0
 40
1.0
 40
1.0
 40
1.0
 10
47.56545937282706
 20
30.07127399543126
 30
0.0
 10
47.53271154515751
 20
30.07127399543126
 30
0.0
 10
47.49795451763874
 20
30.07127399543126
 30
0.0
 10
47.42667835974078
 20
30.07127399543126
 30
0.0
 10
47.40067604707988
 20
30.07127399543126
 30
0.0
 10
47.36674316513043
 20
30.07127399543126
 30
0.0
  0
SPLINE
  5
108
330
1F
100
AcDbEntity
  8
0
  6
Continuous
 62
     7
370
    25
100
AcDbSpline
210
0.0
220
0.0
230
1.0
 70
     8
 71
     3
 72
    10
 73
     6
 74
     0
 42
0.000000001
 43
0.00000001
 40
0.0
 40
0.0
 40
0.0
 40
0.0
 40
0.5
 40
0.5
 40
1.0
 40
1.0
 40
1.0
 40
1.0
 10
47.50816876891315
 20
32.20269748231127
 30
0.0
 10
47.48528463741678
 20
32.19705993287223
 30
0.0
 10
47.4577534922017
 20
32.19406491474444
 30
0.0
 10
47.40731274492243
 20
32.19136387278116
 30
0.0
 10
47.38456426873791
 20
32.19149034706415
 30
0.0
 10
47.36674316513043
 20
32.19149034706415
 30
0.0
  0
SPLINE
  5
109
330
1F
100
AcDbEntity
  8
0
  6
Continuous
 62
     7
370
    25
100
AcDbSpline
210
0.0
220
0.0
230
1.0
 70
     8
 71
     3
 72
    14
 73
    10
 74
     0
 42
0.000000001
 43
0.00000001
 40
0.0
 40
0.0
 40
0.0
 40
0.0
 40
0.25
 40
0.25
 40
0.5
 40
0.5
 40
0.75
 40
0.75
 40
1.0
 40
1.0
 40
1.0
 40
1.0
 10
47.56545937282706
 20
30.07127399543126
 30
0.0
 10
47.55727241590968
 20
30.25245979148622
 30
0.0
 10
47.54552039611344
 20
30.43247446007051
 30
0.0
 10
47.52003442901437
 20
30.79016544200225
 30
0.0
 10
47.50630048171153
 20
30.9678417553497
 30
0.0
 10
47.48199885785033
 20
31.3208599265123
 30
0.0
 10
47.47729077012477
 20
31.49819137172878
 30
0.0
 10
47.48216286314757
 20
31.85185493449967
 30
0.0
 10
47.49174304389592
 20
32.02818705205409
 30
0.0
 10
47.50816876891315
 20
32.20269748231127
 30
0.0
  0
SPLINE
  5
10A
330
1F
100
AcDbEntity
  8
0
  6
Continuous
 62
     7
370
    25
100
AcDbSpline
210
0.0
220
0.0
230
1.0
 70
     8
 71
     3
 72
    12
 73
     8
 74
     0
 42
0.000000001
 43
0.00000001
 40
0.0
 40
0.0
 40
0.0
 40
0.0
 40
0.25
 40
0.25
 40
0.5
 40
0.5
 40
1.0
 40
1.0
 40
1.0
 40
1.0
 10
54.06674316513043
 20
36.57255778773462
 30
0.0
 10
53.88555736907546
 20
36.58074474465201
 30
0.0
 10
53.70554270049118
 20
36.59249676444824
 30
0.0
 10
53.34785171855943
 20
36.61798273154731
 30
0.0
 10
53.17017540521199
 20
36.63171667885016
 30
0.0
 10
52.64064814846809
 20
36.66816911464195
 30
0.0
 10
52.28434053876477
 20
36.66269984168299
 30
0.0
 10
51.93531967825043
 20
36.62984839164853
 30
0.0
  0
SPLINE
  5
10B
330
1F
100
AcDbEntity
  8
0
  6
Continuous
 62
     7
370
    25
100
AcDbSpline
210
0.0
220
0.0
230
1.0
 70
     8
 71
     3
 72
    10
 73
     6
 74
     0
 42
0.000000001
 43
0.00000001
 40
0.0
 40
0.0
 40
0.0
 40
0.0
 40
0.5
 40
0.5
 40
1.0
 40
1.0
 40
1.0
 40
1.0
 10
51.93531967825043
 20
36.62984839164853
 30
0.0
 10
51.94095722768946
 20
36.65273252314491
 30
0.0
 10
51.94395224581724
 20
36.68026366835999
 30
0.0
 10
51.94665328778053
 20
36.73070441563925
 30
0.0
 10
51.94652681349753
 20
36.75345289182378
 30
0.0
 10
51.94652681349753
 20
36.77127399543125
 30
0.0
  0
SPLINE
  5
10C
330
1F
100
AcDbEntity
  8
0
  6
Continuous
 62
     7
370
    25
100
AcDbSpline
210
0.0
220
0.0
230
1.0
 70
    24
 71
     3
 72
    10
 73
     6
 74
     0
 42
0.000000001
 43
0.00000001
 40
0.0
 40
0.0
 40
0.0
 40
0.0
 40
0.5
 40
0.5
 40
1.0
 40
1.0
 40
1.0
 40
1.0
 10
54.06674316513043
 20
36.57255778773462
 30
0.0
 10
54.06674316513043
 20
36.60530561540418
 30
0.0
 10
54.06674316513043
 20
36.64006264292294
 30
0.0
 10
54.06674316513043
 20
36.7113388008209
 30
0.0
 10
54.06674316513043
 20
36.7373411134818
 30
0.0
 10
54.06674316513043
 20
36.77127399543125
 30
0.0
  0
SPLINE
  5
10D
330
1F
100
AcDbEntity
  8
0
  6
Continuous
 62
     7
370
    25
100
AcDbSpline
210
0.0
220
0.0
230
1.0
 70
     8
 71
     3
 72
     8
 73
     4
 74
     0
 42
0.000000001
 43
0.00000001
 40
0.0
 40
0.0
 40
0.0
 40
0.0
 40
1.0
 40
1.0
 40
1.0
 40
1.0
 10
56.18695951676333
 20
36.77127399543126
 30
0.0
 10
56.18382635241368
 20
36.71891211552924
 30
0.0
 10
56.18830637801042
 20
36.66687271992221
 30
0.0
 10
56.19816665201044
 20
36.62984839164853
 30
0.0
  0
SPLINE
  5
10E
330
1F
100
AcDbEntity
  8
0
  6
Continuous
 62
     7
370
    25
100
AcDbSpline
210
0.0
220
0.0
230
1.0
 70
     8
 71
     3
 72
    12
 73
     8
 74
     0
 42
0.000000001
 43
0.00000001
 40
0.0
 40
0.0
 40
0.0
 40
0.0
 40
0.25
 40
0.25
 40
0.5
 40
0.5
 40
1.0
 40
1.0
 40
1.0
 40
1.0
 10
54.06674316513043
 20
36.57255778773462
 30
0.0
 10
54.24792896118539
 20
36.58074474465201
 30
0.0
 10
54.42794362976969
 20
36.59249676444826
 30
0.0
 10
54.78563461170143
 20
36.61798273154734
 30
0.0
 10
54.96331092504889
 20
36.63171667885018
 30
0.0
 10
55.49283818179278
 20
36.66816911464196
 30
0.0
 10
55.84914579149609
 20
36.66269984168299
 30
0.0
 10
56.19816665201044
 20
36.62984839164854
 30
0.0
  0
SPLINE
  5
10F
330
1F
100
AcDbEntity
  8
0
  6
Continuous
 62
     7
370
    25
100
AcDbSpline
210
0.0
220
0.0
230
1.0
 70
     8
 71
     3
 72
    12
 73
     8
 74
     0
 42
0.000000001
 43
0.00000001
 40
0.0
 40
0.0
 40
0.0
 40
0.0
 40
0.25
 40
0.25
 40
0.5
 40
0.5
 40
1.0
 40
1.0
 40
1.0
 40
1.0
 10
60.56802695743379
 20
30.07127399543126
 30
0.0
 10
60.57621391435119
 20
30.25245979148622
 30
0.0
 10
60.58796593414743
 20
30.43247446007051
 30
0.0
 10
60.61345190124651
 20
30.79016544200226
 30
0.0
 10
60.62718584854935
 20
30.96784175534971
 30
0.0
 10
60.66363828434113
 20
31.49736901209361
 30
0.0
 10
60.65816901138217
 20
31.85367662179692
 30
0.0
 10
60.62531756134771
 20
32.20269748231127
 30
0.0
  0
SPLINE
  5
110
330
1F
100
AcDbEntity
  8
0
  6
Continuous
 62
     7
370
    25
100
AcDbSpline
210
0.0
220
0.0
230
1.0
 70
     8
 71
     3
 72
    10
 73
     6
 74
     0
 42
0.000000001
 43
0.00000001
 40
0.0
 40
0.0
 40
0.0
 40
0.0
 40
0.5
 40
0.5
 40
1.0
 40
1.0
 40
1.0
 40
1.0
 10
60.62531756134771
 20
32.20269748231127
 30
0.0
 10
60.64820169284409
 20
32.19705993287224
 30
0.0
 10
60.67573283805917
 20
32.19406491474444
 30
0.0
 10
60.72617358533843
 20
32.19136387278116
 30
0.0
 10
60.74892206152295
 20
32.19149034706415
 30
0.0
 10
60.76674316513043
 20
32.19149034706415
 30
0.0
  0
SPLINE
  5
111
330
1F
100
AcDbEntity
  8
0
  6
Continuous
 62
     7
370
    25
100
AcDbSpline
210
0.0
220
0.0
230
1.0
 70
     8
 71
     3
 72
    13
 73
     9
 74
     0
 42
0.000000001
 43
0.00000001
 40
0.0
 40
0.0
 40
0.0
 40
0.0
 40
0.284282899174241
 40
0.5198370183905274
 40
0.7070414958140503
 40
0.8468107266085059
 40
0.9415978142010789
 40
1.0
 40
1.0
 40
1.0
 40
1.0
 10
56.19816665201044
 20
36.62984839164853
 30
0.0
 10
56.20114620773646
 20
36.61979605126888
 30
0.0
 10
56.20659459513244
 20
36.60141443680671
 30
0.0
 10
56.2175253225205
 20
36.5847561800915
 30
0.0
 10
56.22803264947977
 20
36.57597145350917
 30
0.0
 10
56.23824142968433
 20
36.57237185440002
 30
0.0
 10
56.24679286385952
 20
36.57131970834646
 30
0.0
 10
56.25464125773178
 20
36.57128661283168
 30
0.0
 10
56.2576333951511
 20
36.57127399543126
 30
0.0
  0
SPLINE
  5
112
330
1F
100
AcDbEntity
  8
0
  6
Continuous
 62
     7
370
    25
100
AcDbSpline
210
0.0
220
0.0
230
1.0
 70
     8
 71
     3
 72
    12
 73
     8
 74
     0
 42
0.000000001
 43
0.00000001
 40
0.0
 40
0.0
 40
0.0
 40
0.0
 40
0.25
 40
0.25
 40
0.5
 40
0.5
 40
1.0
 40
1.0
 40
1.0
 40
1.0
 10
60.62531756134771
 20
32.20269748231127
 30
0.0
 10
60.61387549559952
 20
32.20551625703077
 30
0.0
 10
60.60364561634479
 20
32.20904479090828
 30
0.0
 10
60.58670242667208
 20
32.21727559157139
 30
0.0
 10
60.5799891162541
 20
32.221977858357
 30
0.0
 10
60.56676233203005
 20
32.23747657996415
 30
0.0
 10
60.56674316513043
 20
32.24939300171674
 30
0.0
 10
60.56674316513043
 20
32.26216422545192
 30
0.0
  0
SPLINE
  5
113
330
1F
100
AcDbEntity
  8
0
  6
Continuous
 62
     7
370
    25
100
AcDbSpline
210
0.0
220
0.0
230
1.0
 70
     8
 71
     3
 72
    12
 73
     8
 74
     0
 42
0.000000001
 43
0.00000001
 40
0.0
 40
0.0
 40
0.0
 40
0.0
 40
0.25
 40
0.25
 40
0.5
 40
0.5
 40
1.0
 40
1.0
 40
1.0
 40
1.0
 10
47.50816876891315
 20
27.93985050855125
 30
0.0
 10
47.51961083466134
 20
27.93703173383174
 30
0.0
 10
47.52984071391607
 20
27.93350319995423
 30
0.0
 10
47.54678390358878
 20
27.92527239929111
 30
0.0
 10
47.55349721400676
 20
27.9205701325055
 30
0.0
 10
47.56672399823081
 20
27.90507141089835
 30
0.0
 10
47.56674316513043
 20
27.89315498914577
 30
0.0
 10
47.56674316513043
 20
27.88038376541059
 30
0.0
  0
SPLINE
  5
114
330
1F
100
AcDbEntity
  8
0
  6
Continuous
 62
     7
370
    25
100
AcDbSpline
210
0.0
220
0.0
230
1.0
 70
     8
 71
     3
 72
    12
 73
     8
 74
     0
 42
0.000000001
 43
0.00000001
 40
0.0
 40
0.0
 40
0.0
 40
0.0
 40
0.25
 40
0.25
 40
0.5
 40
0.5
 40
1.0
 40
1.0
 40
1.0
 40
1.0
 10
47.50816876891315
 20
32.20269748231127
 30
0.0
 10
47.51961083466134
 20
32.20551625703077
 30
0.0
 10
47.52984071391607
 20
32.20904479090827
 30
0.0
 10
47.54678390358878
 20
32.21727559157139
 30
0.0
 10
47.55349721400676
 20
32.22197785835699
 30
0.0
 10
47.56672399823081
 20
32.23747657996415
 30
0.0
 10
47.56674316513043
 20
32.24939300171673
 30
0.0
 10
47.56674316513043
 20
32.26216422545192
 30
0.0
  0
SPLINE
  5
115
330
1F
100
AcDbEntity
  8
0
  6
Continuous
 62
     7
370
    25
100
AcDbSpline
210
0.0
220
0.0
230
1.0
 70
     8
 71
     3
 72
    12
 73
     8
 74
     0
 42
0.000000001
 43
0.00000001
 40
0.0
 40
0.0
 40
0.0
 40
0.0
 40
0.25
 40
0.25
 40
0.5
 40
0.5
 40
1.0
 40
1.0
 40
1.0
 40
1.0
 10
51.93531967825043
 20
36.62984839164853
 30
0.0
 10
51.93250090353092
 20
36.61840632590035
 30
0.0
 10
51.92897236965341
 20
36.60817644664561
 30
0.0
 10
51.92074156899029
 20
36.5912332569729
 30
0.0
 10
51.91603930220469
 20
36.58451994655492
 30
0.0
 10
51.90054058059753
 20
36.57129316233086
 30
0.0
 10
51.88862415884496
 20
36.57127399543126
 30
0.0
 10
51.87585293510977
 20
36.57127399543126
 30
0.0
  0
SPLINE
  5
116
330
1F
100
AcDbEntity
  8
0
  6
Continuous
 62
     7
370
    25
100
AcDbSpline
210
0.0
220
0.0
230
1.0
 70
     8
 71
     3
 72
    12
 73
     8
 74
     0
 42
0.000000001
 43
0.00000001
 40
0.0
 40
0.0
 40
0.0
 40
0.0
 40
0.25
 40
0.25
 40
0.5
 40
0.5
 40
1.0
 40
1.0
 40
1.0
 40
1.0
 10
60.62531756134771
 20
27.93985050855125
 30
0.0
 10
60.61387549559952
 20
27.93703173383174
 30
0.0
 10
60.60364561634479
 20
27.93350319995423
 30
0.0
 10
60.58670242667208
 20
27.92527239929111
 30
0.0
 10
60.5799891162541
 20
27.92057013250551
 30
0.0
 10
60.56676233203005
 20
27.90507141089835
 30
0.0
 10
60.56674316513043
 20
27.89315498914577
 30
0.0
 10
60.56674316513043
 20
27.8803837654106
 30
0.0
  0
LINE
  5
117
330
1F
100
AcDbEntity
  8
0
  6
Continuous
 62
     7
370
    25
100
AcDbLine
 10
57.3300839624
 20
27.7067416719
 30
0.0
 11
56.8034021872
 21
27.7067416719
 31
0.0
  0
SPLINE
  5
118
330
1F
100
AcDbEntity
  8
0
  6
Continuous
 62
     7
370
    25
100
AcDbSpline
210
0.0
220
0.0
230
1.0
 70
     8
 71
     3
 72
    10
 73
     6
 74
     0
 42
0.000000001
 43
0.00000001
 40
0.0
 40
0.0
 40
0.0
 40
0.0
 40
0.5
 40
0.5
 40
1.0
 40
1.0
 40
1.0
 40
1.0
 10
56.73414802013091
 20
27.80041132732329
 30
0.0
 10
56.72655629797313
 20
27.78015003045091
 30
0.0
 10
56.73028833196561
 20
27.75404468942341
 30
0.0
 10
56.7562932466393
 20
27.71887178449746
 30
0.0
 10
56.78083046389522
 20
27.70674159585818
 30
0.0
 10
56.80340227647925
 20
27.70674159585818
 30
0.0
  0
SPLINE
  5
119
330
1F
100
AcDbEntity
  8
0
  6
Continuous
 62
     7
370
    25
100
AcDbSpline
210
0.0
220
0.0
230
1.0
 70
     8
 71
     3
 72
    14
 73
    10
 74
     0
 42
0.000000001
 43
0.00000001
 40
0.0
 40
0.0
 40
0.0
 40
0.0
 40
0.25
 40
0.25
 40
0.5
 40
0.5
 40
0.75
 40
0.75
 40
1.0
 40
1.0
 40
1.0
 40
1.0
 10
57.13599742327811
 20
28.50323314394051
 30
0.0
 10
57.13124816064295
 20
28.51590829441905
 30
0.0
 10
57.12180685259511
 20
28.52842201041185
 30
0.0
 10
57.09640291897249
 20
28.54548621214672
 30
0.0
 10
57.08086373985043
 20
28.54975226258043
 30
0.0
 10
57.05262259391705
 20
28.54975226258043
 30
0.0
 10
57.03708341479499
 20
28.54548621214672
 30
0.0
 10
57.01167948117237
 20
28.52842201041185
 30
0.0
 10
57.00223817312455
 20
28.51590829441905
 30
0.0
 10
56.99748891048938
 20
28.50323314394051
 30
0.0
  0
LINE
  5
11A
330
1F
100
AcDbEntity
  8
0
  6
Continuous
 62
     7
370
    25
100
AcDbLine
 10
57.135997502
 20
28.5032331849
 30
0.0
 11
57.3993382732
 21
27.8004113025
 31
0.0
  0
SPLINE
  5
11B
330
1F
100
AcDbEntity
  8
0
  6
Continuous
 62
     7
370
    25
100
AcDbSpline
210
0.0
220
0.0
230
1.0
 70
     8
 71
     3
 72
    10
 73
     6
 74
     0
 42
0.000000001
 43
0.00000001
 40
0.0
 40
0.0
 40
0.0
 40
0.0
 40
0.5
 40
0.5
 40
1.0
 40
1.0
 40
1.0
 40
1.0
 10
57.33008405419404
 20
27.70674159585818
 30
0.0
 10
57.35265586673758
 20
27.70674159585818
 30
0.0
 10
57.37719308394414
 20
27.71887178444545
 30
0.0
 10
57.40319799863984
 20
27.75404468926218
 30
0.0
 10
57.40693003269948
 20
27.78015003021465
 30
0.0
 10
57.39933831063442
 20
27.80041132707761
 30
0.0
  0
LINE
  5
11C
330
1F
100
AcDbEntity
  8
0
  6
Continuous
 62
     7
370
    25
100
AcDbLine
 10
56.7341481092
 20
27.8004113025
 30
0.0
 11
56.9974888804
 21
28.5032331849
 31
0.0
  0
LINE
  5
11D
330
1F
100
AcDbEntity
  8
0
  6
Continuous
 62
     7
370
    25
100
AcDbLine
 10
59.5670509374
 20
27.426363984
 30
0.0
 11
59.5309323854
 21
27.4057235474
 31
0.0
  0
LWPOLYLINE
  5
11E
330
1F
100
AcDbEntity
  8
0
  6
Continuous
 62
     7
370
    25
100
AcDbPolyline
 90
        9
 70
   128
 43
0.0
 10
59.5309323854
 20
27.4057235474
 10
59.529025968
 20
27.4090602434
 10
59.5233788936
 20
27.4189415759
 10
59.5142090915
 20
27.4349882639
 10
59.5018681361
 20
27.4565835389
 10
59.4868310018
 20
27.4828971269
 10
59.4696751087
 20
27.5129183101
 10
59.451059833
 20
27.5454931798
 10
59.4317008963
 20
27.5793698056
  0
LWPOLYLINE
  5
11F
330
1F
100
AcDbEntity
  8
0
  6
Continuous
 62
     7
370
    25
100
AcDbPolyline
 90
       10
 70
   128
 43
0.0
 10
59.5670509374
 20
27.426363984
 10
59.5745727642
 20
27.4341617151
 10
59.5969091392
 20
27.4573185852
 10
59.6333815938
 20
27.4951307474
 10
59.6828818544
 20
27.5464491824
 10
59.7439063004
 20
27.6097146234
 10
59.8146002031
 20
27.6830050534
 10
59.8928154668
 20
27.7640932145
 10
59.9761762879
 20
27.8505155257
 10
60.062149003
 20
27.9396461228
  0
SPLINE
  5
120
330
1F
100
AcDbEntity
  8
0
  6
Continuous
 62
     7
370
    25
100
AcDbSpline
210
0.0
220
0.0
230
1.0
 70
     8
 71
     3
 72
    10
 73
     6
 74
     0
 42
0.000000001
 43
0.00000001
 40
0.0
 40
0.0
 40
0.0
 40
0.0
 40
0.5
 40
0.5
 40
1.0
 40
1.0
 40
1.0
 40
1.0
 10
58.76065050528951
 20
26.09007128424016
 30
0.0
 10
58.77671468081451
 20
26.07581271062855
 30
0.0
 10
58.80223469211737
 20
26.06867137391457
 30
0.0
 10
58.84543720878415
 20
26.07610847203676
 30
0.0
 10
58.86672425039588
 20
26.09130740983963
 30
0.0
 10
58.87654091144944
 20
26.11002124059758
 30
0.0
  0
LWPOLYLINE
  5
121
330
1F
100
AcDbEntity
  8
0
  6
Continuous
 62
     7
370
    25
100
AcDbPolyline
 90
        9
 70
   128
 43
0.0
 10
58.8765409066
 20
26.1100210155
 10
58.8799439593
 20
26.1082361358
 10
58.8900227322
 20
26.1029490175
 10
58.9063893295
 20
26.0943636204
 10
58.928415574
 20
26.0828096325
 10
58.955254428
 20
26.0687308292
 10
58.9858744516
 20
26.0526683087
 10
59.0190993844
 20
26.035239538
 10
59.0536519176
 20
26.0171146038
  0
LWPOLYLINE
  5
122
330
1F
100
AcDbEntity
  8
0
  6
Continuous
 62
     7
370
    25
100
AcDbPolyline
 90
        9
 70
   128
 43
0.0
 10
58.760650385
 20
26.0900711546
 10
58.7580994925
 20
26.0871970932
 10
58.7505441381
 20
26.0786852705
 10
58.7382753602
 20
26.0648630465
 10
58.7217644079
 20
26.0462612751
 10
58.701645512
 20
26.0235947462
 10
58.6786926015
 20
25.9977347123
 10
58.6537867075
 20
25.9696748945
 10
58.6278852298
 20
25.9404937642
  0
LINE
  5
123
330
1F
100
AcDbEntity
  8
0
  6
Continuous
 62
     7
370
    25
100
AcDbLine
 10
47.7667431569
 20
25.0712741072
 30
0.0
 11
47.7667431569
 21
25.2712737674
 31
0.0
  0
ARC
  5
124
330
1F
100
AcDbEntity
  8
0
  6
Continuous
 62
     7
370
    25
100
AcDbCircle
 10
47.7667431651
 20
25.2712739954
 30
0.0
 40
0.1999999999999993
100
AcDbArc
 50
180.0
 51
270.0
  0
LINE
  5
125
330
1F
100
AcDbEntity
  8
0
  6
Continuous
 62
     7
370
    25
100
AcDbLine
 10
47.7667431569
 20
35.0712738837
 30
0.0
 11
47.7667431569
 21
34.8712742234
 31
0.0
  0
ARC
  5
126
330
1F
100
AcDbEntity
  8
0
  6
Continuous
 62
     7
370
    25
100
AcDbCircle
 10
47.7667431651
 20
34.8712739954
 30
0.0
 40
0.1999999999999957
100
AcDbArc
 50
90.0
 51
180.0
  0
LINE
  5
127
330
1F
100
AcDbEntity
  8
0
  6
Continuous
 62
     7
370
    25
100
AcDbLine
 10
60.0667432173
 20
34.8712742234
 30
0.0
 11
60.0667432173
 21
35.0712738837
 31
0.0
  0
LINE
  5
128
330
1F
100
AcDbEntity
  8
0
  6
Continuous
 62
     7
370
    25
100
AcDbLine
 10
60.0667432173
 20
35.0712738837
 30
0.0
 11
60.3667431733
 21
35.0712738837
 31
0.0
  0
LINE
  5
129
330
1F
100
AcDbEntity
  8
0
  6
Continuous
 62
     7
370
    25
100
AcDbLine
 10
60.3667431733
 20
34.8712742234
 30
0.0
 11
60.3667431733
 21
35.0712738837
 31
0.0
  0
LINE
  5
12A
330
1F
100
AcDbEntity
  8
0
  6
Continuous
 62
     7
370
    25
100
AcDbLine
 10
49.0667432769
 20
36.3712740036
 30
0.0
 11
49.2667429371
 21
36.3712740036
 31
0.0
  0
ARC
  5
12B
330
1F
100
AcDbEntity
  8
0
  6
Continuous
 62
     7
370
    25
100
AcDbCircle
 10
49.2667431651
 20
36.3712739954
 30
0.0
 40
0.2000000000000028
100
AcDbArc
 50
90.0
 51
180.0
  0
ARC
  5
12C
330
1F
100
AcDbEntity
  8
0
  6
Continuous
 62
     7
370
    25
100
AcDbCircle
 10
48.0667431651
 20
36.0712739954
 30
0.0
 40
1.000000000000007
100
AcDbArc
 50
270.0
 51
0.0
  0
LINE
  5
12D
330
1F
100
AcDbEntity
  8
0
  6
Continuous
 62
     7
370
    25
100
AcDbLine
 10
49.0667432769
 20
36.0712740476
 30
0.0
 11
49.2667429371
 21
36.0712740476
 31
0.0
  0
LINE
  5
12E
330
1F
100
AcDbEntity
  8
0
  6
Continuous
 62
     7
370
    25
100
AcDbLine
 10
48.066743113
 20
35.0712738837
 30
0.0
 11
48.066743113
 21
34.8712742234
 31
0.0
  0
LINE
  5
12F
330
1F
100
AcDbEntity
  8
0
  6
Continuous
 62
     7
370
    25
100
AcDbLine
 10
47.7667431569
 20
35.0712738837
 30
0.0
 11
48.066743113
 21
35.0712738837
 31
0.0
  0
LWPOLYLINE
  5
130
330
1F
100
AcDbEntity
  8
0
  6
Continuous
 62
     7
370
    25
100
AcDbPolyline
 90
        9
 70
   128
 43
0.0
 10
54.0805850924
 20
27.922016885
 10
54.1753697635
 20
27.8253197576
 10
54.2665119156
 20
27.7323386072
 10
54.3505090045
 20
27.6466469186
 10
54.4241330518
 20
27.5715373828
 10
54.4845547575
 20
27.5098964012
 10
54.5294521599
 20
27.4640932585
 10
54.5570998093
 20
27.4358876886
 10
54.5664352704
 20
27.426363984
  0
LINE
  5
131
330
1F
100
AcDbEntity
  8
0
  6
Continuous
 62
     7
370
    25
100
AcDbLine
 10
54.5664352704
 20
27.426363984
 30
0.0
 11
55.2569454758
 21
26.1100210155
 31
0.0
  0
LWPOLYLINE
  5
132
330
1F
100
AcDbEntity
  8
0
  6
Continuous
 62
     7
370
    25
100
AcDbPolyline
 90
        9
 70
   128
 43
0.0
 10
55.0798343484
 20
26.0171146038
 10
55.114386998
 20
26.035239538
 10
55.1476118144
 20
26.0526683087
 10
55.1782319545
 20
26.0687308292
 10
55.2050708084
 20
26.0828096325
 10
55.2270968201
 20
26.0943636204
 10
55.2434636502
 20
26.1029490175
 10
55.2535423067
 20
26.1082361358
 10
55.2569454758
 20
26.1100210155
  0
ARC
  5
133
330
1F
100
AcDbEntity
  8
0
  6
Continuous
 62
     7
370
    25
100
AcDbCircle
 10
60.3667431651
 20
25.2712739954
 30
0.0
 40
0.2000000000000028
100
AcDbArc
 50
270.0
 51
0.0
  0
LINE
  5
134
330
1F
100
AcDbEntity
  8
0
  6
Continuous
 62
     7
370
    25
100
AcDbLine
 10
60.3667431733
 20
25.2712737674
 30
0.0
 11
60.3667431733
 21
25.0712741072
 31
0.0
  0
SPLINE
  5
135
330
1F
100
AcDbEntity
  8
0
  6
Continuous
 62
     7
370
    25
100
AcDbSpline
210
0.0
220
0.0
230
1.0
 70
     8
 71
     3
 72
    14
 73
    10
 74
     0
 42
0.000000001
 43
0.00000001
 40
0.0
 40
0.0
 40
0.0
 40
0.0
 40
0.25
 40
0.25
 40
0.5
 40
0.5
 40
0.75
 40
0.75
 40
1.0
 40
1.0
 40
1.0
 40
1.0
 10
55.46215818370531
 20
27.70643588613413
 30
0.0
 10
55.43512234749462
 20
27.63084487930266
 30
0.0
 10
55.38893029548073
 20
27.55723028381212
 30
0.0
 10
55.266401158412
 20
27.43678960204196
 30
0.0
 10
55.19062717568936
 20
27.39051702026271
 30
0.0
 10
55.03375548125523
 20
27.3343511040637
 30
0.0
 10
54.94475940308117
 20
27.32162985992801
 30
0.0
 10
54.76934188420677
 20
27.33539452873204
 30
0.0
 10
54.68372660289308
 20
27.36181718392516
 30
0.0
 10
54.61116505095256
 20
27.4017486119096
 30
0.0
  0
LWPOLYLINE
  5
136
330
1F
100
AcDbEntity
  8
0
  6
Continuous
 62
     7
370
    25
100
AcDbPolyline
 90
        9
 70
   128
 43
0.0
 10
54.7075906525
 20
27.576968856
 10
54.688778926
 20
27.5427851266
 10
54.6706901969
 20
27.5099150276
 10
54.6540194646
 20
27.4796216654
 10
54.6394074791
 20
27.453069426
 10
54.6274157114
 20
27.4312785732
 10
54.6185049916
 20
27.4150863661
 10
54.6130178136
 20
27.4051153938
 10
54.6111650638
 20
27.4017486627
  0
SPLINE
  5
137
330
1F
100
AcDbEntity
  8
0
  6
Continuous
 62
     7
370
    25
100
AcDbSpline
210
0.0
220
0.0
230
1.0
 70
     8
 71
     3
 72
    14
 73
    10
 74
     0
 42
0.000000001
 43
0.00000001
 40
0.0
 40
0.0
 40
0.0
 40
0.0
 40
0.25
 40
0.25
 40
0.5000000000000001
 40
0.5000000000000001
 40
0.7500000000000002
 40
0.7500000000000002
 40
1.0
 40
1.0
 40
1.0
 40
1.0
 10
55.37283582497135
 20
26.0900712842402
 30
0.0
 10
55.57944425714253
 20
26.27345707545584
 30
0.0
 10
55.83460647280439
 20
26.43548015674287
 30
0.0
 10
56.41558016412241
 20
26.66216644679663
 30
0.0
 10
56.74070880203568
 20
26.72541964598266
 30
0.0
 10
57.39277752822549
 20
26.72541964598265
 30
0.0
 10
57.71790616613872
 20
26.66216644679662
 30
0.0
 10
58.29887985745664
 20
26.43548015674284
 30
0.0
 10
58.55404207311842
 20
26.2734570754558
 30
0.0
 10
58.76065050528951
 20
26.09007128424016
 30
0.0
  0
LWPOLYLINE
  5
138
330
1F
100
AcDbEntity
  8
0
  6
Continuous
 62
     7
370
    25
100
AcDbPolyline
 90
        9
 70
   128
 43
0.0
 10
55.372835881
 20
26.0900711546
 10
55.3753868899
 20
26.0871970932
 10
55.3829420115
 20
26.0786852705
 10
55.3952107894
 20
26.0648630465
 10
55.4117218581
 20
26.0462612751
 10
55.4318406376
 20
26.0235947462
 10
55.4547938973
 20
25.9977347123
 10
55.4796997913
 20
25.9696748945
 10
55.5056009198
 20
25.9404937642
  0
LINE
  5
139
330
1F
100
AcDbEntity
  8
0
  6
Continuous
 62
     7
370
    25
100
AcDbLine
 10
59.0667430534
 20
36.5712741295
 30
0.0
 11
59.0667430534
 21
36.0712740476
 31
0.0
  0
LINE
  5
13A
330
1F
100
AcDbEntity
  8
0
  6
Continuous
 62
     7
370
    25
100
AcDbLine
 10
58.8667433931
 20
36.0712740476
 30
0.0
 11
59.0667430534
 21
36.0712740476
 31
0.0
  0
LINE
  5
13B
330
1F
100
AcDbEntity
  8
0
  6
Continuous
 62
     7
370
    25
100
AcDbLine
 10
49.0667432769
 20
36.0712740476
 30
0.0
 11
49.0667432769
 21
36.3712740036
 31
0.0
  0
ARC
  5
13C
330
1F
100
AcDbEntity
  8
0
  6
Continuous
 62
     7
370
    25
100
AcDbCircle
 10
60.3667431651
 20
34.8712739954
 30
0.0
 40
0.2000000000000028
100
AcDbArc
 50
0.0
 51
90.0
  0
SPLINE
  5
13D
330
1F
100
AcDbEntity
  8
0
  6
Continuous
 62
     7
370
    25
100
AcDbSpline
210
0.0
220
0.0
230
1.0
 70
     8
 71
     3
 72
    14
 73
    10
 74
     0
 42
0.000000001
 43
0.00000001
 40
0.0
 40
0.0
 40
0.0
 40
0.0
 40
0.25
 40
0.25
 40
0.5
 40
0.5
 40
0.75
 40
0.75
 40
1.0
 40
1.0
 40
1.0
 40
1.0
 10
59.53093261792844
 20
27.40572365061254
 30
0.0
 10
59.45844539838463
 20
27.36430008014135
 30
0.0
 10
59.37239207526817
 20
27.33640339578135
 30
0.0
 10
59.1954758581419
 20
27.3204203003843
 30
0.0
 10
59.10545627726493
 20
27.33241007656438
 30
0.0
 10
58.94673369600719
 20
27.38782039726025
 30
0.0
 10
58.86988418725179
 20
27.4340849015832
 30
0.0
 10
58.74564825861181
 20
27.55520071875763
 30
0.0
 10
58.69885403876345
 20
27.6294747043246
 30
0.0
 10
58.67158270418514
 20
27.70572415421545
 30
0.0
  0
SPLINE
  5
13E
330
1F
100
AcDbEntity
  8
0
  6
Continuous
 62
     7
370
    25
100
AcDbSpline
210
0.0
220
0.0
230
1.0
 70
     8
 71
     3
 72
    10
 73
     6
 74
     0
 42
0.000000001
 43
0.00000001
 40
0.0
 40
0.0
 40
0.0
 40
0.0
 40
0.5
 40
0.5
 40
1.0
 40
1.0
 40
1.0
 40
1.0
 10
55.25694541881149
 20
26.11002124059758
 30
0.0
 10
55.26676207986506
 20
26.09130740983969
 30
0.0
 10
55.28804912147677
 20
26.07610847203687
 30
0.0
 10
55.33125163814352
 20
26.06867137391469
 30
0.0
 10
55.35677164944634
 20
26.07581271062865
 30
0.0
 10
55.37283582497135
 20
26.0900712842402
 30
0.0
  0
LINE
  5
13F
330
1F
100
AcDbEntity
  8
0
  6
Continuous
 62
     7
370
    25
100
AcDbLine
 10
58.8765409066
 20
26.1100210155
 30
0.0
 11
59.5670509374
 21
27.426363984
 31
0.0
  0
LINE
  5
140
330
1F
100
AcDbEntity
  8
0
  6
Continuous
 62
     7
370
    25
100
AcDbLine
 10
60.3667431733
 20
25.0712741072
 30
0.0
 11
47.7667431569
 21
25.0712741072
 31
0.0
  0
ARC
  5
141
330
1F
100
AcDbEntity
  8
0
  6
Continuous
 62
     7
370
    25
100
AcDbCircle
 10
60.0667431651
 20
36.0712739954
 30
0.0
 40
1.000000000000007
100
AcDbArc
 50
180.0
 51
270.0
  0
LINE
  5
142
330
1F
100
AcDbEntity
  8
0
  6
Continuous
 62
     7
370
    25
100
AcDbLine
 10
54.6111650638
 20
27.4017486627
 30
0.0
 11
54.5664352704
 21
27.426363984
 31
0.0
  0
ARC
  5
143
330
1F
100
AcDbEntity
  8
0
  6
Continuous
 62
     7
370
    25
100
AcDbCircle
 10
60.7467115225
 20
25.2454010089
 30
0.0
 40
0.1818184836971103
100
AcDbArc
 50
83.6747277536
 51
171.8190444576
  0
SPLINE
  5
144
330
1F
100
AcDbEntity
  8
0
  6
Continuous
 62
     7
370
    25
100
AcDbSpline
210
0.0
220
0.0
230
1.0
 70
    24
 71
     3
 72
    12
 73
     8
 74
     0
 42
0.000000001
 43
0.00000001
 40
0.0
 40
0.0
 40
0.0
 40
0.0
 40
0.25
 40
0.25
 40
0.5
 40
0.5
 40
1.0
 40
1.0
 40
1.0
 40
1.0
 10
59.06674316513043
 20
36.77127399543126
 30
0.0
 10
59.06674316513043
 20
36.7340931628792
 30
0.0
 10
59.06674316513043
 20
36.69983308764571
 30
0.0
 10
59.06674316513043
 20
36.64810741819936
 30
0.0
 10
59.06674316513043
 20
36.62875267132382
 30
0.0
 10
59.06674316513043
 20
36.58434335767961
 30
0.0
 10
59.06674316513043
 20
36.57127399543126
 30
0.0
 10
59.06674316513043
 20
36.57127399543126
 30
0.0
  0
ARC
  5
145
330
1F
100
AcDbEntity
  8
0
  6
Continuous
 62
     7
370
    25
100
AcDbCircle
 10
47.3867748078
 20
34.8971469819
 30
0.0
 40
0.1818184836971046
100
AcDbArc
 50
263.6747277536
 51
351.8190444576
  0
ARC
  5
146
330
1F
100
AcDbEntity
  8
0
  6
Continuous
 62
     7
370
    25
100
AcDbCircle
 10
47.3867748078
 20
25.2454010089
 30
0.0
 40
0.1818184836971046
100
AcDbArc
 50
8.1809555424
 51
96.3252722464
  0
ARC
  5
147
330
1F
100
AcDbEntity
  8
0
  6
Continuous
 62
     7
370
    25
100
AcDbCircle
 10
49.2408701786
 20
36.7512423528
 30
0.0
 40
0.1818184836971046
100
AcDbArc
 50
278.1809555424
 51
6.3252722464
  0
ARC
  5
148
330
1F
100
AcDbEntity
  8
0
  6
Continuous
 62
     7
370
    25
100
AcDbCircle
 10
60.7467115225
 20
34.8971469819
 30
0.0
 40
0.181818483697118
100
AcDbArc
 50
188.1809555424
 51
276.3252722464
  0
LINE
  5
149
330
1F
100
AcDbEntity
  8
0
  6
Continuous
 62
     7
370
    25
100
AcDbLine
 10
47.7667431569
 20
35.1035321037
 30
0.0
 11
47.7667431569
 21
35.0712738837
 31
0.0
  0
LINE
  5
14A
330
1F
100
AcDbEntity
  8
0
  6
Continuous
 62
     7
370
    25
100
AcDbLine
 10
60.3667431733
 20
25.0712741072
 30
0.0
 11
60.3667431733
 21
25.0390158872
 31
0.0
  0
LINE
  5
14B
330
1F
100
AcDbEntity
  8
0
  6
Continuous
 62
     7
370
    25
100
AcDbLine
 10
47.7667431569
 20
25.0390158872
 30
0.0
 11
47.7667431569
 21
25.0712741072
 31
0.0
  0
LINE
  5
14C
330
1F
100
AcDbEntity
  8
0
  6
Continuous
 62
     7
370
    25
100
AcDbLine
 10
60.3667431733
 20
35.1035321037
 30
0.0
 11
60.3667431733
 21
35.0712738837
 31
0.0
  0
LINE
  5
14D
330
1F
100
AcDbEntity
  8
0
  6
Continuous
 62
     7
370
    25
100
AcDbLine
 10
49.0344850569
 20
36.3712740036
 30
0.0
 11
49.0667432769
 21
36.3712740036
 31
0.0
  0
LINE
  5
14E
330
1F
100
AcDbEntity
  8
0
  6
Continuous
 62
     7
370
    25
100
AcDbLine
 10
49.0344850569
 20
36.0712740476
 30
0.0
 11
49.0667432769
 21
36.0712740476
 31
0.0
  0
ARC
  5
14F
330
1F
100
AcDbEntity
  8
0
  6
Continuous
 62
     7
370
    25
100
AcDbCircle
 10
48.6643006163
 20
35.465179957
 30
0.0
 40
0.1490119422214818
100
AcDbArc
 50
317.3216122879
 51
15.7343760625
  0
ARC
  5
150
330
1F
100
AcDbEntity
  8
0
  6
Continuous
 62
     7
370
    25
100
AcDbCircle
 10
48.6728372036
 20
35.4737165443
 30
0.0
 40
0.1490119422214824
100
AcDbArc
 50
254.2656239375
 51
312.6783877121
  0
LINE
  5
151
330
1F
100
AcDbEntity
  8
0
  6
Continuous
 62
     7
370
    25
100
AcDbLine
 10
48.066743113
 20
35.1035321037
 30
0.0
 11
48.066743113
 21
35.0712738837
 31
0.0
  0
LINE
  5
152
330
1F
100
AcDbEntity
  8
0
  6
Continuous
 62
     7
370
    25
100
AcDbLine
 10
60.0667432173
 20
35.1035321037
 30
0.0
 11
60.0667432173
 21
35.0712738837
 31
0.0
  0
SPLINE
  5
153
330
1F
100
AcDbEntity
  8
0
  6
Continuous
 62
     7
370
    25
100
AcDbSpline
210
0.0
220
0.0
230
1.0
 70
     8
 71
     3
 72
     8
 73
     4
 74
     0
 42
0.000000001
 43
0.00000001
 40
0.0
 40
0.0
 40
0.0
 40
0.0
 40
1.0
 40
1.0
 40
1.0
 40
1.0
 10
59.32192226363249
 20
35.40400956157328
 30
0.0
 10
59.36462144860085
 20
35.35634742969928
 30
0.0
 10
59.43347172060182
 20
35.33029724983389
 30
0.0
 10
59.50105774018119
 20
35.33028810031909
 30
0.0
  0
ARC
  5
154
330
1F
100
AcDbEntity
  8
0
  6
Continuous
 62
     7
370
    25
100
AcDbCircle
 10
48.5735411252
 20
35.5644760354
 30
0.0
 40
0.2414780747458599
100
AcDbArc
 50
284.1145898145
 51
345.8854101855
  0
SPLINE
  5
155
330
1F
100
AcDbEntity
  8
0
  6
Continuous
 62
     8
370
    25
100
AcDbSpline
210
0.0
220
0.0
230
1.0
 70
     8
 71
     3
 72
    34
 73
    30
 74
     0
 42
0.000000001
 43
0.00000001
 40
0.0
 40
0.0
 40
0.0
 40
0.0
 40
0.0270829032766599
 40
0.0610682941182008
 40
0.1019507723650695
 40
0.1474839812243242
 40
0.187872064013973
 40
0.2220934768733864
 40
0.250151460984347
 40
0.2982157574196402
 40
0.3490038536661354
 40
0.4004430425979361
 40
0.450494711484233
 40
0.5005609373880796
 40
0.5396164215048147
 40
0.5812691741313459
 40
0.6255103363874013
 40
0.650560472757527
 40
0.6756020758841366
 40
0.7006346597335095
 40
0.7256578509364633
 40
0.7506711420816486
 40
0.7800555279670839
 40
0.8115785411698586
 40
0.8452427927006666
 40
0.8810515781909936
 40
0.9190087853526957
 40
0.9591189396213431
 40
0.9999999999999999
 40
0.9999999999999999
 40
0.9999999999999999
 40
0.9999999999999999
 10
43.99376774566871
 20
30.07665159886048
 30
0.0
 10
43.99373744402801
 20
30.17050184351663
 30
0.0
 10
43.99366911791515
 20
30.38212148728894
 30
0.0
 10
43.99393931257521
 20
30.73465216479465
 30
0.0
 10
43.99441401042754
 20
31.14852969958769
 30
0.0
 10
43.99509570511965
 20
31.57949191951071
 30
0.0
 10
43.99562758626004
 20
31.98127186687127
 30
0.0
 10
43.99598894014643
 20
32.31854006410684
 30
0.0
 10
43.99621181696163
 20
32.67468785551365
 30
0.0
 10
43.99611487127734
 20
33.07465450445313
 30
0.0
 10
43.9956081181583
 20
33.53049334868829
 30
0.0
 10
43.99468187474621
 20
33.97093089294445
 30
0.0
 10
43.99374119987954
 20
34.38477817048402
 30
0.0
 10
43.99266193153093
 20
34.74065223455975
 30
0.0
 10
43.99199440083086
 20
35.05206465994008
 30
0.0
 10
43.99208857546682
 20
35.32775799452546
 30
0.0
 10
43.99265861724759
 20
35.55107804159665
 30
0.0
 10
43.99335493005063
 20
35.72563688902034
 30
0.0
 10
43.99393285586258
 20
35.85584695288087
 30
0.0
 10
43.99456441147914
 20
35.97693093746894
 30
0.0
 10
43.99522645510307
 20
36.08875656402856
 30
0.0
 10
43.99601925510655
 20
36.19698685435964
 30
0.0
 10
43.99672604382902
 20
36.30262897520639
 30
0.0
 10
43.99712774773277
 20
36.40502457090322
 30
0.0
 10
43.99727901806293
 20
36.49786690111768
 30
0.0
 10
43.9971593131239
 20
36.57771567234694
 30
0.0
 10
43.99676862383281
 20
36.64002250729551
 30
0.0
 10
43.99613183636995
 20
36.68268388128703
 30
0.0
 10
43.99550894300634
 20
36.6890511179299
 30
0.0
 10
43.99519453185302
 20
36.69226503917773
 30
0.0
  0
SPLINE
  5
156
330
1F
100
AcDbEntity
  8
0
  6
Continuous
 62
     8
370
    25
100
AcDbSpline
210
0.0
220
0.0
230
1.0
 70
     8
 71
     3
 72
    23
 73
    19
 74
     0
 42
0.000000001
 43
0.00000001
 40
0.0
 40
0.0
 40
0.0
 40
0.0
 40
0.0002901480650782
 40
0.0835899993219196
 40
0.1668922360496779
 40
0.2501967869721177
 40
0.3335035517885791
 40
0.4168124449701208
 40
0.5001234145695925
 40
0.5834363421511848
 40
0.6667511052183539
 40
0.7500992724832019
 40
0.7917942763473084
 40
0.8334871729099484
 40
0.857255065623385
 40
0.8929296806659354
 40
0.940511040343332
 40
1.0
 40
1.0
 40
1.0
 40
1.0
 10
43.99486763762933
 20
23.44910575995047
 30
0.0
 10
43.99486763781066
 20
23.44907193286058
 30
0.0
 10
43.99486769005415
 20
23.43932654158962
 30
0.0
 10
43.99477764353347
 20
23.49158407001324
 30
0.0
 10
43.99471896814413
 20
23.65571180271168
 30
0.0
 10
43.99464147052795
 20
23.93689147052816
 30
0.0
 10
43.99457427730115
 20
24.32120948228602
 30
0.0
 10
43.99450704121673
 20
24.80453014394734
 30
0.0
 10
43.99444084761864
 20
25.37791820458601
 30
0.0
 10
43.99438729129388
 20
26.03177053034323
 30
0.0
 10
43.99430448362378
 20
26.75479511823539
 30
0.0
 10
43.99433176732511
 20
27.40516181197334
 30
0.0
 10
43.99443893473138
 20
27.94689707894458
 30
0.0
 10
43.99461941229332
 20
28.3029998925875
 30
0.0
 10
43.9946234434452
 20
28.64353404358969
 30
0.0
 10
43.99445686975506
 20
29.00770390351563
 30
0.0
 10
43.9941752152907
 20
29.49887045805984
 30
0.0
 10
43.99391327910311
 20
29.87028904023422
 30
0.0
 10
43.99376774566871
 20
30.07665159886048
 30
0.0
  0
LINE
  5
157
330
1F
100
AcDbEntity
  8
0
  6
Continuous
 62
     8
370
    25
100
AcDbLine
 10
43.0667432247
 20
37.3212737868
 30
0.0
 11
43.0667432247
 21
22.821274204
 31
0.0
  0
SPLINE
  5
158
330
1F
100
AcDbEntity
  8
0
  6
Continuous
 62
     8
370
    25
100
AcDbSpline
210
0.0
220
0.0
230
1.0
 70
     8
 71
     3
 72
    34
 73
    30
 74
     0
 42
0.000000001
 43
0.00000001
 40
0.0
 40
0.0
 40
0.0
 40
0.0
 40
0.0270829032766599
 40
0.0610682941182008
 40
0.1019507723650695
 40
0.1474839812243242
 40
0.187872064013973
 40
0.2220934768733864
 40
0.250151460984347
 40
0.2982157574196402
 40
0.3490038536661354
 40
0.4004430425979361
 40
0.450494711484233
 40
0.5005609373880796
 40
0.5396164215048147
 40
0.5812691741313459
 40
0.6255103363874013
 40
0.650560472757527
 40
0.6756020758841366
 40
0.7006346597335095
 40
0.7256578509364633
 40
0.7506711420816486
 40
0.7800555279670839
 40
0.8115785411698586
 40
0.8452427927006666
 40
0.8810515781909936
 40
0.9190087853526957
 40
0.9591189396213431
 40
0.9999999999999999
 40
0.9999999999999999
 40
0.9999999999999999
 40
0.9999999999999999
 10
64.13971858459216
 20
30.06589639200203
 30
0.0
 10
64.13974888623285
 20
29.97204614734588
 30
0.0
 10
64.13981721234572
 20
29.76042650357357
 30
0.0
 10
64.13954701768564
 20
29.40789582606786
 30
0.0
 10
64.13907231983332
 20
28.99401829127482
 30
0.0
 10
64.13839062514121
 20
28.5630560713518
 30
0.0
 10
64.13785874400082
 20
28.16127612399124
 30
0.0
 10
64.13749739011443
 20
27.82400792675567
 30
0.0
 10
64.13727451329923
 20
27.46786013534885
 30
0.0
 10
64.13737145898352
 20
27.06789348640938
 30
0.0
 10
64.13787821210256
 20
26.61205464217422
 30
0.0
 10
64.13880445551465
 20
26.17161709791806
 30
0.0
 10
64.13974513038131
 20
25.75776982037849
 30
0.0
 10
64.14082439872993
 20
25.40189575630276
 30
0.0
 10
64.14149192943
 20
25.09048333092242
 30
0.0
 10
64.14139775479404
 20
24.81478999633705
 30
0.0
 10
64.14082771301327
 20
24.59146994926585
 30
0.0
 10
64.14013140021024
 20
24.41691110184217
 30
0.0
 10
64.13955347439828
 20
24.28670103798164
 30
0.0
 10
64.13892191878172
 20
24.16561705339358
 30
0.0
 10
64.1382598751578
 20
24.05379142683394
 30
0.0
 10
64.13746707515432
 20
23.94556113650286
 30
0.0
 10
64.13676028643184
 20
23.83991901565611
 30
0.0
 10
64.13635858252809
 20
23.73752341995929
 30
0.0
 10
64.13620731219794
 20
23.64468108974482
 30
0.0
 10
64.13632701713696
 20
23.56483231851557
 30
0.0
 10
64.13671770642804
 20
23.502525483567
 30
0.0
 10
64.13735449389092
 20
23.45986410957547
 30
0.0
 10
64.13797738725452
 20
23.45349687293261
 30
0.0
 10
64.13829179840785
 20
23.45028295168478
 30
0.0
  0
SPLINE
  5
159
330
1F
100
AcDbEntity
  8
0
  6
Continuous
 62
     8
370
    25
100
AcDbSpline
210
0.0
220
0.0
230
1.0
 70
     8
 71
     3
 72
    23
 73
    19
 74
     0
 42
0.000000001
 43
0.00000001
 40
0.0
 40
0.0
 40
0.0
 40
0.0
 40
0.0002901480650782
 40
0.0835899993219196
 40
0.1668922360496779
 40
0.2501967869721177
 40
0.3335035517885791
 40
0.4168124449701208
 40
0.5001234145695925
 40
0.5834363421511848
 40
0.6667511052183539
 40
0.7500992724832019
 40
0.7917942763473084
 40
0.8334871729099484
 40
0.857255065623385
 40
0.8929296806659354
 40
0.940511040343332
 40
1.0
 40
1.0
 40
1.0
 40
1.0
 10
64.13861869263154
 20
36.69344223091204
 30
0.0
 10
64.13861869245021
 20
36.69347605800193
 30
0.0
 10
64.1386186402067
 20
36.70322144927289
 30
0.0
 10
64.13870868672738
 20
36.65096392084927
 30
0.0
 10
64.13876736211672
 20
36.48683618815084
 30
0.0
 10
64.13884485973293
 20
36.20565652033435
 30
0.0
 10
64.13891205295971
 20
35.82133850857649
 30
0.0
 10
64.13897928904413
 20
35.33801784691516
 30
0.0
 10
64.13904548264222
 20
34.7646297862765
 30
0.0
 10
64.13909903896699
 20
34.11077746051928
 30
0.0
 10
64.13918184663709
 20
33.38775287262713
 30
0.0
 10
64.13915456293576
 20
32.73738617888917
 30
0.0
 10
64.13904739552947
 20
32.19565091191793
 30
0.0
 10
64.13886691796753
 20
31.83954809827501
 30
0.0
 10
64.13886288681567
 20
31.49901394727282
 30
0.0
 10
64.13902946050581
 20
31.13484408734688
 30
0.0
 10
64.13931111497017
 20
30.64367753280267
 30
0.0
 10
64.13957305115775
 20
30.27225895062829
 30
0.0
 10
64.13971858459216
 20
30.06589639200203
 30
0.0
  0
LINE
  5
15A
330
1F
100
AcDbEntity
  8
0
  6
Continuous
 62
     8
370
    25
100
AcDbLine
 10
65.0667431055
 20
37.3212737868
 30
0.0
 11
65.0667431055
 21
22.821274204
 31
0.0
  0
SPLINE
  5
15B
330
1F
100
AcDbEntity
  8
0
  6
Continuous
 62
     8
370
    25
100
AcDbSpline
210
0.0
220
0.0
230
1.0
 70
     8
 71
     3
 72
    44
 73
    40
 74
     0
 42
0.000000001
 43
0.00000001
 40
0.0
 40
0.0
 40
0.0
 40
0.0
 40
0.013319266841778
 40
0.0281785706017598
 40
0.044577523960773
 40
0.0625156116251024
 40
0.0819921966009808
 40
0.1030065114652559
 40
0.1276688581776861
 40
0.1504046713435871
 40
0.1720670636343915
 40
0.1860241683009501
 40
0.2060291632260975
 40
0.2280248849287916
 40
0.2500372100407219
 40
0.2782023689944982
 40
0.3063971831501223
 40
0.3346229758651571
 40
0.3628811447245868
 40
0.3815843895483409
 40
0.3923303767434818
 40
0.4076629422313722
 40
0.4275834932458661
 40
0.4597285763056985
 40
0.4849079088099832
 40
0.5078349158389425
 40
0.553652701003839
 40
0.5996150398790793
 40
0.6503019892582732
 40
0.7006097130702148
 40
0.7506757324062934
 40
0.7873037857022783
 40
0.8235520996994391
 40
0.8594246250827848
 40
0.8949252356042638
 40
0.9300576887436522
 40
0.9565858408754644
 40
0.9915674876700641
 40
0.9999999999999999
 40
0.9999999999999999
 40
0.9999999999999999
 40
0.9999999999999999
 10
54.06136556170121
 20
40.14424941489298
 30
0.0
 10
54.01521062960087
 20
40.144274282238
 30
0.0
 10
53.91756411284744
 20
40.14432689220864
 30
0.0
 10
53.7631659638095
 20
40.14431052219983
 30
0.0
 10
53.59296829570921
 20
40.14423264818157
 30
0.0
 10
53.40716989226667
 20
40.14408595106017
 30
0.0
 10
53.20604952658982
 20
40.14386981974158
 30
0.0
 10
52.98274755219175
 20
40.14358010618933
 30
0.0
 10
52.74969302951897
 20
40.14322480629451
 30
0.0
 10
52.51624251856093
 20
40.14288071775282
 30
0.0
 10
52.32065159345454
 20
40.1425963621992
 30
0.0
 10
52.13567595247743
 20
40.14233816063182
 30
0.0
 10
51.95104493020435
 20
40.14214246632524
 30
0.0
 10
51.74212738775286
 20
40.14198644646455
 30
0.0
 10
51.5095507316953
 20
40.14189491458089
 30
0.0
 10
51.26099219425771
 20
40.1418994274806
 30
0.0
 10
50.99809036038376
 20
40.14202900499756
 30
0.0
 10
50.7407610108714
 20
40.14228297213636
 30
0.0
 10
50.51791270010639
 20
40.14262045242015
 30
0.0
 10
50.35074178581498
 20
40.14295228077474
 30
0.0
 10
50.22297240879978
 20
40.14325422546627
 30
0.0
 10
50.09360151117402
 20
40.14356227229256
 30
0.0
 10
49.90788004829594
 20
40.14402119506132
 30
0.0
 10
49.70174529716541
 20
40.14456062260712
 30
0.0
 10
49.49590398758505
 20
40.14508211943863
 30
0.0
 10
49.26361349266278
 20
40.14559406577911
 30
0.0
 10
48.99544730057424
 20
40.14603993182777
 30
0.0
 10
48.69106614196452
 20
40.14579346929727
 30
0.0
 10
48.40999534828307
 20
40.14472716135874
 30
0.0
 10
48.15756282250518
 20
40.14321617560564
 30
0.0
 10
47.96151196993681
 20
40.14212427370265
 30
0.0
 10
47.81206526349649
 20
40.14133391973076
 30
0.0
 10
47.69958340265851
 20
40.14093250074909
 30
0.0
 10
47.60796092384781
 20
40.14078830791816
 30
0.0
 10
47.53692117466773
 20
40.14091997335714
 30
0.0
 10
47.48958847911117
 20
40.1412757656574
 30
0.0
 10
47.4591621345831
 20
40.14189089525383
 30
0.0
 10
47.4449554207424
 20
40.1424227076116
 30
0.0
 10
47.44656304154714
 20
40.14277240136781
 30
0.0
 10
47.44687529640895
 20
40.14284032383759
 30
0.0
  0
SPLINE
  5
15C
330
1F
100
AcDbEntity
  8
0
  6
Continuous
 62
     8
370
    25
100
AcDbSpline
210
0.0
220
0.0
230
1.0
 70
     8
 71
     3
 72
    28
 73
    24
 74
     0
 42
0.000000001
 43
0.00000001
 40
0.0
 40
0.0
 40
0.0
 40
0.0
 40
0.0005651500465002
 40
0.0800602162702521
 40
0.1562684343414977
 40
0.229189020243823
 40
0.298821267232696
 40
0.3651644696982678
 40
0.428217950329954
 40
0.4879811002629729
 40
0.5444533103531605
 40
0.5976339829366063
 40
0.671209452160541
 40
0.7373823244007301
 40
0.7961497942632269
 40
0.8475093790921854
 40
0.8914588994239416
 40
0.9279964543219402
 40
0.9571204762981534
 40
0.9788296647287424
 40
0.9902450710066488
 40
0.9974886754994858
 40
1.0
 40
1.0
 40
1.0
 40
1.0
 10
60.68897659319144
 20
40.14314952293236
 30
0.0
 10
60.68898842024896
 20
40.1431495222111
 30
0.0
 10
60.69066386341407
 20
40.14314942003651
 30
0.0
 10
60.65389246585187
 20
40.14323397688709
 30
0.0
 10
60.50818953595854
 20
40.14329162909063
 30
0.0
 10
60.28121407715101
 20
40.14336523265601
 30
0.0
 10
59.98868108031213
 20
40.1434313209948
 30
0.0
 10
59.64402937627975
 20
40.14349586975861
 30
0.0
 10
59.26039711809236
 20
40.14355704860379
 30
0.0
 10
58.8498150883424
 20
40.14361647918888
 30
0.0
 10
58.42315568404324
 20
40.14367488729726
 30
0.0
 10
57.92586098245734
 20
40.14373615534522
 30
0.0
 10
57.36254907182926
 20
40.14380413606065
 30
0.0
 10
56.74572417536836
 20
40.14387558291602
 30
0.0
 10
56.17389263186453
 20
40.14394155107767
 30
0.0
 10
55.65964784307998
 20
40.14400190313489
 30
0.0
 10
55.21151894161729
 20
40.1440564189262
 30
0.0
 10
54.83492190013779
 20
40.14410572721484
 30
0.0
 10
54.53299723970751
 20
40.14414784262265
 30
0.0
 10
54.31731769912336
 20
40.14418210325073
 30
0.0
 10
54.17733656783035
 20
40.1442127558995
 30
0.0
 10
54.10391025910189
 20
40.14422872082081
 30
0.0
 10
54.07007592636167
 20
40.14424517810377
 30
0.0
 10
54.06136556170121
 20
40.14424941489298
 30
0.0
  0
SPLINE
  5
15D
330
1F
100
AcDbEntity
  8
0
  6
Continuous
 62
     8
370
    25
100
AcDbSpline
210
0.0
220
0.0
230
1.0
 70
    24
 71
     3
 72
    20
 73
    16
 74
     0
 42
0.000000001
 43
0.00000001
 40
0.0
 40
0.0
 40
0.0
 40
0.0
 40
0.0833038234619481
 40
0.1666076635102581
 40
0.249911489340368
 40
0.3332153018801771
 40
0.4165191492991681
 40
0.4998229424998784
 40
0.5831267938021643
 40
0.666430631792197
 40
0.7497344306744167
 40
0.833038272770876
 40
0.9163421023766766
 40
0.9996459317958752
 40
1.0
 40
1.0
 40
1.0
 40
1.0
 10
63.21269313233596
 20
30.06640790910271
 30
0.0
 10
63.21269313233596
 20
30.32821480617794
 30
0.0
 10
63.21269313233596
 20
30.85182865245596
 30
0.0
 10
63.21269313233596
 20
31.62391623660569
 30
0.0
 10
63.21269313233596
 20
32.36943129304259
 30
0.0
 10
63.21269313233595
 20
33.07562741790875
 30
0.0
 10
63.21269313233596
 20
33.73041265373899
 30
0.0
 10
63.21269313233596
 20
34.32260688988077
 30
0.0
 10
63.21269313233595
 20
34.84199422420546
 30
0.0
 10
63.21269313233596
 20
35.27999683916021
 30
0.0
 10
63.21269313233595
 20
35.62796866447383
 30
0.0
 10
63.21269313233598
 20
35.88425132071165
 30
0.0
 10
63.21269313233589
 20
36.02843227636931
 30
0.0
 10
63.21269313233609
 20
36.0881754892322
 30
0.0
 10
63.21269313233596
 20
36.07112873134522
 30
0.0
 10
63.21269313233596
 20
36.07105658376415
 30
0.0
  0
SPLINE
  5
15E
330
1F
100
AcDbEntity
  8
0
  6
Continuous
 62
     8
370
    25
100
AcDbSpline
210
0.0
220
0.0
230
1.0
 70
    24
 71
     3
 72
    19
 73
    15
 74
     0
 42
0.000000001
 43
0.00000001
 40
0.0
 40
0.0
 40
0.0
 40
0.0
 40
0.0828604653630955
 40
0.1662367987221346
 40
0.2496131178506003
 40
0.3329894236771999
 40
0.4163657644133341
 40
0.4997420508840053
 40
0.5831183955068138
 40
0.6664947268057843
 40
0.7498710189629091
 40
0.8332473543718799
 40
0.916623677279322
 40
1.0
 40
1.0
 40
1.0
 40
1.0
 10
63.21269313233596
 20
24.07158966162999
 30
0.0
 10
63.21269313233596
 20
24.08124473320524
 30
0.0
 10
63.21269313233596
 20
24.10061498635396
 30
0.0
 10
63.21269313233595
 20
24.25913466509531
 30
0.0
 10
63.21269313233596
 20
24.50994299047432
 30
0.0
 10
63.21269313233595
 20
24.85791256784595
 30
0.0
 10
63.21269313233596
 20
25.29454735167282
 30
0.0
 10
63.21269313233596
 20
25.81305702336329
 30
0.0
 10
63.21269313233596
 20
26.40438752105157
 30
0.0
 10
63.21269313233596
 20
27.05846961814742
 30
0.0
 10
63.21269313233596
 20
27.76409874195878
 30
0.0
 10
63.21269313233596
 20
28.50920632601073
 30
0.0
 10
63.21269313233595
 20
29.28103535613676
 30
0.0
 10
63.21269313233596
 20
29.80461705830953
 30
0.0
 10
63.21269313233596
 20
30.06640790910271
 30
0.0
  0
SPLINE
  5
15F
330
1F
100
AcDbEntity
  8
0
  6
Continuous
 62
     8
370
    25
100
AcDbSpline
210
0.0
220
0.0
230
1.0
 70
    24
 71
     3
 72
    20
 73
    16
 74
     0
 42
0.000000001
 43
0.00000001
 40
0.0
 40
0.0
 40
0.0
 40
0.0
 40
0.0833038234619481
 40
0.1666076635102581
 40
0.249911489340368
 40
0.3332153018801771
 40
0.4165191492991681
 40
0.4998229424998784
 40
0.5831267938021643
 40
0.666430631792197
 40
0.7497344306744167
 40
0.833038272770876
 40
0.9163421023766766
 40
0.9996459317958752
 40
1.0
 40
1.0
 40
1.0
 40
1.0
 10
44.92079319792491
 20
30.0761400817598
 30
0.0
 10
44.92079319792491
 20
29.81433318468456
 30
0.0
 10
44.92079319792491
 20
29.29071933840654
 30
0.0
 10
44.92079319792491
 20
28.51863175425681
 30
0.0
 10
44.92079319792491
 20
27.77311669781992
 30
0.0
 10
44.92079319792491
 20
27.06692057295377
 30
0.0
 10
44.92079319792491
 20
26.41213533712352
 30
0.0
 10
44.9207931979249
 20
25.81994110098174
 30
0.0
 10
44.92079319792491
 20
25.30055376665705
 30
0.0
 10
44.92079319792491
 20
24.8625511517023
 30
0.0
 10
44.92079319792492
 20
24.51457932638868
 30
0.0
 10
44.92079319792489
 20
24.25829667015086
 30
0.0
 10
44.92079319792497
 20
24.1141157144932
 30
0.0
 10
44.92079319792477
 20
24.05437250163031
 30
0.0
 10
44.92079319792491
 20
24.07141925951728
 30
0.0
 10
44.92079319792491
 20
24.07149140709836
 30
0.0
  0
SPLINE
  5
160
330
1F
100
AcDbEntity
  8
0
  6
Continuous
 62
     8
370
    25
100
AcDbSpline
210
0.0
220
0.0
230
1.0
 70
    24
 71
     3
 72
    19
 73
    15
 74
     0
 42
0.000000001
 43
0.00000001
 40
0.0
 40
0.0
 40
0.0
 40
0.0
 40
0.0828604653630955
 40
0.1662367987221346
 40
0.2496131178506003
 40
0.3329894236771999
 40
0.4163657644133341
 40
0.4997420508840053
 40
0.5831183955068138
 40
0.6664947268057843
 40
0.7498710189629091
 40
0.8332473543718799
 40
0.916623677279322
 40
1.0
 40
1.0
 40
1.0
 40
1.0
 10
44.92079319792491
 20
36.07095832923252
 30
0.0
 10
44.92079319792491
 20
36.06130325765726
 30
0.0
 10
44.92079319792491
 20
36.04193300450854
 30
0.0
 10
44.92079319792491
 20
35.8834133257672
 30
0.0
 10
44.92079319792491
 20
35.63260500038819
 30
0.0
 10
44.92079319792492
 20
35.28463542301656
 30
0.0
 10
44.92079319792491
 20
34.84800063918969
 30
0.0
 10
44.9207931979249
 20
34.32949096749923
 30
0.0
 10
44.92079319792491
 20
33.73816046981094
 30
0.0
 10
44.92079319792491
 20
33.08407837271508
 30
0.0
 10
44.92079319792491
 20
32.37844924890373
 30
0.0
 10
44.92079319792491
 20
31.63334166485178
 30
0.0
 10
44.92079319792491
 20
30.86151263472575
 30
0.0
 10
44.92079319792491
 20
30.33793093255298
 30
0.0
 10
44.92079319792491
 20
30.0761400817598
 30
0.0
  0
SPLINE
  5
161
330
1F
100
AcDbEntity
  8
0
  6
Continuous
 62
     8
370
    25
100
AcDbSpline
210
0.0
220
0.0
230
1.0
 70
    24
 71
     3
 72
    19
 73
    15
 74
     0
 42
0.000000001
 43
0.00000001
 40
0.0
 40
0.0
 40
0.0
 40
0.0
 40
0.0833763227206779
 40
0.1667526456281201
 40
0.2501289810370909
 40
0.3335052731942157
 40
0.4168816044931862
 40
0.5002579491159946
 40
0.5836342355866659
 40
0.6670105763228
 40
0.7503868821493995
 40
0.8337632012778654
 40
0.9171395346369046
 40
1.0
 40
1.0
 40
1.0
 40
1.0
 10
54.06187707880188
 20
39.21722396263678
 30
0.0
 10
53.80008622800871
 20
39.21722396263678
 30
0.0
 10
53.27650452583594
 20
39.21722396263678
 30
0.0
 10
52.50467549570991
 20
39.21722396263678
 30
0.0
 10
51.75956791165795
 20
39.21722396263678
 30
0.0
 10
51.0539387878466
 20
39.21722396263678
 30
0.0
 10
50.39985669075075
 20
39.21722396263678
 30
0.0
 10
49.80852619306246
 20
39.21722396263678
 30
0.0
 10
49.290016521372
 20
39.21722396263678
 30
0.0
 10
48.85338173754512
 20
39.21722396263678
 30
0.0
 10
48.5054121601735
 20
39.21722396263678
 30
0.0
 10
48.25460383479448
 20
39.21722396263678
 30
0.0
 10
48.09608415605314
 20
39.21722396263678
 30
0.0
 10
48.07671390290442
 20
39.21722396263678
 30
0.0
 10
48.06705883132916
 20
39.21722396263678
 30
0.0
  0
SPLINE
  5
162
330
1F
100
AcDbEntity
  8
0
  6
Continuous
 62
     8
370
    25
100
AcDbSpline
210
0.0
220
0.0
230
1.0
 70
    24
 71
     3
 72
    20
 73
    16
 74
     0
 42
0.000000001
 43
0.00000001
 40
0.0
 40
0.0
 40
0.0
 40
0.0
 40
0.0003540682041247
 40
0.0836578976233233
 40
0.1669617272291239
 40
0.2502655693255832
 40
0.3335693682078029
 40
0.4168732061978356
 40
0.5001770575001214
 40
0.5834808507008317
 40
0.6667846981198228
 40
0.7500885106596319
 40
0.8333923364897418
 40
0.9166961765380518
 40
0.9999999999999999
 40
0.9999999999999999
 40
0.9999999999999999
 40
0.9999999999999999
 10
60.06652575346332
 20
39.21722396263678
 30
0.0
 10
60.0665979010444
 20
39.21722396263678
 30
0.0
 10
60.08364465893141
 20
39.21722396263672
 30
0.0
 10
60.02390144606847
 20
39.21722396263681
 30
0.0
 10
59.87972049041083
 20
39.21722396263677
 30
0.0
 10
59.62343783417301
 20
39.21722396263679
 30
0.0
 10
59.27546600885938
 20
39.21722396263678
 30
0.0
 10
58.83746339390463
 20
39.21722396263678
 30
0.0
 10
58.31807605957994
 20
39.21722396263679
 30
0.0
 10
57.72588182343816
 20
39.21722396263678
 30
0.0
 10
57.07109658760793
 20
39.21722396263678
 30
0.0
 10
56.36490046274177
 20
39.21722396263678
 30
0.0
 10
55.61938540630487
 20
39.21722396263678
 30
0.0
 10
54.84729782215515
 20
39.21722396263678
 30
0.0
 10
54.32368397587712
 20
39.21722396263678
 30
0.0
 10
54.06187707880188
 20
39.21722396263678
 30
0.0
  0
LWPOLYLINE
  5
163
330
1F
100
AcDbEntity
  8
0
  6
Continuous
 62
     8
370
    25
100
AcDbPolyline
 90
        9
 70
   128
 43
0.0
 10
48.6324284448
 20
35.3302881959
 10
48.4448861553
 20
35.5117810796
 10
48.2825454547
 20
35.6688849534
 10
48.1461341715
 20
35.8008957374
 10
48.0362641847
 20
35.9072215761
 10
47.9534276983
 20
35.9873856323
 10
47.89799631
 20
36.0410288813
 10
47.8702182172
 20
36.0679110418
 10
47.8667429871
 20
36.0712740476
  0
LWPOLYLINE
  5
164
330
1F
100
AcDbEntity
  8
0
  6
Continuous
 62
     8
370
    25
100
AcDbPolyline
 90
        9
 70
   128
 43
0.0
 10
60.2667433432
 20
36.0712740476
 10
60.263268113
 20
36.0679110418
 10
60.2354900202
 20
36.0410288813
 10
60.1800586319
 20
35.9873856323
 10
60.0972221455
 20
35.9072215761
 10
59.9873521588
 20
35.8008957374
 10
59.8509408756
 20
35.6688849534
 10
59.688600175
 20
35.5117810796
 10
59.5010578855
 20
35.3302881959
  0
LWPOLYLINE
  5
165
330
1F
100
AcDbEntity
  8
0
  6
Continuous
 62
     8
370
    25
100
AcDbPolyline
 90
        9
 70
   128
 43
0.0
 10
48.066743113
 20
36.2712741735
 10
48.0701061188
 20
36.2677989433
 10
48.0969882792
 20
36.2400208505
 10
48.1506315282
 20
36.1845894622
 10
48.2307955845
 20
36.1017529758
 10
48.3371214232
 20
35.9918829891
 10
48.4691322072
 20
35.8554717059
 10
48.626236081
 20
35.6931310053
 10
48.8077289647
 20
35.5055887158
  0
LWPOLYLINE
  5
166
330
1F
100
AcDbEntity
  8
0
  6
Continuous
 62
     8
370
    25
100
AcDbPolyline
 90
        9
 70
   128
 43
0.0
 10
59.2781346514
 20
35.4563785622
 10
59.4682590327
 20
35.652840128
 10
59.6333797312
 20
35.8234654086
 10
59.7727330624
 20
35.9674637111
 10
59.885673154
 20
36.0841686743
 10
59.9716779998
 20
36.173040131
 10
60.0303489937
 20
36.2336664366
 10
60.0614141895
 20
36.2657677288
 10
60.0667432173
 20
36.2712741735
  0
LINE
  5
167
330
1F
100
AcDbEntity
  8
0
  6
Continuous
 62
     7
370
    18
100
AcDbLine
 10
59.816281469
 20
51.2060482729
 30
0.0
 11
60.1595556651
 21
40.2212739954
 31
0.0
  0
LINE
  5
168
330
1F
100
AcDbEntity
  8
0
  6
Continuous
 62
     7
370
    18
100
AcDbLine
 10
48.3172048613
 20
51.2060482729
 30
0.0
 11
47.9739306651
 21
40.2212739954
 31
0.0
  0
LINE
  5
169
330
1F
100
AcDbEntity
  8
0
  6
Continuous
 62
     7
370
    18
100
AcDbLine
 10
47.3054306651
 20
40.2212739954
 30
0.0
 11
60.8280556651
 21
40.2212739954
 31
0.0
  0
LINE
  5
16A
330
1F
100
AcDbEntity
  8
0
  6
CENTERX2
 62
     7
370
    18
100
AcDbLine
 10
54.0667431651
 20
49.9819141024
 30
0.0
 11
54.0667431651
 21
22.7648683447
 31
0.0
  0
LINE
  5
16B
330
1F
100
AcDbEntity
  8
0
  6
CENTERX2
 62
     7
370
    18
100
AcDbLine
 10
54.0667431651
 20
49.9819141024
 30
0.0
 11
54.0667431651
 21
53.0712739954
 31
0.0
  0
LINE
  5
16C
330
1F
100
AcDbEntity
  8
0
  6
CENTERX2
 62
     7
370
    18
100
AcDbLine
 10
31.5667431651
 20
30.0712739954
 30
0.0
 11
76.5667431651
 21
30.0712739954
 31
0.0
  0
ARC
  5
16D
330
1F
100
AcDbEntity
  8
0
  6
Continuous
 62
     7
370
    25
100
AcDbCircle
 10
94.6226050695
 20
41.0712739954
 30
0.0
 40
1.000000000000002
100
AcDbArc
 50
239.2294876038
 51
247.9510506537
  0
ARC
  5
16E
330
1F
100
AcDbEntity
  8
0
  6
Continuous
 62
     7
370
    25
100
AcDbCircle
 10
107.1226050695
 20
41.0712739954
 30
0.0
 40
0.9999999999999991
100
AcDbArc
 50
291.6057871575
 51
300.7705123962
  0
LINE
  5
16F
330
1F
100
AcDbEntity
  8
0
  6
Continuous
 62
     7
370
    25
100
AcDbLine
 10
107.6342057986
 20
40.2120506296
 30
0.0
 11
107.3288977695
 21
49.98191501
 31
0.0
  0
LINE
  5
170
330
1F
100
AcDbEntity
  8
0
  6
Continuous
 62
     7
370
    25
100
AcDbLine
 10
94.4163123695
 20
49.98191501
 30
0.0
 11
94.1110043404
 21
40.2120506296
 31
0.0
  0
SPLINE
  5
171
330
1F
100
AcDbEntity
  8
0
  6
Continuous
 62
     7
370
    25
100
AcDbSpline
210
0.0
220
0.0
230
1.0
 70
     8
 71
     3
 72
    11
 73
     7
 74
     0
 42
0.000000001
 43
0.00000001
 40
0.0
 40
0.0
 40
0.0
 40
0.0
 40
0.2500907897024823
 40
0.5000509169085089
 40
0.7499732838271033
 40
1.0
 40
1.0
 40
1.0
 40
1.0
 10
106.8702065003835
 20
39.21722396263678
 30
0.0
 10
106.878843710756
 20
39.31595031166646
 30
0.0
 10
106.896113618902
 20
39.51335142913283
 30
0.0
 10
107.0293670654735
 20
39.78273740038043
 30
0.0
 10
107.2285467823095
 20
40.00776735718414
 30
0.0
 10
107.4048124942164
 20
40.09820955708695
 30
0.0
 10
107.4929637452387
 20
40.14344009557564
 30
0.0
  0
LINE
  5
172
330
1F
100
AcDbEntity
  8
0
  6
Continuous
 62
     7
370
    25
100
AcDbLine
 10
107.3288977695
 20
49.98191501
 30
0.0
 11
106.1226049987
 21
52.0712738762
 31
0.0
  0
LINE
  5
173
330
1F
100
AcDbEntity
  8
0
  6
Continuous
 62
     7
370
    25
100
AcDbLine
 10
95.6226051403
 20
52.0712738762
 30
0.0
 11
94.4163123695
 21
49.98191501
 31
0.0
  0
LINE
  5
174
330
1F
100
AcDbEntity
  8
0
  6
Continuous
 62
     7
370
    25
100
AcDbLine
 10
94.8726050174
 20
39.2172239626
 30
0.0
 11
94.8726050174
 21
36.7712737898
 31
0.0
  0
LINE
  5
175
330
1F
100
AcDbEntity
  8
0
  6
Continuous
 62
     7
370
    25
100
AcDbLine
 10
106.8726051217
 20
36.7712737898
 30
0.0
 11
106.8726051217
 21
39.2172239626
 31
0.0
  0
CIRCLE
  5
176
330
1F
100
AcDbEntity
  8
0
  6
Continuous
 62
     7
370
    25
100
AcDbCircle
 10
100.8726050695
 20
30.0712739954
 30
0.0
 40
4.618423633796667
  0
CIRCLE
  5
177
330
1F
100
AcDbEntity
  8
0
  6
Continuous
 62
     7
370
    25
100
AcDbCircle
 10
100.8726050695
 20
30.0712739954
 30
0.0
 40
5.000000000000014
  0
CIRCLE
  5
178
330
1F
100
AcDbEntity
  8
0
  6
Continuous
 62
     7
370
    25
100
AcDbCircle
 10
100.8726050695
 20
30.0712739954
 30
0.0
 40
7.250000000000004
  0
CIRCLE
  5
179
330
1F
100
AcDbEntity
  8
0
  6
Continuous
 62
     7
370
    25
100
AcDbCircle
 10
100.8726050695
 20
30.0712739954
 30
0.0
 40
6.75
  0
CIRCLE
  5
17A
330
1F
100
AcDbEntity
  8
0
  6
Continuous
 62
     7
370
    25
100
AcDbCircle
 10
100.8726050695
 20
30.0712739954
 30
0.0
 40
4.342497099879523
  0
CIRCLE
  5
17B
330
1F
100
AcDbEntity
  8
0
  6
Continuous
 62
     7
370
    25
100
AcDbCircle
 10
100.8726050695
 20
30.0712739954
 30
0.0
 40
4.283000000000001
  0
CIRCLE
  5
17C
330
1F
100
AcDbEntity
  8
0
  6
Continuous
 62
     7
370
    25
100
AcDbCircle
 10
100.8726050695
 20
30.0712739954
 30
0.0
 40
1.999999999999986
  0
LINE
  5
17D
330
1F
100
AcDbEntity
  8
0
  6
Continuous
 62
     7
370
    25
100
AcDbLine
 10
100.8726050695
 20
40.2120506296
 30
0.0
 11
94.1110043404
 21
40.2120506296
 31
0.0
  0
LINE
  5
17E
330
1F
100
AcDbEntity
  8
0
  6
Continuous
 62
     7
370
    25
100
AcDbLine
 10
107.6342057986
 20
40.2120506296
 30
0.0
 11
100.8726050695
 21
40.2120506296
 31
0.0
  0
LINE
  5
17F
330
1F
100
AcDbEntity
  8
0
  6
Continuous
 62
     7
370
    25
100
AcDbLine
 10
107.3288977695
 20
49.98191501
 30
0.0
 11
94.4163123695
 21
49.98191501
 31
0.0
  0
SPLINE
  5
180
330
1F
100
AcDbEntity
  8
0
  6
Continuous
 62
     7
370
    25
100
AcDbSpline
210
0.0
220
0.0
230
1.0
 70
     8
 71
     3
 72
     9
 73
     5
 74
     0
 42
0.000000001
 43
0.00000001
 40
0.0018135121066271
 40
0.0018135121066271
 40
0.0018135121066271
 40
0.0018135121066271
 40
0.5018135121066271
 40
1.0
 40
1.0
 40
1.0
 40
1.0
 10
94.87050248977113
 20
39.21722437365734
 30
0.0
 10
94.87054435210675
 20
39.41495763237388
 30
0.0
 10
94.74984594483763
 20
39.80926122437481
 30
0.0
 10
94.42983682092327
 20
40.06915530147361
 30
0.0
 10
94.2472780443113
 20
40.14344014779888
 30
0.0
  0
LINE
  5
181
330
1F
100
AcDbEntity
  8
0
  6
Continuous
 62
     7
370
    25
100
AcDbLine
 10
94.8726050174
 20
34.1409790235
 30
0.0
 11
94.8726050174
 21
34.8712742234
 31
0.0
  0
LINE
  5
182
330
1F
100
AcDbEntity
  8
0
  6
Continuous
 62
     7
370
    25
100
AcDbLine
 10
94.8726050174
 20
34.8712742234
 30
0.0
 11
95.0726051433
 21
34.8712742234
 31
0.0
  0
LINE
  5
183
330
1F
100
AcDbEntity
  8
0
  6
Continuous
 62
     7
370
    25
100
AcDbLine
 10
94.8726050174
 20
25.2712737674
 30
0.0
 11
94.8726050174
 21
26.0015689673
 31
0.0
  0
LINE
  5
184
330
1F
100
AcDbEntity
  8
0
  6
Continuous
 62
     7
370
    25
100
AcDbLine
 10
94.8726050174
 20
25.2712737674
 30
0.0
 11
95.0726051433
 21
25.2712737674
 31
0.0
  0
LINE
  5
185
330
1F
100
AcDbEntity
  8
0
  6
Continuous
 62
     7
370
    25
100
AcDbLine
 10
106.6726049958
 20
34.8712742234
 30
0.0
 11
106.8726051217
 21
34.8712742234
 31
0.0
  0
LINE
  5
186
330
1F
100
AcDbEntity
  8
0
  6
Continuous
 62
     7
370
    25
100
AcDbLine
 10
106.8726051217
 20
34.8712742234
 30
0.0
 11
106.8726051217
 21
34.1409790235
 31
0.0
  0
LINE
  5
187
330
1F
100
AcDbEntity
  8
0
  6
Continuous
 62
     7
370
    25
100
AcDbLine
 10
106.8726051217
 20
26.0015689673
 30
0.0
 11
106.8726051217
 21
25.2712737674
 31
0.0
  0
LINE
  5
188
330
1F
100
AcDbEntity
  8
0
  6
Continuous
 62
     7
370
    25
100
AcDbLine
 10
106.8726051217
 20
25.2712737674
 30
0.0
 11
106.6726049958
 21
25.2712737674
 31
0.0
  0
LINE
  5
189
330
1F
100
AcDbEntity
  8
0
  6
Continuous
 62
     7
370
    25
100
AcDbLine
 10
106.6726049958
 20
34.8712742234
 30
0.0
 11
106.6726049958
 21
35.0712738837
 31
0.0
  0
ARC
  5
18A
330
1F
100
AcDbEntity
  8
0
  6
Continuous
 62
     7
370
    25
100
AcDbCircle
 10
106.6726050695
 20
34.8712739954
 30
0.0
 40
0.2000000000000171
100
AcDbArc
 50
0.0
 51
90.0
  0
LINE
  5
18B
330
1F
100
AcDbEntity
  8
0
  6
Continuous
 62
     7
370
    25
100
AcDbLine
 10
106.6726049958
 20
25.0712741072
 30
0.0
 11
106.1226049987
 21
25.0712741072
 31
0.0
  0
LINE
  5
18C
330
1F
100
AcDbEntity
  8
0
  6
Continuous
 62
     7
370
    25
100
AcDbLine
 10
106.6726049958
 20
25.2712737674
 30
0.0
 11
106.6726049958
 21
25.0712741072
 31
0.0
  0
ARC
  5
18D
330
1F
100
AcDbEntity
  8
0
  6
Continuous
 62
     7
370
    25
100
AcDbCircle
 10
106.6726050695
 20
25.2712739954
 30
0.0
 40
0.2000000000000171
100
AcDbArc
 50
270.0
 51
0.0
  0
LINE
  5
18E
330
1F
100
AcDbEntity
  8
0
  6
Continuous
 62
     7
370
    25
100
AcDbLine
 10
95.0726051433
 20
34.8712742234
 30
0.0
 11
95.0726051433
 21
35.0712738837
 31
0.0
  0
LINE
  5
18F
330
1F
100
AcDbEntity
  8
0
  6
Continuous
 62
     7
370
    25
100
AcDbLine
 10
95.0726051433
 20
35.0712738837
 30
0.0
 11
95.6226051403
 21
35.0712738837
 31
0.0
  0
ARC
  5
190
330
1F
100
AcDbEntity
  8
0
  6
Continuous
 62
     7
370
    25
100
AcDbCircle
 10
95.0726050695
 20
34.8712739954
 30
0.0
 40
0.2000000000000028
100
AcDbArc
 50
90.0
 51
180.0
  0
LINE
  5
191
330
1F
100
AcDbEntity
  8
0
  6
Continuous
 62
     7
370
    25
100
AcDbLine
 10
95.0726051433
 20
25.0712741072
 30
0.0
 11
95.0726051433
 21
25.2712737674
 31
0.0
  0
ARC
  5
192
330
1F
100
AcDbEntity
  8
0
  6
Continuous
 62
     7
370
    25
100
AcDbCircle
 10
95.0726050695
 20
25.2712739954
 30
0.0
 40
0.2000000000000028
100
AcDbArc
 50
180.0
 51
270.0
  0
LINE
  5
193
330
1F
100
AcDbEntity
  8
0
  6
Continuous
 62
     7
370
    25
100
AcDbLine
 10
106.1226049987
 20
35.0712738837
 30
0.0
 11
106.6726049958
 21
35.0712738837
 31
0.0
  0
LINE
  5
194
330
1F
100
AcDbEntity
  8
0
  6
Continuous
 62
     7
370
    25
100
AcDbLine
 10
95.6226051403
 20
25.0712741072
 30
0.0
 11
95.0726051433
 21
25.0712741072
 31
0.0
  0
LINE
  5
195
330
1F
100
AcDbEntity
  8
0
  6
Continuous
 62
     7
370
    25
100
AcDbLine
 10
100.8726050695
 20
52.0712738762
 30
0.0
 11
106.1226049987
 21
52.0712738762
 31
0.0
  0
LINE
  5
196
330
1F
100
AcDbEntity
  8
0
  6
Continuous
 62
     7
370
    25
100
AcDbLine
 10
95.6226051403
 20
52.0712738762
 30
0.0
 11
100.8726050695
 21
52.0712738762
 31
0.0
  0
SPLINE
  5
197
330
1F
100
AcDbEntity
  8
0
  6
Continuous
 62
     7
370
    25
100
AcDbSpline
210
0.0
220
0.0
230
1.0
 70
    24
 71
     3
 72
    14
 73
    10
 74
     0
 42
0.000000001
 43
0.00000001
 40
0.0
 40
0.0
 40
0.0
 40
0.0
 40
0.25
 40
0.25
 40
0.5
 40
0.5
 40
0.75
 40
0.75
 40
1.0
 40
1.0
 40
1.0
 40
1.0
 10
106.8726050695204
 20
36.77127399543125
 30
0.0
 10
106.8726050695204
 20
36.77127399543125
 30
0.0
 10
106.8646396508866
 20
36.77127399543125
 30
0.0
 10
106.8327064741412
 20
36.77127399543126
 30
0.0
 10
106.8087384830972
 20
36.77127399543126
 30
0.0
 10
106.7445886699374
 20
36.77127399543126
 30
0.0
 10
106.7044063684349
 20
36.77127399543126
 30
0.0
 10
106.6074870721153
 20
36.77127399543126
 30
0.0
 10
106.5507493246853
 20
36.77127399543126
 30
0.0
 10
106.4855082953269
 20
36.77127399543126
 30
0.0
  0
LINE
  5
198
330
1F
100
AcDbEntity
  8
0
  6
Continuous
 62
     7
370
    25
100
AcDbLine
 10
104.6702987132
 20
36.7712737898
 30
0.0
 11
106.4855083441
 21
36.7712737898
 31
0.0
  0
LINE
  5
199
330
1F
100
AcDbEntity
  8
0
  6
Continuous
 62
     7
370
    25
100
AcDbLine
 10
97.555980281
 20
36.5181724446
 30
0.0
 11
97.555980281
 21
36.7712737898
 31
0.0
  0
LINE
  5
19A
330
1F
100
AcDbEntity
  8
0
  6
Continuous
 62
     7
370
    25
100
AcDbLine
 10
95.2597017949
 20
36.7712737898
 30
0.0
 11
97.555980281
 21
36.7712737898
 31
0.0
  0
SPLINE
  5
19B
330
1F
100
AcDbEntity
  8
0
  6
Continuous
 62
     7
370
    25
100
AcDbSpline
210
0.0
220
0.0
230
1.0
 70
    24
 71
     3
 72
    14
 73
    10
 74
     0
 42
0.000000001
 43
0.00000001
 40
0.0
 40
0.0
 40
0.0
 40
0.0
 40
0.25
 40
0.25
 40
0.5
 40
0.5
 40
0.75
 40
0.75
 40
1.0
 40
1.0
 40
1.0
 40
1.0
 10
94.87260506952039
 20
36.77127399543125
 30
0.0
 10
94.87260506952039
 20
36.77127399543125
 30
0.0
 10
94.8805704881542
 20
36.77127399543125
 30
0.0
 10
94.91250366489962
 20
36.77127399543126
 30
0.0
 10
94.9364716559436
 20
36.77127399543126
 30
0.0
 10
95.00062146910335
 20
36.77127399543126
 30
0.0
 10
95.04080377060588
 20
36.77127399543126
 30
0.0
 10
95.13772306692546
 20
36.77127399543126
 30
0.0
 10
95.19446081435548
 20
36.77127399543126
 30
0.0
 10
95.25970184371394
 20
36.77127399543126
 30
0.0
  0
LINE
  5
19C
330
1F
100
AcDbEntity
  8
0
  6
Continuous
 62
     7
370
    25
100
AcDbLine
 10
106.6726049958
 20
35.0712738837
 30
0.0
 11
106.6726049958
 21
36.0712740476
 31
0.0
  0
LINE
  5
19D
330
1F
100
AcDbEntity
  8
0
  6
Continuous
 62
     7
370
    25
100
AcDbLine
 10
106.6726049958
 20
36.0712740476
 30
0.0
 11
106.8726051217
 21
36.0712740476
 31
0.0
  0
LINE
  5
19E
330
1F
100
AcDbEntity
  8
0
  6
Continuous
 62
     7
370
    25
100
AcDbLine
 10
106.8726051217
 20
36.0712740476
 30
0.0
 11
106.8726051217
 21
34.8712742234
 31
0.0
  0
LINE
  5
19F
330
1F
100
AcDbEntity
  8
0
  6
Continuous
 62
     7
370
    25
100
AcDbLine
 10
95.0726051433
 20
36.0712740476
 30
0.0
 11
95.0726051433
 21
35.0712738837
 31
0.0
  0
LINE
  5
1A0
330
1F
100
AcDbEntity
  8
0
  6
Continuous
 62
     7
370
    25
100
AcDbLine
 10
94.8726050174
 20
36.0712740476
 30
0.0
 11
95.0726051433
 21
36.0712740476
 31
0.0
  0
LINE
  5
1A1
330
1F
100
AcDbEntity
  8
0
  6
Continuous
 62
     7
370
    25
100
AcDbLine
 10
94.8726050174
 20
34.8712742234
 30
0.0
 11
94.8726050174
 21
36.0712740476
 31
0.0
  0
LWPOLYLINE
  5
1A2
330
1F
100
AcDbEntity
  8
0
  6
Continuous
 62
     7
370
    25
100
AcDbPolyline
 90
        9
 70
   128
 43
0.0
 10
104.6702987132
 20
36.7712737898
 10
104.672731095
 20
36.7322560305
 10
104.6799346423
 20
36.694737235
 10
104.6916329851
 20
36.6601600217
 10
104.7073760619
 20
36.6298524568
 10
104.7265589786
 20
36.6049800905
 10
104.7484445935
 20
36.586497994
 10
104.7721919222
 20
36.5751167665
 10
104.7968882685
 20
36.5712741295
  0
SPLINE
  5
1A3
330
1F
100
AcDbEntity
  8
0
  6
Continuous
 62
     7
370
    25
100
AcDbSpline
210
0.0
220
0.0
230
1.0
 70
     8
 71
     3
 72
     8
 73
     4
 74
     0
 42
0.000000001
 43
0.00000001
 40
0.0
 40
0.0
 40
0.0
 40
0.0
 40
1.0
 40
1.0
 40
1.0
 40
1.0
 10
95.25970184371394
 20
36.77127399543126
 30
0.0
 10
95.25851832316864
 20
36.71891211552924
 30
0.0
 10
95.23717059510108
 20
36.66687271992221
 30
0.0
 10
95.20132121381599
 20
36.62984839164853
 30
0.0
  0
SPLINE
  5
1A4
330
1F
100
AcDbEntity
  8
0
  6
Continuous
 62
     7
370
    25
100
AcDbSpline
210
0.0
220
0.0
230
1.0
 70
     8
 71
     3
 72
    12
 73
     8
 74
     0
 42
0.000000001
 43
0.00000001
 40
0.0
 40
0.0
 40
0.0
 40
0.0
 40
0.25
 40
0.25
 40
0.5
 40
0.5
 40
1.0
 40
1.0
 40
1.0
 40
1.0
 10
97.555980279165
 20
36.77127399543126
 30
0.0
 10
97.555980279165
 20
36.7340931628792
 30
0.0
 10
97.53629839064928
 20
36.69983308764571
 30
0.0
 10
97.48467796495018
 20
36.64810741819936
 30
0.0
 10
97.45267618827006
 20
36.62875267132382
 30
0.0
 10
97.35311445460687
 20
36.58434335767961
 30
0.0
 10
97.279891104546
 20
36.57127399543126
 30
0.0
 10
97.20654451355571
 20
36.57127399543126
 30
0.0
  0
SPLINE
  5
1A5
330
1F
100
AcDbEntity
  8
0
  6
Continuous
 62
     7
370
    25
100
AcDbSpline
210
0.0
220
0.0
230
1.0
 70
     8
 71
     3
 72
    13
 73
     9
 74
     0
 42
0.000000001
 43
0.00000001
 40
0.0
 40
0.0
 40
0.0
 40
0.0
 40
0.284282899174241
 40
0.5198370183905274
 40
0.7070414958140503
 40
0.8468107266085059
 40
0.9415978142010789
 40
1.0
 40
1.0
 40
1.0
 40
1.0
 10
95.20132121381599
 20
36.62984839164853
 30
0.0
 10
95.19019866942055
 20
36.61979605126888
 30
0.0
 10
95.16986009002575
 20
36.60141443680671
 30
0.0
 10
95.13732410954165
 20
36.5847561800915
 30
0.0
 10
95.11021645090023
 20
36.57597145350917
 30
0.0
 10
95.09075859219726
 20
36.57237185440002
 30
0.0
 10
95.07663188063106
 20
36.57131970834646
 30
0.0
 10
95.07371652539655
 20
36.57128661283168
 30
0.0
 10
95.07260506952039
 20
36.57127399543126
 30
0.0
  0
LINE
  5
1A6
330
1F
100
AcDbEntity
  8
0
  6
Continuous
 62
     7
370
    25
100
AcDbLine
 10
95.0726051433
 20
36.5712741295
 30
0.0
 11
95.0726051433
 21
36.0712740476
 31
0.0
  0
ARC
  5
1A7
330
1F
100
AcDbEntity
  8
0
  6
Continuous
 62
     7
370
    25
100
AcDbCircle
 10
95.0726050695
 20
36.3712739954
 30
0.0
 40
0.2000000000000028
100
AcDbArc
 50
90.0
 51
180.0
  0
LINE
  5
1A8
330
1F
100
AcDbEntity
  8
0
  6
Continuous
 62
     7
370
    25
100
AcDbLine
 10
94.8726050174
 20
36.0712740476
 30
0.0
 11
94.8726050174
 21
36.3712740036
 31
0.0
  0
LINE
  5
1A9
330
1F
100
AcDbEntity
  8
0
  6
Continuous
 62
     7
370
    25
100
AcDbLine
 10
95.0726051433
 20
36.5712741295
 30
0.0
 11
97.2065445585
 21
36.5712741295
 31
0.0
  0
LINE
  5
1AA
330
1F
100
AcDbEntity
  8
0
  6
Continuous
 62
     7
370
    25
100
AcDbLine
 10
106.6726049958
 20
36.0712740476
 30
0.0
 11
106.6726049958
 21
36.3712740036
 31
0.0
  0
LINE
  5
1AB
330
1F
100
AcDbEntity
  8
0
  6
Continuous
 62
     7
370
    25
100
AcDbLine
 10
106.6726049958
 20
36.3712740036
 30
0.0
 11
106.8726051217
 21
36.3712740036
 31
0.0
  0
LINE
  5
1AC
330
1F
100
AcDbEntity
  8
0
  6
Continuous
 62
     7
370
    25
100
AcDbLine
 10
106.8726051217
 20
36.3712740036
 30
0.0
 11
106.8726051217
 21
36.0712740476
 31
0.0
  0
LINE
  5
1AD
330
1F
100
AcDbEntity
  8
0
  6
Continuous
 62
     7
370
    25
100
AcDbLine
 10
104.7968882685
 20
36.5712741295
 30
0.0
 11
106.6726049958
 21
36.5712741295
 31
0.0
  0
LINE
  5
1AE
330
1F
100
AcDbEntity
  8
0
  6
Continuous
 62
     7
370
    25
100
AcDbLine
 10
106.6726049958
 20
36.5712741295
 30
0.0
 11
106.6726049958
 21
36.3712740036
 31
0.0
  0
ARC
  5
1AF
330
1F
100
AcDbEntity
  8
0
  6
Continuous
 62
     7
370
    25
100
AcDbCircle
 10
106.6726050695
 20
36.3712739954
 30
0.0
 40
0.2000000000000171
100
AcDbArc
 50
0.0
 51
90.0
  0
SPLINE
  5
1B0
330
1F
100
AcDbEntity
  8
0
  6
Continuous
 62
     7
370
    25
100
AcDbSpline
210
0.0
220
0.0
230
1.0
 70
     8
 71
     3
 72
    10
 73
     6
 74
     0
 42
0.000000001
 43
0.00000001
 40
0.0
 40
0.0
 40
0.0
 40
0.0
 40
0.5
 40
0.5
 40
1.0
 40
1.0
 40
1.0
 40
1.0
 10
106.5438889252248
 20
36.62984839164854
 30
0.0
 10
106.52155928449
 20
36.65273252314491
 30
0.0
 10
106.5058232318575
 20
36.68026366835999
 30
0.0
 10
106.4880634009592
 20
36.73070441563925
 30
0.0
 10
106.4855082953269
 20
36.75345289182378
 30
0.0
 10
106.4855082953269
 20
36.77127399543126
 30
0.0
  0
SPLINE
  5
1B1
330
1F
100
AcDbEntity
  8
0
  6
Continuous
 62
     7
370
    25
100
AcDbSpline
210
0.0
220
0.0
230
1.0
 70
     8
 71
     3
 72
    12
 73
     8
 74
     0
 42
0.000000001
 43
0.00000001
 40
0.0
 40
0.0
 40
0.0
 40
0.0
 40
0.25
 40
0.25
 40
0.5
 40
0.5
 40
1.0
 40
1.0
 40
1.0
 40
1.0
 10
106.5438889252248
 20
36.62984839164854
 30
0.0
 10
106.5550537455922
 20
36.61840632590035
 30
0.0
 10
106.568136359722
 20
36.60817644664561
 30
0.0
 10
106.5954055345749
 20
36.5912332569729
 30
0.0
 10
106.609592095298
 20
36.58451994655492
 30
0.0
 10
106.6497102359606
 20
36.57129316233087
 30
0.0
 10
106.6726050695204
 20
36.57127399543126
 30
0.0
 10
106.6726050695204
 20
36.57127399543126
 30
0.0
  0
SPLINE
  5
1B2
330
1F
100
AcDbEntity
  8
0
  6
Continuous
 62
     7
370
    25
100
AcDbSpline
210
0.0
220
0.0
230
1.0
 70
     8
 71
     3
 72
    12
 73
     8
 74
     0
 42
0.000000001
 43
0.00000001
 40
0.0
 40
0.0
 40
0.0
 40
0.0
 40
0.25
 40
0.25
 40
0.5
 40
0.5
 40
1.0
 40
1.0
 40
1.0
 40
1.0
 10
94.87343384716333
 20
36.57255778773462
 30
0.0
 10
94.8734402440933
 20
36.56437083081723
 30
0.0
 10
94.88034563570992
 20
36.55835219903673
 30
0.0
 10
94.89756481910405
 20
36.54691536179322
 30
0.0
 10
94.90787861088157
 20
36.54149715633022
 30
0.0
 10
94.92834820263693
 20
36.52053884348306
 30
0.0
 10
94.93127796828064
 20
36.51278960666613
 30
0.0
 10
94.93118371328154
 20
36.51269535166703
 30
0.0
  0
LINE
  5
1B3
330
1F
100
AcDbEntity
  8
0
  6
Continuous
 62
     7
370
    25
100
AcDbLine
 10
94.8723037345
 20
36.4177898409
 30
0.0
 11
94.8719763746
 21
36.4683089683
 31
0.0
  0
LINE
  5
1B4
330
1F
100
AcDbEntity
  8
0
  6
Continuous
 62
     7
370
    25
100
AcDbLine
 10
106.8729064045
 20
36.4177898409
 30
0.0
 11
106.8732337644
 21
36.4683089683
 31
0.0
  0
SPLINE
  5
1B5
330
1F
100
AcDbEntity
  8
0
  6
Continuous
 62
     7
370
    25
100
AcDbSpline
210
0.0
220
0.0
230
1.0
 70
     8
 71
     3
 72
    12
 73
     8
 74
     0
 42
0.000000001
 43
0.00000001
 40
0.0
 40
0.0
 40
0.0
 40
0.0
 40
0.25
 40
0.25
 40
0.5
 40
0.5
 40
1.0
 40
1.0
 40
1.0
 40
1.0
 10
106.8717762918775
 20
36.57255778773462
 30
0.0
 10
106.8717698949475
 20
36.56437083081723
 30
0.0
 10
106.8648645033309
 20
36.55835219903673
 30
0.0
 10
106.8476453199367
 20
36.54691536179322
 30
0.0
 10
106.8373315281592
 20
36.54149715633022
 30
0.0
 10
106.8168619364039
 20
36.52053884348306
 30
0.0
 10
106.8139321707601
 20
36.51278960666613
 30
0.0
 10
106.8140264257592
 20
36.51269535166703
 30
0.0
  0
SPLINE
  5
1B6
330
1F
100
AcDbEntity
  8
0
  6
Continuous
 62
     7
370
    25
100
AcDbSpline
210
0.0
220
0.0
230
1.0
 70
     8
 71
     3
 72
    12
 73
     8
 74
     0
 42
0.000000001
 43
0.00000001
 40
0.0
 40
0.0
 40
0.0
 40
0.0
 40
0.25
 40
0.25
 40
0.5
 40
0.5
 40
1.0
 40
1.0
 40
1.0
 40
1.0
 10
94.87343384716333
 20
36.57255778773462
 30
0.0
 10
94.87342745023336
 20
36.58074474465201
 30
0.0
 10
94.88031895664024
 20
36.59249676444826
 30
0.0
 10
94.9094528565465
 20
36.61798273154734
 30
0.0
 10
94.93169525004586
 20
36.63171667885018
 30
0.0
 10
95.02378138181076
 20
36.66816911464196
 30
0.0
 10
95.10524665928854
 20
36.66269984168299
 30
0.0
 10
95.20132121381599
 20
36.62984839164854
 30
0.0
  0
SPLINE
  5
1B7
330
1F
100
AcDbEntity
  8
0
  6
Continuous
 62
     7
370
    25
100
AcDbSpline
210
0.0
220
0.0
230
1.0
 70
     8
 71
     3
 72
    12
 73
     8
 74
     0
 42
0.000000001
 43
0.00000001
 40
0.0
 40
0.0
 40
0.0
 40
0.0
 40
0.25
 40
0.25
 40
0.5
 40
0.5
 40
1.0
 40
1.0
 40
1.0
 40
1.0
 10
106.8717762918775
 20
36.57255778773462
 30
0.0
 10
106.8717826888074
 20
36.58074474465201
 30
0.0
 10
106.8648911824005
 20
36.59249676444824
 30
0.0
 10
106.8357572824943
 20
36.61798273154732
 30
0.0
 10
106.8135148889949
 20
36.63171667885017
 30
0.0
 10
106.72142875723
 20
36.66816911464195
 30
0.0
 10
106.6399634797522
 20
36.66269984168299
 30
0.0
 10
106.5438889252248
 20
36.62984839164854
 30
0.0
  0
SPLINE
  5
1B8
330
1F
100
AcDbEntity
  8
0
  6
Continuous
 62
     7
370
    25
100
AcDbSpline
210
0.0
220
0.0
230
1.0
 70
     8
 71
     3
 72
    10
 73
     6
 74
     0
 42
0.000000001
 43
0.00000001
 40
0.0
 40
0.0
 40
0.0
 40
0.0
 40
0.5
 40
0.5
 40
1.0
 40
1.0
 40
1.0
 40
1.0
 10
106.8717762918775
 20
36.57255778773462
 30
0.0
 10
106.8718018795974
 20
36.60530561540418
 30
0.0
 10
106.8720868835329
 20
36.64006264292294
 30
0.0
 10
106.8690794479401
 20
36.7113388008209
 30
0.0
 10
106.8726050695204
 20
36.7373411134818
 30
0.0
 10
106.8726050695204
 20
36.77127399543125
 30
0.0
  0
SPLINE
  5
1B9
330
1F
100
AcDbEntity
  8
0
  6
Continuous
 62
     7
370
    25
100
AcDbSpline
210
0.0
220
0.0
230
1.0
 70
     8
 71
     3
 72
    10
 73
     6
 74
     0
 42
0.000000001
 43
0.00000001
 40
0.0
 40
0.0
 40
0.0
 40
0.0
 40
0.5
 40
0.5
 40
1.0
 40
1.0
 40
1.0
 40
1.0
 10
94.87343384716333
 20
36.57255778773462
 30
0.0
 10
94.87340825944344
 20
36.60530561540418
 30
0.0
 10
94.87312325550789
 20
36.64006264292294
 30
0.0
 10
94.87613069110073
 20
36.7113388008209
 30
0.0
 10
94.87260506952039
 20
36.7373411134818
 30
0.0
 10
94.87260506952039
 20
36.77127399543125
 30
0.0
  0
SPLINE
  5
1BA
330
1F
100
AcDbEntity
  8
0
  6
Continuous
 62
     8
370
    25
100
AcDbSpline
210
0.0
220
0.0
230
1.0
 70
     8
 71
     3
 72
    48
 73
    44
 74
     0
 42
0.000000001
 43
0.00000001
 40
0.0
 40
0.0
 40
0.0
 40
0.0
 40
0.0087362799816988
 40
0.0281170459772675
 40
0.0497313322586104
 40
0.0755991975999553
 40
0.1002935199444022
 40
0.1257982516720855
 40
0.1674253939777847
 40
0.2090491868432355
 40
0.2506702163580502
 40
0.2922890258687971
 40
0.3339062206955977
 40
0.3755223846315167
 40
0.4104869161507582
 40
0.4454514615360319
 40
0.4762240487219241
 40
0.4802553673739826
 40
0.4842866989907738
 40
0.4883180374809885
 40
0.4923493880171024
 40
0.496380748394268
 40
0.5005495893118603
 40
0.5402758841023422
 40
0.5783596329482683
 40
0.6148004440508935
 40
0.6495979642267696
 40
0.6827518408594865
 40
0.7142617354747058
 40
0.7441273438027044
 40
0.7723483614341421
 40
0.798924489696739
 40
0.835692567498085
 40
0.8687613245244323
 40
0.8981293588283116
 40
0.9237954297450793
 40
0.9457584481251806
 40
0.9640174640082019
 40
0.9785716940689075
 40
0.9894204883428598
 40
0.9951251416816319
 40
0.998745008688449
 40
1.0
 40
1.0
 40
1.0
 40
1.0
 10
107.4904072647714
 20
40.14265312800009
 30
0.0
 10
107.4911484655357
 20
40.1425825233646
 30
0.0
 10
107.4935339632548
 20
40.14235528776933
 30
0.0
 10
107.4703578712679
 20
40.14213139286085
 30
0.0
 10
107.4166153968391
 20
40.14223415288332
 30
0.0
 10
107.3204244131487
 20
40.14265176792314
 30
0.0
 10
107.1792435160384
 20
40.14329621612259
 30
0.0
 10
106.9611810315718
 20
40.14429144201762
 30
0.0
 10
106.624682009664
 20
40.14358335326007
 30
0.0
 10
106.1416719646651
 20
40.14353691918257
 30
0.0
 10
105.5681278091875
 20
40.14333425070137
 30
0.0
 10
104.9144347797742
 20
40.14321905954693
 30
0.0
 10
104.191636828965
 20
40.14312810773533
 30
0.0
 10
103.453549777958
 20
40.14307900851975
 30
0.0
 10
102.7215629681095
 20
40.14306336265285
 30
0.0
 10
102.0392649795482
 20
40.14307345309161
 30
0.0
 10
101.5579135065327
 20
40.14309871148941
 30
0.0
 10
101.2890241605242
 20
40.14311564673971
 30
0.0
 10
101.2052171584082
 20
40.14312301220284
 30
0.0
 10
101.1213570263838
 20
40.14312739195073
 30
0.0
 10
101.0374567015067
 20
40.143136035128
 30
0.0
 10
100.9525742575649
 20
40.14314185152462
 30
0.0
 10
100.6199477830704
 20
40.14317156274736
 30
0.0
 10
100.0503657890185
 20
40.14322309410453
 30
0.0
 10
99.26923746179177
 20
40.14329436015816
 30
0.0
 10
98.54338176286083
 20
40.143364549346
 30
0.0
 10
97.87896848908116
 20
40.14343149139518
 30
0.0
 10
97.2793869595609
 20
40.14349582741922
 30
0.0
 10
96.74582436186147
 20
40.14355705908105
 30
0.0
 10
96.27757594023791
 20
40.14361647661
 30
0.0
 10
95.87239481095816
 20
40.14367488792111
 30
0.0
 10
95.47560647109096
 20
40.14373615511065
 30
0.0
 10
95.11147234326431
 20
40.14380413612431
 30
0.0
 10
94.80278098547447
 20
40.14387558290167
 30
0.0
 10
94.58370566910119
 20
40.14394155108084
 30
0.0
 10
94.43619238173584
 20
40.1440019031342
 30
0.0
 10
94.34325097615627
 20
40.14405641892634
 30
0.0
 10
94.28968030878893
 20
40.14410572721482
 30
0.0
 10
94.26250805725404
 20
40.14414784262265
 30
0.0
 10
94.25173280829544
 20
40.14418210325073
 30
0.0
 10
94.24838688667063
 20
40.1442127558995
 30
0.0
 10
94.24767644405422
 20
40.14422872082081
 30
0.0
 10
94.24762011488426
 20
40.14424517810377
 30
0.0
 10
94.24760561341277
 20
40.14424941489298
 30
0.0
  0
LINE
  5
1BB
330
1F
100
AcDbEntity
  8
0
  6
Continuous
 62
     8
370
    25
100
AcDbLine
 10
94.87260688
 20
39.2172239626
 30
0.0
 11
106.872603259
 21
39.2172239626
 31
0.0
  0
LINE
  5
1BC
330
1F
100
AcDbEntity
  8
0
  6
Continuous
 62
     8
370
    25
100
AcDbLine
 10
95.0726051433
 20
34.8712742234
 30
0.0
 11
95.0726051433
 21
34.4212740565
 31
0.0
  0
LINE
  5
1BD
330
1F
100
AcDbEntity
  8
0
  6
Continuous
 62
     8
370
    25
100
AcDbLine
 10
95.0726051433
 20
25.7212739343
 30
0.0
 11
95.0726051433
 21
25.2712737674
 31
0.0
  0
LINE
  5
1BE
330
1F
100
AcDbEntity
  8
0
  6
Continuous
 62
     8
370
    25
100
AcDbLine
 10
95.0726051433
 20
25.2712737674
 30
0.0
 11
95.4391439063
 21
25.2712737674
 31
0.0
  0
LINE
  5
1BF
330
1F
100
AcDbEntity
  8
0
  6
Continuous
 62
     8
370
    25
100
AcDbLine
 10
106.6726049958
 20
25.2712737674
 30
0.0
 11
106.6726049958
 21
25.7212739343
 31
0.0
  0
LINE
  5
1C0
330
1F
100
AcDbEntity
  8
0
  6
Continuous
 62
     8
370
    25
100
AcDbLine
 10
106.3060662327
 20
25.2712737674
 30
0.0
 11
106.6726049958
 21
25.2712737674
 31
0.0
  0
LINE
  5
1C1
330
1F
100
AcDbEntity
  8
0
  6
Continuous
 62
     8
370
    25
100
AcDbLine
 10
106.6726049958
 20
34.4212740565
 30
0.0
 11
106.6726049958
 21
34.8712742234
 31
0.0
  0
LINE
  5
1C2
330
1F
100
AcDbEntity
  8
0
  6
Continuous
 62
     8
370
    25
100
AcDbLine
 10
95.4391439063
 20
34.8712742234
 30
0.0
 11
95.0726051433
 21
34.8712742234
 31
0.0
  0
LINE
  5
1C3
330
1F
100
AcDbEntity
  8
0
  6
Continuous
 62
     8
370
    25
100
AcDbLine
 10
106.6726049958
 20
34.8712742234
 30
0.0
 11
106.3060662327
 21
34.8712742234
 31
0.0
  0
SPLINE
  5
1C4
330
1F
100
AcDbEntity
  8
0
  6
Continuous
 62
     8
370
    25
100
AcDbSpline
210
0.0
220
0.0
230
1.0
 70
     8
 71
     3
 72
    11
 73
     7
 74
     0
 42
0.000000001
 43
0.00000001
 40
0.0
 40
0.0
 40
0.0
 40
0.0
 40
0.0329360764370519
 40
0.2435592271345444
 40
0.5971873512547256
 40
1.0
 40
1.0
 40
1.0
 40
1.0
 10
104.1804451579028
 20
36.51184364208777
 30
0.0
 10
104.1833690659036
 20
36.51851186395773
 30
0.0
 10
104.2049910940847
 20
36.56782274554114
 30
0.0
 10
104.298332447207
 20
36.6536586572861
 30
0.0
 10
104.4618141882484
 20
36.75013126814407
 30
0.0
 10
104.5978553611919
 20
36.76392727264144
 30
0.0
 10
104.6702987132393
 20
36.77127378979523
 30
0.0
  0
LINE
  5
1C5
330
1F
100
AcDbEntity
  8
0
  6
Continuous
 62
     8
370
    25
100
AcDbLine
 10
104.9423100976
 20
36.0712740476
 30
0.0
 11
106.6726049958
 21
36.0712740476
 31
0.0
  0
LINE
  5
1C6
330
1F
100
AcDbEntity
  8
0
  6
Continuous
 62
     8
370
    25
100
AcDbLine
 10
95.0726051433
 20
36.0712740476
 30
0.0
 11
96.8029000414
 21
36.0712740476
 31
0.0
  0
SPLINE
  5
1C7
330
1F
100
AcDbEntity
  8
0
  6
Continuous
 62
     8
370
    25
100
AcDbSpline
210
0.0
220
0.0
230
1.0
 70
     8
 71
     3
 72
    11
 73
     7
 74
     0
 42
0.000000001
 43
0.00000001
 40
0.0
 40
0.0
 40
0.0
 40
0.0
 40
0.0144383052780494
 40
0.2070618625724267
 40
0.57025953657849
 40
1.0
 40
1.0
 40
1.0
 40
1.0
 10
104.2946816505664
 20
36.4457444193383
 30
0.0
 10
104.2964653190532
 20
36.44766224085968
 30
0.0
 10
104.3220451715338
 20
36.47516600176871
 30
0.0
 10
104.420136467477
 20
36.51280702722379
 30
0.0
 10
104.5847392842774
 20
36.56179945844683
 30
0.0
 10
104.7223232906677
 20
36.56794402337623
 30
0.0
 10
104.7968882685327
 20
36.57127412954171
 30
0.0
  0
LINE
  5
1C8
330
1F
100
AcDbEntity
  8
0
  6
Continuous
 62
     8
370
    25
100
AcDbLine
 10
106.6726049958
 20
36.3712740036
 30
0.0
 11
104.4604316903
 21
36.3712740036
 31
0.0
  0
SPLINE
  5
1C9
330
1F
100
AcDbEntity
  8
0
  6
Continuous
 62
     8
370
    25
100
AcDbSpline
210
0.0
220
0.0
230
1.0
 70
     8
 71
     3
 72
     9
 73
     5
 74
     0
 42
0.000000001
 43
0.00000001
 40
0.0
 40
0.0
 40
0.0
 40
0.0
 40
0.1250039728915086
 40
1.0
 40
1.0
 40
1.0
 40
1.0
 10
94.87197637462846
 20
36.46830896833737
 30
0.0
 10
94.87194193472742
 20
36.4726533108099
 30
0.0
 10
94.87166642427565
 20
36.5074069460108
 30
0.0
 10
94.87260907703678
 20
36.54215422587596
 30
0.0
 10
94.87343389445773
 20
36.57255795771081
 30
0.0
  0
SPLINE
  5
1CA
330
1F
100
AcDbEntity
  8
0
  6
Continuous
 62
     8
370
    25
100
AcDbSpline
210
0.0
220
0.0
230
1.0
 70
     8
 71
     3
 72
     9
 73
     5
 74
     0
 42
0.000000001
 43
0.00000001
 40
0.0
 40
0.0
 40
0.0
 40
0.0
 40
0.1250039728915086
 40
1.0
 40
1.0
 40
1.0
 40
1.0
 10
106.8732337644123
 20
36.46830896833737
 30
0.0
 10
106.8732682043134
 20
36.4726533108099
 30
0.0
 10
106.8735437147651
 20
36.5074069460108
 30
0.0
 10
106.872601062004
 20
36.54215422587596
 30
0.0
 10
106.871776244583
 20
36.57255795771081
 30
0.0
  0
INSERT
  5
1D6
330
1F
100
AcDbEntity
  8
0
  6
Continuous
 62
     7
370
    18
100
AcDbBlockReference
  2
SW_CENTERMARKSYMBOL_0
 10
100.8726050695
 20
30.0712739954
 30
0.0
  0
ARC
  5
1D7
330
1F
100
AcDbEntity
  8
0
  6
Continuous
 62
     7
370
    18
100
AcDbCircle
 10
100.8726050695
 20
30.0712739954
 30
0.0
 40
4.929555
100
AcDbArc
 50
75.0
 51
345.0
  0
ARC
  5
1D8
330
1F
100
AcDbEntity
  8
0
  6
Continuous
 62
     7
370
    18
100
AcDbCircle
 10
100.8726050695
 20
30.0712739954
 30
0.0
 40
4.929555
100
AcDbArc
 50
75.0
 51
345.0
  0
LINE
  5
1D9
330
1F
100
AcDbEntity
  8
0
  6
Continuous
 62
     7
370
    18
100
AcDbLine
 10
106.6221433734
 20
51.2060482729
 30
0.0
 11
106.9654175695
 21
40.2212739954
 31
0.0
  0
LINE
  5
1DA
330
1F
100
AcDbEntity
  8
0
  6
Continuous
 62
     7
370
    18
100
AcDbLine
 10
95.1230667657
 20
51.2060482729
 30
0.0
 11
94.7797925695
 21
40.2212739954
 31
0.0
  0
LINE
  5
1DB
330
1F
100
AcDbEntity
  8
0
  6
Continuous
 62
     7
370
    18
100
AcDbLine
 10
94.1112925695
 20
40.2212739954
 30
0.0
 11
107.6339175695
 21
40.2212739954
 31
0.0
  0
SPLINE
  5
1DC
330
1F
100
AcDbEntity
  8
0
  6
Continuous
 62
     7
370
    25
100
AcDbSpline
210
0.0
220
0.0
230
1.0
 70
     8
 71
     3
 72
    11
 73
     7
 74
     0
 42
0.000000001
 43
0.00000001
 40
0.0
 40
0.0
 40
0.0
 40
0.0
 40
0.2500907897024823
 40
0.5000509169085089
 40
0.7499732838271033
 40
1.0
 40
1.0
 40
1.0
 40
1.0
 10
44.92079319792491
 20
82.60109576768554
 30
0.0
 10
44.82206684889523
 20
82.60973297805805
 30
0.0
 10
44.62466573142885
 20
82.62700288620398
 30
0.0
 10
44.35527976018125
 20
82.76025633277554
 30
0.0
 10
44.13024980337754
 20
82.95943604961147
 30
0.0
 10
44.03980760347473
 20
83.13570176151839
 30
0.0
 10
43.99457706498605
 20
83.2238530125407
 30
0.0
  0
ARC
  5
1DD
330
1F
100
AcDbEntity
  8
0
  6
Continuous
 62
     7
370
    25
100
AcDbCircle
 10
65.0667431651
 20
82.8534943368
 30
0.0
 40
1.0
100
AcDbArc
 50
90.0
 51
158.2193181213
  0
ARC
  5
1DE
330
1F
100
AcDbEntity
  8
0
  6
Continuous
 62
     7
370
    25
100
AcDbCircle
 10
65.0667431651
 20
70.3534943368
 30
0.0
 40
1.000000000000004
100
AcDbArc
 50
202.032971336
 51
270.0
  0
ARC
  5
1DF
330
1F
100
AcDbEntity
  8
0
  6
Continuous
 62
     7
370
    25
100
AcDbCircle
 10
43.0667431651
 20
70.3534943368
 30
0.0
 40
1.000000000000012
100
AcDbArc
 50
270.0
 51
337.9687016856
  0
ARC
  5
1E0
330
1F
100
AcDbEntity
  8
0
  6
Continuous
 62
     7
370
    25
100
AcDbCircle
 10
43.0667431651
 20
82.8534943368
 30
0.0
 40
1.000000000000003
100
AcDbArc
 50
21.7631321332
 51
90.0
  0
LINE
  5
1E1
330
1F
100
AcDbEntity
  8
0
  6
Continuous
 62
     7
370
    25
100
AcDbLine
 10
75.5667438953
 20
69.3534945454
 30
0.0
 11
76.0667430459
 21
69.8534941617
 31
0.0
  0
LINE
  5
1E2
330
1F
100
AcDbEntity
  8
0
  6
Continuous
 62
     7
370
    25
100
AcDbLine
 10
76.0667430459
 20
83.3534945119
 30
0.0
 11
75.5667438953
 21
83.8534941282
 31
0.0
  0
LINE
  5
1E3
330
1F
100
AcDbEntity
  8
0
  6
Continuous
 62
     7
370
    25
100
AcDbLine
 10
75.5667438953
 20
83.8534941282
 30
0.0
 11
65.0667431055
 21
83.8534941282
 31
0.0
  0
LINE
  5
1E4
330
1F
100
AcDbEntity
  8
0
  6
Continuous
 62
     7
370
    25
100
AcDbLine
 10
65.0667431055
 20
69.3534945454
 30
0.0
 11
75.5667438953
 21
69.3534945454
 31
0.0
  0
LINE
  5
1E5
330
1F
100
AcDbEntity
  8
0
  6
Continuous
 62
     7
370
    25
100
AcDbLine
 10
32.566742435
 20
69.3534945454
 30
0.0
 11
43.0667432247
 21
69.3534945454
 31
0.0
  0
LINE
  5
1E6
330
1F
100
AcDbEntity
  8
0
  6
Continuous
 62
     7
370
    25
100
AcDbLine
 10
43.0667432247
 20
83.8534941282
 30
0.0
 11
32.566742435
 21
83.8534941282
 31
0.0
  0
LINE
  5
1E7
330
1F
100
AcDbEntity
  8
0
  6
Continuous
 62
     7
370
    25
100
AcDbLine
 10
32.566742435
 20
83.8534941282
 30
0.0
 11
32.0667432843
 21
83.3534945119
 31
0.0
  0
LINE
  5
1E8
330
1F
100
AcDbEntity
  8
0
  6
Continuous
 62
     7
370
    25
100
AcDbLine
 10
32.0667432843
 20
69.8534941617
 30
0.0
 11
32.566742435
 21
69.3534945454
 31
0.0
  0
SPLINE
  5
1E9
330
1F
100
AcDbEntity
  8
0
  6
Continuous
 62
     7
370
    25
100
AcDbSpline
210
0.0
220
0.0
230
1.0
 70
     8
 71
     3
 72
    11
 73
     7
 74
     0
 42
0.000000001
 43
0.00000001
 40
0.0
 40
0.0
 40
0.0
 40
0.0
 40
0.2500267161728967
 40
0.4999490830914911
 40
0.7499092102975177
 40
1.0
 40
1.0
 40
1.0
 40
1.0
 10
64.13890926527482
 20
83.2238530125407
 30
0.0
 10
64.09367872678614
 20
83.13570176151839
 30
0.0
 10
64.00323652688331
 20
82.95943604961147
 30
0.0
 10
63.77820657007961
 20
82.76025633277554
 30
0.0
 10
63.508820598832
 20
82.62700288620398
 30
0.0
 10
63.31141948136563
 20
82.60973297805805
 30
0.0
 10
63.21269313233596
 20
82.60109576768554
 30
0.0
  0
LINE
  5
1EA
330
1F
100
AcDbEntity
  8
0
  6
Continuous
 62
     7
370
    25
100
AcDbLine
 10
47.3667433708
 20
82.603494389
 30
0.0
 11
44.9207931979
 21
82.603494389
 31
0.0
  0
LINE
  5
1EB
330
1F
100
AcDbEntity
  8
0
  6
Continuous
 62
     7
370
    25
100
AcDbLine
 10
63.2126931323
 20
82.603494389
 30
0.0
 11
61.5667429975
 21
82.603494389
 31
0.0
  0
LINE
  5
1EC
330
1F
100
AcDbEntity
  8
0
  6
Continuous
 62
     7
370
    25
100
AcDbLine
 10
60.7667429595
 20
70.6034942847
 30
0.0
 11
63.2126931323
 21
70.6034942847
 31
0.0
  0
LINE
  5
1ED
330
1F
100
AcDbEntity
  8
0
  6
Continuous
 62
     7
370
    25
100
AcDbLine
 10
44.9207931979
 20
70.6034942847
 30
0.0
 11
47.3667433708
 21
70.6034942847
 31
0.0
  0
ARC
  5
1EE
330
1F
100
AcDbEntity
  8
0
  6
Continuous
 62
     7
370
    25
100
AcDbCircle
 10
60.8167431651
 20
82.6534943368
 30
0.0
 40
0.25
100
AcDbArc
 50
90.0
 51
180.0
  0
ARC
  5
1EF
330
1F
100
AcDbEntity
  8
0
  6
Continuous
 62
     7
370
    25
100
AcDbCircle
 10
61.3167431651
 20
82.6534943368
 30
0.0
 40
0.25
100
AcDbArc
 50
0.0
 51
90.0
  0
LINE
  5
1F0
330
1F
100
AcDbEntity
  8
0
  6
Continuous
 62
     7
370
    25
100
AcDbLine
 10
61.5667429975
 20
82.603494389
 30
0.0
 11
61.5667429975
 21
82.653494304
 31
0.0
  0
LINE
  5
1F1
330
1F
100
AcDbEntity
  8
0
  6
Continuous
 62
     7
370
    25
100
AcDbLine
 10
60.5667432992
 20
82.653494304
 30
0.0
 11
60.5667432992
 21
82.603494389
 31
0.0
  0
CIRCLE
  5
1F2
330
1F
100
AcDbEntity
  8
0
  6
Continuous
 62
     7
370
    25
100
AcDbCircle
 10
54.0667431651
 20
76.6034943368
 30
0.0
 40
5.249999999999993
  0
CIRCLE
  5
1F3
330
1F
100
AcDbEntity
  8
0
  6
Continuous
 62
     7
370
    25
100
AcDbCircle
 10
54.0667431651
 20
76.6034943368
 30
0.0
 40
6.456292496656182
  0
CIRCLE
  5
1F4
330
1F
100
AcDbEntity
  8
0
  6
Continuous
 62
     7
370
    25
100
AcDbCircle
 10
54.0667431651
 20
76.6034943368
 30
0.0
 40
4.500000000000007
  0
CIRCLE
  5
1F5
330
1F
100
AcDbEntity
  8
0
  6
Continuous
 62
     7
370
    25
100
AcDbCircle
 10
54.0667431651
 20
76.6034943368
 30
0.0
 40
3.999999999999993
  0
CIRCLE
  5
1F6
330
1F
100
AcDbEntity
  8
0
  6
Continuous
 62
     7
370
    25
100
AcDbCircle
 10
54.0667431651
 20
76.6034943368
 30
0.0
 40
6.761600728405625
  0
LINE
  5
1F7
330
1F
100
AcDbEntity
  8
0
  6
Continuous
 62
     7
370
    25
100
AcDbLine
 10
43.9954748599
 20
83.224072339
 30
0.0
 11
43.9954962804
 21
83.2241771128
 31
0.0
  0
SPLINE
  5
1F8
330
1F
100
AcDbEntity
  8
0
  6
Continuous
 62
     7
370
    25
100
AcDbSpline
210
0.0
220
0.0
230
1.0
 70
     8
 71
     3
 72
     9
 73
     5
 74
     0
 42
0.000000001
 43
0.00000001
 40
0.001813512106624
 40
0.001813512106624
 40
0.001813512106624
 40
0.001813512106624
 40
0.501813512106624
 40
1.0
 40
1.0
 40
1.0
 40
1.0
 10
44.92079278690434
 20
70.60139175707313
 30
0.0
 10
44.7230595281878
 20
70.60143361940875
 30
0.0
 10
44.32875593618687
 20
70.48073521213963
 30
0.0
 10
44.06886185908808
 20
70.16072608822526
 30
0.0
 10
43.9945770127628
 20
69.97816731161329
 30
0.0
  0
LINE
  5
1F9
330
1F
100
AcDbEntity
  8
0
  6
Continuous
 62
     7
370
    25
100
AcDbLine
 10
75.5667438953
 20
69.3534945454
 30
0.0
 11
75.5667438953
 21
83.8534941282
 31
0.0
  0
LINE
  5
1FA
330
1F
100
AcDbEntity
  8
0
  6
Continuous
 62
     7
370
    25
100
AcDbLine
 10
76.0667430459
 20
83.3534945119
 30
0.0
 11
76.0667430459
 21
69.8534941617
 31
0.0
  0
LINE
  5
1FB
330
1F
100
AcDbEntity
  8
0
  6
Continuous
 62
     7
370
    25
100
AcDbLine
 10
32.566742435
 20
76.6034943368
 30
0.0
 11
32.566742435
 21
69.3534945454
 31
0.0
  0
LINE
  5
1FC
330
1F
100
AcDbEntity
  8
0
  6
Continuous
 62
     7
370
    25
100
AcDbLine
 10
32.566742435
 20
83.8534941282
 30
0.0
 11
32.566742435
 21
76.6034943368
 31
0.0
  0
LINE
  5
1FD
330
1F
100
AcDbEntity
  8
0
  6
Continuous
 62
     7
370
    25
100
AcDbLine
 10
32.0667432843
 20
69.8534941617
 30
0.0
 11
32.0667432843
 21
83.3534945119
 31
0.0
  0
SPLINE
  5
1FE
330
1F
100
AcDbEntity
  8
0
  6
Continuous
 62
     7
370
    25
100
AcDbSpline
210
0.0
220
0.0
230
1.0
 70
     8
 71
     3
 72
     9
 73
     5
 74
     0
 42
0.000000001
 43
0.00000001
 40
0.001813512106624
 40
0.001813512106624
 40
0.001813512106624
 40
0.001813512106624
 40
0.501813512106624
 40
1.0
 40
1.0
 40
1.0
 40
1.0
 10
63.21269354335652
 20
70.60139175707313
 30
0.0
 10
63.41042680207307
 20
70.60143361940875
 30
0.0
 10
63.804730394074
 20
70.48073521213963
 30
0.0
 10
64.06462447117278
 20
70.16072608822526
 30
0.0
 10
64.13890931749805
 20
69.97816731161329
 30
0.0
  0
LINE
  5
1FF
330
1F
100
AcDbEntity
  8
0
  6
Continuous
 62
     7
370
    25
100
AcDbLine
 10
57.184313353
 20
82.603494389
 30
0.0
 11
58.8667433931
 21
82.603494389
 31
0.0
  0
LINE
  5
200
330
1F
100
AcDbEntity
  8
0
  6
Continuous
 62
     7
370
    25
100
AcDbLine
 10
58.8667433931
 20
82.4034942631
 30
0.0
 11
58.8667433931
 21
82.603494389
 31
0.0
  0
LINE
  5
201
330
1F
100
AcDbEntity
  8
0
  6
Continuous
 62
     7
370
    25
100
AcDbLine
 10
49.2667429371
 20
82.4034942631
 30
0.0
 11
49.2667429371
 21
82.603494389
 31
0.0
  0
LINE
  5
202
330
1F
100
AcDbEntity
  8
0
  6
Continuous
 62
     7
370
    25
100
AcDbLine
 10
49.2667429371
 20
82.603494389
 30
0.0
 11
50.9491729772
 21
82.603494389
 31
0.0
  0
LINE
  5
203
330
1F
100
AcDbEntity
  8
0
  6
Continuous
 62
     7
370
    25
100
AcDbLine
 10
59.0667430534
 20
70.8034944106
 30
0.0
 11
59.0667430534
 21
72.0516547877
 31
0.0
  0
LINE
  5
204
330
1F
100
AcDbEntity
  8
0
  6
Continuous
 62
     7
370
    25
100
AcDbLine
 10
58.8667433931
 20
70.6034942847
 30
0.0
 11
57.184313353
 21
70.6034942847
 31
0.0
  0
ARC
  5
205
330
1F
100
AcDbEntity
  8
0
  6
Continuous
 62
     7
370
    25
100
AcDbCircle
 10
58.8667431651
 20
70.8034943368
 30
0.0
 40
0.2000000000000028
100
AcDbArc
 50
270.0
 51
0.0
  0
LINE
  5
206
330
1F
100
AcDbEntity
  8
0
  6
Continuous
 62
     7
370
    25
100
AcDbLine
 10
50.9491729772
 20
70.6034942847
 30
0.0
 11
49.2667429371
 21
70.6034942847
 31
0.0
  0
LINE
  5
207
330
1F
100
AcDbEntity
  8
0
  6
Continuous
 62
     7
370
    25
100
AcDbLine
 10
49.2667429371
 20
70.8034944106
 30
0.0
 11
49.2667429371
 21
70.6034942847
 31
0.0
  0
ARC
  5
208
330
1F
100
AcDbEntity
  8
0
  6
Continuous
 62
     7
370
    25
100
AcDbCircle
 10
58.8667431651
 20
82.4034943368
 30
0.0
 40
0.2000000000000028
100
AcDbArc
 50
0.0
 51
90.0
  0
LINE
  5
209
330
1F
100
AcDbEntity
  8
0
  6
Continuous
 62
     7
370
    25
100
AcDbLine
 10
58.8667433931
 20
82.4034942631
 30
0.0
 11
59.0667430534
 21
82.4034942631
 31
0.0
  0
LINE
  5
20A
330
1F
100
AcDbEntity
  8
0
  6
Continuous
 62
     7
370
    25
100
AcDbLine
 10
59.0667430534
 20
82.4034942631
 30
0.0
 11
59.0667430534
 21
81.1553338859
 31
0.0
  0
LINE
  5
20B
330
1F
100
AcDbEntity
  8
0
  6
Continuous
 62
     7
370
    25
100
AcDbLine
 10
49.2667429371
 20
82.4034942631
 30
0.0
 11
49.0667432769
 21
82.4034942631
 31
0.0
  0
ARC
  5
20C
330
1F
100
AcDbEntity
  8
0
  6
Continuous
 62
     7
370
    25
100
AcDbCircle
 10
49.2667431651
 20
82.4034943368
 30
0.0
 40
0.2000000000000028
100
AcDbArc
 50
90.0
 51
180.0
  0
LINE
  5
20D
330
1F
100
AcDbEntity
  8
0
  6
Continuous
 62
     7
370
    25
100
AcDbLine
 10
49.0667432769
 20
81.1553338859
 30
0.0
 11
49.0667432769
 21
82.4034942631
 31
0.0
  0
LINE
  5
20E
330
1F
100
AcDbEntity
  8
0
  6
Continuous
 62
     7
370
    25
100
AcDbLine
 10
49.2667429371
 20
70.8034944106
 30
0.0
 11
49.0667432769
 21
70.8034944106
 31
0.0
  0
LINE
  5
20F
330
1F
100
AcDbEntity
  8
0
  6
Continuous
 62
     7
370
    25
100
AcDbLine
 10
49.0667432769
 20
70.8034944106
 30
0.0
 11
49.0667432769
 21
72.0516547877
 31
0.0
  0
ARC
  5
210
330
1F
100
AcDbEntity
  8
0
  6
Continuous
 62
     7
370
    25
100
AcDbCircle
 10
49.2667431651
 20
70.8034943368
 30
0.0
 40
0.2000000000000028
100
AcDbArc
 50
180.0
 51
270.0
  0
SPLINE
  5
211
330
1F
100
AcDbEntity
  8
0
  6
Continuous
 62
     7
370
    25
100
AcDbSpline
210
0.0
220
0.0
230
1.0
 70
    24
 71
     3
 72
    14
 73
    10
 74
     0
 42
0.000000001
 43
0.00000001
 40
0.0
 40
0.0
 40
0.0
 40
0.0
 40
0.25
 40
0.25
 40
0.5
 40
0.5
 40
0.75
 40
0.75
 40
1.0
 40
1.0
 40
1.0
 40
1.0
 10
47.36674316513043
 20
82.60349433682241
 30
0.0
 10
47.36674316513043
 20
82.60349433682241
 30
0.0
 10
47.36674316513043
 20
82.59552891818858
 30
0.0
 10
47.36674316513043
 20
82.56359574144318
 30
0.0
 10
47.36674316513043
 20
82.53962775039919
 30
0.0
 10
47.36674316513042
 20
82.47547793723945
 30
0.0
 10
47.36674316513043
 20
82.4352956357369
 30
0.0
 10
47.36674316513043
 20
82.33837633941734
 30
0.0
 10
47.36674316513042
 20
82.28163859198732
 30
0.0
 10
47.36674316513043
 20
82.21639756262884
 30
0.0
  0
LINE
  5
212
330
1F
100
AcDbEntity
  8
0
  6
Continuous
 62
     7
370
    25
100
AcDbLine
 10
47.3667433708
 20
80.4011879805
 30
0.0
 11
47.3667433708
 21
82.2163976114
 31
0.0
  0
SPLINE
  5
213
330
1F
100
AcDbEntity
  8
0
  6
Continuous
 62
     7
370
    25
100
AcDbSpline
210
0.0
220
0.0
230
1.0
 70
     8
 71
     3
 72
    12
 73
     8
 74
     0
 42
0.000000001
 43
0.00000001
 40
0.0
 40
0.0
 40
0.0
 40
0.0
 40
0.5000000000000007
 40
0.5000000000000007
 40
0.7500000000000003
 40
0.7500000000000003
 40
1.0
 40
1.0
 40
1.0
 40
1.0
 10
47.36674316513043
 20
80.4011879246318
 30
0.0
 10
47.36674316513043
 20
80.29255305507058
 30
0.0
 10
47.39615078971291
 20
80.1812993140097
 30
0.0
 10
47.48780735478132
 20
80.02890105412685
 30
0.0
 10
47.52716910075159
 20
79.97969152260414
 30
0.0
 10
47.62959532093721
 20
79.90061656863723
 30
0.0
 10
47.69573218440758
 20
79.8709671786548
 30
0.0
 10
47.76674316513044
 20
79.8709671786548
 30
0.0
  0
LINE
  5
214
330
1F
100
AcDbEntity
  8
0
  6
Continuous
 62
     7
370
    25
100
AcDbLine
 10
48.066743113
 20
79.8709671795
 30
0.0
 11
47.7667431569
 21
79.8709671795
 31
0.0
  0
LINE
  5
215
330
1F
100
AcDbEntity
  8
0
  6
Continuous
 62
     7
370
    25
100
AcDbLine
 10
47.7667431569
 20
73.3360214941
 30
0.0
 11
48.066743113
 21
73.3360214941
 31
0.0
  0
SPLINE
  5
216
330
1F
100
AcDbEntity
  8
0
  6
Continuous
 62
     7
370
    25
100
AcDbSpline
210
0.0
220
0.0
230
1.0
 70
     8
 71
     3
 72
    14
 73
    10
 74
     0
 42
0.000000001
 43
0.00000001
 40
0.0
 40
0.0
 40
0.0
 40
0.0
 40
0.25
 40
0.25
 40
0.5
 40
0.5
 40
0.75
 40
0.75
 40
1.0
 40
1.0
 40
1.0
 40
1.0
 10
47.76674316513043
 20
73.33602149499
 30
0.0
 10
47.6957894755902
 20
73.33602149499
 30
0.0
 10
47.62960283133161
 20
73.30638924925834
 30
0.0
 10
47.52707316899067
 20
73.22721173405544
 30
0.0
 10
47.48774093460511
 20
73.17803946558759
 30
0.0
 10
47.42643545723839
 20
73.07598134648045
 30
0.0
 10
47.40408772346867
 20
73.02180002578497
 30
0.0
 10
47.37442046876576
 20
72.91424144863055
 30
0.0
 10
47.36674316513042
 20
72.86016437769473
 30
0.0
 10
47.36674316513042
 20
72.80580074901299
 30
0.0
  0
LINE
  5
217
330
1F
100
AcDbEntity
  8
0
  6
Continuous
 62
     7
370
    25
100
AcDbLine
 10
47.3667433708
 20
70.9905910622
 30
0.0
 11
47.3667433708
 21
72.8058006931
 31
0.0
  0
SPLINE
  5
218
330
1F
100
AcDbEntity
  8
0
  6
Continuous
 62
     7
370
    25
100
AcDbSpline
210
0.0
220
0.0
230
1.0
 70
    24
 71
     3
 72
    14
 73
    10
 74
     0
 42
0.000000001
 43
0.00000001
 40
0.0
 40
0.0
 40
0.0
 40
0.0
 40
0.25
 40
0.25
 40
0.5
 40
0.5
 40
0.75
 40
0.75
 40
1.0
 40
1.0
 40
1.0
 40
1.0
 10
47.36674316513043
 20
70.6034943368224
 30
0.0
 10
47.36674316513043
 20
70.6034943368224
 30
0.0
 10
47.36674316513043
 20
70.61145975545621
 30
0.0
 10
47.36674316513043
 20
70.64339293220162
 30
0.0
 10
47.36674316513043
 20
70.66736092324561
 30
0.0
 10
47.36674316513042
 20
70.73151073640535
 30
0.0
 10
47.36674316513043
 20
70.77169303790788
 30
0.0
 10
47.36674316513043
 20
70.86861233422746
 30
0.0
 10
47.36674316513042
 20
70.92535008165748
 30
0.0
 10
47.36674316513043
 20
70.99059111101595
 30
0.0
  0
SPLINE
  5
219
330
1F
100
AcDbEntity
  8
0
  6
Continuous
 62
     7
370
    25
100
AcDbSpline
210
0.0
220
0.0
230
1.0
 70
    24
 71
     3
 72
    14
 73
    10
 74
     0
 42
0.000000001
 43
0.00000001
 40
0.0
 40
0.0
 40
0.0
 40
0.0
 40
0.25
 40
0.25
 40
0.5
 40
0.5
 40
0.75
 40
0.75
 40
1.0
 40
1.0
 40
1.0
 40
1.0
 10
60.76674316513043
 20
70.6034943368224
 30
0.0
 10
60.76674316513043
 20
70.6034943368224
 30
0.0
 10
60.76674316513043
 20
70.61145975545621
 30
0.0
 10
60.76674316513044
 20
70.64339293220162
 30
0.0
 10
60.76674316513044
 20
70.66736092324561
 30
0.0
 10
60.76674316513044
 20
70.73151073640535
 30
0.0
 10
60.76674316513044
 20
70.77169303790788
 30
0.0
 10
60.76674316513044
 20
70.86861233422746
 30
0.0
 10
60.76674316513044
 20
70.92535008165748
 30
0.0
 10
60.76674316513043
 20
70.99059111101595
 30
0.0
  0
LINE
  5
21A
330
1F
100
AcDbEntity
  8
0
  6
Continuous
 62
     7
370
    25
100
AcDbLine
 10
60.7667429595
 20
72.8058006931
 30
0.0
 11
60.7667429595
 21
70.9905910622
 31
0.0
  0
SPLINE
  5
21B
330
1F
100
AcDbEntity
  8
0
  6
Continuous
 62
     7
370
    25
100
AcDbSpline
210
0.0
220
0.0
230
1.0
 70
     8
 71
     3
 72
    12
 73
     8
 74
     0
 42
0.000000001
 43
0.00000001
 40
0.0
 40
0.0
 40
0.0
 40
0.0
 40
0.4999999999999979
 40
0.4999999999999979
 40
0.7499999999999989
 40
0.7499999999999989
 40
1.0
 40
1.0
 40
1.0
 40
1.0
 10
60.76674316513043
 20
72.80580074901299
 30
0.0
 10
60.76674316513044
 20
72.9144356185742
 30
0.0
 10
60.73733554054796
 20
73.02568935963508
 30
0.0
 10
60.64567897547956
 20
73.17808761951795
 30
0.0
 10
60.60631722950927
 20
73.22729715104064
 30
0.0
 10
60.50389100932365
 20
73.30637210500755
 30
0.0
 10
60.43775414585328
 20
73.33602149498998
 30
0.0
 10
60.36674316513042
 20
73.33602149498998
 30
0.0
  0
LINE
  5
21C
330
1F
100
AcDbEntity
  8
0
  6
Continuous
 62
     7
370
    25
100
AcDbLine
 10
60.0667432173
 20
73.3360214941
 30
0.0
 11
60.3667431733
 21
73.3360214941
 31
0.0
  0
LINE
  5
21D
330
1F
100
AcDbEntity
  8
0
  6
Continuous
 62
     7
370
    25
100
AcDbLine
 10
60.3667431733
 20
79.8709671795
 30
0.0
 11
60.0667432173
 21
79.8709671795
 31
0.0
  0
SPLINE
  5
21E
330
1F
100
AcDbEntity
  8
0
  6
Continuous
 62
     7
370
    25
100
AcDbSpline
210
0.0
220
0.0
230
1.0
 70
     8
 71
     3
 72
    14
 73
    10
 74
     0
 42
0.000000001
 43
0.00000001
 40
0.0
 40
0.0
 40
0.0
 40
0.0
 40
0.25
 40
0.25
 40
0.5
 40
0.5
 40
0.75
 40
0.75
 40
1.0
 40
1.0
 40
1.0
 40
1.0
 10
60.36674316513043
 20
79.87096717865478
 30
0.0
 10
60.43769685467068
 20
79.87096717865478
 30
0.0
 10
60.50388349892926
 20
79.90059942438646
 30
0.0
 10
60.60641316127019
 20
79.97977693958936
 30
0.0
 10
60.64574539565575
 20
80.02894920805721
 30
0.0
 10
60.70705087302247
 20
80.13100732716435
 30
0.0
 10
60.72939860679219
 20
80.18518864785983
 30
0.0
 10
60.7590658614951
 20
80.29274722501424
 30
0.0
 10
60.76674316513044
 20
80.34682429595007
 30
0.0
 10
60.76674316513044
 20
80.4011879246318
 30
0.0
  0
LINE
  5
21F
330
1F
100
AcDbEntity
  8
0
  6
Continuous
 62
     7
370
    25
100
AcDbLine
 10
60.7667429595
 20
82.2163976114
 30
0.0
 11
60.7667429595
 21
80.4011879805
 31
0.0
  0
SPLINE
  5
220
330
1F
100
AcDbEntity
  8
0
  6
Continuous
 62
     7
370
    25
100
AcDbSpline
210
0.0
220
0.0
230
1.0
 70
    24
 71
     3
 72
    14
 73
    10
 74
     0
 42
0.000000001
 43
0.00000001
 40
0.0
 40
0.0
 40
0.0
 40
0.0
 40
0.25
 40
0.25
 40
0.5
 40
0.5
 40
0.75
 40
0.75
 40
1.0
 40
1.0
 40
1.0
 40
1.0
 10
60.76674316513043
 20
82.60349433682241
 30
0.0
 10
60.76674316513043
 20
82.60349433682241
 30
0.0
 10
60.76674316513043
 20
82.59552891818858
 30
0.0
 10
60.76674316513044
 20
82.56359574144318
 30
0.0
 10
60.76674316513044
 20
82.53962775039919
 30
0.0
 10
60.76674316513044
 20
82.47547793723945
 30
0.0
 10
60.76674316513044
 20
82.4352956357369
 30
0.0
 10
60.76674316513044
 20
82.33837633941734
 30
0.0
 10
60.76674316513044
 20
82.28163859198732
 30
0.0
 10
60.76674316513043
 20
82.21639756262884
 30
0.0
  0
LINE
  5
221
330
1F
100
AcDbEntity
  8
0
  6
Continuous
 62
     7
370
    25
100
AcDbLine
 10
49.0667432769
 20
82.4034942631
 30
0.0
 11
48.066743113
 21
82.4034942631
 31
0.0
  0
LINE
  5
222
330
1F
100
AcDbEntity
  8
0
  6
Continuous
 62
     7
370
    25
100
AcDbLine
 10
48.066743113
 20
82.4034942631
 30
0.0
 11
48.066743113
 21
82.603494389
 31
0.0
  0
LINE
  5
223
330
1F
100
AcDbEntity
  8
0
  6
Continuous
 62
     7
370
    25
100
AcDbLine
 10
48.066743113
 20
82.603494389
 30
0.0
 11
49.2667429371
 21
82.603494389
 31
0.0
  0
LINE
  5
224
330
1F
100
AcDbEntity
  8
0
  6
Continuous
 62
     7
370
    25
100
AcDbLine
 10
60.0667432173
 20
82.4034942631
 30
0.0
 11
59.0667430534
 21
82.4034942631
 31
0.0
  0
LINE
  5
225
330
1F
100
AcDbEntity
  8
0
  6
Continuous
 62
     7
370
    25
100
AcDbLine
 10
60.0667432173
 20
82.4034942631
 30
0.0
 11
60.0667432173
 21
82.603494389
 31
0.0
  0
LINE
  5
226
330
1F
100
AcDbEntity
  8
0
  6
Continuous
 62
     7
370
    25
100
AcDbLine
 10
58.8667433931
 20
82.603494389
 30
0.0
 11
60.0667432173
 21
82.603494389
 31
0.0
  0
LINE
  5
227
330
1F
100
AcDbEntity
  8
0
  6
Continuous
 62
     7
370
    25
100
AcDbLine
 10
48.066743113
 20
79.9798830263
 30
0.0
 11
48.066743113
 21
82.4034942631
 31
0.0
  0
LINE
  5
228
330
1F
100
AcDbEntity
  8
0
  6
Continuous
 62
     7
370
    25
100
AcDbLine
 10
60.0667432173
 20
82.4034942631
 30
0.0
 11
60.0667432173
 21
79.9798830263
 31
0.0
  0
LINE
  5
229
330
1F
100
AcDbEntity
  8
0
  6
Continuous
 62
     7
370
    25
100
AcDbLine
 10
59.0667430534
 20
70.8034944106
 30
0.0
 11
60.0667432173
 21
70.8034944106
 31
0.0
  0
LINE
  5
22A
330
1F
100
AcDbEntity
  8
0
  6
Continuous
 62
     7
370
    25
100
AcDbLine
 10
60.0667432173
 20
73.2271056473
 30
0.0
 11
60.0667432173
 21
70.8034944106
 31
0.0
  0
LINE
  5
22B
330
1F
100
AcDbEntity
  8
0
  6
Continuous
 62
     7
370
    25
100
AcDbLine
 10
48.066743113
 20
70.8034944106
 30
0.0
 11
49.0667432769
 21
70.8034944106
 31
0.0
  0
LINE
  5
22C
330
1F
100
AcDbEntity
  8
0
  6
Continuous
 62
     7
370
    25
100
AcDbLine
 10
48.066743113
 20
70.8034944106
 30
0.0
 11
48.066743113
 21
73.2271056473
 31
0.0
  0
LINE
  5
22D
330
1F
100
AcDbEntity
  8
0
  6
Continuous
 62
     7
370
    25
100
AcDbLine
 10
48.066743113
 20
70.8034944106
 30
0.0
 11
48.066743113
 21
70.6034942847
 31
0.0
  0
LINE
  5
22E
330
1F
100
AcDbEntity
  8
0
  6
Continuous
 62
     7
370
    25
100
AcDbLine
 10
49.2667429371
 20
70.6034942847
 30
0.0
 11
48.066743113
 21
70.6034942847
 31
0.0
  0
LINE
  5
22F
330
1F
100
AcDbEntity
  8
0
  6
Continuous
 62
     7
370
    25
100
AcDbLine
 10
60.0667432173
 20
70.6034942847
 30
0.0
 11
60.0667432173
 21
70.8034944106
 31
0.0
  0
LINE
  5
230
330
1F
100
AcDbEntity
  8
0
  6
Continuous
 62
     7
370
    25
100
AcDbLine
 10
60.0667432173
 20
70.6034942847
 30
0.0
 11
58.8667433931
 21
70.6034942847
 31
0.0
  0
LINE
  5
231
330
1F
100
AcDbEntity
  8
0
  6
Continuous
 62
     7
370
    25
100
AcDbLine
 10
60.0667432173
 20
73.3360214941
 30
0.0
 11
60.0667432173
 21
73.2271056473
 31
0.0
  0
LINE
  5
232
330
1F
100
AcDbEntity
  8
0
  6
Continuous
 62
     7
370
    25
100
AcDbLine
 10
60.0667432173
 20
79.8709671795
 30
0.0
 11
60.0667432173
 21
79.9798830263
 31
0.0
  0
LINE
  5
233
330
1F
100
AcDbEntity
  8
0
  6
Continuous
 62
     7
370
    25
100
AcDbLine
 10
48.066743113
 20
79.9798830263
 30
0.0
 11
48.066743113
 21
79.8709671795
 31
0.0
  0
LINE
  5
234
330
1F
100
AcDbEntity
  8
0
  6
Continuous
 62
     7
370
    25
100
AcDbLine
 10
48.066743113
 20
73.3360214941
 30
0.0
 11
48.066743113
 21
73.2271056473
 31
0.0
  0
LINE
  5
235
330
1F
100
AcDbEntity
  8
0
  6
Continuous
 62
     7
370
    25
100
AcDbLine
 10
60.3667431733
 20
79.8709671795
 30
0.0
 11
60.3667431733
 21
79.9798830263
 31
0.0
  0
SPLINE
  5
236
330
1F
100
AcDbEntity
  8
0
  6
Continuous
 62
     7
370
    25
100
AcDbSpline
210
0.0
220
0.0
230
1.0
 70
     8
 71
     3
 72
    14
 73
    10
 74
     0
 42
0.000000001
 43
0.00000001
 40
0.0
 40
0.0
 40
0.0
 40
0.0
 40
0.4999999999999998
 40
0.4999999999999998
 40
0.7499999999999997
 40
0.7499999999999997
 40
0.8749999999999998
 40
0.8749999999999998
 40
1.0
 40
1.0
 40
1.0
 40
1.0
 10
60.56674316513043
 20
80.52777771089212
 30
0.0
 10
60.56674316513043
 20
80.42739791893935
 30
0.0
 10
60.5553646114971
 20
80.32669307213675
 30
0.0
 10
60.5176272088085
 20
80.17808864119014
 30
0.0
 10
60.50169305594385
 20
80.12881884267128
 30
0.0
 10
60.46675667632972
 20
80.05946192442207
 30
0.0
 10
60.45316534362773
 20
80.0367857903628
 30
0.0
 10
60.41807116136208
 20
79.99775300331883
 30
0.0
 10
60.39440217148616
 20
79.97988294004922
 30
0.0
 10
60.36674316513043
 20
79.97988294004922
 30
0.0
  0
LWPOLYLINE
  5
237
330
1F
100
AcDbEntity
  8
0
  6
Continuous
 62
     7
370
    25
100
AcDbPolyline
 90
        9
 70
   128
 43
0.0
 10
60.7667429595
 20
80.4011879805
 10
60.7277252002
 20
80.4036203623
 10
60.6902064047
 20
80.4108239096
 10
60.6556291914
 20
80.4225222524
 10
60.6253216265
 20
80.4382653292
 10
60.6004492602
 20
80.457448246
 10
60.5819671637
 20
80.4793338608
 10
60.5705859362
 20
80.5030811895
 10
60.5667432992
 20
80.5277775358
  0
LINE
  5
238
330
1F
100
AcDbEntity
  8
0
  6
Continuous
 62
     7
370
    25
100
AcDbLine
 10
47.7667431569
 20
73.3360214941
 30
0.0
 11
47.7667431569
 21
73.2271056473
 31
0.0
  0
SPLINE
  5
239
330
1F
100
AcDbEntity
  8
0
  6
Continuous
 62
     7
370
    25
100
AcDbSpline
210
0.0
220
0.0
230
1.0
 70
     8
 71
     3
 72
    14
 73
    10
 74
     0
 42
0.000000001
 43
0.00000001
 40
0.0
 40
0.0
 40
0.0
 40
0.0
 40
0.4999999999999986
 40
0.4999999999999986
 40
0.7499999999999978
 40
0.7499999999999978
 40
0.8749999999999989
 40
0.8749999999999989
 40
1.0
 40
1.0
 40
1.0
 40
1.0
 10
47.56674316513043
 20
72.67921096275268
 30
0.0
 10
47.56674316513043
 20
72.77959075470544
 30
0.0
 10
47.57812171876376
 20
72.88029560150805
 30
0.0
 10
47.61585912145237
 20
73.02890003245466
 30
0.0
 10
47.631793274317
 20
73.07816983097351
 30
0.0
 10
47.66672965393114
 20
73.14752674922273
 30
0.0
 10
47.68032098663313
 20
73.17020288328199
 30
0.0
 10
47.71541516889877
 20
73.20923567032595
 30
0.0
 10
47.73908415877469
 20
73.22710573359558
 30
0.0
 10
47.76674316513043
 20
73.22710573359558
 30
0.0
  0
LWPOLYLINE
  5
23A
330
1F
100
AcDbEntity
  8
0
  6
Continuous
 62
     7
370
    25
100
AcDbPolyline
 90
        9
 70
   128
 43
0.0
 10
47.3667433708
 20
72.8058006931
 10
47.40576113
 20
72.8033683114
 10
47.4432799256
 20
72.7961647641
 10
47.4778571388
 20
72.7844664212
 10
47.5081647037
 20
72.7687233444
 10
47.5330370701
 20
72.7495404277
 10
47.5515191666
 20
72.7276548129
 10
47.5629003941
 20
72.7039074842
 10
47.566743031
 20
72.6792111378
  0
SPLINE
  5
23B
330
1F
100
AcDbEntity
  8
0
  6
Continuous
 62
     7
370
    25
100
AcDbSpline
210
0.0
220
0.0
230
1.0
 70
     8
 71
     3
 72
    14
 73
    10
 74
     0
 42
0.000000001
 43
0.00000001
 40
0.0
 40
0.0
 40
0.0
 40
0.0
 40
0.1249999999999999
 40
0.1249999999999999
 40
0.2499999999999999
 40
0.2499999999999999
 40
0.4999999999999998
 40
0.4999999999999998
 40
1.0
 40
1.0
 40
1.0
 40
1.0
 10
47.76674316513043
 20
79.97988294004921
 30
0.0
 10
47.73901790893399
 20
79.97988294004921
 30
0.0
 10
47.71545394178956
 20
79.99771677312847
 30
0.0
 10
47.68032628858273
 20
80.0367730078664
 30
0.0
 10
47.66673379194442
 20
80.05945720757055
 30
0.0
 10
47.63182227971059
 20
80.12875426960483
 30
0.0
 10
47.6158729209675
 20
80.1780646761825
 30
0.0
 10
47.57820388781442
 20
80.32630888394304
 30
0.0
 10
47.56674316513043
 20
80.42742648552667
 30
0.0
 10
47.56674316513043
 20
80.52777771089211
 30
0.0
  0
LINE
  5
23C
330
1F
100
AcDbEntity
  8
0
  6
Continuous
 62
     7
370
    25
100
AcDbLine
 10
47.7667431569
 20
79.9798830263
 30
0.0
 11
47.7667431569
 21
79.8709671795
 31
0.0
  0
LWPOLYLINE
  5
23D
330
1F
100
AcDbEntity
  8
0
  6
Continuous
 62
     7
370
    25
100
AcDbPolyline
 90
        9
 70
   128
 43
0.0
 10
47.566743031
 20
80.5277775358
 10
47.5629003941
 20
80.5030811895
 10
47.5515191666
 20
80.4793338608
 10
47.5330370701
 20
80.457448246
 10
47.5081647037
 20
80.4382653292
 10
47.4778571388
 20
80.4225222524
 10
47.4432799256
 20
80.4108239096
 10
47.40576113
 20
80.4036203623
 10
47.3667433708
 20
80.4011879805
  0
LWPOLYLINE
  5
23E
330
1F
100
AcDbEntity
  8
0
  6
Continuous
 62
     7
370
    25
100
AcDbPolyline
 90
        9
 70
   128
 43
0.0
 10
60.5667432992
 20
72.6792111378
 10
60.5705859362
 20
72.7039074842
 10
60.5819671637
 20
72.7276548129
 10
60.6004492602
 20
72.7495404277
 10
60.6253216265
 20
72.7687233444
 10
60.6556291914
 20
72.7844664212
 10
60.6902064047
 20
72.7961647641
 10
60.7277252002
 20
72.8033683114
 10
60.7667429595
 20
72.8058006931
  0
SPLINE
  5
23F
330
1F
100
AcDbEntity
  8
0
  6
Continuous
 62
     7
370
    25
100
AcDbSpline
210
0.0
220
0.0
230
1.0
 70
     8
 71
     3
 72
    14
 73
    10
 74
     0
 42
0.000000001
 43
0.00000001
 40
0.0
 40
0.0
 40
0.0
 40
0.0
 40
0.1249999999999984
 40
0.1249999999999984
 40
0.2499999999999969
 40
0.2499999999999969
 40
0.4999999999999972
 40
0.4999999999999972
 40
1.0
 40
1.0
 40
1.0
 40
1.0
 10
60.36674316513043
 20
73.2271057335956
 30
0.0
 10
60.39446842132688
 20
73.2271057335956
 30
0.0
 10
60.4180323884713
 20
73.20927190051631
 30
0.0
 10
60.45316004167812
 20
73.17021566577839
 30
0.0
 10
60.46675253831645
 20
73.14753146607424
 30
0.0
 10
60.50166405055027
 20
73.07823440403996
 30
0.0
 10
60.51761340929337
 20
73.02892399746227
 30
0.0
 10
60.55528244244645
 20
72.88067978970174
 30
0.0
 10
60.56674316513044
 20
72.7795621881181
 30
0.0
 10
60.56674316513043
 20
72.67921096275268
 30
0.0
  0
LINE
  5
240
330
1F
100
AcDbEntity
  8
0
  6
Continuous
 62
     7
370
    25
100
AcDbLine
 10
60.3667431733
 20
73.3360214941
 30
0.0
 11
60.3667431733
 21
73.2271056473
 31
0.0
  0
LINE
  5
241
330
1F
100
AcDbEntity
  8
0
  6
Continuous
 62
     7
370
    25
100
AcDbLine
 10
60.0667432173
 20
79.9798830263
 30
0.0
 11
60.3667431733
 21
79.9798830263
 31
0.0
  0
LINE
  5
242
330
1F
100
AcDbEntity
  8
0
  6
Continuous
 62
     7
370
    25
100
AcDbLine
 10
47.7667431569
 20
79.9798830263
 30
0.0
 11
48.066743113
 21
79.9798830263
 31
0.0
  0
LINE
  5
243
330
1F
100
AcDbEntity
  8
0
  6
Continuous
 62
     7
370
    25
100
AcDbLine
 10
60.3667431733
 20
73.2271056473
 30
0.0
 11
60.0667432173
 21
73.2271056473
 31
0.0
  0
LINE
  5
244
330
1F
100
AcDbEntity
  8
0
  6
Continuous
 62
     7
370
    25
100
AcDbLine
 10
48.066743113
 20
73.2271056473
 30
0.0
 11
47.7667431569
 21
73.2271056473
 31
0.0
  0
LINE
  5
245
330
1F
100
AcDbEntity
  8
0
  6
Continuous
 62
     7
370
    25
100
AcDbLine
 10
48.066743113
 20
82.4034942631
 30
0.0
 11
47.7667431569
 21
82.4034942631
 31
0.0
  0
LINE
  5
246
330
1F
100
AcDbEntity
  8
0
  6
Continuous
 62
     7
370
    25
100
AcDbLine
 10
47.7667431569
 20
82.4034942631
 30
0.0
 11
47.7667431569
 21
82.603494389
 31
0.0
  0
LINE
  5
247
330
1F
100
AcDbEntity
  8
0
  6
Continuous
 62
     7
370
    25
100
AcDbLine
 10
47.7667431569
 20
82.603494389
 30
0.0
 11
48.066743113
 21
82.603494389
 31
0.0
  0
LINE
  5
248
330
1F
100
AcDbEntity
  8
0
  6
Continuous
 62
     7
370
    25
100
AcDbLine
 10
60.3667431733
 20
82.4034942631
 30
0.0
 11
60.0667432173
 21
82.4034942631
 31
0.0
  0
LINE
  5
249
330
1F
100
AcDbEntity
  8
0
  6
Continuous
 62
     7
370
    25
100
AcDbLine
 10
60.3667431733
 20
82.603494389
 30
0.0
 11
60.3667431733
 21
82.4034942631
 31
0.0
  0
LINE
  5
24A
330
1F
100
AcDbEntity
  8
0
  6
Continuous
 62
     7
370
    25
100
AcDbLine
 10
60.0667432173
 20
82.603494389
 30
0.0
 11
60.3667431733
 21
82.603494389
 31
0.0
  0
LINE
  5
24B
330
1F
100
AcDbEntity
  8
0
  6
Continuous
 62
     7
370
    25
100
AcDbLine
 10
60.5667432992
 20
82.4034942631
 30
0.0
 11
60.3667431733
 21
82.4034942631
 31
0.0
  0
ARC
  5
24C
330
1F
100
AcDbEntity
  8
0
  6
Continuous
 62
     7
370
    25
100
AcDbCircle
 10
60.3667431651
 20
82.4034943368
 30
0.0
 40
0.2000000000000028
100
AcDbArc
 50
0.0
 51
90.0
  0
LINE
  5
24D
330
1F
100
AcDbEntity
  8
0
  6
Continuous
 62
     7
370
    25
100
AcDbLine
 10
60.3667431733
 20
79.9798830263
 30
0.0
 11
60.3667431733
 21
82.4034942631
 31
0.0
  0
LINE
  5
24E
330
1F
100
AcDbEntity
  8
0
  6
Continuous
 62
     7
370
    25
100
AcDbLine
 10
60.5667432992
 20
82.4034942631
 30
0.0
 11
60.5667432992
 21
80.5277775358
 31
0.0
  0
LINE
  5
24F
330
1F
100
AcDbEntity
  8
0
  6
Continuous
 62
     7
370
    25
100
AcDbLine
 10
47.7667431569
 20
82.4034942631
 30
0.0
 11
47.7667431569
 21
79.9798830263
 31
0.0
  0
LINE
  5
250
330
1F
100
AcDbEntity
  8
0
  6
Continuous
 62
     7
370
    25
100
AcDbLine
 10
47.7667431569
 20
82.4034942631
 30
0.0
 11
47.566743031
 21
82.4034942631
 31
0.0
  0
ARC
  5
251
330
1F
100
AcDbEntity
  8
0
  6
Continuous
 62
     7
370
    25
100
AcDbCircle
 10
47.7667431651
 20
82.4034943368
 30
0.0
 40
0.2000000000000028
100
AcDbArc
 50
90.0
 51
180.0
  0
LINE
  5
252
330
1F
100
AcDbEntity
  8
0
  6
Continuous
 62
     7
370
    25
100
AcDbLine
 10
47.566743031
 20
80.5277775358
 30
0.0
 11
47.566743031
 21
82.4034942631
 31
0.0
  0
LINE
  5
253
330
1F
100
AcDbEntity
  8
0
  6
Continuous
 62
     7
370
    25
100
AcDbLine
 10
60.5667432992
 20
72.6792111378
 30
0.0
 11
60.5667432992
 21
70.8034944106
 31
0.0
  0
LINE
  5
254
330
1F
100
AcDbEntity
  8
0
  6
Continuous
 62
     7
370
    25
100
AcDbLine
 10
60.5667432992
 20
70.8034944106
 30
0.0
 11
60.3667431733
 21
70.8034944106
 31
0.0
  0
LINE
  5
255
330
1F
100
AcDbEntity
  8
0
  6
Continuous
 62
     7
370
    25
100
AcDbLine
 10
60.3667431733
 20
70.8034944106
 30
0.0
 11
60.3667431733
 21
73.2271056473
 31
0.0
  0
LINE
  5
256
330
1F
100
AcDbEntity
  8
0
  6
Continuous
 62
     7
370
    25
100
AcDbLine
 10
60.0667432173
 20
70.8034944106
 30
0.0
 11
60.3667431733
 21
70.8034944106
 31
0.0
  0
LINE
  5
257
330
1F
100
AcDbEntity
  8
0
  6
Continuous
 62
     7
370
    25
100
AcDbLine
 10
47.7667431569
 20
70.8034944106
 30
0.0
 11
48.066743113
 21
70.8034944106
 31
0.0
  0
LINE
  5
258
330
1F
100
AcDbEntity
  8
0
  6
Continuous
 62
     7
370
    25
100
AcDbLine
 10
47.7667431569
 20
73.2271056473
 30
0.0
 11
47.7667431569
 21
70.8034944106
 31
0.0
  0
LINE
  5
259
330
1F
100
AcDbEntity
  8
0
  6
Continuous
 62
     7
370
    25
100
AcDbLine
 10
47.7667431569
 20
70.8034944106
 30
0.0
 11
47.566743031
 21
70.8034944106
 31
0.0
  0
LINE
  5
25A
330
1F
100
AcDbEntity
  8
0
  6
Continuous
 62
     7
370
    25
100
AcDbLine
 10
47.566743031
 20
70.8034944106
 30
0.0
 11
47.566743031
 21
72.6792111378
 31
0.0
  0
LINE
  5
25B
330
1F
100
AcDbEntity
  8
0
  6
Continuous
 62
     7
370
    25
100
AcDbLine
 10
60.3667431733
 20
70.6034942847
 30
0.0
 11
60.3667431733
 21
70.8034944106
 31
0.0
  0
ARC
  5
25C
330
1F
100
AcDbEntity
  8
0
  6
Continuous
 62
     7
370
    25
100
AcDbCircle
 10
60.3667431651
 20
70.8034943368
 30
0.0
 40
0.2000000000000028
100
AcDbArc
 50
270.0
 51
0.0
  0
LINE
  5
25D
330
1F
100
AcDbEntity
  8
0
  6
Continuous
 62
     7
370
    25
100
AcDbLine
 10
60.3667431733
 20
70.6034942847
 30
0.0
 11
60.0667432173
 21
70.6034942847
 31
0.0
  0
LINE
  5
25E
330
1F
100
AcDbEntity
  8
0
  6
Continuous
 62
     7
370
    25
100
AcDbLine
 10
47.7667431569
 20
70.8034944106
 30
0.0
 11
47.7667431569
 21
70.6034942847
 31
0.0
  0
LINE
  5
25F
330
1F
100
AcDbEntity
  8
0
  6
Continuous
 62
     7
370
    25
100
AcDbLine
 10
48.066743113
 20
70.6034942847
 30
0.0
 11
47.7667431569
 21
70.6034942847
 31
0.0
  0
ARC
  5
260
330
1F
100
AcDbEntity
  8
0
  6
Continuous
 62
     7
370
    25
100
AcDbCircle
 10
47.7667431651
 20
70.8034943368
 30
0.0
 40
0.2000000000000028
100
AcDbArc
 50
180.0
 51
270.0
  0
SPLINE
  5
261
330
1F
100
AcDbEntity
  8
0
  6
Continuous
 62
     7
370
    25
100
AcDbSpline
210
0.0
220
0.0
230
1.0
 70
     8
 71
     3
 72
    14
 73
    10
 74
     0
 42
0.000000001
 43
0.00000001
 40
0.0
 40
0.0
 40
0.0
 40
0.0
 40
0.0484762997290651
 40
0.1220108450216317
 40
0.2276037384067111
 40
0.3675059195106766
 40
0.5426256501523746
 40
0.7533872704160025
 40
1.0
 40
1.0
 40
1.0
 40
1.0
 10
47.56674316513043
 20
82.40349433682239
 30
0.0
 10
47.56673612945282
 20
82.40270795922312
 30
0.0
 10
47.56671842123303
 20
82.40072871171598
 30
0.0
 10
47.56610917083061
 20
82.39031983225104
 30
0.0
 10
47.56404060873083
 20
82.37586493774873
 30
0.0
 10
47.55910681252402
 20
82.35553955497288
 30
0.0
 10
47.5494292099027
 20
82.33074299750226
 30
0.0
 10
47.53329238122326
 20
82.30209691841786
 30
0.0
 10
47.51696978641734
 20
82.28434817720066
 30
0.0
 10
47.50816876891315
 20
82.2747781925268
 30
0.0
  0
SPLINE
  5
262
330
1F
100
AcDbEntity
  8
0
  6
Continuous
 62
     7
370
    25
100
AcDbSpline
210
0.0
220
0.0
230
1.0
 70
     8
 71
     3
 72
     8
 73
     4
 74
     0
 42
0.000000001
 43
0.00000001
 40
0.0
 40
0.0
 40
0.0
 40
0.0
 40
1.0
 40
1.0
 40
1.0
 40
1.0
 10
47.50816876891315
 20
82.2747781925268
 30
0.0
 10
47.47114444063948
 20
82.23892881124172
 30
0.0
 10
47.41910504503244
 20
82.21758108317414
 30
0.0
 10
47.36674316513043
 20
82.21639756262884
 30
0.0
  0
SPLINE
  5
263
330
1F
100
AcDbEntity
  8
0
  6
Continuous
 62
     7
370
    25
100
AcDbSpline
210
0.0
220
0.0
230
1.0
 70
     8
 71
     3
 72
     8
 73
     4
 74
     0
 42
0.000000001
 43
0.00000001
 40
0.0
 40
0.0
 40
0.0
 40
0.0
 40
1.0
 40
1.0
 40
1.0
 40
1.0
 10
60.76674316513043
 20
82.21639756262884
 30
0.0
 10
60.71438128522842
 20
82.21758108317414
 30
0.0
 10
60.66234188962139
 20
82.23892881124172
 30
0.0
 10
60.62531756134771
 20
82.2747781925268
 30
0.0
  0
SPLINE
  5
264
330
1F
100
AcDbEntity
  8
0
  6
Continuous
 62
     7
370
    25
100
AcDbSpline
210
0.0
220
0.0
230
1.0
 70
     8
 71
     3
 72
    13
 73
     9
 74
     0
 42
0.000000001
 43
0.00000001
 40
0.0
 40
0.0
 40
0.0
 40
0.0
 40
0.2842828991742481
 40
0.5198370183905306
 40
0.7070414958140518
 40
0.8468107266085061
 40
0.941597814201084
 40
1.0
 40
1.0
 40
1.0
 40
1.0
 10
60.62531756134771
 20
82.2747781925268
 30
0.0
 10
60.61526522096805
 20
82.28590073692224
 30
0.0
 10
60.59688360650589
 20
82.30623931631705
 30
0.0
 10
60.58022534979068
 20
82.33877529680115
 30
0.0
 10
60.57144062320835
 20
82.36588295544256
 30
0.0
 10
60.5678410240992
 20
82.38534081414552
 30
0.0
 10
60.56678887804564
 20
82.39946752571174
 30
0.0
 10
60.56675578253085
 20
82.40238288094625
 30
0.0
 10
60.56674316513043
 20
82.40349433682239
 30
0.0
  0
SPLINE
  5
265
330
1F
100
AcDbEntity
  8
0
  6
Continuous
 62
     7
370
    25
100
AcDbSpline
210
0.0
220
0.0
230
1.0
 70
     8
 71
     3
 72
    12
 73
     8
 74
     0
 42
0.000000001
 43
0.00000001
 40
0.0
 40
0.0
 40
0.0
 40
0.0
 40
0.25
 40
0.25
 40
0.5
 40
0.5
 40
1.0
 40
1.0
 40
1.0
 40
1.0
 10
60.62531756134771
 20
70.93221048111799
 30
0.0
 10
60.61387549559952
 20
70.92104566075058
 30
0.0
 10
60.60364561634479
 20
70.90796304662082
 30
0.0
 10
60.58670242667208
 20
70.8806938717679
 30
0.0
 10
60.5799891162541
 20
70.86650731104474
 30
0.0
 10
60.56676233203005
 20
70.8263891703822
 30
0.0
 10
60.56674316513043
 20
70.8034943368224
 30
0.0
 10
60.56674316513043
 20
70.8034943368224
 30
0.0
  0
SPLINE
  5
266
330
1F
100
AcDbEntity
  8
0
  6
Continuous
 62
     7
370
    25
100
AcDbSpline
210
0.0
220
0.0
230
1.0
 70
     8
 71
     3
 72
    10
 73
     6
 74
     0
 42
0.000000001
 43
0.00000001
 40
0.0
 40
0.0
 40
0.0
 40
0.0
 40
0.5
 40
0.5
 40
1.0
 40
1.0
 40
1.0
 40
1.0
 10
60.62531756134771
 20
70.93221048111799
 30
0.0
 10
60.64820169284409
 20
70.95454012185282
 30
0.0
 10
60.67573283805917
 20
70.97027617448525
 30
0.0
 10
60.72617358533843
 20
70.98803600538355
 30
0.0
 10
60.74892206152295
 20
70.99059111101595
 30
0.0
 10
60.76674316513043
 20
70.99059111101595
 30
0.0
  0
SPLINE
  5
267
330
1F
100
AcDbEntity
  8
0
  6
Continuous
 62
     7
370
    25
100
AcDbSpline
210
0.0
220
0.0
230
1.0
 70
     8
 71
     3
 72
    12
 73
     8
 74
     0
 42
0.000000001
 43
0.00000001
 40
0.0
 40
0.0
 40
0.0
 40
0.0
 40
0.25
 40
0.25
 40
0.5
 40
0.5
 40
1.0
 40
1.0
 40
1.0
 40
1.0
 10
47.50816876891315
 20
70.93221048111799
 30
0.0
 10
47.51961083466134
 20
70.92104566075058
 30
0.0
 10
47.52984071391607
 20
70.90796304662082
 30
0.0
 10
47.54678390358878
 20
70.8806938717679
 30
0.0
 10
47.55349721400676
 20
70.86650731104474
 30
0.0
 10
47.56672399823081
 20
70.8263891703822
 30
0.0
 10
47.56674316513043
 20
70.8034943368224
 30
0.0
 10
47.56674316513043
 20
70.8034943368224
 30
0.0
  0
SPLINE
  5
268
330
1F
100
AcDbEntity
  8
0
  6
Continuous
 62
     7
370
    25
100
AcDbSpline
210
0.0
220
0.0
230
1.0
 70
     8
 71
     3
 72
    10
 73
     6
 74
     0
 42
0.000000001
 43
0.00000001
 40
0.0
 40
0.0
 40
0.0
 40
0.0
 40
0.5
 40
0.5
 40
1.0
 40
1.0
 40
1.0
 40
1.0
 10
47.50816876891315
 20
70.93221048111799
 30
0.0
 10
47.48528463741678
 20
70.95454012185282
 30
0.0
 10
47.4577534922017
 20
70.97027617448525
 30
0.0
 10
47.40731274492243
 20
70.98803600538355
 30
0.0
 10
47.38456426873791
 20
70.99059111101595
 30
0.0
 10
47.36674316513043
 20
70.99059111101595
 30
0.0
  0
SPLINE
  5
269
330
1F
100
AcDbEntity
  8
0
  6
Continuous
 62
     7
370
    25
100
AcDbSpline
210
0.0
220
0.0
230
1.0
 70
     8
 71
     3
 72
    12
 73
     8
 74
     0
 42
0.000000001
 43
0.00000001
 40
0.0
 40
0.0
 40
0.0
 40
0.0
 40
0.25
 40
0.25
 40
0.5
 40
0.5
 40
1.0
 40
1.0
 40
1.0
 40
1.0
 10
60.56802695743379
 20
82.60266555917946
 30
0.0
 10
60.55984000051641
 20
82.60265916224947
 30
0.0
 10
60.5538213687359
 20
82.59575377063285
 30
0.0
 10
60.5423845314924
 20
82.57853458723874
 30
0.0
 10
60.53696632602939
 20
82.56822079546123
 30
0.0
 10
60.51600801318224
 20
82.54775120370586
 30
0.0
 10
60.5082587763653
 20
82.54482143806214
 30
0.0
 10
60.50816452136621
 20
82.54491569306124
 30
0.0
  0
SPLINE
  5
26A
330
1F
100
AcDbEntity
  8
0
  6
Continuous
 62
     7
370
    25
100
AcDbSpline
210
0.0
220
0.0
230
1.0
 70
     8
 71
     3
 72
     9
 73
     5
 74
     0
 42
0.000000001
 43
0.00000001
 40
0.0
 40
0.0
 40
0.0
 40
0.0
 40
0.4105980787743589
 40
1.0
 40
1.0
 40
1.0
 40
1.0
 10
60.41325901063782
 20
82.60379567182935
 30
0.0
 10
60.43444355905984
 20
82.6040345589684
 30
0.0
 10
60.486037927171
 20
82.60461636183446
 30
0.0
 10
60.537622865596
 20
82.60338895048976
 30
0.0
 10
60.56802712740999
 20
82.60266551188505
 30
0.0
  0
SPLINE
  5
26B
330
1F
100
AcDbEntity
  8
0
  6
Continuous
 62
     7
370
    25
100
AcDbSpline
210
0.0
220
0.0
230
1.0
 70
     8
 71
     3
 72
    12
 73
     8
 74
     0
 42
0.000000001
 43
0.00000001
 40
0.0
 40
0.0
 40
0.0
 40
0.0
 40
0.25
 40
0.25
 40
0.5
 40
0.5
 40
1.0
 40
1.0
 40
1.0
 40
1.0
 10
60.56802695743379
 20
82.60266555917946
 30
0.0
 10
60.57621391435119
 20
82.60267195610943
 30
0.0
 10
60.58796593414743
 20
82.59578044970253
 30
0.0
 10
60.61345190124651
 20
82.56664654979629
 30
0.0
 10
60.62718584854935
 20
82.54440415629692
 30
0.0
 10
60.66363828434113
 20
82.45231802453202
 30
0.0
 10
60.65816901138217
 20
82.37085274705423
 30
0.0
 10
60.62531756134771
 20
82.2747781925268
 30
0.0
  0
SPLINE
  5
26C
330
1F
100
AcDbEntity
  8
0
  6
Continuous
 62
     7
370
    25
100
AcDbSpline
210
0.0
220
0.0
230
1.0
 70
     8
 71
     3
 72
    14
 73
    10
 74
     0
 42
0.000000001
 43
0.00000001
 40
0.0
 40
0.0
 40
0.0
 40
0.0
 40
0.25
 40
0.25
 40
0.5
 40
0.5
 40
0.75
 40
0.75
 40
1.0
 40
1.0
 40
1.0
 40
1.0
 10
47.56545937282706
 20
82.60266555917944
 30
0.0
 10
47.55727241590967
 20
82.60267195610943
 30
0.0
 10
47.54552039611343
 20
82.59578044970253
 30
0.0
 10
47.52003442901435
 20
82.56664654979627
 30
0.0
 10
47.50630048171152
 20
82.5444041562969
 30
0.0
 10
47.48199885785033
 20
82.48301340178699
 30
0.0
 10
47.47729077012477
 20
82.44729939379006
 30
0.0
 10
47.48216286314756
 20
82.36720042779181
 30
0.0
 10
47.49174304389592
 20
82.32281546979051
 30
0.0
 10
47.50816876891315
 20
82.2747781925268
 30
0.0
  0
SPLINE
  5
26D
330
1F
100
AcDbEntity
  8
0
  6
Continuous
 62
     7
370
    25
100
AcDbSpline
210
0.0
220
0.0
230
1.0
 70
     8
 71
     3
 72
    12
 73
     8
 74
     0
 42
0.000000001
 43
0.00000001
 40
0.0
 40
0.0
 40
0.0
 40
0.0
 40
0.25
 40
0.25
 40
0.5
 40
0.5
 40
1.0
 40
1.0
 40
1.0
 40
1.0
 10
47.56545937282706
 20
82.60266555917944
 30
0.0
 10
47.57364632974445
 20
82.60265916224947
 30
0.0
 10
47.57966496152495
 20
82.59575377063285
 30
0.0
 10
47.59110179876846
 20
82.57853458723872
 30
0.0
 10
47.59652000423146
 20
82.56822079546122
 30
0.0
 10
47.61747831707863
 20
82.54775120370586
 30
0.0
 10
47.62522755389556
 20
82.54482143806214
 30
0.0
 10
47.62532180889465
 20
82.54491569306124
 30
0.0
  0
SPLINE
  5
26E
330
1F
100
AcDbEntity
  8
0
  6
Continuous
 62
     7
370
    25
100
AcDbSpline
210
0.0
220
0.0
230
1.0
 70
     8
 71
     3
 72
     9
 73
     5
 74
     0
 42
0.000000001
 43
0.00000001
 40
0.0
 40
0.0
 40
0.0
 40
0.0
 40
0.4105980787743589
 40
1.0
 40
1.0
 40
1.0
 40
1.0
 10
47.72022731962305
 20
82.60379567182935
 30
0.0
 10
47.69904277120102
 20
82.6040345589684
 30
0.0
 10
47.64744840308985
 20
82.60461636183446
 30
0.0
 10
47.59586346466487
 20
82.60338895048976
 30
0.0
 10
47.56545920285087
 20
82.60266551188505
 30
0.0
  0
SPLINE
  5
26F
330
1F
100
AcDbEntity
  8
0
  6
Continuous
 62
     7
370
    25
100
AcDbSpline
210
0.0
220
0.0
230
1.0
 70
     8
 71
     3
 72
    12
 73
     8
 74
     0
 42
0.000000001
 43
0.00000001
 40
0.0
 40
0.0
 40
0.0
 40
0.0
 40
0.25
 40
0.25
 40
0.5
 40
0.5
 40
1.0
 40
1.0
 40
1.0
 40
1.0
 10
60.56802695743379
 20
70.60432311446533
 30
0.0
 10
60.55984000051641
 20
70.6043295113953
 30
0.0
 10
60.5538213687359
 20
70.61123490301192
 30
0.0
 10
60.5423845314924
 20
70.62845408640604
 30
0.0
 10
60.53696632602939
 20
70.63876787818356
 30
0.0
 10
60.51600801318224
 20
70.65923746993893
 30
0.0
 10
60.5082587763653
 20
70.66216723558264
 30
0.0
 10
60.50816452136621
 20
70.66207298058355
 30
0.0
  0
SPLINE
  5
270
330
1F
100
AcDbEntity
  8
0
  6
Continuous
 62
     7
370
    25
100
AcDbSpline
210
0.0
220
0.0
230
1.0
 70
     8
 71
     3
 72
    12
 73
     8
 74
     0
 42
0.000000001
 43
0.00000001
 40
0.0
 40
0.0
 40
0.0
 40
0.0
 40
0.25
 40
0.25
 40
0.5
 40
0.5
 40
1.0
 40
1.0
 40
1.0
 40
1.0
 10
60.56802695743379
 20
70.60432311446533
 30
0.0
 10
60.57621391435119
 20
70.60431671753537
 30
0.0
 10
60.58796593414743
 20
70.61120822394224
 30
0.0
 10
60.61345190124651
 20
70.6403421238485
 30
0.0
 10
60.62718584854935
 20
70.66258451734785
 30
0.0
 10
60.66363828434113
 20
70.75467064911277
 30
0.0
 10
60.65816901138217
 20
70.83613592659054
 30
0.0
 10
60.62531756134771
 20
70.93221048111799
 30
0.0
  0
SPLINE
  5
271
330
1F
100
AcDbEntity
  8
0
  6
Continuous
 62
     7
370
    25
100
AcDbSpline
210
0.0
220
0.0
230
1.0
 70
     8
 71
     3
 72
    12
 73
     8
 74
     0
 42
0.000000001
 43
0.00000001
 40
0.0
 40
0.0
 40
0.0
 40
0.0
 40
0.25
 40
0.25
 40
0.5
 40
0.5
 40
1.0
 40
1.0
 40
1.0
 40
1.0
 10
47.56545937282706
 20
70.60432311446533
 30
0.0
 10
47.57364632974446
 20
70.6043295113953
 30
0.0
 10
47.57966496152496
 20
70.61123490301192
 30
0.0
 10
47.59110179876847
 20
70.62845408640605
 30
0.0
 10
47.59652000423147
 20
70.63876787818357
 30
0.0
 10
47.61747831707864
 20
70.65923746993893
 30
0.0
 10
47.62522755389556
 20
70.66216723558264
 30
0.0
 10
47.62532180889465
 20
70.66207298058355
 30
0.0
  0
SPLINE
  5
272
330
1F
100
AcDbEntity
  8
0
  6
Continuous
 62
     7
370
    25
100
AcDbSpline
210
0.0
220
0.0
230
1.0
 70
     8
 71
     3
 72
    14
 73
    10
 74
     0
 42
0.000000001
 43
0.00000001
 40
0.0
 40
0.0
 40
0.0
 40
0.0
 40
0.25
 40
0.25
 40
0.5
 40
0.5
 40
0.75
 40
0.75
 40
1.0
 40
1.0
 40
1.0
 40
1.0
 10
47.56545937282706
 20
70.60432311446533
 30
0.0
 10
47.55727241590968
 20
70.60431671753537
 30
0.0
 10
47.54552039611344
 20
70.61120822394226
 30
0.0
 10
47.52003442901437
 20
70.64034212384851
 30
0.0
 10
47.50630048171153
 20
70.66258451734787
 30
0.0
 10
47.48199885785033
 20
70.72397527185781
 30
0.0
 10
47.47729077012477
 20
70.75968927985474
 30
0.0
 10
47.48216286314757
 20
70.83978824585296
 30
0.0
 10
47.49174304389592
 20
70.88417320385427
 30
0.0
 10
47.50816876891315
 20
70.93221048111799
 30
0.0
  0
SPLINE
  5
273
330
1F
100
AcDbEntity
  8
0
  6
Continuous
 62
     7
370
    25
100
AcDbSpline
210
0.0
220
0.0
230
1.0
 70
     8
 71
     3
 72
     9
 73
     5
 74
     0
 42
0.000000001
 43
0.00000001
 40
0.0
 40
0.0
 40
0.0
 40
0.0
 40
0.4105980787743589
 40
1.0
 40
1.0
 40
1.0
 40
1.0
 10
60.41325901063782
 20
70.60319300181544
 30
0.0
 10
60.43444355905984
 20
70.60295411467641
 30
0.0
 10
60.486037927171
 20
70.60237231181033
 30
0.0
 10
60.537622865596
 20
70.60359972315504
 30
0.0
 10
60.56802712740999
 20
70.60432316175974
 30
0.0
  0
SPLINE
  5
274
330
1F
100
AcDbEntity
  8
0
  6
Continuous
 62
     7
370
    25
100
AcDbSpline
210
0.0
220
0.0
230
1.0
 70
     8
 71
     3
 72
     9
 73
     5
 74
     0
 42
0.000000001
 43
0.00000001
 40
0.0
 40
0.0
 40
0.0
 40
0.0
 40
0.4105980787743589
 40
1.0
 40
1.0
 40
1.0
 40
1.0
 10
47.72022731962305
 20
70.60319300181544
 30
0.0
 10
47.69904277120102
 20
70.60295411467641
 30
0.0
 10
47.64744840308985
 20
70.60237231181033
 30
0.0
 10
47.59586346466487
 20
70.60359972315504
 30
0.0
 10
47.56545920285087
 20
70.60432316175974
 30
0.0
  0
SPLINE
  5
275
330
1F
100
AcDbEntity
  8
0
  6
Continuous
 62
     7
370
    25
100
AcDbSpline
210
0.0
220
0.0
230
1.0
 70
     8
 71
     3
 72
     9
 73
     5
 74
     0
 42
0.000000001
 43
0.00000001
 40
0.0
 40
0.0
 40
0.0
 40
0.0
 40
0.1239257456654217
 40
1.0
 40
1.0
 40
1.0
 40
1.0
 10
60.67116039233905
 20
82.60212348214662
 30
0.0
 10
60.66690038635168
 20
82.60205641617229
 30
0.0
 10
60.6325249144552
 20
82.60151523746904
 30
0.0
 10
60.59814579172262
 20
82.60212836587446
 30
0.0
 10
60.56802712740999
 20
82.60266551188505
 30
0.0
  0
SPLINE
  5
276
330
1F
100
AcDbEntity
  8
0
  6
Continuous
 62
     7
370
    25
100
AcDbSpline
210
0.0
220
0.0
230
1.0
 70
     8
 71
     3
 72
    10
 73
     6
 74
     0
 42
0.000000001
 43
0.00000001
 40
0.0
 40
0.0
 40
0.0
 40
0.0
 40
0.5
 40
0.5
 40
1.0
 40
1.0
 40
1.0
 40
1.0
 10
47.56545937282706
 20
82.60266555917944
 30
0.0
 10
47.53271154515751
 20
82.60269114689936
 30
0.0
 10
47.49795451763875
 20
82.60297615083489
 30
0.0
 10
47.42667835974078
 20
82.59996871524207
 30
0.0
 10
47.40067604707988
 20
82.60349433682241
 30
0.0
 10
47.36674316513043
 20
82.60349433682241
 30
0.0
  0
SPLINE
  5
277
330
1F
100
AcDbEntity
  8
0
  6
Continuous
 62
     7
370
    25
100
AcDbSpline
210
0.0
220
0.0
230
1.0
 70
     8
 71
     3
 72
    10
 73
     6
 74
     0
 42
0.000000001
 43
0.00000001
 40
0.0
 40
0.0
 40
0.0
 40
0.0
 40
0.5
 40
0.5
 40
1.0
 40
1.0
 40
1.0
 40
1.0
 10
60.56802695743379
 20
70.60432311446533
 30
0.0
 10
60.60077478510335
 20
70.60429752674544
 30
0.0
 10
60.63553181262212
 20
70.60401252280988
 30
0.0
 10
60.70680797052007
 20
70.60701995840273
 30
0.0
 10
60.73281028318098
 20
70.6034943368224
 30
0.0
 10
60.76674316513043
 20
70.6034943368224
 30
0.0
  0
SPLINE
  5
278
330
1F
100
AcDbEntity
  8
0
  6
Continuous
 62
     7
370
    25
100
AcDbSpline
210
0.0
220
0.0
230
1.0
 70
     8
 71
     3
 72
    10
 73
     6
 74
     0
 42
0.000000001
 43
0.00000001
 40
0.0
 40
0.0
 40
0.0
 40
0.0
 40
0.5
 40
0.5
 40
1.0
 40
1.0
 40
1.0
 40
1.0
 10
47.56545937282706
 20
70.60432311446533
 30
0.0
 10
47.53271154515751
 20
70.60429752674544
 30
0.0
 10
47.49795451763874
 20
70.6040125228099
 30
0.0
 10
47.42667835974078
 20
70.60701995840272
 30
0.0
 10
47.40067604707988
 20
70.6034943368224
 30
0.0
 10
47.36674316513043
 20
70.6034943368224
 30
0.0
  0
SPLINE
  5
279
330
1F
100
AcDbEntity
  8
0
  6
Continuous
 62
     7
370
    25
100
AcDbSpline
210
0.0
220
0.0
230
1.0
 70
     8
 71
     3
 72
    30
 73
    26
 74
     0
 42
0.000000001
 43
0.00000001
 40
0.0
 40
0.0
 40
0.0
 40
0.0
 40
0.1249999999999999
 40
0.1249999999999999
 40
0.2499999999999998
 40
0.2499999999999998
 40
0.3124999999999998
 40
0.3124999999999998
 40
0.3749999999999998
 40
0.3749999999999998
 40
0.4374999999999998
 40
0.4374999999999998
 40
0.4999999999999998
 40
0.4999999999999998
 40
0.5624999999999997
 40
0.5624999999999997
 40
0.6249999999999998
 40
0.6249999999999998
 40
0.6874999999999998
 40
0.6874999999999998
 40
0.7499999999999999
 40
0.7499999999999999
 40
0.875
 40
0.875
 40
1.0
 40
1.0
 40
1.0
 40
1.0
 10
50.5667431651268
 20
78.53998600992662
 30
0.0
 10
50.81955986034701
 20
78.50287945006005
 30
0.0
 10
51.06800185161564
 20
78.4492233588901
 30
0.0
 10
51.54984105793017
 20
78.29361205958675
 30
0.0
 10
51.78601476569064
 20
78.19188205555245
 30
0.0
 10
52.09578532315724
 20
77.97300335464219
 30
0.0
 10
52.19134600198718
 20
77.88819338156574
 30
0.0
 10
52.35130272616506
 20
77.69019192369673
 30
0.0
 10
52.4162971405855
 20
77.57385163134245
 30
0.0
 10
52.50457657410829
 20
77.32151226411541
 30
0.0
 10
52.53004879756624
 20
77.18181894445117
 30
0.0
 10
52.5586386079353
 20
76.89645472450043
 30
0.0
 10
52.56318681682404
 20
76.75078769558253
 30
0.0
 10
52.56313779694704
 20
76.45422215801764
 30
0.0
 10
52.55854136809918
 20
76.30868335955762
 30
0.0
 10
52.52979764314084
 20
76.02355363894651
 30
0.0
 10
52.50424332610316
 20
75.88379059691708
 30
0.0
 10
52.41510372743848
 20
75.63047171588738
 30
0.0
 10
52.34992014060543
 20
75.51460695397606
 30
0.0
 10
52.18923206783145
 20
75.3166674848486
 30
0.0
 10
52.09284092315735
 20
75.23164465609204
 30
0.0
 10
51.78472971798575
 20
75.01472822842503
 30
0.0
 10
51.54910207639359
 20
74.9130897154009
 30
0.0
 10
51.06747614753969
 20
74.75764390656798
 30
0.0
 10
50.81925558366841
 20
74.70406456411025
 30
0.0
 10
50.56674316513043
 20
74.6670026637187
 30
0.0
  0
SPLINE
  5
27A
330
1F
100
AcDbEntity
  8
0
  6
Continuous
 62
     7
370
    25
100
AcDbSpline
210
0.0
220
0.0
230
1.0
 70
     8
 71
     3
 72
    30
 73
    26
 74
     0
 42
0.000000001
 43
0.00000001
 40
0.0
 40
0.0
 40
0.0
 40
0.0
 40
0.1249999999999998
 40
0.1249999999999998
 40
0.2499999999999996
 40
0.2499999999999996
 40
0.3124999999999996
 40
0.3124999999999996
 40
0.3749999999999995
 40
0.3749999999999995
 40
0.4374999999999995
 40
0.4374999999999995
 40
0.4999999999999994
 40
0.4999999999999994
 40
0.5624999999999994
 40
0.5624999999999994
 40
0.6249999999999994
 40
0.6249999999999994
 40
0.6874999999999994
 40
0.6874999999999994
 40
0.7499999999999994
 40
0.7499999999999994
 40
0.8749999999999998
 40
0.8749999999999998
 40
1.0
 40
1.0
 40
1.0
 40
1.0
 10
57.56674316513406
 20
74.66700266371816
 30
0.0
 10
57.31392646991385
 20
74.70410922358472
 30
0.0
 10
57.06548447864522
 20
74.75776531475469
 30
0.0
 10
56.58364527233069
 20
74.91337661405804
 30
0.0
 10
56.34747156457022
 20
75.01510661809233
 30
0.0
 10
56.03770100710362
 20
75.23398531900258
 30
0.0
 10
55.94214032827368
 20
75.31879529207905
 30
0.0
 10
55.7821836040958
 20
75.51679674994806
 30
0.0
 10
55.71718918967536
 20
75.63313704230234
 30
0.0
 10
55.62890975615257
 20
75.88547640952937
 30
0.0
 10
55.60343753269462
 20
76.0251697291936
 30
0.0
 10
55.57484772232556
 20
76.31053394914436
 30
0.0
 10
55.57029951343682
 20
76.45620097806224
 30
0.0
 10
55.57034853331382
 20
76.75276651562716
 30
0.0
 10
55.57494496216168
 20
76.89830531408715
 30
0.0
 10
55.60368868712003
 20
77.18343503469826
 30
0.0
 10
55.6292430041577
 20
77.3231980767277
 30
0.0
 10
55.71838260282238
 20
77.5765169577574
 30
0.0
 10
55.78356618965543
 20
77.69238171966875
 30
0.0
 10
55.9442542624294
 20
77.8903211887962
 30
0.0
 10
56.04064540710352
 20
77.97534401755276
 30
0.0
 10
56.34875661227511
 20
78.19226044521976
 30
0.0
 10
56.58438425386727
 20
78.29389895824389
 30
0.0
 10
57.06601018272117
 20
78.44934476707682
 30
0.0
 10
57.31423074659246
 20
78.50292410953453
 30
0.0
 10
57.56674316513043
 20
78.5399860099261
 30
0.0
  0
LINE
  5
27B
330
1F
100
AcDbEntity
  8
0
  6
Continuous
 62
     7
370
    25
100
AcDbLine
 10
60.8167433402
 20
82.903494345
 30
0.0
 11
61.3167429565
 21
82.903494345
 31
0.0
  0
LINE
  5
27C
330
1F
100
AcDbEntity
  8
0
  6
Continuous
 62
     7
370
    25
100
AcDbLine
 10
60.5667432992
 20
82.603494389
 30
0.0
 11
61.5667429975
 21
82.603494389
 31
0.0
  0
SPLINE
  5
27D
330
1F
100
AcDbEntity
  8
0
  6
Continuous
 62
     8
370
    25
100
AcDbSpline
210
0.0
220
0.0
230
1.0
 70
     8
 71
     3
 72
    73
 73
    69
 74
     0
 42
0.000000001
 43
0.00000001
 40
0.0
 40
0.0
 40
0.0
 40
0.0
 40
0.0135492290850524
 40
0.0305516841524866
 40
0.0510046635717525
 40
0.0737843438560024
 40
0.0939899835702133
 40
0.1111105174254572
 40
0.1251475669434012
 40
0.1491935178727053
 40
0.1746021509061693
 40
0.2003365172577599
 40
0.2253767251299368
 40
0.2504242156912537
 40
0.2699631733842168
 40
0.2908015111944122
 40
0.3129347971376832
 40
0.325467059016089
 40
0.3379950518222296
 40
0.3505185323996695
 40
0.3630373139565966
 40
0.3755511426416217
 40
0.3902517739520195
 40
0.4060223330745937
 40
0.4228641262645
 40
0.4407788022838938
 40
0.4597683061051443
 40
0.4798349017456143
 40
0.5009811686305099
 40
0.5181220415535536
 40
0.5329396612271562
 40
0.5454317763283641
 40
0.5555965937317207
 40
0.5634328007944637
 40
0.5733247996065434
 40
0.5845109941921022
 40
0.5969904008578651
 40
0.6107617370310507
 40
0.6258234128510156
 40
0.6445909666368084
 40
0.6606167925482226
 40
0.6739034219419934
 40
0.6844528726837239
 40
0.6959315939795735
 40
0.7051169769443154
 40
0.7143084002034208
 40
0.7235061949161942
 40
0.7327106187768622
 40
0.7419220195687861
 40
0.7511406500735026
 40
0.761245526622434
 40
0.7750444557101621
 40
0.7925402035955165
 40
0.8137366692508905
 40
0.8316336395255429
 40
0.8480000794800212
 40
0.8628334029571063
 40
0.876131570522242
 40
0.8895059530564948
 40
0.9060696495795155
 40
0.9258200306757899
 40
0.9492204624214697
 40
0.9611010699746457
 40
0.971682807382382
 40
0.9809662087174668
 40
0.9889517259404531
 40
0.9956397361058287
 40
1.0
 40
1.0
 40
1.0
 40
1.0
 10
43.99376774566871
 20
69.97849488071478
 30
0.0
 10
43.99373744402801
 20
69.97966780230087
 30
0.0
 10
43.99366911791515
 20
69.98231258228124
 30
0.0
 10
43.99393931257521
 20
70.00861959734497
 30
0.0
 10
43.99441401042754
 20
70.06305020520207
 30
0.0
 10
43.99509570511966
 20
70.15069693274691
 30
0.0
 10
43.99562758626004
 20
70.2606617672559
 30
0.0
 10
43.99598894014643
 20
70.37435865637448
 30
0.0
 10
43.99621181696162
 20
70.51370920986062
 30
0.0
 10
43.99611487127734
 20
70.69748607417847
 30
0.0
 10
43.9956081181583
 20
70.95035140668894
 30
0.0
 10
43.99468187474621
 20
71.24194637771845
 30
0.0
 10
43.99374119987955
 20
71.56607174193978
 30
0.0
 10
43.99266193153088
 20
71.89226901050519
 30
0.0
 10
43.991994400831
 20
72.22185214916473
 30
0.0
 10
43.99208857546619
 20
72.55612187022435
 30
0.0
 10
43.99265861724965
 20
72.86946632077344
 30
0.0
 10
43.99335493004654
 20
73.145902934489
 30
0.0
 10
43.99393285587806
 20
73.37138317424468
 30
0.0
 10
43.99456441142132
 20
73.60178307171189
 30
0.0
 10
43.99522645531879
 20
73.83671043797051
 30
0.0
 10
43.99601925424235
 20
74.08980242798975
 30
0.0
 10
43.9967260478083
 20
74.36824639131427
 30
0.0
 10
43.99712773130129
 20
74.67965685275234
 30
0.0
 10
43.9972790856374
 20
75.0172198442587
 30
0.0
 10
43.99715903677529
 20
75.38101139570121
 30
0.0
 10
43.99676974823705
 20
75.77080321183615
 30
0.0
 10
43.99611985575484
 20
76.18595629251183
 30
0.0
 10
43.99523920649904
 20
76.59014433554229
 30
0.0
 10
43.9943697474972
 20
76.95802458842145
 30
0.0
 10
43.99371154027862
 20
77.26516448388968
 30
0.0
 10
43.99321013355414
 20
77.52299894998346
 30
0.0
 10
43.99287291915804
 20
77.73174658333615
 30
0.0
 10
43.99266159555832
 20
77.92172524854556
 30
0.0
 10
43.99266796030513
 20
78.11747341440658
 30
0.0
 10
43.99285840499819
 20
78.34279870498624
 30
0.0
 10
43.99324414108566
 20
78.5915237098459
 30
0.0
 10
43.99381578979771
 20
78.86232471580531
 30
0.0
 10
43.99464014372744
 20
79.16905637383319
 30
0.0
 10
43.99553941678786
 20
79.48315723116441
 30
0.0
 10
43.99633404655466
 20
79.7780667061033
 30
0.0
 10
43.99693711741341
 20
80.0164414503947
 30
0.0
 10
43.99740233393777
 20
80.22291737606378
 30
0.0
 10
43.99766699976221
 20
80.40151443058573
 30
0.0
 10
43.99782128598395
 20
80.56859909466439
 30
0.0
 10
43.9978831138117
 20
80.71973587852696
 30
0.0
 10
43.99786204195616
 20
80.86766995055535
 30
0.0
 10
43.99776139293485
 20
81.01228454359206
 30
0.0
 10
43.99757578275416
 20
81.15346868667305
 30
0.0
 10
43.99730965671919
 20
81.29546024940878
 30
0.0
 10
43.99685363818695
 20
81.45563406166187
 30
0.0
 10
43.9961657754807
 20
81.64823159066212
 30
0.0
 10
43.99522277548712
 20
81.8790718900819
 30
0.0
 10
43.9941081451517
 20
82.1093310736522
 30
0.0
 10
43.99307994114739
 20
82.31529142049328
 30
0.0
 10
43.99239956098076
 20
82.48142861167881
 30
0.0
 10
43.99198994193325
 20
82.6181923277047
 30
0.0
 10
43.99187512326109
 20
82.73367615547616
 30
0.0
 10
43.99207109845082
 20
82.84168556670915
 30
0.0
 10
43.99246116154352
 20
82.95024934035253
 30
0.0
 10
43.99307564148135
 20
83.05783477298571
 30
0.0
 10
43.993752323282
 20
83.13160779035866
 30
0.0
 10
43.99428451480596
 20
83.17577584531017
 30
0.0
 10
43.99464319919218
 20
83.19867624271905
 30
0.0
 10
43.99494056162869
 20
83.21284317274463
 30
0.0
 10
43.99518212916014
 20
83.22048420987565
 30
0.0
 10
43.99535883677517
 20
83.22382155059388
 30
0.0
 10
43.99544202804316
 20
83.22400137162087
 30
0.0
 10
43.99547485994798
 20
83.22407233900702
 30
0.0
  0
LINE
  5
27E
330
1F
100
AcDbEntity
  8
0
  6
Continuous
 62
     8
370
    25
100
AcDbLine
 10
44.9207931979
 20
82.6020601522
 30
0.0
 11
44.9207931979
 21
70.6034961473
 31
0.0
  0
SPLINE
  5
27F
330
1F
100
AcDbEntity
  8
0
  6
Continuous
 62
     8
370
    25
100
AcDbSpline
210
0.0
220
0.0
230
1.0
 70
     8
 71
     3
 72
    50
 73
    46
 74
     0
 42
0.000000001
 43
0.00000001
 40
0.0
 40
0.0
 40
0.0
 40
0.0
 40
0.0010283531841097
 40
0.0355554655206709
 40
0.07088988920272
 40
0.0800382774901052
 40
0.0891870122148684
 40
0.0983361536056596
 40
0.1074857710201483
 40
0.1166359202700575
 40
0.1257866678569167
 40
0.1381306367004574
 40
0.1544700420569427
 40
0.1748034552906974
 40
0.1977084945745143
 40
0.2085764977062658
 40
0.218633989949825
 40
0.2278810472940682
 40
0.2363177835902349
 40
0.2439442512452608
 40
0.2507605049111499
 40
0.2862630744515917
 40
0.3205408036148091
 40
0.3535939558414207
 40
0.385422761881991
 40
0.4100078406419588
 40
0.4338092279289983
 40
0.4568270365368042
 40
0.4790613432825968
 40
0.5005352446570611
 40
0.5421526596976102
 40
0.5837712665426069
 40
0.6253910295817515
 40
0.6670118987038598
 40
0.7086338311778417
 40
0.7502568010503963
 40
0.7918807491498421
 40
0.833505614275716
 40
0.87514716846331
 40
0.8959783975081194
 40
0.9168085737246413
 40
0.9286832438563374
 40
0.9465066281509844
 40
0.9702787377527435
 40
1.0
 40
1.0
 40
1.0
 40
1.0
 10
64.13801147031289
 20
83.22407233900702
 30
0.0
 10
64.13800366062071
 20
83.22411528080902
 30
0.0
 10
64.1377336393429
 20
83.22560000005103
 30
0.0
 10
64.13754328816862
 20
83.19565175005397
 30
0.0
 10
64.13787610604714
 20
83.1073277020122
 30
0.0
 10
64.13823532445697
 20
83.02163261316072
 30
0.0
 10
64.13843391486638
 20
82.97253532212402
 30
0.0
 10
64.13865155232016
 20
82.91819417731094
 30
0.0
 10
64.13888999665295
 20
82.85867071372576
 30
0.0
 10
64.13913792446459
 20
82.79398155688008
 30
0.0
 10
64.13947387353289
 20
82.71617472968421
 30
0.0
 10
64.13971085085471
 20
82.61149475863483
 30
0.0
 10
64.13974438860706
 20
82.46130732200703
 30
0.0
 10
64.13964207162502
 20
82.25732551541961
 30
0.0
 10
64.13942485133357
 20
82.04998552244095
 30
0.0
 10
64.13927327680922
 20
81.86897267147677
 30
0.0
 10
64.1391746852104
 20
81.73890771314883
 30
0.0
 10
64.13909316452443
 20
81.6148192474042
 30
0.0
 10
64.13902900783881
 20
81.49793533290236
 30
0.0
 10
64.13897886413021
 20
81.38933301247786
 30
0.0
 10
64.13890607930017
 20
81.14666422515303
 30
0.0
 10
64.13882914468401
 20
80.74919817989026
 30
0.0
 10
64.13872771202499
 20
80.16689418965554
 30
0.0
 10
64.1386523323867
 20
79.56630822783187
 30
0.0
 10
64.13860351539529
 20
78.99618160380307
 30
0.0
 10
64.13857447484914
 20
78.46768197050797
 30
0.0
 10
64.13856344041028
 20
77.9866431899026
 30
0.0
 10
64.13856582635027
 20
77.51412883419948
 30
0.0
 10
64.13858265197975
 20
77.05302355842346
 30
0.0
 10
64.13862870507323
 20
76.46076414546243
 30
0.0
 10
64.13869753669152
 20
75.73330855256356
 30
0.0
 10
64.13877034988556
 20
74.88104779942877
 30
0.0
 10
64.13884405913028
 20
74.05816092555662
 30
0.0
 10
64.13891226748899
 20
73.2788375876979
 30
0.0
 10
64.13897923155857
 20
72.55640184659933
 30
0.0
 10
64.13904549804775
 20
71.90323302113364
 30
0.0
 10
64.1390990348324
 20
71.33053281051716
 30
0.0
 10
64.13918184777009
 20
70.84800026115794
 30
0.0
 10
64.13915456279479
 20
70.52809764178149
 30
0.0
 10
64.13904739555646
 20
70.3250837661414
 30
0.0
 10
64.13886691796375
 20
70.21794588333839
 30
0.0
 10
64.13886288681687
 20
70.13379106972609
 30
0.0
 10
64.1390294605053
 20
70.06169879661492
 30
0.0
 10
64.13931111497034
 20
69.99436586492628
 30
0.0
 10
64.13957305115781
 20
69.98416342314118
 30
0.0
 10
64.13971858459216
 20
69.97849488071478
 30
0.0
  0
LINE
  5
280
330
1F
100
AcDbEntity
  8
0
  6
Continuous
 62
     8
370
    25
100
AcDbLine
 10
65.0667431055
 20
83.8534941282
 30
0.0
 11
65.0667431055
 21
69.3534945454
 31
0.0
  0
LINE
  5
281
330
1F
100
AcDbEntity
  8
0
  6
Continuous
 62
     8
370
    25
100
AcDbLine
 10
43.0667432247
 20
83.8534941282
 30
0.0
 11
43.0667432247
 21
69.3534945454
 31
0.0
  0
SPLINE
  5
282
330
1F
100
AcDbEntity
  8
0
  6
Continuous
 62
     8
370
    25
100
AcDbSpline
210
0.0
220
0.0
230
1.0
 70
    24
 71
     3
 72
    32
 73
    28
 74
     0
 42
0.000000001
 43
0.00000001
 40
0.0
 40
0.0
 40
0.0
 40
0.0
 40
0.0416176797032943
 40
0.0832353676929536
 40
0.1248530485793556
 40
0.1664707228260686
 40
0.2080884144980396
 40
0.2497060790831502
 40
0.2913237726951729
 40
0.3329414596565394
 40
0.3745591270800701
 40
0.4161768160929624
 40
0.4577944988656582
 40
0.4994121815451297
 40
0.541029861248424
 40
0.5826475492380834
 40
0.6242652301244853
 40
0.6658829043711982
 40
0.7075005960431693
 40
0.7491182606282799
 40
0.7907359542403026
 40
0.8323536412016692
 40
0.8739713086251997
 40
0.9155889976380921
 40
0.9572066804107879
 40
0.9988243630902593
 40
1.0
 40
1.0
 40
1.0
 40
1.0
 10
63.21269313233596
 20
70.60349614731348
 30
0.0
 10
63.21269313233596
 20
70.61319065771785
 30
0.0
 10
63.21269313233596
 20
70.63257968045681
 30
0.0
 10
63.21269313233595
 20
70.79133572750122
 30
0.0
 10
63.21269313233596
 20
71.04216849774457
 30
0.0
 10
63.21269313233596
 20
71.39013152470022
 30
0.0
 10
63.21269313233596
 20
71.82676806532992
 30
0.0
 10
63.21269313233596
 20
72.34527726022661
 30
0.0
 10
63.21269313233596
 20
72.9366079082879
 30
0.0
 10
63.21269313233595
 20
73.59068988068574
 30
0.0
 10
63.21269313233596
 20
74.29631935291597
 30
0.0
 10
63.21269313233595
 20
75.04142566798993
 30
0.0
 10
63.21269313233595
 20
75.81325942560882
 30
0.0
 10
63.21269313233596
 20
76.59861431886108
 30
0.0
 10
63.21269313233595
 20
77.3840527223993
 30
0.0
 10
63.21269313233595
 20
78.15613557670126
 30
0.0
 10
63.21269313233596
 20
78.90165191106416
 30
0.0
 10
63.21269313233596
 20
79.60784765407342
 30
0.0
 10
63.21269313233596
 20
80.26263313940541
 30
0.0
 10
63.21269313233596
 20
80.85482675939745
 30
0.0
 10
63.21269313233596
 20
81.37421630882045
 30
0.0
 10
63.21269313233595
 20
81.81221067953331
 30
0.0
 10
63.21269313233596
 20
82.16021326670668
 30
0.0
 10
63.21269313233596
 20
82.41638111970406
 30
0.0
 10
63.21269313233595
 20
82.56099052643867
 30
0.0
 10
63.21269313233596
 20
82.62036802589546
 30
0.0
 10
63.21269313233596
 20
82.60254966603576
 30
0.0
 10
63.21269313233596
 20
82.60206015221155
 30
0.0
  0
LINE
  5
283
330
1F
100
AcDbEntity
  8
0
  6
Continuous
 62
     8
370
    25
100
AcDbLine
 10
58.8667433931
 20
82.4034942631
 30
0.0
 11
57.542263925
 21
82.4034942631
 31
0.0
  0
LINE
  5
284
330
1F
100
AcDbEntity
  8
0
  6
Continuous
 62
     8
370
    25
100
AcDbLine
 10
58.8667433931
 20
81.365767153
 30
0.0
 11
58.8667433931
 21
82.4034942631
 31
0.0
  0
LINE
  5
285
330
1F
100
AcDbEntity
  8
0
  6
Continuous
 62
     8
370
    25
100
AcDbLine
 10
50.5912224053
 20
82.4034942631
 30
0.0
 11
49.2667429371
 21
82.4034942631
 31
0.0
  0
LINE
  5
286
330
1F
100
AcDbEntity
  8
0
  6
Continuous
 62
     8
370
    25
100
AcDbLine
 10
49.2667429371
 20
82.4034942631
 30
0.0
 11
49.2667429371
 21
81.365767153
 31
0.0
  0
LINE
  5
287
330
1F
100
AcDbEntity
  8
0
  6
Continuous
 62
     8
370
    25
100
AcDbLine
 10
57.542263925
 20
70.8034944106
 30
0.0
 11
59.0667430534
 21
70.8034944106
 31
0.0
  0
LINE
  5
288
330
1F
100
AcDbEntity
  8
0
  6
Continuous
 62
     8
370
    25
100
AcDbLine
 10
49.2667429371
 20
71.8412215207
 30
0.0
 11
49.2667429371
 21
70.8034944106
 31
0.0
  0
LINE
  5
289
330
1F
100
AcDbEntity
  8
0
  6
Continuous
 62
     8
370
    25
100
AcDbLine
 10
49.2667429371
 20
70.8034944106
 30
0.0
 11
50.5912224053
 21
70.8034944106
 31
0.0
  0
LINE
  5
28A
330
1F
100
AcDbEntity
  8
0
  6
Continuous
 62
     8
370
    25
100
AcDbLine
 10
48.1597459166
 20
79.8552750926
 30
0.0
 11
48.066743113
 21
79.8709671795
 31
0.0
  0
LINE
  5
28B
330
1F
100
AcDbEntity
  8
0
  6
Continuous
 62
     8
370
    25
100
AcDbLine
 10
48.066743113
 20
73.3360214941
 30
0.0
 11
48.1558730117
 21
73.3510600254
 31
0.0
  0
LINE
  5
28C
330
1F
100
AcDbEntity
  8
0
  6
Continuous
 62
     8
370
    25
100
AcDbLine
 10
59.9748440309
 20
73.3515273165
 30
0.0
 11
60.0667432173
 21
73.3360214941
 31
0.0
  0
LINE
  5
28D
330
1F
100
AcDbEntity
  8
0
  6
Continuous
 62
     8
370
    25
100
AcDbLine
 10
60.0667432173
 20
79.8709671795
 30
0.0
 11
59.9820790103
 21
79.8566820882
 31
0.0
  0
LINE
  5
28E
330
1F
100
AcDbEntity
  8
0
  6
Continuous
 62
     8
370
    25
100
AcDbLine
 10
48.066743113
 20
79.9798830263
 30
0.0
 11
48.2171461208
 21
79.9589047525
 31
0.0
  0
LINE
  5
28F
330
1F
100
AcDbEntity
  8
0
  6
Continuous
 62
     8
370
    25
100
AcDbLine
 10
59.9189665391
 20
79.9592709951
 30
0.0
 11
60.0667432173
 21
79.9798830263
 31
0.0
  0
LINE
  5
290
330
1F
100
AcDbEntity
  8
0
  6
Continuous
 62
     8
370
    25
100
AcDbLine
 10
60.0667432173
 20
73.2271056473
 30
0.0
 11
59.9155346154
 21
73.2481963783
 31
0.0
  0
LINE
  5
291
330
1F
100
AcDbEntity
  8
0
  6
Continuous
 62
     8
370
    25
100
AcDbLine
 10
48.2170869819
 20
73.2480757721
 30
0.0
 11
48.066743113
 21
73.2271056473
 31
0.0
  0
LINE
  5
292
330
1F
100
AcDbEntity
  8
0
  6
Continuous
 62
     8
370
    25
100
AcDbLine
 10
61.5667429975
 20
82.653494304
 30
0.0
 11
60.5667432992
 21
82.653494304
 31
0.0
  0
INSERT
  5
29E
330
1F
100
AcDbEntity
  8
0
  6
Continuous
 62
     7
370
    18
100
AcDbBlockReference
  2
SW_CENTERMARKSYMBOL_1
 10
54.0667431651
 20
76.6034943368
 30
0.0
  0
ARC
  5
29F
330
1F
100
AcDbEntity
  8
0
  6
Continuous
 62
     7
370
    18
100
AcDbCircle
 10
54.0667431651
 20
76.6034943368
 30
0.0
 40
5.722500000000009
100
AcDbArc
 50
75.0
 51
345.0
  0
ENDSEC
  0
SECTION
  2
OBJECTS
  0
DICTIONARY
  5
C
330
0
100
AcDbDictionary
281
     1
  3
ACAD_GROUP
350
D
  3
ACAD_LAYOUT
350
1A
  3
ACAD_MLINESTYLE
350
17
  3
ACAD_PLOTSETTINGS
350
19
  3
ACAD_PLOTSTYLENAME
350
E
  3
ACAD_SCALELIST
350
47
  0
DICTIONARY
  5
D
102
{ACAD_REACTORS
330
C
102
}
330
C
100
AcDbDictionary
281
     1
  0
DICTIONARY
  5
1A
102
{ACAD_REACTORS
330
C
102
}
330
C
100
AcDbDictionary
281
     1
  3
Layout1
350
1E
  3
Layout2
350
26
  3
Model
350
22
  0
DICTIONARY
  5
17
102
{ACAD_REACTORS
330
C
102
}
330
C
100
AcDbDictionary
281
     1
  3
Standard
350
18
  0
DICTIONARY
  5
19
102
{ACAD_REACTORS
330
C
102
}
330
C
100
AcDbDictionary
281
     1
  0
ACDBDICTIONARYWDFLT
  5
E
102
{ACAD_REACTORS
330
C
102
}
330
C
100
AcDbDictionary
281
     1
  3
Normal
350
F
100
AcDbDictionaryWithDefault
340
F
  0
DICTIONARY
  5
47
102
{ACAD_REACTORS
330
C
102
}
330
C
100
AcDbDictionary
281
     1
  3
A0
350
48
  3
A1
350
49
  3
A2
350
4A
  3
A3
350
4B
  3
A4
350
4C
  3
A5
350
4D
  3
A6
350
4E
  3
A7
350
4F
  3
A8
350
50
  3
A9
350
51
  3
B0
350
52
  3
B1
350
53
  3
B2
350
54
  3
B3
350
55
  3
B4
350
56
  3
B5
350
57
  3
B6
350
58
  3
B7
350
59
  3
B8
350
5A
  3
B9
350
5B
  3
C0
350
5C
  3
C1
350
5D
  3
C2
350
5E
  3
C3
350
5F
  3
C4
350
60
  3
C5
350
61
  3
C6
350
62
  3
C7
350
63
  3
C8
350
64
  3
C9
350
65
  3
D0
350
66
  3
D1
350
67
  3
D2
350
68
  0
LAYOUT
  5
1E
102
{ACAD_REACTORS
330
1A
102
}
330
1A
100
AcDbPlotSettings
  1

  2
none_device
  4

  6

 40
0.0
 41
0.0
 42
0.0
 43
0.0
 44
0.0
 45
0.0
 46
0.0
 47
0.0
 48
0.0
 49
0.0
140
0.0
141
0.0
142
1.0
143
1.0
 70
   688
 72
     1
 73
     0
 74
     5
  7

 75
    16
147
1.0
148
0.0
149
0.0
100
AcDbLayout
  1
Layout1
 70
     1
 71
     1
 10
0.0
 20
0.0
 11
420.0
 21
297.0
 12
0.0
 22
0.0
 32
0.0
 14
1.0000000000E+20
 24
1.0000000000E+20
 34
1.0000000000E+20
 15
-1.0000000000E+20
 25
-1.0000000000E+20
 35
-1.0000000000E+20
146
0.0
 13
0.0
 23
0.0
 33
0.0
 16
1.0
 26
0.0
 36
0.0
 17
0.0
 27
1.0
 37
0.0
 76
     0
330
1B
  0
LAYOUT
  5
26
102
{ACAD_REACTORS
330
1A
102
}
330
1A
100
AcDbPlotSettings
  1

  2
none_device
  4

  6

 40
0.0
 41
0.0
 42
0.0
 43
0.0
 44
0.0
 45
0.0
 46
0.0
 47
0.0
 48
0.0
 49
0.0
140
0.0
141
0.0
142
1.0
143
1.0
 70
   688
 72
     1
 73
     0
 74
     5
  7

 75
    16
147
1.0
148
0.0
149
0.0
100
AcDbLayout
  1
Layout2
 70
     1
 71
     2
 10
0.0
 20
0.0
 11
0.0
 21
0.0
 12
0.0
 22
0.0
 32
0.0
 14
0.0
 24
0.0
 34
0.0
 15
0.0
 25
0.0
 35
0.0
146
0.0
 13
0.0
 23
0.0
 33
0.0
 16
1.0
 26
0.0
 36
0.0
 17
0.0
 27
1.0
 37
0.0
 76
     0
330
23
  0
LAYOUT
  5
22
102
{ACAD_REACTORS
330
1A
102
}
330
1A
100
AcDbPlotSettings
  1

  2
none_device
  4
Letter_(8.50_x_11.00_Inches)
  6

 40
6.35
 41
6.35
 42
6.35000508
 43
6.35000508
 44
215.9
 45
279.4
 46
0.0
 47
0.0
 48
0.0
 49
0.0
140
0.0
141
0.0
142
1.0
143
1.0
 70
  1712
 72
     1
 73
     0
 74
     0
  7

 75
     0
147
1.0
148
0.0
149
0.0
100
AcDbLayout
  1
Model
 70
     1
 71
     0
 10
0.0
 20
0.0
 11
215.9
 21
139.7
 12
0.0
 22
0.0
 32
0.0
 14
0.0
 24
0.0
 34
0.0
 15
215.9
 25
139.7
 35
0.0
146
0.0
 13
0.0
 23
0.0
 33
0.0
 16
1.0
 26
0.0
 36
0.0
 17
0.0
 27
1.0
 37
0.0
 76
     0
330
1F
331
29
  0
MLINESTYLE
  5
18
102
{ACAD_REACTORS
330
17
102
}
330
17
100
AcDbMlineStyle
  2
Standard
 70
     0
  3

 62
   256
 51
90.0
 52
90.0
 71
     2
 49
0.5
 62
   256
  6
BYLAYER
 49
-0.5
 62
   256
  6
BYLAYER
  0
ACDBPLACEHOLDER
  5
F
102
{ACAD_REACTORS
330
E
102
}
330
E
  0
SCALE
  5
48
102
{ACAD_REACTORS
330
47
102
}
330
47
100
AcDbScale
 70
     0
300
1:1
140
1.0
141
1.0
290
     1
  0
SCALE
  5
49
102
{ACAD_REACTORS
330
47
102
}
330
47
100
AcDbScale
 70
     0
300
1:2
140
1.0
141
2.0
290
     0
  0
SCALE
  5
4A
102
{ACAD_REACTORS
330
47
102
}
330
47
100
AcDbScale
 70
     0
300
1:4
140
1.0
141
4.0
290
     0
  0
SCALE
  5
4B
102
{ACAD_REACTORS
330
47
102
}
330
47
100
AcDbScale
 70
     0
300
1:5
140
1.0
141
5.0
290
     0
  0
SCALE
  5
4C
102
{ACAD_REACTORS
330
47
102
}
330
47
100
AcDbScale
 70
     0
300
1:8
140
1.0
141
8.0
290
     0
  0
SCALE
  5
4D
102
{ACAD_REACTORS
330
47
102
}
330
47
100
AcDbScale
 70
     0
300
1:10
140
1.0
141
10.0
290
     0
  0
SCALE
  5
4E
102
{ACAD_REACTORS
330
47
102
}
330
47
100
AcDbScale
 70
     0
300
1:16
140
1.0
141
16.0
290
     0
  0
SCALE
  5
4F
102
{ACAD_REACTORS
330
47
102
}
330
47
100
AcDbScale
 70
     0
300
1:20
140
1.0
141
20.0
290
     0
  0
SCALE
  5
50
102
{ACAD_REACTORS
330
47
102
}
330
47
100
AcDbScale
 70
     0
300
1:30
140
1.0
141
30.0
290
     0
  0
SCALE
  5
51
102
{ACAD_REACTORS
330
47
102
}
330
47
100
AcDbScale
 70
     0
300
1:40
140
1.0
141
40.0
290
     0
  0
SCALE
  5
52
102
{ACAD_REACTORS
330
47
102
}
330
47
100
AcDbScale
 70
     0
300
1:50
140
1.0
141
50.0
290
     0
  0
SCALE
  5
53
102
{ACAD_REACTORS
330
47
102
}
330
47
100
AcDbScale
 70
     0
300
1:100
140
1.0
141
100.0
290
     0
  0
SCALE
  5
54
102
{ACAD_REACTORS
330
47
102
}
330
47
100
AcDbScale
 70
     0
300
2:1
140
2.0
141
1.0
290
     0
  0
SCALE
  5
55
102
{ACAD_REACTORS
330
47
102
}
330
47
100
AcDbScale
 70
     0
300
4:1
140
4.0
141
1.0
290
     0
  0
SCALE
  5
56
102
{ACAD_REACTORS
330
47
102
}
330
47
100
AcDbScale
 70
     0
300
8:1
140
8.0
141
1.0
290
     0
  0
SCALE
  5
57
102
{ACAD_REACTORS
330
47
102
}
330
47
100
AcDbScale
 70
     0
300
10:1
140
10.0
141
1.0
290
     0
  0
SCALE
  5
58
102
{ACAD_REACTORS
330
47
102
}
330
47
100
AcDbScale
 70
     0
300
100:1
140
100.0
141
1.0
290
     0
  0
SCALE
  5
59
102
{ACAD_REACTORS
330
47
102
}
330
47
100
AcDbScale
 70
     0
300
1/128" = 1'-0"
140
0.0078125
141
12.0
290
     0
  0
SCALE
  5
5A
102
{ACAD_REACTORS
330
47
102
}
330
47
100
AcDbScale
 70
     0
300
1/64" = 1'-0"
140
0.015625
141
12.0
290
     0
  0
SCALE
  5
5B
102
{ACAD_REACTORS
330
47
102
}
330
47
100
AcDbScale
 70
     0
300
1/32" = 1'-0"
140
0.03125
141
12.0
290
     0
  0
SCALE
  5
5C
102
{ACAD_REACTORS
330
47
102
}
330
47
100
AcDbScale
 70
     0
300
1/16" = 1'-0"
140
0.0625
141
12.0
290
     0
  0
SCALE
  5
5D
102
{ACAD_REACTORS
330
47
102
}
330
47
100
AcDbScale
 70
     0
300
3/32" = 1'-0"
140
0.09375
141
12.0
290
     0
  0
SCALE
  5
5E
102
{ACAD_REACTORS
330
47
102
}
330
47
100
AcDbScale
 70
     0
300
1/8" = 1'-0"
140
0.125
141
12.0
290
     0
  0
SCALE
  5
5F
102
{ACAD_REACTORS
330
47
102
}
330
47
100
AcDbScale
 70
     0
300
3/16" = 1'-0"
140
0.1875
141
12.0
290
     0
  0
SCALE
  5
60
102
{ACAD_REACTORS
330
47
102
}
330
47
100
AcDbScale
 70
     0
300
1/4" = 1'-0"
140
0.25
141
12.0
290
     0
  0
SCALE
  5
61
102
{ACAD_REACTORS
330
47
102
}
330
47
100
AcDbScale
 70
     0
300
3/8" = 1'-0"
140
0.375
141
12.0
290
     0
  0
SCALE
  5
62
102
{ACAD_REACTORS
330
47
102
}
330
47
100
AcDbScale
 70
     0
300
1/2" = 1'-0"
140
0.5
141
12.0
290
     0
  0
SCALE
  5
63
102
{ACAD_REACTORS
330
47
102
}
330
47
100
AcDbScale
 70
     0
300
3/4" = 1'-0"
140
0.75
141
12.0
290
     0
  0
SCALE
  5
64
102
{ACAD_REACTORS
330
47
102
}
330
47
100
AcDbScale
 70
     0
300
1" = 1'-0"
140
1.0
141
12.0
290
     0
  0
SCALE
  5
65
102
{ACAD_REACTORS
330
47
102
}
330
47
100
AcDbScale
 70
     0
300
1-1/2" = 1'-0"
140
1.5
141
12.0
290
     0
  0
SCALE
  5
66
102
{ACAD_REACTORS
330
47
102
}
330
47
100
AcDbScale
 70
     0
300
3" = 1'-0"
140
3.0
141
12.0
290
     0
  0
SCALE
  5
67
102
{ACAD_REACTORS
330
47
102
}
330
47
100
AcDbScale
 70
     0
300
6" = 1'-0"
140
6.0
141
12.0
290
     0
  0
SCALE
  5
68
102
{ACAD_REACTORS
330
47
102
}
330
47
100
AcDbScale
 70
     0
300
1'-0" = 1'-0"
140
12.0
141
12.0
290
     0
  0
ENDSEC
  0
EOF
