  0
SECTION
  2
HEADER
  9
$ACADVER
  1
AC1015
  9
$ACADMAINTVER
 70
     6
  9
$DWGCODEPAGE
  3
DOS932
  9
$INSBASE
 10
0.0
 20
0.0
 30
0.0
  9
$EXTMIN
 10
0.0
 20
0.0
 30
0.0
  9
$EXTMAX
 10
215.9
 20
139.7
 30
0.0
  9
$LIMMIN
 10
0.0
 20
0.0
  9
$LIMMAX
 10
215.9
 20
139.7
  9
$ORTHOMODE
 70
     0
  9
$REGENMODE
 70
     1
  9
$FILLMODE
 70
     1
  9
$QTEXTMODE
 70
     0
  9
$MIRRTEXT
 70
     1
  9
$LTSCALE
 40
0.5
  9
$ATTMODE
 70
     1
  9
$TEXTSIZE
 40
1.75
  9
$TRACEWID
 40
1.0
  9
$TEXTSTYLE
  7
Standard
  9
$CLAYER
  8
0
  9
$CELTYPE
  6
ByLayer
  9
$CECOLOR
 62
   256
  9
$CELTSCALE
 40
1.0
  9
$DISPSILH
 70
     0
  9
$DIMSCALE
 40
1.0
  9
$DIMASZ
 40
1.651
  9
$DIMEXO
 40
0.5
  9
$DIMDLI
 40
3.75
  9
$DIMRND
 40
0.0
  9
$DIMDLE
 40
0.0
  9
$DIMEXE
 40
0.5
  9
$DIMTP
 40
0.0
  9
$DIMTM
 40
0.0
  9
$DIMTXT
 40
1.75
  9
$DIMCEN
 40
2.5
  9
$DIMTSZ
 40
0.0
  9
$DIMTOL
 70
     0
  9
$DIMLIM
 70
     0
  9
$DIMTIH
 70
     1
  9
$DIMTOH
 70
     1
  9
$DIMSE1
 70
     0
  9
$DIMSE2
 70
     0
  9
$DIMTAD
 70
     1
  9
$DIMZIN
 70
     1
  9
$DIMBLK
  1

  9
$DIMASO
 70
     1
  9
$DIMSHO
 70
     1
  9
$DIMPOST
  1

  9
$DIMAPOST
  1

  9
$DIMALT
 70
     0
  9
$DIMALTD
 70
     3
  9
$DIMALTF
 40
0.0393700787
  9
$DIMLFAC
 40
1.0
  9
$DIMTOFL
 70
     1
  9
$DIMTVP
 40
0.0
  9
$DIMTIX
 70
     0
  9
$DIMSOXD
 70
     0
  9
$DIMSAH
 70
     0
  9
$DIMBLK1
  1

  9
$DIMBLK2
  1

  9
$DIMSTYLE
  2
ISO-25
  9
$DIMCLRD
 70
     0
  9
$DIMCLRE
 70
     0
  9
$DIMCLRT
 70
     0
  9
$DIMTFAC
 40
1.0
  9
$DIMGAP
 40
0.762
  9
$DIMJUST
 70
     0
  9
$DIMSD1
 70
     0
  9
$DIMSD2
 70
     0
  9
$DIMTOLJ
 70
     0
  9
$DIMTZIN
 70
     1
  9
$DIMALTZ
 70
     0
  9
$DIMALTTZ
 70
     0
  9
$DIMUPT
 70
     0
  9
$DIMDEC
 70
     2
  9
$DIMTDEC
 70
     2
  9
$DIMALTU
 70
     2
  9
$DIMALTTD
 70
     3
  9
$DIMTXSTY
  7
Standard
  9
$DIMAUNIT
 70
     0
  9
$DIMADEC
 70
     2
  9
$DIMALTRND
 40
0.0
  9
$DIMAZIN
 70
     0
  9
$DIMDSEP
 70
    44
  9
$DIMATFIT
 70
     3
  9
$DIMFRAC
 70
     0
  9
$DIMLDRBLK
  1

  9
$DIMLUNIT
 70
     2
  9
$DIMLWD
 70
    -2
  9
$DIMLWE
 70
    -2
  9
$DIMTMOVE
 70
     0
  9
$LUNITS
 70
     2
  9
$LUPREC
 70
     2
  9
$SKETCHINC
 40
1.0
  9
$FILLETRAD
 40
10.0
  9
$AUNITS
 70
     0
  9
$AUPREC
 70
     2
  9
$MENU
  1
.
  9
$ELEVATION
 40
0.0
  9
$PELEVATION
 40
0.0
  9
$THICKNESS
 40
0.0
  9
$LIMCHECK
 70
     0
  9
$CHAMFERA
 40
0.0
  9
$CHAMFERB
 40
0.0
  9
$CHAMFERC
 40
0.0
  9
$CHAMFERD
 40
0.0
  9
$SKPOLY
 70
     0
  9
$TDCREATE
 40
2459229.393709965
  9
$TDUCREATE
 40
2459229.018709965
  9
$TDUPDATE
 40
2459229.393710868
  9
$TDUUPDATE
 40
2459229.018710868
  9
$TDINDWG
 40
0.0000000116
  9
$TDUSRTIMER
 40
0.0000000116
  9
$USRTIMER
 70
     1
  9
$ANGBASE
 50
0.0
  9
$ANGDIR
 70
     0
  9
$PDMODE
 70
     0
  9
$PDSIZE
 40
-1.0
  9
$PLINEWID
 40
0.0
  9
$SPLFRAME
 70
     0
  9
$SPLINETYPE
 70
     6
  9
$SPLINESEGS
 70
     8
  9
$HANDSEED
  5
2DD
  9
$SURFTAB1
 70
     6
  9
$SURFTAB2
 70
     6
  9
$SURFTYPE
 70
     6
  9
$SURFU
 70
     6
  9
$SURFV
 70
     6
  9
$UCSBASE
  2

  9
$UCSNAME
  2

  9
$UCSORG
 10
0.0
 20
0.0
 30
0.0
  9
$UCSXDIR
 10
1.0
 20
0.0
 30
0.0
  9
$UCSYDIR
 10
0.0
 20
1.0
 30
0.0
  9
$UCSORTHOREF
  2

  9
$UCSORTHOVIEW
 70
     0
  9
$UCSORGTOP
 10
0.0
 20
0.0
 30
0.0
  9
$UCSORGBOTTOM
 10
0.0
 20
0.0
 30
0.0
  9
$UCSORGLEFT
 10
0.0
 20
0.0
 30
0.0
  9
$UCSORGRIGHT
 10
0.0
 20
0.0
 30
0.0
  9
$UCSORGFRONT
 10
0.0
 20
0.0
 30
0.0
  9
$UCSORGBACK
 10
0.0
 20
0.0
 30
0.0
  9
$PUCSBASE
  2

  9
$PUCSNAME
  2

  9
$PUCSORG
 10
0.0
 20
0.0
 30
0.0
  9
$PUCSXDIR
 10
1.0
 20
0.0
 30
0.0
  9
$PUCSYDIR
 10
0.0
 20
1.0
 30
0.0
  9
$PUCSORTHOREF
  2

  9
$PUCSORTHOVIEW
 70
     0
  9
$PUCSORGTOP
 10
0.0
 20
0.0
 30
0.0
  9
$PUCSORGBOTTOM
 10
0.0
 20
0.0
 30
0.0
  9
$PUCSORGLEFT
 10
0.0
 20
0.0
 30
0.0
  9
$PUCSORGRIGHT
 10
0.0
 20
0.0
 30
0.0
  9
$PUCSORGFRONT
 10
0.0
 20
0.0
 30
0.0
  9
$PUCSORGBACK
 10
0.0
 20
0.0
 30
0.0
  9
$USERI1
 70
     0
  9
$USERI2
 70
     0
  9
$USERI3
 70
     0
  9
$USERI4
 70
     0
  9
$USERI5
 70
     0
  9
$USERR1
 40
0.0
  9
$USERR2
 40
0.0
  9
$USERR3
 40
0.0
  9
$USERR4
 40
0.0
  9
$USERR5
 40
0.0
  9
$WORLDVIEW
 70
     1
  9
$SHADEDGE
 70
     3
  9
$SHADEDIF
 70
    70
  9
$TILEMODE
 70
     1
  9
$MAXACTVP
 70
    64
  9
$PINSBASE
 10
0.0
 20
0.0
 30
0.0
  9
$PLIMCHECK
 70
     0
  9
$PEXTMIN
 10
1.0000000000E+20
 20
1.0000000000E+20
 30
1.0000000000E+20
  9
$PEXTMAX
 10
-1.0000000000E+20
 20
-1.0000000000E+20
 30
-1.0000000000E+20
  9
$PLIMMIN
 10
0.0
 20
0.0
  9
$PLIMMAX
 10
420.0
 20
297.0
  9
$UNITMODE
 70
     0
  9
$VISRETAIN
 70
     1
  9
$PLINEGEN
 70
     0
  9
$PSLTSCALE
 70
     1
  9
$TREEDEPTH
 70
  3020
  9
$CMLSTYLE
  2
Standard
  9
$CMLJUST
 70
     0
  9
$CMLSCALE
 40
20.0
  9
$PROXYGRAPHICS
 70
     1
  9
$MEASUREMENT
 70
     1
  9
$CELWEIGHT
370
    -1
  9
$ENDCAPS
280
     0
  9
$JOINSTYLE
280
     0
  9
$LWDISPLAY
290
     1
  9
$INSUNITS
 70
     4
  9
$HYPERLINKBASE
  1

  9
$STYLESHEET
  1

  9
$XEDIT
290
     1
  9
$CEPSNTYPE
380
     0
  9
$PSTYLEMODE
290
     1
  9
$FINGERPRINTGUID
  2
{B47105D1-3336-4136-9CBF-A560B0964DEE}
  9
$VERSIONGUID
  2
{FAEB1C32-E019-11D5-929B-00C0DF256EC4}
  9
$EXTNAMES
290
     1
  9
$PSVPSCALE
 40
0.0
  9
$OLESTARTUP
290
     0
  0
ENDSEC
  0
SECTION
  2
CLASSES
  0
CLASS
  1
ACDBDICTIONARYWDFLT
  2
AcDbDictionaryWithDefault
  3
ObjectDBX Classes
 90
        0
280
     0
281
     0
  0
CLASS
  1
VISUALSTYLE
  2
AcDbVisualStyle
  3
ObjectDBX Classes
 90
     4095
280
     0
281
     0
  0
CLASS
  1
MATERIAL
  2
AcDbMaterial
  3
ObjectDBX Classes
 90
     1153
280
     0
281
     0
  0
CLASS
  1
SCALE
  2
AcDbScale
  3
ObjectDBX Classes
 90
     1153
280
     0
281
     0
  0
CLASS
  1
TABLESTYLE
  2
AcDbTableStyle
  3
ObjectDBX Classes
 90
     4095
280
     0
281
     0
  0
CLASS
  1
MLEADERSTYLE
  2
AcDbMLeaderStyle
  3
ACDB_MLEADERSTYLE_CLASS
 90
     4095
280
     0
281
     0
  0
CLASS
  1
SUN
  2
AcDbSun
  3
SCENEOE
 90
     1153
280
     0
281
     0
  0
CLASS
  1
ACDBPLACEHOLDER
  2
AcDbPlaceHolder
  3
ObjectDBX Classes
 90
        0
280
     0
281
     0
  0
CLASS
  1
LAYOUT
  2
AcDbLayout
  3
ObjectDBX Classes
 90
        0
280
     0
281
     0
  0
ENDSEC
  0
SECTION
  2
TABLES
  0
TABLE
  2
VPORT
  5
8
330
0
100
AcDbSymbolTable
 70
     1
  0
VPORT
  5
29
330
8
100
AcDbSymbolTableRecord
100
AcDbViewportTableRecord
  2
*Active
 70
     0
 10
0.0
 20
0.0
 11
1.0
 21
1.0
 12
107.95
 22
69.85
 13
0.0
 23
0.0
 14
10.0
 24
10.0
 15
10.0
 25
10.0
 16
0.0
 26
0.0
 36
1.0
 17
0.0
 27
0.0
 37
0.0
 40
139.7
 41
1.5454545455
 42
50.0
 43
0.0
 44
0.0
 50
0.0
 51
0.0
 71
     0
 72
  2000
 73
     1
 74
     3
 75
     0
 76
     0
 77
     0
 78
     0
281
     0
 65
     1
110
0.0
120
0.0
130
0.0
111
1.0
121
0.0
131
0.0
112
0.0
122
1.0
132
0.0
 79
     0
146
0.0
  0
ENDTAB
  0
TABLE
  2
LTYPE
  5
5
330
0
100
AcDbSymbolTable
 70
     6
  0
LTYPE
  5
14
330
5
100
AcDbSymbolTableRecord
100
AcDbLinetypeTableRecord
  2
ByBlock
 70
     0
  3

 72
    65
 73
     0
 40
0.0
  0
LTYPE
  5
15
330
5
100
AcDbSymbolTableRecord
100
AcDbLinetypeTableRecord
  2
ByLayer
 70
     0
  3

 72
    65
 73
     0
 40
0.0
  0
LTYPE
  5
16
330
5
100
AcDbSymbolTableRecord
100
AcDbLinetypeTableRecord
  2
Continuous
 70
     0
  3
Solid line
 72
    65
 73
     0
 40
0.0
  0
LTYPE
  5
6E
330
5
100
AcDbSymbolTableRecord
100
AcDbLinetypeTableRecord
  2
HIDDEN
 70
     0
  3
Hidden __ __ __ __ __ __ __ __ __ __ __ __ __ __
 72
    65
 73
     2
 40
1.905
 49
1.27
 74
     0
 49
-0.635
 74
     0
  0
LTYPE
  5
6F
330
5
100
AcDbSymbolTableRecord
100
AcDbLinetypeTableRecord
  2
PHANTOM
 70
     0
  3
Phantom ______  __  __  ______  __  __  ______
 72
    65
 73
     6
 40
12.7
 49
6.35
 74
     0
 49
-1.27
 74
     0
 49
1.27
 74
     0
 49
-1.27
 74
     0
 49
1.27
 74
     0
 49
-1.27
 74
     0
  0
LTYPE
  5
70
330
5
100
AcDbSymbolTableRecord
100
AcDbLinetypeTableRecord
  2
CENTER
 70
     0
  3
Center ____ _ ____ _ ____ _ ____ _ ____ _ ____
 72
    65
 73
     4
 40
10.16
 49
6.35
 74
     0
 49
-1.27
 74
     0
 49
1.27
 74
     0
 49
-1.27
 74
     0
  0
LTYPE
  5
71
330
5
100
AcDbSymbolTableRecord
100
AcDbLinetypeTableRecord
  2
CENTERX2
 70
     0
  3
Center (2x) ________  __  ________  __  _____
 72
    65
 73
     4
 40
20.32
 49
12.7
 74
     0
 49
-2.54
 74
     0
 49
2.54
 74
     0
 49
-2.54
 74
     0
  0
LTYPE
  5
72
330
5
100
AcDbSymbolTableRecord
100
AcDbLinetypeTableRecord
  2
DOT2
 70
     0
  3
Dot (.5x) ........................................
 72
    65
 73
     2
 40
0.635
 49
0.0
 74
     0
 49
-0.635
 74
     0
  0
ENDTAB
  0
TABLE
  2
LAYER
  5
2
330
0
100
AcDbSymbolTable
 70
     1
  0
LAYER
  5
10
330
2
100
AcDbSymbolTableRecord
100
AcDbLayerTableRecord
  2
0
 70
     0
 62
     7
  6
Continuous
370
    -3
390
F
  0
ENDTAB
  0
TABLE
  2
STYLE
  5
3
330
0
100
AcDbSymbolTable
 70
     2
  0
STYLE
  5
11
330
3
100
AcDbSymbolTableRecord
100
AcDbTextStyleTableRecord
  2
Standard
 70
     0
 40
0.0
 41
1.0
 50
0.0
 71
     0
 42
1.75
  3
txt
  4
bigfont
  0
STYLE
  5
73
330
3
100
AcDbSymbolTableRecord
100
AcDbTextStyleTableRecord
  2
SLDTEXTSTYLE0
 70
     0
 40
0.0
 41
0.7
 50
0.0
 71
     0
 42
1.75
  3
TXT
  4
bigfont
  0
ENDTAB
  0
TABLE
  2
VIEW
  5
6
330
0
100
AcDbSymbolTable
 70
     0
  0
ENDTAB
  0
TABLE
  2
UCS
  5
7
330
0
100
AcDbSymbolTable
 70
     0
  0
ENDTAB
  0
TABLE
  2
APPID
  5
9
330
0
100
AcDbSymbolTable
 70
     1
  0
APPID
  5
12
330
9
100
AcDbSymbolTableRecord
100
AcDbRegAppTableRecord
  2
ACAD
 70
     0
  0
ENDTAB
  0
TABLE
  2
DIMSTYLE
  5
A
330
0
100
AcDbSymbolTable
 70
     1
100
AcDbDimStyleTable
  0
DIMSTYLE
105
27
330
A
100
AcDbSymbolTableRecord
100
AcDbDimStyleTableRecord
  2
ISO-25
 70
     0
 41
2.5
 42
0.625
 43
3.75
 44
1.25
 73
     0
 74
     0
 77
     1
 78
     8
140
2.5
141
2.5
143
0.0393700787
147
0.625
171
     3
172
     1
178
     0
271
     2
272
     2
274
     3
278
    44
283
     0
284
     8
340
11
  0
ENDTAB
  0
TABLE
  2
BLOCK_RECORD
  5
1
330
0
100
AcDbSymbolTable
 70
     3
  0
BLOCK_RECORD
  5
1F
330
1
100
AcDbSymbolTableRecord
100
AcDbBlockTableRecord
  2
*Model_Space
340
22
  0
BLOCK_RECORD
  5
1B
330
1
100
AcDbSymbolTableRecord
100
AcDbBlockTableRecord
  2
*Paper_Space
340
1E
  0
BLOCK_RECORD
  5
23
330
1
100
AcDbSymbolTableRecord
100
AcDbBlockTableRecord
  2
*Paper_Space0
340
26
  0
BLOCK_RECORD
  5
1C2
330
1
100
AcDbSymbolTableRecord
100
AcDbBlockTableRecord
  2
SW_CENTERMARKSYMBOL_0
340
0
102
{BLKREFS
331
1CD
102
}
  0
BLOCK_RECORD
  5
2D0
330
1
100
AcDbSymbolTableRecord
100
AcDbBlockTableRecord
  2
SW_CENTERMARKSYMBOL_1
340
0
102
{BLKREFS
331
2DB
102
}
  0
ENDTAB
  0
ENDSEC
  0
SECTION
  2
BLOCKS
  0
BLOCK
  5
20
330
1F
100
AcDbEntity
  8
0
100
AcDbBlockBegin
  2
*Model_Space
 70
     0
 10
0.0
 20
0.0
 30
0.0
  3
*Model_Space
  1

  0
ENDBLK
  5
21
330
1F
100
AcDbEntity
  8
0
100
AcDbBlockEnd
  0
BLOCK
  5
1C
330
1B
100
AcDbEntity
 67
     1
  8
0
100
AcDbBlockBegin
  2
*Paper_Space
 70
     0
 10
0.0
 20
0.0
 30
0.0
  3
*Paper_Space
  1

  0
ENDBLK
  5
1D
330
1B
100
AcDbEntity
 67
     1
  8
0
100
AcDbBlockEnd
  0
BLOCK
  5
24
330
23
100
AcDbEntity
  8
0
100
AcDbBlockBegin
  2
*Paper_Space0
 70
     0
 10
0.0
 20
0.0
 30
0.0
  3
*Paper_Space0
  1

  0
ENDBLK
  5
25
330
23
100
AcDbEntity
  8
0
100
AcDbBlockEnd
  0
BLOCK
  5
1C3
330
1C2
100
AcDbEntity
  8
0
100
AcDbBlockBegin
  2
SW_CENTERMARKSYMBOL_0
 70
     0
 10
0.0
 20
0.0
 30
0.0
  3
SW_CENTERMARKSYMBOL_0
  1

  0
LINE
  5
1C5
330
1C2
100
AcDbEntity
  8
0
  6
Continuous
 62
     0
370
    18
100
AcDbLine
 10
0.0
 20
0.0
 30
0.0
 11
0.0
 21
2.5
 31
0.0
  0
LINE
  5
1C6
330
1C2
100
AcDbEntity
  8
0
  6
Continuous
 62
     0
370
    18
100
AcDbLine
 10
0.0
 20
0.0
 30
0.0
 11
-2.5
 21
0.0
 31
0.0
  0
LINE
  5
1C7
330
1C2
100
AcDbEntity
  8
0
  6
Continuous
 62
     0
370
    18
100
AcDbLine
 10
0.0
 20
0.0
 30
0.0
 11
0.0
 21
-2.5
 31
0.0
  0
LINE
  5
1C8
330
1C2
100
AcDbEntity
  8
0
  6
Continuous
 62
     0
370
    18
100
AcDbLine
 10
0.0
 20
0.0
 30
0.0
 11
2.5
 21
0.0
 31
0.0
  0
LINE
  5
1C9
330
1C2
100
AcDbEntity
  8
0
  6
Continuous
 62
     0
370
    18
100
AcDbLine
 10
0.0
 20
5.0
 30
0.0
 11
0.0
 21
20.6257658507
 31
0.0
  0
LINE
  5
1CA
330
1C2
100
AcDbEntity
  8
0
  6
Continuous
 62
     0
370
    18
100
AcDbLine
 10
-5.0
 20
0.0
 30
0.0
 11
-9.75
 21
0.0
 31
0.0
  0
LINE
  5
1CB
330
1C2
100
AcDbEntity
  8
0
  6
Continuous
 62
     0
370
    18
100
AcDbLine
 10
0.0
 20
-5.0
 30
0.0
 11
0.0
 21
-9.75
 31
0.0
  0
LINE
  5
1CC
330
1C2
100
AcDbEntity
  8
0
  6
Continuous
 62
     0
370
    18
100
AcDbLine
 10
5.0
 20
0.0
 30
0.0
 11
9.75
 21
0.0
 31
0.0
  0
ENDBLK
  5
1C4
330
1C2
100
AcDbEntity
  8
0
100
AcDbBlockEnd
  0
BLOCK
  5
2D1
330
2D0
100
AcDbEntity
  8
0
100
AcDbBlockBegin
  2
SW_CENTERMARKSYMBOL_1
 70
     0
 10
0.0
 20
0.0
 30
0.0
  3
SW_CENTERMARKSYMBOL_1
  1

  0
LINE
  5
2D3
330
2D0
100
AcDbEntity
  8
0
  6
Continuous
 62
     0
370
    18
100
AcDbLine
 10
0.0
 20
0.0
 30
0.0
 11
0.0
 21
2.5
 31
0.0
  0
LINE
  5
2D4
330
2D0
100
AcDbEntity
  8
0
  6
Continuous
 62
     0
370
    18
100
AcDbLine
 10
0.0
 20
0.0
 30
0.0
 11
-2.5
 21
0.0
 31
0.0
  0
LINE
  5
2D5
330
2D0
100
AcDbEntity
  8
0
  6
Continuous
 62
     0
370
    18
100
AcDbLine
 10
0.0
 20
0.0
 30
0.0
 11
0.0
 21
-2.5
 31
0.0
  0
LINE
  5
2D6
330
2D0
100
AcDbEntity
  8
0
  6
Continuous
 62
     0
370
    18
100
AcDbLine
 10
0.0
 20
0.0
 30
0.0
 11
2.5
 21
0.0
 31
0.0
  0
LINE
  5
2D7
330
2D0
100
AcDbEntity
  8
0
  6
Continuous
 62
     0
370
    18
100
AcDbLine
 10
0.0
 20
2.5
 30
0.0
 11
0.0
 21
6.8182351194
 31
0.0
  0
LINE
  5
2D8
330
2D0
100
AcDbEntity
  8
0
  6
Continuous
 62
     0
370
    18
100
AcDbLine
 10
-2.5
 20
0.0
 30
0.0
 11
-23.5009540507
 21
0.0
 31
0.0
  0
LINE
  5
2D9
330
2D0
100
AcDbEntity
  8
0
  6
Continuous
 62
     0
370
    18
100
AcDbLine
 10
0.0
 20
-2.5
 30
0.0
 11
0.0
 21
-7.0251005937
 31
0.0
  0
LINE
  5
2DA
330
2D0
100
AcDbEntity
  8
0
  6
Continuous
 62
     0
370
    18
100
AcDbLine
 10
2.5
 20
0.0
 30
0.0
 11
23.2223257899
 21
0.0
 31
0.0
  0
ENDBLK
  5
2D2
330
2D0
100
AcDbEntity
  8
0
100
AcDbBlockEnd
  0
ENDSEC
  0
SECTION
  2
ENTITIES
  0
MTEXT
  5
74
330
1F
100
AcDbEntity
  8
0
  6
Continuous
 62
     7
370
     0
100
AcDbMText
 10
78.7255303554
 20
62.2913008744
 30
0.0
 40
2.6458333333
 41
0.0
 71
     1
 72
     1
  1
5R-TK1111
  7
SLDTEXTSTYLE0
 73
     1
 44
1.0
  0
ARC
  5
75
330
1F
100
AcDbEntity
  8
0
  6
Continuous
 62
     7
370
    25
100
AcDbCircle
 10
68.1298855491
 20
41.0580538111
 30
0.0
 40
1.0
100
AcDbArc
 50
90.0
 51
158.1244120858
  0
ARC
  5
76
330
1F
100
AcDbEntity
  8
0
  6
Continuous
 62
     7
370
    25
100
AcDbCircle
 10
68.1298855491
 20
28.5580538111
 30
0.0
 40
1.0
100
AcDbArc
 50
201.7834290468
 51
270.0
  0
ARC
  5
77
330
1F
100
AcDbEntity
  8
0
  6
Continuous
 62
     7
370
    25
100
AcDbCircle
 10
46.1298855491
 20
28.5580538111
 30
0.0
 40
1.0
100
AcDbArc
 50
270.0
 51
338.1244120858
  0
ARC
  5
78
330
1F
100
AcDbEntity
  8
0
  6
Continuous
 62
     7
370
    25
100
AcDbCircle
 10
46.1298855491
 20
41.0580538111
 30
0.0
 40
0.9999999999999966
100
AcDbArc
 50
21.7834290468
 51
90.0
  0
LINE
  5
79
330
1F
100
AcDbEntity
  8
0
  6
Continuous
 62
     7
370
    25
100
AcDbLine
 10
35.629884819
 20
27.5580540197
 30
0.0
 11
46.1298856087
 21
27.5580540197
 31
0.0
  0
LINE
  5
7A
330
1F
100
AcDbEntity
  8
0
  6
Continuous
 62
     7
370
    25
100
AcDbLine
 10
46.1298856087
 20
42.0580536025
 30
0.0
 11
35.629884819
 21
42.0580536025
 31
0.0
  0
LINE
  5
7B
330
1F
100
AcDbEntity
  8
0
  6
Continuous
 62
     7
370
    25
100
AcDbLine
 10
78.6298862793
 20
42.0580536025
 30
0.0
 11
68.1298854895
 21
42.0580536025
 31
0.0
  0
LINE
  5
7C
330
1F
100
AcDbEntity
  8
0
  6
Continuous
 62
     7
370
    25
100
AcDbLine
 10
68.1298854895
 20
27.5580540197
 30
0.0
 11
78.6298862793
 21
27.5580540197
 31
0.0
  0
LINE
  5
7D
330
1F
100
AcDbEntity
  8
0
  6
Continuous
 62
     7
370
    25
100
AcDbLine
 10
35.629884819
 20
42.0580536025
 30
0.0
 11
35.1298856683
 21
41.5580539862
 31
0.0
  0
LINE
  5
7E
330
1F
100
AcDbEntity
  8
0
  6
Continuous
 62
     7
370
    25
100
AcDbLine
 10
35.1298856683
 20
28.058053636
 30
0.0
 11
35.629884819
 21
27.5580540197
 31
0.0
  0
LINE
  5
7F
330
1F
100
AcDbEntity
  8
0
  6
Continuous
 62
     7
370
    25
100
AcDbLine
 10
78.6298862793
 20
27.5580540197
 30
0.0
 11
79.1298854299
 21
28.058053636
 31
0.0
  0
LINE
  5
80
330
1F
100
AcDbEntity
  8
0
  6
Continuous
 62
     7
370
    25
100
AcDbLine
 10
79.1298854299
 20
41.5580539862
 30
0.0
 11
78.6298862793
 21
42.0580536025
 31
0.0
  0
SPLINE
  5
81
330
1F
100
AcDbEntity
  8
0
  6
Continuous
 62
     7
370
    25
100
AcDbSpline
210
0.0
220
0.0
230
1.0
 70
     8
 71
     3
 72
    11
 73
     7
 74
     0
 42
0.000000001
 43
0.00000001
 40
0.0
 40
0.0
 40
0.0
 40
0.0
 40
0.2500538626875584
 40
0.4999819337044594
 40
0.7499323914751671
 40
1.0
 40
1.0
 40
1.0
 40
1.0
 10
67.20205164927731
 20
41.43020667974336
 30
0.0
 10
67.15682258420313
 20
41.34203142665181
 30
0.0
 10
67.06638720691124
 20
41.16572527776148
 30
0.0
 10
66.84135646703582
 20
40.96649080650544
 30
0.0
 10
66.57197139343259
 20
40.83318650756397
 30
0.0
 10
66.37456289251594
 20
40.81591742819783
 30
0.0
 10
66.27583551633845
 20
40.80728086550219
 30
0.0
  0
SPLINE
  5
82
330
1F
100
AcDbEntity
  8
0
  6
Continuous
 62
     7
370
    25
100
AcDbSpline
210
0.0
220
0.0
230
1.0
 70
     8
 71
     3
 72
    11
 73
     7
 74
     0
 42
0.000000001
 43
0.00000001
 40
0.0
 40
0.0
 40
0.0
 40
0.0
 40
0.2500764093404959
 40
0.5000298636959158
 40
0.749956518523337
 40
1.0
 40
1.0
 40
1.0
 40
1.0
 10
66.27583551633845
 20
28.80955225695354
 30
0.0
 10
66.37456240569547
 20
28.80091467897319
 30
0.0
 10
66.57196764339263
 20
28.7836437698476
 30
0.0
 10
66.84135457266736
 20
28.65036436656696
 30
0.0
 10
67.06638357770804
 20
28.45115288281567
 30
0.0
 10
67.15682191459491
 20
28.27486594499411
 30
0.0
 10
67.20205164927731
 20
28.18670187984092
 30
0.0
  0
SPLINE
  5
83
330
1F
100
AcDbEntity
  8
0
  6
Continuous
 62
     7
370
    25
100
AcDbSpline
210
0.0
220
0.0
230
1.0
 70
     8
 71
     3
 72
    11
 73
     7
 74
     0
 42
0.000000001
 43
0.00000001
 40
0.0
 40
0.0
 40
0.0
 40
0.0
 40
0.2500538626875584
 40
0.4999819337044594
 40
0.7499323914751671
 40
1.0
 40
1.0
 40
1.0
 40
1.0
 10
47.05771944898854
 20
28.18590094242675
 30
0.0
 10
47.10294851406273
 20
28.27407619551829
 30
0.0
 10
47.19338389135461
 20
28.45038234440862
 30
0.0
 10
47.41841463123004
 20
28.64961681566466
 30
0.0
 10
47.68779970483327
 20
28.78292111460613
 30
0.0
 10
47.88520820574992
 20
28.80019019397228
 30
0.0
 10
47.9839355819274
 20
28.80882675666792
 30
0.0
  0
SPLINE
  5
84
330
1F
100
AcDbEntity
  8
0
  6
Continuous
 62
     7
370
    25
100
AcDbSpline
210
0.0
220
0.0
230
1.0
 70
     8
 71
     3
 72
    11
 73
     7
 74
     0
 42
0.000000001
 43
0.00000001
 40
0.0
 40
0.0
 40
0.0
 40
0.0
 40
0.2500764093404959
 40
0.5000298636959158
 40
0.749956518523337
 40
1.0
 40
1.0
 40
1.0
 40
1.0
 10
47.9839355819274
 20
40.80655536521656
 30
0.0
 10
47.88520869257038
 20
40.81519294319691
 30
0.0
 10
47.68780345487323
 20
40.8324638523225
 30
0.0
 10
47.41841652559851
 20
40.96574325560314
 30
0.0
 10
47.19338752055781
 20
41.16495473935444
 30
0.0
 10
47.10294918367093
 20
41.34124167717599
 30
0.0
 10
47.05771944898854
 20
41.42940574232919
 30
0.0
  0
LINE
  5
85
330
1F
100
AcDbEntity
  8
0
  6
Continuous
 62
     7
370
    25
100
AcDbLine
 10
50.9298853711
 20
40.8080538632
 30
0.0
 11
47.9839355819
 21
40.8080538632
 31
0.0
  0
LINE
  5
86
330
1F
100
AcDbEntity
  8
0
  6
Continuous
 62
     7
370
    25
100
AcDbLine
 10
66.2758355163
 20
40.8080538632
 30
0.0
 11
63.3298857272
 21
40.8080538632
 31
0.0
  0
LINE
  5
87
330
1F
100
AcDbEntity
  8
0
  6
Continuous
 62
     7
370
    25
100
AcDbLine
 10
47.9839355819
 20
28.8080537589
 30
0.0
 11
66.2758355163
 21
28.8080537589
 31
0.0
  0
LINE
  5
88
330
1F
100
AcDbEntity
  8
0
  6
Continuous
 62
     7
370
    25
100
AcDbLine
 10
51.129885497
 20
42.3761160942
 30
0.0
 11
51.129885497
 21
41.0080539892
 31
0.0
  0
LINE
  5
89
330
1F
100
AcDbEntity
  8
0
  6
Continuous
 62
     7
370
    25
100
AcDbLine
 10
63.1298856013
 20
41.0080539892
 30
0.0
 11
63.1298856013
 21
42.3761160942
 31
0.0
  0
LINE
  5
8A
330
1F
100
AcDbEntity
  8
0
  6
Continuous
 62
     7
370
    25
100
AcDbLine
 10
63.1298856013
 20
42.3761160942
 30
0.0
 11
62.1979478881
 21
43.308054273
 31
0.0
  0
LINE
  5
8B
330
1F
100
AcDbEntity
  8
0
  6
Continuous
 62
     7
370
    25
100
AcDbLine
 10
52.0618232102
 20
43.308054273
 30
0.0
 11
51.129885497
 21
42.3761160942
 31
0.0
  0
LINE
  5
8C
330
1F
100
AcDbEntity
  8
0
  6
Continuous
 62
     7
370
    25
100
AcDbLine
 10
62.1979478881
 20
43.308054273
 30
0.0
 11
61.9121650368
 21
52.4531055139
 31
0.0
  0
LINE
  5
8D
330
1F
100
AcDbEntity
  8
0
  6
Continuous
 62
     7
370
    25
100
AcDbLine
 10
52.3476060614
 20
52.4531055139
 30
0.0
 11
52.0618232102
 21
43.308054273
 31
0.0
  0
LINE
  5
8E
330
1F
100
AcDbEntity
  8
0
  6
Continuous
 62
     7
370
    25
100
AcDbLine
 10
61.9121650368
 20
52.4531055139
 30
0.0
 11
61.1298857391
 21
53.8080532001
 31
0.0
  0
LINE
  5
8F
330
1F
100
AcDbEntity
  8
0
  6
Continuous
 62
     7
370
    25
100
AcDbLine
 10
53.1298853591
 20
53.8080532001
 30
0.0
 11
52.3476060614
 21
52.4531055139
 31
0.0
  0
ARC
  5
90
330
1F
100
AcDbEntity
  8
0
  6
Continuous
 62
     7
370
    25
100
AcDbCircle
 10
63.3298855491
 20
41.0080538111
 30
0.0
 40
0.2000000000000072
100
AcDbArc
 50
180.1652925711
 51
268.5557837782
  0
ARC
  5
91
330
1F
100
AcDbEntity
  8
0
  6
Continuous
 62
     7
370
    25
100
AcDbCircle
 10
50.9298855491
 20
41.0080538111
 30
0.0
 40
0.1999999999999945
100
AcDbArc
 50
271.3573595056
 51
358.5557837782
  0
SPLINE
  5
92
330
1F
100
AcDbEntity
  8
0
  6
Continuous
 62
     7
370
    25
100
AcDbSpline
210
0.0
220
0.0
230
1.0
 70
     8
 71
     3
 72
     9
 73
     5
 74
     0
 42
0.000000001
 43
0.00000001
 40
0.0
 40
0.0
 40
0.0
 40
0.0
 40
0.31703665879405
 40
1.0
 40
1.0
 40
1.0
 40
1.0
 10
67.20143418241034
 20
28.18700549100024
 30
0.0
 10
67.20144431477014
 20
28.18680770147793
 30
0.0
 10
67.20147627435438
 20
28.18618383191327
 30
0.0
 10
67.2015115824417
 20
28.1868258938859
 30
0.0
 10
67.20153569657097
 20
28.18726439867599
 30
0.0
  0
SPLINE
  5
93
330
1F
100
AcDbEntity
  8
0
  6
Continuous
 62
     7
370
    25
100
AcDbSpline
210
0.0
220
0.0
230
1.0
 70
     8
 71
     3
 72
     9
 73
     5
 74
     0
 42
0.000000001
 43
0.00000001
 40
0.0
 40
0.0
 40
0.0
 40
0.0
 40
0.31703665879405
 40
1.0
 40
1.0
 40
1.0
 40
1.0
 10
47.05833691585551
 20
41.42910213116986
 30
0.0
 10
47.0583267834957
 20
41.42929992069217
 30
0.0
 10
47.05829482391147
 20
41.42992379025683
 30
0.0
 10
47.05825951582416
 20
41.42928172828421
 30
0.0
 10
47.05823540169487
 20
41.42884322349412
 30
0.0
  0
LINE
  5
94
330
1F
100
AcDbEntity
  8
0
  6
Continuous
 62
     7
370
    25
100
AcDbLine
 10
35.629884819
 20
42.0580536025
 30
0.0
 11
35.629884819
 21
27.5580540197
 31
0.0
  0
LINE
  5
95
330
1F
100
AcDbEntity
  8
0
  6
Continuous
 62
     7
370
    25
100
AcDbLine
 10
78.6298862793
 20
27.5580540197
 30
0.0
 11
78.6298862793
 21
42.0580536025
 31
0.0
  0
LINE
  5
96
330
1F
100
AcDbEntity
  8
0
  6
Continuous
 62
     7
370
    25
100
AcDbLine
 10
35.1298856683
 20
34.8080538111
 30
0.0
 11
35.1298856683
 21
41.5580539862
 31
0.0
  0
LINE
  5
97
330
1F
100
AcDbEntity
  8
0
  6
Continuous
 62
     7
370
    25
100
AcDbLine
 10
35.1298856683
 20
28.058053636
 30
0.0
 11
35.1298856683
 21
34.8080538111
 31
0.0
  0
LINE
  5
98
330
1F
100
AcDbEntity
  8
0
  6
Continuous
 62
     7
370
    25
100
AcDbLine
 10
79.1298854299
 20
41.5580539862
 30
0.0
 11
79.1298854299
 21
28.058053636
 31
0.0
  0
SPLINE
  5
99
330
1F
100
AcDbEntity
  8
0
  6
Continuous
 62
     7
370
    25
100
AcDbSpline
210
0.0
220
0.0
230
1.0
 70
     8
 71
     3
 72
     9
 73
     5
 74
     0
 42
0.000000001
 43
0.00000001
 40
0.001813512106624
 40
0.001813512106624
 40
0.001813512106624
 40
0.001813512106624
 40
0.501813512106624
 40
1.0
 40
1.0
 40
1.0
 40
1.0
 10
66.27583592735901
 20
34.80318601819237
 30
0.0
 10
66.47356918607555
 20
34.80317011033404
 30
0.0
 10
66.86787277807649
 20
34.80309901038397
 30
0.0
 10
67.12776685517527
 20
34.80282031211811
 30
0.0
 10
67.20205170150055
 20
34.80268048348347
 30
0.0
  0
SPLINE
  5
9A
330
1F
100
AcDbEntity
  8
0
  6
Continuous
 62
     7
370
    25
100
AcDbSpline
210
0.0
220
0.0
230
1.0
 70
    24
 71
     3
 72
     9
 73
     5
 74
     0
 42
0.000000001
 43
0.00000001
 40
0.0
 40
0.0
 40
0.0
 40
0.0
 40
0.880961402303833
 40
1.0
 40
1.0
 40
1.0
 40
1.0
 10
66.27583551633845
 20
28.81043515075428
 30
0.0
 10
66.27583551633845
 20
28.80895155592277
 30
0.0
 10
66.27583551633845
 20
28.80726749254879
 30
0.0
 10
66.27583551633845
 20
28.80825225280394
 30
0.0
 10
66.27583551633845
 20
28.80836947728378
 30
0.0
  0
SPLINE
  5
9B
330
1F
100
AcDbEntity
  8
0
  6
Continuous
 62
     7
370
    25
100
AcDbSpline
210
0.0
220
0.0
230
1.0
 70
     8
 71
     3
 72
     9
 73
     5
 74
     0
 42
0.000000001
 43
0.00000001
 40
0.001813512106624
 40
0.001813512106624
 40
0.001813512106624
 40
0.001813512106624
 40
0.501813512106624
 40
1.0
 40
1.0
 40
1.0
 40
1.0
 10
47.98393517090683
 20
34.81292160397773
 30
0.0
 10
47.78620191219029
 20
34.81293751183605
 30
0.0
 10
47.39189832018936
 20
34.81300861178613
 30
0.0
 10
47.13200424309057
 20
34.81328731005198
 30
0.0
 10
47.0577193967653
 20
34.81342713868663
 30
0.0
  0
SPLINE
  5
9C
330
1F
100
AcDbEntity
  8
0
  6
Continuous
 62
     7
370
    25
100
AcDbSpline
210
0.0
220
0.0
230
1.0
 70
    24
 71
     3
 72
     9
 73
     5
 74
     0
 42
0.000000001
 43
0.00000001
 40
0.0
 40
0.0
 40
0.0
 40
0.0
 40
0.880961402303833
 40
1.0
 40
1.0
 40
1.0
 40
1.0
 10
47.9839355819274
 20
40.80567247141582
 30
0.0
 10
47.9839355819274
 20
40.80715606624733
 30
0.0
 10
47.9839355819274
 20
40.80884012962131
 30
0.0
 10
47.9839355819274
 20
40.80785536936616
 30
0.0
 10
47.9839355819274
 20
40.80773814488632
 30
0.0
  0
SPLINE
  5
9D
330
1F
100
AcDbEntity
  8
0
  6
Continuous
 62
     7
370
    25
100
AcDbSpline
210
0.0
220
0.0
230
1.0
 70
     8
 71
     3
 72
    10
 73
     6
 74
     0
 42
0.000000001
 43
0.00000001
 40
0.0
 40
0.0
 40
0.0
 40
0.0
 40
0.5
 40
0.5
 40
1.0
 40
1.0
 40
1.0
 40
1.0
 10
51.12988554913293
 20
39.84031187560118
 30
0.0
 10
51.25749941059033
 20
39.84031187560118
 30
0.0
 10
51.37732123602467
 20
39.87122729175719
 30
0.0
 10
51.56798319958756
 20
39.95872052835774
 30
0.0
 10
51.6391924750064
 20
40.01250807815763
 30
0.0
 10
51.69557097408214
 20
40.06706791597286
 30
0.0
  0
LINE
  5
9E
330
1F
100
AcDbEntity
  8
0
  6
Continuous
 62
     7
370
    25
100
AcDbLine
 10
50.8298855409
 20
39.8403119193
 30
0.0
 11
51.129885497
 21
39.8403119193
 31
0.0
  0
SPLINE
  5
9F
330
1F
100
AcDbEntity
  8
0
  6
Continuous
 62
     7
370
    25
100
AcDbSpline
210
0.0
220
0.0
230
1.0
 70
     8
 71
     3
 72
    14
 73
    10
 74
     0
 42
0.000000001
 43
0.00000001
 40
0.0
 40
0.0
 40
0.0
 40
0.0
 40
0.25
 40
0.25
 40
0.5
 40
0.5
 40
0.75
 40
0.75
 40
1.0
 40
1.0
 40
1.0
 40
1.0
 10
50.82988554913292
 20
39.84031187560119
 30
0.0
 10
50.75893185959269
 20
39.84031187560119
 30
0.0
 10
50.6927452153341
 20
39.82117330185152
 30
0.0
 10
50.59021555299316
 20
39.76819340321314
 30
0.0
 10
50.5508833186076
 20
39.73453114376481
 30
0.0
 10
50.48957784124088
 20
39.66197718164238
 30
0.0
 10
50.46723010747117
 20
39.62220335732703
 30
0.0
 10
50.43756285276826
 20
39.54028194572395
 30
0.0
 10
50.42988554913293
 20
39.49766057728051
 30
0.0
 10
50.42988554913293
 20
39.45321510140763
 30
0.0
  0
LINE
  5
A0
330
1F
100
AcDbEntity
  8
0
  6
Continuous
 62
     7
370
    25
100
AcDbLine
 10
50.4298857548
 20
36.9282701882
 30
0.0
 11
50.4298857548
 21
39.4532151418
 31
0.0
  0
SPLINE
  5
A1
330
1F
100
AcDbEntity
  8
0
  6
Continuous
 62
     7
370
    25
100
AcDbSpline
210
0.0
220
0.0
230
1.0
 70
    24
 71
     3
 72
    14
 73
    10
 74
     0
 42
0.000000001
 43
0.00000001
 40
0.0
 40
0.0
 40
0.0
 40
0.0
 40
0.25
 40
0.25
 40
0.5
 40
0.5
 40
0.75
 40
0.75
 40
1.0
 40
1.0
 40
1.0
 40
1.0
 10
50.42988554913293
 20
34.80805381108505
 30
0.0
 10
50.42988554913293
 20
34.98661884178033
 30
0.0
 10
50.42988554913293
 20
35.16518468999993
 30
0.0
 10
50.42988554913293
 20
35.52164482532237
 30
0.0
 10
50.42988554913293
 20
35.69954075055087
 30
0.0
 10
50.42988554913293
 20
36.05394203378171
 30
0.0
 10
50.42988554913293
 20
36.23044903729168
 30
0.0
 10
50.42988554913293
 20
36.58125514930617
 30
0.0
 10
50.42988554913293
 20
36.75555590935459
 30
0.0
 10
50.42988554913293
 20
36.92827016271795
 30
0.0
  0
SPLINE
  5
A2
330
1F
100
AcDbEntity
  8
0
  6
Continuous
 62
     7
370
    25
100
AcDbSpline
210
0.0
220
0.0
230
1.0
 70
    24
 71
     3
 72
    14
 73
    10
 74
     0
 42
0.000000001
 43
0.00000001
 40
0.0
 40
0.0
 40
0.0
 40
0.0
 40
0.25
 40
0.25
 40
0.5
 40
0.5
 40
0.75
 40
0.75
 40
1.0
 40
1.0
 40
1.0
 40
1.0
 10
50.42988554913293
 20
34.80805381108505
 30
0.0
 10
50.42988554913293
 20
34.62948878038976
 30
0.0
 10
50.42988554913293
 20
34.45092293217017
 30
0.0
 10
50.42988554913293
 20
34.09446279684773
 30
0.0
 10
50.42988554913293
 20
33.91656687161922
 30
0.0
 10
50.42988554913293
 20
33.56216558838838
 30
0.0
 10
50.42988554913293
 20
33.38565858487842
 30
0.0
 10
50.42988554913293
 20
33.03485247286394
 30
0.0
 10
50.42988554913293
 20
32.8605517128155
 30
0.0
 10
50.42988554913293
 20
32.68783745945215
 30
0.0
  0
LINE
  5
A3
330
1F
100
AcDbEntity
  8
0
  6
Continuous
 62
     7
370
    25
100
AcDbLine
 10
50.4298857548
 20
30.1628924804
 30
0.0
 11
50.4298857548
 21
32.687837434
 31
0.0
  0
SPLINE
  5
A4
330
1F
100
AcDbEntity
  8
0
  6
Continuous
 62
     7
370
    25
100
AcDbSpline
210
0.0
220
0.0
230
1.0
 70
     8
 71
     3
 72
    12
 73
     8
 74
     0
 42
0.000000001
 43
0.00000001
 40
0.0
 40
0.0
 40
0.0
 40
0.0
 40
0.5000000000000001
 40
0.5000000000000001
 40
0.75
 40
0.75
 40
1.0
 40
1.0
 40
1.0
 40
1.0
 10
50.42988554913293
 20
30.16289252076247
 30
0.0
 10
50.42988554913293
 20
30.07407710149928
 30
0.0
 10
50.4592931737154
 20
29.98987475462778
 30
0.0
 10
50.55094973878381
 20
29.88154660112755
 30
0.0
 10
50.59031148475409
 20
29.84785667238679
 30
0.0
 10
50.6927377049397
 20
29.79494618402344
 30
0.0
 10
50.75887456841007
 20
29.77579574656892
 30
0.0
 10
50.82988554913292
 20
29.77579574656892
 30
0.0
  0
LINE
  5
A5
330
1F
100
AcDbEntity
  8
0
  6
Continuous
 62
     7
370
    25
100
AcDbLine
 10
63.4298855573
 20
29.7757957028
 30
0.0
 11
50.8298855409
 21
29.7757957028
 31
0.0
  0
SPLINE
  5
A6
330
1F
100
AcDbEntity
  8
0
  6
Continuous
 62
     7
370
    25
100
AcDbSpline
210
0.0
220
0.0
230
1.0
 70
     8
 71
     3
 72
    14
 73
    10
 74
     0
 42
0.000000001
 43
0.00000001
 40
0.0
 40
0.0
 40
0.0
 40
0.0
 40
0.25
 40
0.25
 40
0.5
 40
0.5
 40
0.75
 40
0.75
 40
1.0
 40
1.0
 40
1.0
 40
1.0
 10
63.42988554913293
 20
29.77579574656892
 30
0.0
 10
63.50083923867315
 20
29.77579574656892
 30
0.0
 10
63.56702588293175
 20
29.79493432031858
 30
0.0
 10
63.66955554527268
 20
29.84791421895696
 30
0.0
 10
63.70888777965825
 20
29.88157647840529
 30
0.0
 10
63.77019325702496
 20
29.95413044052772
 30
0.0
 10
63.79254099079469
 20
29.99390426484307
 30
0.0
 10
63.82220824549758
 20
30.07582567644615
 30
0.0
 10
63.82988554913292
 20
30.11844704488959
 30
0.0
 10
63.82988554913292
 20
30.16289252076247
 30
0.0
  0
LINE
  5
A7
330
1F
100
AcDbEntity
  8
0
  6
Continuous
 62
     7
370
    25
100
AcDbLine
 10
63.8298853435
 20
32.687837434
 30
0.0
 11
63.8298853435
 21
30.1628924804
 31
0.0
  0
SPLINE
  5
A8
330
1F
100
AcDbEntity
  8
0
  6
Continuous
 62
     7
370
    25
100
AcDbSpline
210
0.0
220
0.0
230
1.0
 70
    24
 71
     3
 72
    14
 73
    10
 74
     0
 42
0.000000001
 43
0.00000001
 40
0.0
 40
0.0
 40
0.0
 40
0.0
 40
0.25
 40
0.25
 40
0.5
 40
0.5
 40
0.75
 40
0.75
 40
1.0
 40
1.0
 40
1.0
 40
1.0
 10
63.82988554913292
 20
34.80805381108505
 30
0.0
 10
63.82988554913292
 20
34.62948878038976
 30
0.0
 10
63.82988554913292
 20
34.45092293217017
 30
0.0
 10
63.82988554913292
 20
34.09446279684774
 30
0.0
 10
63.82988554913292
 20
33.91656687161923
 30
0.0
 10
63.82988554913292
 20
33.56216558838839
 30
0.0
 10
63.82988554913292
 20
33.38565858487842
 30
0.0
 10
63.82988554913292
 20
33.03485247286394
 30
0.0
 10
63.82988554913292
 20
32.86055171281551
 30
0.0
 10
63.82988554913292
 20
32.68783745945215
 30
0.0
  0
SPLINE
  5
A9
330
1F
100
AcDbEntity
  8
0
  6
Continuous
 62
     7
370
    25
100
AcDbSpline
210
0.0
220
0.0
230
1.0
 70
    24
 71
     3
 72
    14
 73
    10
 74
     0
 42
0.000000001
 43
0.00000001
 40
0.0
 40
0.0
 40
0.0
 40
0.0
 40
0.25
 40
0.25
 40
0.5
 40
0.5
 40
0.75
 40
0.75
 40
1.0
 40
1.0
 40
1.0
 40
1.0
 10
63.82988554913292
 20
34.80805381108505
 30
0.0
 10
63.82988554913292
 20
34.98661884178034
 30
0.0
 10
63.82988554913292
 20
35.16518468999994
 30
0.0
 10
63.82988554913292
 20
35.52164482532237
 30
0.0
 10
63.82988554913292
 20
35.69954075055087
 30
0.0
 10
63.82988554913292
 20
36.05394203378171
 30
0.0
 10
63.82988554913292
 20
36.23044903729168
 30
0.0
 10
63.82988554913292
 20
36.58125514930617
 30
0.0
 10
63.82988554913292
 20
36.75555590935459
 30
0.0
 10
63.82988554913292
 20
36.92827016271795
 30
0.0
  0
LINE
  5
AA
330
1F
100
AcDbEntity
  8
0
  6
Continuous
 62
     7
370
    25
100
AcDbLine
 10
63.8298853435
 20
39.4532151418
 30
0.0
 11
63.8298853435
 21
36.9282701882
 31
0.0
  0
SPLINE
  5
AB
330
1F
100
AcDbEntity
  8
0
  6
Continuous
 62
     7
370
    25
100
AcDbSpline
210
0.0
220
0.0
230
1.0
 70
     8
 71
     3
 72
    12
 73
     8
 74
     0
 42
0.000000001
 43
0.00000001
 40
0.0
 40
0.0
 40
0.0
 40
0.0
 40
0.4999999999999979
 40
0.4999999999999979
 40
0.7499999999999989
 40
0.7499999999999989
 40
1.0
 40
1.0
 40
1.0
 40
1.0
 10
63.82988554913292
 20
39.45321510140763
 30
0.0
 10
63.82988554913292
 20
39.54203052067082
 30
0.0
 10
63.80047792455046
 20
39.62623286754232
 30
0.0
 10
63.70882135948204
 20
39.73456102104256
 30
0.0
 10
63.66945961351175
 20
39.76825094978332
 30
0.0
 10
63.56703339332614
 20
39.82116143814667
 30
0.0
 10
63.50089652985577
 20
39.84031187560119
 30
0.0
 10
63.42988554913291
 20
39.84031187560118
 30
0.0
  0
LINE
  5
AC
330
1F
100
AcDbEntity
  8
0
  6
Continuous
 62
     7
370
    25
100
AcDbLine
 10
63.1298856013
 20
39.8403119193
 30
0.0
 11
63.4298855573
 21
39.8403119193
 31
0.0
  0
SPLINE
  5
AD
330
1F
100
AcDbEntity
  8
0
  6
Continuous
 62
     7
370
    25
100
AcDbSpline
210
0.0
220
0.0
230
1.0
 70
     8
 71
     3
 72
    10
 73
     6
 74
     0
 42
0.000000001
 43
0.00000001
 40
0.0
 40
0.0
 40
0.0
 40
0.0
 40
0.5
 40
0.5
 40
1.0
 40
1.0
 40
1.0
 40
1.0
 10
62.56420012418372
 20
40.06706791597285
 30
0.0
 10
62.62057862325947
 20
40.01250807815762
 30
0.0
 10
62.69178789867833
 20
39.95872052835772
 30
0.0
 10
62.88244986224122
 20
39.87122729175718
 30
0.0
 10
63.00227168767552
 20
39.84031187560118
 30
0.0
 10
63.12988554913293
 20
39.84031187560118
 30
0.0
  0
LINE
  5
AE
330
1F
100
AcDbEntity
  8
0
  6
Continuous
 62
     7
370
    25
100
AcDbLine
 10
63.1298856013
 20
42.3761160942
 30
0.0
 11
51.129885497
 21
42.3761160942
 31
0.0
  0
SPLINE
  5
AF
330
1F
100
AcDbEntity
  8
0
  6
Continuous
 62
     7
370
    25
100
AcDbSpline
210
0.0
220
0.0
230
1.0
 70
     8
 71
     3
 72
    10
 73
     6
 74
     0
 42
0.000000001
 43
0.00000001
 40
0.0
 40
0.0
 40
0.0
 40
0.0
 40
0.5
 40
0.5
 40
1.0
 40
1.0
 40
1.0
 40
1.0
 10
51.87087144424513
 20
40.24236838613584
 30
0.0
 10
51.92543128206036
 20
40.29874688521159
 30
0.0
 10
51.97921883186026
 20
40.36995616063045
 30
0.0
 10
52.06671206846079
 20
40.56061812419333
 30
0.0
 10
52.0976274846168
 20
40.68043994962766
 30
0.0
 10
52.0976274846168
 20
40.80805381108505
 30
0.0
  0
LINE
  5
B0
330
1F
100
AcDbEntity
  8
0
  6
Continuous
 62
     7
370
    25
100
AcDbLine
 10
59.2501019262
 20
41.5080536054
 30
0.0
 11
62.1298854374
 21
41.5080536054
 31
0.0
  0
SPLINE
  5
B1
330
1F
100
AcDbEntity
  8
0
  6
Continuous
 62
     7
370
    25
100
AcDbSpline
210
0.0
220
0.0
230
1.0
 70
    24
 71
     3
 72
    14
 73
    10
 74
     0
 42
0.000000001
 43
0.00000001
 40
0.0
 40
0.0
 40
0.0
 40
0.0
 40
0.25
 40
0.25
 40
0.5
 40
0.5
 40
0.75
 40
0.75
 40
1.0
 40
1.0
 40
1.0
 40
1.0
 10
57.12988554913292
 20
41.50805381108505
 30
0.0
 10
57.30845057982821
 20
41.50805381108505
 30
0.0
 10
57.48701642804781
 20
41.50805381108505
 30
0.0
 10
57.84347656337024
 20
41.50805381108505
 30
0.0
 10
58.02137248859874
 20
41.50805381108505
 30
0.0
 10
58.37577377182959
 20
41.50805381108505
 30
0.0
 10
58.55228077533955
 20
41.50805381108505
 30
0.0
 10
58.90308688735404
 20
41.50805381108505
 30
0.0
 10
59.07738764740247
 20
41.50805381108505
 30
0.0
 10
59.25010190076582
 20
41.50805381108505
 30
0.0
  0
SPLINE
  5
B2
330
1F
100
AcDbEntity
  8
0
  6
Continuous
 62
     7
370
    25
100
AcDbSpline
210
0.0
220
0.0
230
1.0
 70
    24
 71
     3
 72
    14
 73
    10
 74
     0
 42
0.000000001
 43
0.00000001
 40
0.0
 40
0.0
 40
0.0
 40
0.0
 40
0.25
 40
0.25
 40
0.5
 40
0.5
 40
0.75
 40
0.75
 40
1.0
 40
1.0
 40
1.0
 40
1.0
 10
57.12988554913292
 20
41.50805381108505
 30
0.0
 10
56.95132051843763
 20
41.50805381108505
 30
0.0
 10
56.77275467021803
 20
41.50805381108505
 30
0.0
 10
56.41629453489561
 20
41.50805381108505
 30
0.0
 10
56.2383986096671
 20
41.50805381108505
 30
0.0
 10
55.88399732643627
 20
41.50805381108505
 30
0.0
 10
55.7074903229263
 20
41.50805381108505
 30
0.0
 10
55.35668421091182
 20
41.50805381108505
 30
0.0
 10
55.18238345086338
 20
41.50805381108505
 30
0.0
 10
55.00966919750002
 20
41.50805381108505
 30
0.0
  0
LINE
  5
B3
330
1F
100
AcDbEntity
  8
0
  6
Continuous
 62
     7
370
    25
100
AcDbLine
 10
52.4847242184
 20
41.5080536054
 30
0.0
 11
55.0096691721
 21
41.5080536054
 31
0.0
  0
SPLINE
  5
B4
330
1F
100
AcDbEntity
  8
0
  6
Continuous
 62
     7
370
    25
100
AcDbSpline
210
0.0
220
0.0
230
1.0
 70
     8
 71
     3
 72
    12
 73
     8
 74
     0
 42
0.000000001
 43
0.00000001
 40
0.0
 40
0.0
 40
0.0
 40
0.0
 40
0.4999999999999986
 40
0.4999999999999986
 40
0.7499999999999992
 40
0.7499999999999992
 40
1.0
 40
1.0
 40
1.0
 40
1.0
 10
52.48472425881035
 20
41.50805381108505
 30
0.0
 10
52.39590883954716
 20
41.50805381108505
 30
0.0
 10
52.31170649267565
 20
41.47864618650258
 30
0.0
 10
52.20337833917542
 20
41.38698962143417
 30
0.0
 10
52.16968841043467
 20
41.34762787546389
 30
0.0
 10
52.11677792207131
 20
41.24520165527827
 30
0.0
 10
52.0976274846168
 20
41.1790647918079
 30
0.0
 10
52.0976274846168
 20
41.10805381108505
 30
0.0
  0
LINE
  5
B5
330
1F
100
AcDbEntity
  8
0
  6
Continuous
 62
     7
370
    25
100
AcDbLine
 10
52.0976274409
 20
40.8080538632
 30
0.0
 11
52.0976274409
 21
41.1080538193
 31
0.0
  0
LINE
  5
B6
330
1F
100
AcDbEntity
  8
0
  6
Continuous
 62
     7
370
    25
100
AcDbLine
 10
61.9298857771
 20
41.1080538193
 30
0.0
 11
59.3207758054
 21
41.1080538193
 31
0.0
  0
SPLINE
  5
B7
330
1F
100
AcDbEntity
  8
0
  6
Continuous
 62
     7
370
    25
100
AcDbSpline
210
0.0
220
0.0
230
1.0
 70
     8
 71
     3
 72
    10
 73
     6
 74
     0
 42
0.000000001
 43
0.00000001
 40
0.0
 40
0.0
 40
0.0
 40
0.0
 40
0.5
 40
0.5
 40
1.0
 40
1.0
 40
1.0
 40
1.0
 10
59.31039361049729
 20
41.24947516732083
 30
0.0
 10
59.31303228103213
 20
41.22659048430805
 30
0.0
 10
59.3156278231962
 20
41.20014504933017
 30
0.0
 10
59.31949957225694
 20
41.14978661679974
 30
0.0
 10
59.32077577915359
 20
41.12587361924719
 30
0.0
 10
59.32077577915359
 20
41.10805381108505
 30
0.0
  0
SPLINE
  5
B8
330
1F
100
AcDbEntity
  8
0
  6
Continuous
 62
     7
370
    25
100
AcDbSpline
210
0.0
220
0.0
230
1.0
 70
     8
 71
     3
 72
    12
 73
     8
 74
     0
 42
0.000000001
 43
0.00000001
 40
0.0
 40
0.0
 40
0.0
 40
0.0
 40
0.25
 40
0.25
 40
0.5
 40
0.5
 40
1.0
 40
1.0
 40
1.0
 40
1.0
 10
59.31039361049729
 20
41.24947516732083
 30
0.0
 10
59.30907427522987
 20
41.26091750882722
 30
0.0
 10
59.30757000767721
 20
41.27029984481568
 30
0.0
 10
59.30528819992506
 20
41.28557421858636
 30
0.0
 10
59.30451065972558
 20
41.29146625636859
 30
0.0
 10
59.30491301804235
 20
41.30485149165038
 30
0.0
 10
59.30882789547384
 20
41.30805381108505
 30
0.0
 10
59.32077577915359
 20
41.30805381108505
 30
0.0
  0
LINE
  5
B9
330
1F
100
AcDbEntity
  8
0
  6
Continuous
 62
     7
370
    25
100
AcDbLine
 10
59.3207758054
 20
41.3080539452
 30
0.0
 11
62.1298854374
 21
41.3080539452
 31
0.0
  0
LWPOLYLINE
  5
BA
330
1F
100
AcDbEntity
  8
0
  6
Continuous
 62
     7
370
    25
100
AcDbPolyline
 90
        9
 70
   128
 43
0.0
 10
61.9298857771
 20
41.1080538193
 10
61.9689035364
 20
41.1470720442
 10
62.006422332
 20
41.1845903741
 10
62.0409995452
 20
41.219168053
 10
62.0713071101
 20
41.2494751522
 10
62.0961794764
 20
41.2743475186
 10
62.1146615729
 20
41.2928296151
 10
62.1260428004
 20
41.3042108426
 10
62.1298854374
 20
41.3080539452
  0
LINE
  5
BB
330
1F
100
AcDbEntity
  8
0
  6
Continuous
 62
     7
370
    25
100
AcDbLine
 10
50.629885415
 20
30.0080535831
 30
0.0
 11
50.629885415
 21
32.6171635548
 31
0.0
  0
SPLINE
  5
BC
330
1F
100
AcDbEntity
  8
0
  6
Continuous
 62
     7
370
    25
100
AcDbSpline
210
0.0
220
0.0
230
1.0
 70
     8
 71
     3
 72
    12
 73
     8
 74
     0
 42
0.000000001
 43
0.00000001
 40
0.0
 40
0.0
 40
0.0
 40
0.0
 40
0.25
 40
0.25
 40
0.5
 40
0.5
 40
1.0
 40
1.0
 40
1.0
 40
1.0
 10
50.68846419289714
 20
32.62754574972069
 30
0.0
 10
50.67702185139076
 20
32.62886508498811
 30
0.0
 10
50.6676395154023
 20
32.63036935254077
 30
0.0
 10
50.65236514163161
 20
32.63265116029292
 30
0.0
 10
50.64647310384938
 20
32.6334287004924
 30
0.0
 10
50.63308786856759
 20
32.63302634217563
 30
0.0
 10
50.62988554913293
 20
32.62911146474413
 30
0.0
 10
50.62988554913293
 20
32.61716358106439
 30
0.0
  0
SPLINE
  5
BD
330
1F
100
AcDbEntity
  8
0
  6
Continuous
 62
     7
370
    25
100
AcDbSpline
210
0.0
220
0.0
230
1.0
 70
     8
 71
     3
 72
    10
 73
     6
 74
     0
 42
0.000000001
 43
0.00000001
 40
0.0
 40
0.0
 40
0.0
 40
0.0
 40
0.5
 40
0.5
 40
1.0
 40
1.0
 40
1.0
 40
1.0
 10
50.68846419289714
 20
32.62754574972069
 30
0.0
 10
50.71134887590993
 20
32.62490707918585
 30
0.0
 10
50.73779431088781
 20
32.62231153702177
 30
0.0
 10
50.78815274341823
 20
32.61843978796104
 30
0.0
 10
50.81206574097079
 20
32.61716358106439
 30
0.0
 10
50.82988554913292
 20
32.61716358106439
 30
0.0
  0
LINE
  5
BE
330
1F
100
AcDbEntity
  8
0
  6
Continuous
 62
     7
370
    25
100
AcDbLine
 10
50.8298855409
 20
32.6171635548
 30
0.0
 11
50.8298855409
 21
30.0080535831
 31
0.0
  0
LINE
  5
BF
330
1F
100
AcDbEntity
  8
0
  6
Continuous
 62
     7
370
    25
100
AcDbLine
 10
50.629885415
 20
30.0080535831
 30
0.0
 11
50.8298855409
 21
30.0080535831
 31
0.0
  0
LINE
  5
C0
330
1F
100
AcDbEntity
  8
0
  6
Continuous
 62
     7
370
    25
100
AcDbLine
 10
63.4298855573
 20
36.9989440674
 30
0.0
 11
63.4298855573
 21
39.6080540391
 31
0.0
  0
LINE
  5
C1
330
1F
100
AcDbEntity
  8
0
  6
Continuous
 62
     7
370
    25
100
AcDbLine
 10
63.4298855573
 20
36.9989440674
 30
0.0
 11
63.4298855573
 21
34.8080538111
 31
0.0
  0
LINE
  5
C2
330
1F
100
AcDbEntity
  8
0
  6
Continuous
 62
     7
370
    25
100
AcDbLine
 10
63.4298855573
 20
34.8080538111
 30
0.0
 11
63.4298855573
 21
32.6171635548
 31
0.0
  0
LINE
  5
C3
330
1F
100
AcDbEntity
  8
0
  6
Continuous
 62
     7
370
    25
100
AcDbLine
 10
63.4298855573
 20
30.0080535831
 30
0.0
 11
63.4298855573
 21
32.6171635548
 31
0.0
  0
LINE
  5
C4
330
1F
100
AcDbEntity
  8
0
  6
Continuous
 62
     7
370
    25
100
AcDbLine
 10
50.8298855409
 20
30.0080535831
 30
0.0
 11
63.4298855573
 21
30.0080535831
 31
0.0
  0
LINE
  5
C5
330
1F
100
AcDbEntity
  8
0
  6
Continuous
 62
     7
370
    25
100
AcDbLine
 10
50.8298855409
 20
32.6171635548
 30
0.0
 11
50.8298855409
 21
34.8080538111
 31
0.0
  0
LINE
  5
C6
330
1F
100
AcDbEntity
  8
0
  6
Continuous
 62
     7
370
    25
100
AcDbLine
 10
50.8298855409
 20
34.8080538111
 30
0.0
 11
50.8298855409
 21
36.9989440674
 31
0.0
  0
LINE
  5
C7
330
1F
100
AcDbEntity
  8
0
  6
Continuous
 62
     7
370
    25
100
AcDbLine
 10
50.8298855409
 20
39.6080540391
 30
0.0
 11
50.8298855409
 21
36.9989440674
 31
0.0
  0
LINE
  5
C8
330
1F
100
AcDbEntity
  8
0
  6
Continuous
 62
     7
370
    25
100
AcDbLine
 10
51.129885497
 20
39.6080540391
 30
0.0
 11
50.8298855409
 21
39.6080540391
 31
0.0
  0
ARC
  5
C9
330
1F
100
AcDbEntity
  8
0
  6
Continuous
 62
     7
370
    25
100
AcDbCircle
 10
51.1298855491
 20
40.8080538111
 30
0.0
 40
1.200000000000003
100
AcDbArc
 50
270.0
 51
0.0
  0
LINE
  5
CA
330
1F
100
AcDbEntity
  8
0
  6
Continuous
 62
     7
370
    25
100
AcDbLine
 10
52.3298853211
 20
41.1080538193
 30
0.0
 11
52.3298853211
 21
40.8080538632
 31
0.0
  0
LINE
  5
CB
330
1F
100
AcDbEntity
  8
0
  6
Continuous
 62
     7
370
    25
100
AcDbLine
 10
54.9389952928
 20
41.1080538193
 30
0.0
 11
52.3298853211
 21
41.1080538193
 31
0.0
  0
LINE
  5
CC
330
1F
100
AcDbEntity
  8
0
  6
Continuous
 62
     7
370
    25
100
AcDbLine
 10
54.9389952928
 20
41.1080538193
 30
0.0
 11
57.1298855491
 21
41.1080538193
 31
0.0
  0
LINE
  5
CD
330
1F
100
AcDbEntity
  8
0
  6
Continuous
 62
     7
370
    25
100
AcDbLine
 10
57.1298855491
 20
41.1080538193
 30
0.0
 11
59.3207758054
 21
41.1080538193
 31
0.0
  0
LINE
  5
CE
330
1F
100
AcDbEntity
  8
0
  6
Continuous
 62
     7
370
    25
100
AcDbLine
 10
61.9298857771
 20
40.8080538632
 30
0.0
 11
61.9298857771
 21
41.1080538193
 31
0.0
  0
ARC
  5
CF
330
1F
100
AcDbEntity
  8
0
  6
Continuous
 62
     7
370
    25
100
AcDbCircle
 10
63.1298855491
 20
40.8080538111
 30
0.0
 40
1.200000000000003
100
AcDbArc
 50
180.0
 51
270.0
  0
LINE
  5
D0
330
1F
100
AcDbEntity
  8
0
  6
Continuous
 62
     7
370
    25
100
AcDbLine
 10
63.4298855573
 20
39.6080540391
 30
0.0
 11
63.1298856013
 21
39.6080540391
 31
0.0
  0
LINE
  5
D1
330
1F
100
AcDbEntity
  8
0
  6
Continuous
 62
     7
370
    25
100
AcDbLine
 10
58.3369829826
 20
32.5105692623
 30
0.0
 11
59.4328188006
 21
35.5744780987
 31
0.0
  0
SPLINE
  5
D2
330
1F
100
AcDbEntity
  8
0
  6
Continuous
 62
     7
370
    25
100
AcDbSpline
210
0.0
220
0.0
230
1.0
 70
     8
 71
     3
 72
    10
 73
     6
 74
     0
 42
0.000000001
 43
0.00000001
 40
0.0
 40
0.0
 40
0.0
 40
0.0
 40
0.5000000000000002
 40
0.5000000000000002
 40
1.0
 40
1.0
 40
1.0
 40
1.0
 10
57.77073303417071
 20
32.31374858569568
 30
0.0
 10
57.87069332683752
 20
32.25873932636782
 30
0.0
 10
57.99218164513365
 20
32.2488191147908
 30
0.0
 10
58.20670369878723
 20
32.32033999971429
 30
0.0
 10
58.2985048917918
 20
32.40298610460252
 30
0.0
 10
58.3369830175718
 20
32.5105692489163
 30
0.0
  0
LINE
  5
D3
330
1F
100
AcDbEntity
  8
0
  6
Continuous
 62
     7
370
    25
100
AcDbLine
 10
57.1437274764
 20
32.6587967007
 30
0.0
 11
57.7707330365
 21
32.3137486717
 31
0.0
  0
LINE
  5
D4
330
1F
100
AcDbEntity
  8
0
  6
Continuous
 62
     7
370
    25
100
AcDbLine
 10
58.1429767324
 20
30.7538944194
 30
0.0
 11
57.1437274764
 21
32.6587967007
 31
0.0
  0
SPLINE
  5
D5
330
1F
100
AcDbEntity
  8
0
  6
Continuous
 62
     7
370
    25
100
AcDbSpline
210
0.0
220
0.0
230
1.0
 70
     8
 71
     3
 72
    10
 73
     6
 74
     0
 42
0.000000001
 43
0.00000001
 40
0.0
 40
0.0
 40
0.0
 40
0.0
 40
0.5
 40
0.5
 40
1.0
 40
1.0
 40
1.0
 40
1.0
 10
58.56874330586935
 20
30.67727359808867
 30
0.0
 10
58.50614348014251
 20
30.62170994828869
 30
0.0
 10
58.41875858198804
 20
30.59786317868102
 30
0.0
 10
58.25600099005402
 20
30.62679343136127
 30
0.0
 10
58.18186284491712
 20
30.67976437913822
 30
0.0
 10
58.14297668170828
 20
30.7538943784468
 30
0.0
  0
SPLINE
  5
D6
330
1F
100
AcDbEntity
  8
0
  6
Continuous
 62
     7
370
    25
100
AcDbSpline
210
0.0
220
0.0
230
1.0
 70
     8
 71
     3
 72
    16
 73
    12
 74
     0
 42
0.000000001
 43
0.00000001
 40
0.0
 40
0.0
 40
0.0
 40
0.0
 40
0.5000000000000006
 40
0.5000000000000006
 40
0.6250000000000004
 40
0.6250000000000004
 40
0.7500000000000003
 40
0.7500000000000003
 40
0.8750000000000003
 40
0.8750000000000003
 40
1.0
 40
1.0
 40
1.0
 40
1.0
 10
61.69102779239648
 20
30.67727359808864
 30
0.0
 10
61.26228688423499
 20
31.05782433284567
 30
0.0
 10
60.69792545976596
 20
31.26215777021703
 30
0.0
 10
59.98809650057201
 20
31.26220987638247
 30
0.0
 10
59.84455729034625
 20
31.24943020788204
 30
0.0
 10
59.56591973934918
 20
31.19941711201694
 30
0.0
 10
59.4294124910517
 20
31.16228215178297
 30
0.0
 10
59.1622254441645
 20
31.0628736828798
 30
0.0
 10
59.03301242704452
 20
31.0008909707908
 30
0.0
 10
58.79043139142969
 20
30.85585417221762
 30
0.0
 10
58.67593930553162
 20
30.77242084356473
 30
0.0
 10
58.56874330586935
 20
30.67727359808867
 30
0.0
  0
SPLINE
  5
D7
330
1F
100
AcDbEntity
  8
0
  6
Continuous
 62
     7
370
    25
100
AcDbSpline
210
0.0
220
0.0
230
1.0
 70
     8
 71
     3
 72
    10
 73
     6
 74
     0
 42
0.000000001
 43
0.00000001
 40
0.0
 40
0.0
 40
0.0
 40
0.0
 40
0.5
 40
0.5
 40
1.0
 40
1.0
 40
1.0
 40
1.0
 10
62.11679441655775
 20
30.75389437844703
 30
0.0
 10
62.07791212935854
 20
30.67977176810557
 30
0.0
 10
62.00419801326166
 20
30.6269876094137
 30
0.0
 10
61.84134897612105
 20
30.59780541995428
 30
0.0
 10
61.75361733909154
 20
30.62171907196451
 30
0.0
 10
61.69102779239648
 20
30.67727359808864
 30
0.0
  0
LINE
  5
D8
330
1F
100
AcDbEntity
  8
0
  6
Continuous
 62
     7
370
    25
100
AcDbLine
 10
63.125291387
 20
32.6764259385
 30
0.0
 11
62.1167943016
 21
30.7538944194
 31
0.0
  0
LINE
  5
D9
330
1F
100
AcDbEntity
  8
0
  6
Continuous
 62
     7
370
    25
100
AcDbLine
 10
62.4948432804
 20
32.3161496213
 30
0.0
 11
63.125291387
 21
32.6764259385
 31
0.0
  0
SPLINE
  5
DA
330
1F
100
AcDbEntity
  8
0
  6
Continuous
 62
     7
370
    25
100
AcDbSpline
210
0.0
220
0.0
230
1.0
 70
     8
 71
     3
 72
    10
 73
     6
 74
     0
 42
0.000000001
 43
0.00000001
 40
0.0
 40
0.0
 40
0.0
 40
0.0
 40
0.5
 40
0.5
 40
1.0
 40
1.0
 40
1.0
 40
1.0
 10
61.92304263832366
 20
32.50985751699758
 30
0.0
 10
61.96195270403294
 20
32.40106668767348
 30
0.0
 10
62.0555237024386
 20
32.31798143534001
 30
0.0
 10
62.2716361841475
 20
32.2477815739146
 30
0.0
 10
62.39469054393165
 20
32.25891653078344
 30
0.0
 10
62.49484305688331
 20
32.31614971898164
 30
0.0
  0
LINE
  5
DB
330
1F
100
AcDbEntity
  8
0
  6
Continuous
 62
     7
370
    25
100
AcDbLine
 10
60.826952117
 20
35.5744780987
 30
0.0
 11
61.9230424188
 21
32.509857499
 31
0.0
  0
SPLINE
  5
DC
330
1F
100
AcDbEntity
  8
0
  6
Continuous
 62
     7
370
    25
100
AcDbSpline
210
0.0
220
0.0
230
1.0
 70
     8
 71
     3
 72
    18
 73
    14
 74
     0
 42
0.000000001
 43
0.00000001
 40
0.0
 40
0.0
 40
0.0
 40
0.0
 40
0.1250000000000005
 40
0.1250000000000005
 40
0.2500000000000009
 40
0.2500000000000009
 40
0.5000000000000011
 40
0.5000000000000011
 40
0.6250000000000009
 40
0.6250000000000009
 40
0.7500000000000006
 40
0.7500000000000006
 40
1.0
 40
1.0
 40
1.0
 40
1.0
 10
59.43281890393609
 20
35.57447810404915
 30
0.0
 10
59.46472918484343
 20
35.6397971779607
 30
0.0
 10
59.50463267578539
 20
35.70122199844845
 30
0.0
 10
59.60130391221089
 20
35.8082810141077
 30
0.0
 10
59.65649743576301
 20
35.85412475483002
 30
0.0
 10
59.84240935211011
 20
35.96851834228956
 30
0.0
 10
59.9856538926847
 20
36.00793475289898
 30
0.0
 10
60.20101711950499
 20
36.00811293301676
 30
0.0
 10
60.27408840432221
 20
35.99820456792968
 30
0.0
 10
60.41356013052508
 20
35.95901816012645
 30
0.0
 10
60.47935116778266
 20
35.93034919463153
 30
0.0
 10
60.6645980763114
 20
35.81644384735815
 30
0.0
 10
60.76312741375011
 20
35.70512488751556
 30
0.0
 10
60.82695219432968
 20
35.57447810404945
 30
0.0
  0
SPLINE
  5
DD
330
1F
100
AcDbEntity
  8
0
  6
Continuous
 62
     7
370
    25
100
AcDbSpline
210
0.0
220
0.0
230
1.0
 70
     8
 71
     3
 72
     8
 73
     4
 74
     0
 42
0.000000001
 43
0.00000001
 40
0.0
 40
0.0
 40
0.0
 40
0.0
 40
1.0
 40
1.0
 40
1.0
 40
1.0
 10
63.42988554913293
 20
36.99894404110572
 30
0.0
 10
63.48224542669204
 20
36.99548331822028
 30
0.0
 10
63.53428288088416
 20
36.99202259533484
 30
0.0
 10
63.57130690536871
 20
36.98856187244941
 30
0.0
  0
LINE
  5
DE
330
1F
100
AcDbEntity
  8
0
  6
Continuous
 62
     7
370
    25
100
AcDbLine
 10
63.4298855573
 20
39.6080540391
 30
0.0
 11
63.6298856832
 21
39.6080540391
 31
0.0
  0
LINE
  5
DF
330
1F
100
AcDbEntity
  8
0
  6
Continuous
 62
     7
370
    25
100
AcDbLine
 10
63.6298856832
 20
39.6080540391
 30
0.0
 11
63.6298856832
 21
36.9989440674
 31
0.0
  0
SPLINE
  5
E0
330
1F
100
AcDbEntity
  8
0
  6
Continuous
 62
     7
370
    25
100
AcDbSpline
210
0.0
220
0.0
230
1.0
 70
     8
 71
     3
 72
    13
 73
     9
 74
     0
 42
0.000000001
 43
0.00000001
 40
0.0
 40
0.0
 40
0.0
 40
0.0
 40
0.2842878077881049
 40
0.519827892959309
 40
0.7070197221587997
 40
0.8467888349864454
 40
0.9415879344586823
 40
0.9999999999999999
 40
0.9999999999999999
 40
0.9999999999999999
 40
0.9999999999999999
 10
63.57130690536871
 20
36.98856187244941
 30
0.0
 10
63.58135982152782
 20
36.98741584474595
 30
0.0
 10
63.59974184876197
 20
36.98532030230606
 30
0.0
 10
63.61640240355646
 20
36.98411384332235
 30
0.0
 10
63.62518796223122
 20
36.98444006873352
 30
0.0
 10
63.62878775838686
 20
36.9871749548216
 30
0.0
 10
63.62983983413821
 20
36.99022007921113
 30
0.0
 10
63.62987293091865
 20
36.99653606050439
 30
0.0
 10
63.62988554913293
 20
36.99894404110572
 30
0.0
  0
SPLINE
  5
E1
330
1F
100
AcDbEntity
  8
0
  6
Continuous
 62
     7
370
    25
100
AcDbSpline
210
0.0
220
0.0
230
1.0
 70
     8
 71
     3
 72
    14
 73
    10
 74
     0
 42
0.000000001
 43
0.00000001
 40
0.0
 40
0.0
 40
0.0
 40
0.0
 40
0.0484828720475278
 40
0.1220284832782636
 40
0.2276256188317521
 40
0.3675218964939739
 40
0.5426290638215259
 40
0.7533807556067993
 40
1.0
 40
1.0
 40
1.0
 40
1.0
 10
50.62988554913293
 20
36.99894404110572
 30
0.0
 10
50.62989258671778
 20
36.99685368092342
 30
0.0
 10
50.62991029989709
 20
36.99159236962361
 30
0.0
 10
50.63051951710844
 20
36.98827644477864
 30
0.0
 10
50.6325881477431
 20
36.98543585849752
 30
0.0
 10
50.63752233988998
 20
36.98425866625885
 30
0.0
 10
50.64720087657431
 20
36.98429470406906
 30
0.0
 10
50.66333969051502
 20
36.98571184274428
 30
0.0
 10
50.67966266985857
 20
36.98756346055139
 30
0.0
 10
50.68846419289714
 20
36.98856187244941
 30
0.0
  0
LINE
  5
E2
330
1F
100
AcDbEntity
  8
0
  6
Continuous
 62
     7
370
    25
100
AcDbLine
 10
50.629885415
 20
36.9989440674
 30
0.0
 11
50.629885415
 21
39.6080540391
 31
0.0
  0
LINE
  5
E3
330
1F
100
AcDbEntity
  8
0
  6
Continuous
 62
     7
370
    25
100
AcDbLine
 10
50.629885415
 20
39.6080540391
 30
0.0
 11
50.8298855409
 21
39.6080540391
 31
0.0
  0
SPLINE
  5
E4
330
1F
100
AcDbEntity
  8
0
  6
Continuous
 62
     7
370
    25
100
AcDbSpline
210
0.0
220
0.0
230
1.0
 70
     8
 71
     3
 72
     8
 73
     4
 74
     0
 42
0.000000001
 43
0.00000001
 40
0.0
 40
0.0
 40
0.0
 40
0.0
 40
1.0
 40
1.0
 40
1.0
 40
1.0
 10
50.68846419289714
 20
36.98856187244941
 30
0.0
 10
50.72548821738169
 20
36.99202259533484
 30
0.0
 10
50.77752567157381
 20
36.99548331822028
 30
0.0
 10
50.82988554913292
 20
36.99894404110571
 30
0.0
  0
LINE
  5
E5
330
1F
100
AcDbEntity
  8
0
  6
Continuous
 62
     7
370
    25
100
AcDbLine
 10
52.3298853211
 20
41.3080539452
 30
0.0
 11
54.9389952928
 21
41.3080539452
 31
0.0
  0
SPLINE
  5
E6
330
1F
100
AcDbEntity
  8
0
  6
Continuous
 62
     7
370
    25
100
AcDbSpline
210
0.0
220
0.0
230
1.0
 70
     8
 71
     3
 72
    12
 73
     8
 74
     0
 42
0.000000001
 43
0.00000001
 40
0.0
 40
0.0
 40
0.0
 40
0.0
 40
0.25
 40
0.25
 40
0.5
 40
0.5
 40
1.0
 40
1.0
 40
1.0
 40
1.0
 10
54.94937748776857
 20
41.24947516732083
 30
0.0
 10
54.95069682303599
 20
41.26091750882722
 30
0.0
 10
54.95220109058864
 20
41.27029984481568
 30
0.0
 10
54.95448289834079
 20
41.28557421858636
 30
0.0
 10
54.95526043854028
 20
41.29146625636859
 30
0.0
 10
54.9548580802235
 20
41.30485149165038
 30
0.0
 10
54.950943202792
 20
41.30805381108505
 30
0.0
 10
54.93899531911226
 20
41.30805381108505
 30
0.0
  0
SPLINE
  5
E7
330
1F
100
AcDbEntity
  8
0
  6
Continuous
 62
     7
370
    25
100
AcDbSpline
210
0.0
220
0.0
230
1.0
 70
     8
 71
     3
 72
    10
 73
     6
 74
     0
 42
0.000000001
 43
0.00000001
 40
0.0
 40
0.0
 40
0.0
 40
0.0
 40
0.5
 40
0.5
 40
1.0
 40
1.0
 40
1.0
 40
1.0
 10
54.94937748776857
 20
41.24947516732083
 30
0.0
 10
54.94673881723373
 20
41.22659048430805
 30
0.0
 10
54.94414327506965
 20
41.20014504933017
 30
0.0
 10
54.94027152600891
 20
41.14978661679974
 30
0.0
 10
54.93899531911226
 20
41.12587361924719
 30
0.0
 10
54.93899531911226
 20
41.10805381108505
 30
0.0
  0
LINE
  5
E8
330
1F
100
AcDbEntity
  8
0
  6
Continuous
 62
     7
370
    25
100
AcDbLine
 10
52.3298853211
 20
41.3080539452
 30
0.0
 11
52.3298853211
 21
41.1080538193
 31
0.0
  0
SPLINE
  5
E9
330
1F
100
AcDbEntity
  8
0
  6
Continuous
 62
     7
370
    25
100
AcDbSpline
210
0.0
220
0.0
230
1.0
 70
     8
 71
     3
 72
    10
 73
     6
 74
     0
 42
0.000000001
 43
0.00000001
 40
0.0
 40
0.0
 40
0.0
 40
0.0
 40
0.5
 40
0.5
 40
1.0
 40
1.0
 40
1.0
 40
1.0
 10
63.57130690536871
 20
32.62754574972069
 30
0.0
 10
63.54842222235593
 20
32.62490707918585
 30
0.0
 10
63.52197678737804
 20
32.62231153702177
 30
0.0
 10
63.47161835484761
 20
32.61843978796104
 30
0.0
 10
63.44770535729506
 20
32.61716358106439
 30
0.0
 10
63.42988554913293
 20
32.61716358106439
 30
0.0
  0
SPLINE
  5
EA
330
1F
100
AcDbEntity
  8
0
  6
Continuous
 62
     7
370
    25
100
AcDbSpline
210
0.0
220
0.0
230
1.0
 70
     8
 71
     3
 72
    12
 73
     8
 74
     0
 42
0.000000001
 43
0.00000001
 40
0.0
 40
0.0
 40
0.0
 40
0.0
 40
0.25
 40
0.25
 40
0.5
 40
0.5
 40
1.0
 40
1.0
 40
1.0
 40
1.0
 10
63.57130690536871
 20
32.62754574972069
 30
0.0
 10
63.5827492468751
 20
32.62886508498811
 30
0.0
 10
63.59213158286356
 20
32.63036935254077
 30
0.0
 10
63.60740595663424
 20
32.63265116029292
 30
0.0
 10
63.61329799441648
 20
32.63342870049241
 30
0.0
 10
63.62668322969827
 20
32.63302634217563
 30
0.0
 10
63.62988554913293
 20
32.62911146474413
 30
0.0
 10
63.62988554913293
 20
32.61716358106439
 30
0.0
  0
LINE
  5
EB
330
1F
100
AcDbEntity
  8
0
  6
Continuous
 62
     7
370
    25
100
AcDbLine
 10
63.6298856832
 20
32.6171635548
 30
0.0
 11
63.6298856832
 21
30.0080535831
 31
0.0
  0
LINE
  5
EC
330
1F
100
AcDbEntity
  8
0
  6
Continuous
 62
     7
370
    25
100
AcDbLine
 10
63.4298855573
 20
30.0080535831
 30
0.0
 11
63.6298856832
 21
30.0080535831
 31
0.0
  0
SPLINE
  5
ED
330
1F
100
AcDbEntity
  8
0
  6
Continuous
 62
     7
370
    25
100
AcDbSpline
210
0.0
220
0.0
230
1.0
 70
    24
 71
     3
 72
    10
 73
     6
 74
     0
 42
0.000000001
 43
0.00000001
 40
0.0
 40
0.0
 40
0.0
 40
0.0
 40
0.5
 40
0.5
 40
1.0
 40
1.0
 40
1.0
 40
1.0
 10
50.62860175682956
 20
34.80805381108505
 30
0.0
 10
50.66134958449911
 20
34.80805381108505
 30
0.0
 10
50.69648575903374
 20
34.80805381108505
 30
0.0
 10
50.76922471004102
 20
34.80805381108505
 30
0.0
 10
50.79564822892887
 20
34.80805381108505
 30
0.0
 10
50.82988554913292
 20
34.80805381108505
 30
0.0
  0
SPLINE
  5
EE
330
1F
100
AcDbEntity
  8
0
  6
Continuous
 62
     7
370
    25
100
AcDbSpline
210
0.0
220
0.0
230
1.0
 70
     8
 71
     3
 72
    12
 73
     8
 74
     0
 42
0.000000001
 43
0.00000001
 40
0.0
 40
0.0
 40
0.0
 40
0.0
 40
0.25
 40
0.25
 40
0.5
 40
0.5
 40
1.0
 40
1.0
 40
1.0
 40
1.0
 10
50.62860175682956
 20
34.80805381108505
 30
0.0
 10
50.63678871374694
 20
34.62686801503008
 30
0.0
 10
50.64280734552744
 20
34.4459220299419
 30
0.0
 10
50.65424418277095
 20
34.08286086757188
 30
0.0
 10
50.65966238823395
 20
33.90074569029004
 30
0.0
 10
50.68062070108112
 20
33.35017314896322
 30
0.0
 10
50.68836993789805
 20
32.99107101785412
 30
0.0
 10
50.68846419289714
 20
32.62754574972069
 30
0.0
  0
SPLINE
  5
EF
330
1F
100
AcDbEntity
  8
0
  6
Continuous
 62
     7
370
    25
100
AcDbSpline
210
0.0
220
0.0
230
1.0
 70
     8
 71
     3
 72
    12
 73
     8
 74
     0
 42
0.000000001
 43
0.00000001
 40
0.0
 40
0.0
 40
0.0
 40
0.0
 40
0.25
 40
0.25
 40
0.5
 40
0.5
 40
1.0
 40
1.0
 40
1.0
 40
1.0
 10
63.63116934143628
 20
34.80805381108505
 30
0.0
 10
63.62298238451891
 20
34.98923960714001
 30
0.0
 10
63.6169637527384
 20
35.17018559222819
 30
0.0
 10
63.6055269154949
 20
35.53324675459822
 30
0.0
 10
63.60010871003188
 20
35.71536193188006
 30
0.0
 10
63.57915039718473
 20
36.26593447320688
 30
0.0
 10
63.5714011603678
 20
36.62503660431598
 30
0.0
 10
63.57130690536871
 20
36.98856187244941
 30
0.0
  0
SPLINE
  5
F0
330
1F
100
AcDbEntity
  8
0
  6
Continuous
 62
     7
370
    25
100
AcDbSpline
210
0.0
220
0.0
230
1.0
 70
    24
 71
     3
 72
    10
 73
     6
 74
     0
 42
0.000000001
 43
0.00000001
 40
0.0
 40
0.0
 40
0.0
 40
0.0
 40
0.5
 40
0.5
 40
1.0
 40
1.0
 40
1.0
 40
1.0
 10
63.63116934143628
 20
34.80805381108505
 30
0.0
 10
63.59842151376674
 20
34.80805381108505
 30
0.0
 10
63.5632853392321
 20
34.80805381108505
 30
0.0
 10
63.49054638822482
 20
34.80805381108505
 30
0.0
 10
63.46412286933699
 20
34.80805381108505
 30
0.0
 10
63.42988554913293
 20
34.80805381108505
 30
0.0
  0
SPLINE
  5
F1
330
1F
100
AcDbEntity
  8
0
  6
Continuous
 62
     7
370
    25
100
AcDbSpline
210
0.0
220
0.0
230
1.0
 70
    24
 71
     3
 72
    10
 73
     6
 74
     0
 42
0.000000001
 43
0.00000001
 40
0.0
 40
0.0
 40
0.0
 40
0.0
 40
0.5
 40
0.5
 40
1.0
 40
1.0
 40
1.0
 40
1.0
 10
57.12988554913292
 20
41.30933760338841
 30
0.0
 10
57.12988554913292
 20
41.27658977571886
 30
0.0
 10
57.12988554913292
 20
41.24145360118423
 30
0.0
 10
57.12988554913292
 20
41.16871465017695
 30
0.0
 10
57.12988554913292
 20
41.14229113128911
 30
0.0
 10
57.12988554913292
 20
41.10805381108505
 30
0.0
  0
SPLINE
  5
F2
330
1F
100
AcDbEntity
  8
0
  6
Continuous
 62
     7
370
    25
100
AcDbSpline
210
0.0
220
0.0
230
1.0
 70
     8
 71
     3
 72
    12
 73
     8
 74
     0
 42
0.000000001
 43
0.00000001
 40
0.0
 40
0.0
 40
0.0
 40
0.0
 40
0.25
 40
0.25
 40
0.5
 40
0.5
 40
1.0
 40
1.0
 40
1.0
 40
1.0
 10
57.12988554913292
 20
41.30933760338841
 30
0.0
 10
56.94869975307796
 20
41.30115064647102
 30
0.0
 10
56.76775376798978
 20
41.29513201469052
 30
0.0
 10
56.40469260561976
 20
41.283695177447
 30
0.0
 10
56.22257742833791
 20
41.27827697198401
 30
0.0
 10
55.6720048870111
 20
41.25731865913685
 30
0.0
 10
55.31290275590199
 20
41.24956942231992
 30
0.0
 10
54.94937748776857
 20
41.24947516732083
 30
0.0
  0
SPLINE
  5
F3
330
1F
100
AcDbEntity
  8
0
  6
Continuous
 62
     7
370
    25
100
AcDbSpline
210
0.0
220
0.0
230
1.0
 70
     8
 71
     3
 72
    12
 73
     8
 74
     0
 42
0.000000001
 43
0.00000001
 40
0.0
 40
0.0
 40
0.0
 40
0.0
 40
0.25
 40
0.25
 40
0.5
 40
0.5
 40
1.0
 40
1.0
 40
1.0
 40
1.0
 10
50.62860175682956
 20
34.80805381108505
 30
0.0
 10
50.63678871374695
 20
34.98923960714001
 30
0.0
 10
50.64280734552746
 20
35.17018559222819
 30
0.0
 10
50.65424418277097
 20
35.53324675459822
 30
0.0
 10
50.65966238823397
 20
35.71536193188005
 30
0.0
 10
50.68062070108112
 20
36.26593447320687
 30
0.0
 10
50.68836993789805
 20
36.62503660431598
 30
0.0
 10
50.68846419289714
 20
36.98856187244941
 30
0.0
  0
SPLINE
  5
F4
330
1F
100
AcDbEntity
  8
0
  6
Continuous
 62
     7
370
    25
100
AcDbSpline
210
0.0
220
0.0
230
1.0
 70
     8
 71
     3
 72
    12
 73
     8
 74
     0
 42
0.000000001
 43
0.00000001
 40
0.0
 40
0.0
 40
0.0
 40
0.0
 40
0.25
 40
0.25
 40
0.5
 40
0.5
 40
1.0
 40
1.0
 40
1.0
 40
1.0
 10
57.12988554913292
 20
41.30933760338841
 30
0.0
 10
57.31107134518789
 20
41.30115064647103
 30
0.0
 10
57.49201733027608
 20
41.29513201469053
 30
0.0
 10
57.85507849264609
 20
41.28369517744702
 30
0.0
 10
58.03719366992793
 20
41.27827697198402
 30
0.0
 10
58.58776621125476
 20
41.25731865913686
 30
0.0
 10
58.94686834236385
 20
41.24956942231992
 30
0.0
 10
59.31039361049729
 20
41.24947516732083
 30
0.0
  0
SPLINE
  5
F5
330
1F
100
AcDbEntity
  8
0
  6
Continuous
 62
     7
370
    25
100
AcDbSpline
210
0.0
220
0.0
230
1.0
 70
     8
 71
     3
 72
    12
 73
     8
 74
     0
 42
0.000000001
 43
0.00000001
 40
0.0
 40
0.0
 40
0.0
 40
0.0
 40
0.25
 40
0.25
 40
0.5
 40
0.5
 40
1.0
 40
1.0
 40
1.0
 40
1.0
 10
63.63116934143628
 20
34.80805381108505
 30
0.0
 10
63.6229823845189
 20
34.62686801503008
 30
0.0
 10
63.6169637527384
 20
34.4459220299419
 30
0.0
 10
63.60552691549488
 20
34.08286086757188
 30
0.0
 10
63.60010871003188
 20
33.90074569029004
 30
0.0
 10
63.57915039718473
 20
33.35017314896323
 30
0.0
 10
63.5714011603678
 20
32.99107101785412
 30
0.0
 10
63.57130690536871
 20
32.62754574972069
 30
0.0
  0
LINE
  5
F6
330
1F
100
AcDbEntity
  8
0
  6
Continuous
 62
     7
370
    25
100
AcDbLine
 10
61.734725269
 20
32.4425040176
 30
0.0
 11
60.6423749257
 21
35.4966672035
 31
0.0
  0
SPLINE
  5
F7
330
1F
100
AcDbEntity
  8
0
  6
Continuous
 62
     7
370
    25
100
AcDbSpline
210
0.0
220
0.0
230
1.0
 70
    24
 71
     3
 72
    10
 73
     6
 74
     0
 42
0.000000001
 43
0.00000001
 40
0.0
 40
0.0
 40
0.0
 40
0.0
 40
0.5
 40
0.5
 40
1.0
 40
1.0
 40
1.0
 40
1.0
 10
60.64237481869201
 20
35.49666719381796
 30
0.0
 10
60.642374818692
 20
35.49666719381796
 30
0.0
 10
60.66240665779636
 20
35.50511186710983
 30
0.0
 10
60.73049539165346
 20
35.53381552778129
 30
0.0
 10
60.77891662939559
 20
35.55422810852635
 30
0.0
 10
60.82695219432969
 20
35.57447810404946
 30
0.0
  0
LWPOLYLINE
  5
F8
330
1F
100
AcDbEntity
  8
0
  6
Continuous
 62
     7
370
    25
100
AcDbPolyline
 90
        9
 70
   128
 43
0.0
 10
61.734725269
 20
32.4425040176
 10
61.7383434572
 20
32.4437980903
 10
61.7490597204
 20
32.4476309484
 10
61.766462414
 20
32.4538549772
 10
61.7898819171
 20
32.4622312924
 10
61.8184190378
 20
32.4724378893
 10
61.850976678
 20
32.4840824483
 10
61.8863036059
 20
32.4967174688
 10
61.9230424188
 20
32.509857499
  0
SPLINE
  5
F9
330
1F
100
AcDbEntity
  8
0
  6
Continuous
 62
     7
370
    25
100
AcDbSpline
210
0.0
220
0.0
230
1.0
 70
    24
 71
     3
 72
    10
 73
     6
 74
     0
 42
0.000000001
 43
0.00000001
 40
0.0
 40
0.0
 40
0.0
 40
0.0
 40
0.5
 40
0.5
 40
1.0
 40
1.0
 40
1.0
 40
1.0
 10
59.61739627957384
 20
35.49666719381784
 30
0.0
 10
59.61739627957384
 20
35.49666719381784
 30
0.0
 10
59.59736444046947
 20
35.50511186710968
 30
0.0
 10
59.52927570661235
 20
35.53381552778107
 30
0.0
 10
59.48085446887023
 20
35.55422810852611
 30
0.0
 10
59.4328189039361
 20
35.57447810404915
 30
0.0
  0
LINE
  5
FA
330
1F
100
AcDbEntity
  8
0
  6
Continuous
 62
     7
370
    25
100
AcDbLine
 10
59.6173962247
 20
35.4966672035
 30
0.0
 11
58.5253005982
 21
32.4432157809
 31
0.0
  0
LWPOLYLINE
  5
FB
330
1F
100
AcDbEntity
  8
0
  6
Continuous
 62
     7
370
    25
100
AcDbPolyline
 90
        9
 70
   128
 43
0.0
 10
58.3369829826
 20
32.5105692623
 10
58.373721912
 20
32.4974292321
 10
58.4090490727
 20
32.4847942116
 10
58.4416065965
 20
32.4731496526
 10
58.4701436008
 20
32.4629430557
 10
58.4935633367
 20
32.4545667404
 10
58.5109657975
 20
32.4483427117
 10
58.5216820607
 20
32.4445098536
 10
58.5253005982
 20
32.4432157809
  0
SPLINE
  5
FC
330
1F
100
AcDbEntity
  8
0
  6
Continuous
 62
     7
370
    25
100
AcDbSpline
210
0.0
220
0.0
230
1.0
 70
     8
 71
     3
 72
    14
 73
    10
 74
     0
 42
0.000000001
 43
0.00000001
 40
0.0
 40
0.0
 40
0.0
 40
0.0
 40
0.25
 40
0.25
 40
0.5
 40
0.5
 40
0.75
 40
0.75
 40
1.0
 40
1.0
 40
1.0
 40
1.0
 10
60.64237481869201
 20
35.49666719381796
 30
0.0
 10
60.59961619604463
 20
35.58419239114089
 30
0.0
 10
60.52644307696693
 20
35.66727563229436
 30
0.0
 10
60.34108557727358
 20
35.77989817532682
 30
0.0
 10
60.23117847512852
 20
35.80805381108498
 30
0.0
 10
60.02859262313699
 20
35.8080538110851
 30
0.0
 10
59.91868552099202
 20
35.77989817532701
 30
0.0
 10
59.73332802129867
 20
35.66727563229448
 30
0.0
 10
59.66015490222102
 20
35.58419239114086
 30
0.0
 10
59.61739627957383
 20
35.49666719381784
 30
0.0
  0
SPLINE
  5
FD
330
1F
100
AcDbEntity
  8
0
  6
Continuous
 62
     7
370
    25
100
AcDbSpline
210
0.0
220
0.0
230
1.0
 70
     8
 71
     3
 72
    12
 73
     8
 74
     0
 42
0.000000001
 43
0.00000001
 40
0.0
 40
0.0
 40
0.0
 40
0.0
 40
0.25
 40
0.25
 40
0.5
 40
0.5
 40
1.0
 40
1.0
 40
1.0
 40
1.0
 10
63.63116934143628
 20
34.80805381108505
 30
0.0
 10
63.63935629835368
 20
34.98923960714001
 30
0.0
 10
63.65110831814992
 20
35.1692542757243
 30
0.0
 10
63.676594285249
 20
35.52694525765605
 30
0.0
 10
63.69032823255184
 20
35.70462157100351
 30
0.0
 10
63.72678066834363
 20
36.2341488277474
 30
0.0
 10
63.72131139538467
 20
36.59045643745071
 30
0.0
 10
63.6884599453502
 20
36.93947729796506
 30
0.0
  0
SPLINE
  5
FE
330
1F
100
AcDbEntity
  8
0
  6
Continuous
 62
     7
370
    25
100
AcDbSpline
210
0.0
220
0.0
230
1.0
 70
     8
 71
     3
 72
    10
 73
     6
 74
     0
 42
0.000000001
 43
0.00000001
 40
0.0
 40
0.0
 40
0.0
 40
0.0
 40
0.5
 40
0.5
 40
1.0
 40
1.0
 40
1.0
 40
1.0
 10
63.6884599453502
 20
36.93947729796506
 30
0.0
 10
63.71134407684657
 20
36.93383974852603
 30
0.0
 10
63.73887522206166
 20
36.93084473039824
 30
0.0
 10
63.78931596934093
 20
36.92814368843496
 30
0.0
 10
63.81206444552544
 20
36.92827016271795
 30
0.0
 10
63.82988554913292
 20
36.92827016271795
 30
0.0
  0
SPLINE
  5
FF
330
1F
100
AcDbEntity
  8
0
  6
Continuous
 62
     7
370
    25
100
AcDbSpline
210
0.0
220
0.0
230
1.0
 70
    24
 71
     3
 72
    10
 73
     6
 74
     0
 42
0.000000001
 43
0.00000001
 40
0.0
 40
0.0
 40
0.0
 40
0.0
 40
0.5
 40
0.5
 40
1.0
 40
1.0
 40
1.0
 40
1.0
 10
63.63116934143628
 20
34.80805381108505
 30
0.0
 10
63.66391716910584
 20
34.80805381108505
 30
0.0
 10
63.69867419662462
 20
34.80805381108505
 30
0.0
 10
63.76995035452257
 20
34.80805381108505
 30
0.0
 10
63.79595266718348
 20
34.80805381108505
 30
0.0
 10
63.82988554913292
 20
34.80805381108505
 30
0.0
  0
SPLINE
  5
100
330
1F
100
AcDbEntity
  8
0
  6
Continuous
 62
     7
370
    25
100
AcDbSpline
210
0.0
220
0.0
230
1.0
 70
     8
 71
     3
 72
    10
 73
     6
 74
     0
 42
0.000000001
 43
0.00000001
 40
0.0
 40
0.0
 40
0.0
 40
0.0
 40
0.5
 40
0.5
 40
1.0
 40
1.0
 40
1.0
 40
1.0
 10
63.6884599453502
 20
32.67663032420504
 30
0.0
 10
63.71134407684657
 20
32.68226787364407
 30
0.0
 10
63.73887522206166
 20
32.68526289177186
 30
0.0
 10
63.78931596934093
 20
32.68796393373515
 30
0.0
 10
63.81206444552544
 20
32.68783745945215
 30
0.0
 10
63.82988554913292
 20
32.68783745945215
 30
0.0
  0
SPLINE
  5
101
330
1F
100
AcDbEntity
  8
0
  6
Continuous
 62
     7
370
    25
100
AcDbSpline
210
0.0
220
0.0
230
1.0
 70
     8
 71
     3
 72
    14
 73
    10
 74
     0
 42
0.000000001
 43
0.00000001
 40
0.0
 40
0.0
 40
0.0
 40
0.0
 40
0.25
 40
0.25
 40
0.5
 40
0.5
 40
0.75
 40
0.75
 40
1.0
 40
1.0
 40
1.0
 40
1.0
 10
63.63116934143628
 20
34.80805381108505
 30
0.0
 10
63.63935629835368
 20
34.62686801503008
 30
0.0
 10
63.65110831814991
 20
34.4468533464458
 30
0.0
 10
63.676594285249
 20
34.08916236451406
 30
0.0
 10
63.69032823255183
 20
33.91148605116661
 30
0.0
 10
63.71462985641302
 20
33.558467880004
 30
0.0
 10
63.71933794413859
 20
33.38113643478752
 30
0.0
 10
63.71446585111579
 20
33.02747287201664
 30
0.0
 10
63.70488567036743
 20
32.85114075446221
 30
0.0
 10
63.6884599453502
 20
32.67663032420504
 30
0.0
  0
SPLINE
  5
102
330
1F
100
AcDbEntity
  8
0
  6
Continuous
 62
     7
370
    25
100
AcDbSpline
210
0.0
220
0.0
230
1.0
 70
     8
 71
     3
 72
     8
 73
     4
 74
     0
 42
0.000000001
 43
0.00000001
 40
0.0
 40
0.0
 40
0.0
 40
0.0
 40
1.0
 40
1.0
 40
1.0
 40
1.0
 10
59.25010190076582
 20
41.50805381108505
 30
0.0
 10
59.24696873641618
 20
41.45569193118304
 30
0.0
 10
59.25144876201291
 20
41.40365253557601
 30
0.0
 10
59.26130903601292
 20
41.36662820730233
 30
0.0
  0
SPLINE
  5
103
330
1F
100
AcDbEntity
  8
0
  6
Continuous
 62
     7
370
    25
100
AcDbSpline
210
0.0
220
0.0
230
1.0
 70
     8
 71
     3
 72
    12
 73
     8
 74
     0
 42
0.000000001
 43
0.00000001
 40
0.0
 40
0.0
 40
0.0
 40
0.0
 40
0.25
 40
0.25
 40
0.5
 40
0.5
 40
1.0
 40
1.0
 40
1.0
 40
1.0
 10
57.12988554913292
 20
41.30933760338841
 30
0.0
 10
57.31107134518789
 20
41.31752456030581
 30
0.0
 10
57.49108601377218
 20
41.32927658010205
 30
0.0
 10
57.84877699570393
 20
41.35476254720113
 30
0.0
 10
58.02645330905138
 20
41.36849649450397
 30
0.0
 10
58.55598056579527
 20
41.40494893029575
 30
0.0
 10
58.91228817549859
 20
41.39947965733679
 30
0.0
 10
59.26130903601292
 20
41.36662820730233
 30
0.0
  0
SPLINE
  5
104
330
1F
100
AcDbEntity
  8
0
  6
Continuous
 62
     7
370
    25
100
AcDbSpline
210
0.0
220
0.0
230
1.0
 70
    24
 71
     3
 72
    10
 73
     6
 74
     0
 42
0.000000001
 43
0.00000001
 40
0.0
 40
0.0
 40
0.0
 40
0.0
 40
0.5
 40
0.5
 40
1.0
 40
1.0
 40
1.0
 40
1.0
 10
57.12988554913292
 20
41.30933760338841
 30
0.0
 10
57.12988554913292
 20
41.34208543105797
 30
0.0
 10
57.12988554913292
 20
41.37684245857675
 30
0.0
 10
57.12988554913292
 20
41.44811861647469
 30
0.0
 10
57.12988554913292
 20
41.47412092913561
 30
0.0
 10
57.12988554913292
 20
41.50805381108505
 30
0.0
  0
SPLINE
  5
105
330
1F
100
AcDbEntity
  8
0
  6
Continuous
 62
     7
370
    25
100
AcDbSpline
210
0.0
220
0.0
230
1.0
 70
     8
 71
     3
 72
    12
 73
     8
 74
     0
 42
0.000000001
 43
0.00000001
 40
0.0
 40
0.0
 40
0.0
 40
0.0
 40
0.25
 40
0.25
 40
0.5
 40
0.5
 40
1.0
 40
1.0
 40
1.0
 40
1.0
 10
57.12988554913292
 20
41.30933760338841
 30
0.0
 10
56.94869975307796
 20
41.3175245603058
 30
0.0
 10
56.76868508449368
 20
41.32927658010203
 30
0.0
 10
56.41099410256193
 20
41.35476254720111
 30
0.0
 10
56.23331778921447
 20
41.36849649450396
 30
0.0
 10
55.70379053247058
 20
41.40494893029575
 30
0.0
 10
55.34748292276727
 20
41.39947965733679
 30
0.0
 10
54.99846206225293
 20
41.36662820730233
 30
0.0
  0
SPLINE
  5
106
330
1F
100
AcDbEntity
  8
0
  6
Continuous
 62
     7
370
    25
100
AcDbSpline
210
0.0
220
0.0
230
1.0
 70
     8
 71
     3
 72
    10
 73
     6
 74
     0
 42
0.000000001
 43
0.00000001
 40
0.0
 40
0.0
 40
0.0
 40
0.0
 40
0.5
 40
0.5
 40
1.0
 40
1.0
 40
1.0
 40
1.0
 10
54.99846206225293
 20
41.36662820730233
 30
0.0
 10
55.00409961169195
 20
41.3895123387987
 30
0.0
 10
55.00709462981974
 20
41.41704348401379
 30
0.0
 10
55.00979567178302
 20
41.46748423129305
 30
0.0
 10
55.00966919750002
 20
41.49023270747757
 30
0.0
 10
55.00966919750002
 20
41.50805381108505
 30
0.0
  0
SPLINE
  5
107
330
1F
100
AcDbEntity
  8
0
  6
Continuous
 62
     7
370
    25
100
AcDbSpline
210
0.0
220
0.0
230
1.0
 70
     8
 71
     3
 72
    12
 73
     8
 74
     0
 42
0.000000001
 43
0.00000001
 40
0.0
 40
0.0
 40
0.0
 40
0.0
 40
0.25
 40
0.25
 40
0.5
 40
0.5
 40
1.0
 40
1.0
 40
1.0
 40
1.0
 10
50.62860175682956
 20
34.80805381108505
 30
0.0
 10
50.62041479991217
 20
34.62686801503008
 30
0.0
 10
50.60866278011592
 20
34.44685334644579
 30
0.0
 10
50.58317681301684
 20
34.08916236451405
 30
0.0
 10
50.56944286571401
 20
33.9114860511666
 30
0.0
 10
50.53299042992222
 20
33.3819587944227
 30
0.0
 10
50.53845970288118
 20
33.02565118471939
 30
0.0
 10
50.57131115291565
 20
32.67663032420505
 30
0.0
  0
SPLINE
  5
108
330
1F
100
AcDbEntity
  8
0
  6
Continuous
 62
     7
370
    25
100
AcDbSpline
210
0.0
220
0.0
230
1.0
 70
     8
 71
     3
 72
    10
 73
     6
 74
     0
 42
0.000000001
 43
0.00000001
 40
0.0
 40
0.0
 40
0.0
 40
0.0
 40
0.5
 40
0.5
 40
1.0
 40
1.0
 40
1.0
 40
1.0
 10
50.57131115291565
 20
32.67663032420505
 30
0.0
 10
50.54842702141928
 20
32.68226787364407
 30
0.0
 10
50.52089587620419
 20
32.68526289177186
 30
0.0
 10
50.47045512892493
 20
32.68796393373514
 30
0.0
 10
50.44770665274041
 20
32.68783745945215
 30
0.0
 10
50.42988554913293
 20
32.68783745945215
 30
0.0
  0
SPLINE
  5
109
330
1F
100
AcDbEntity
  8
0
  6
Continuous
 62
     7
370
    25
100
AcDbSpline
210
0.0
220
0.0
230
1.0
 70
    24
 71
     3
 72
    10
 73
     6
 74
     0
 42
0.000000001
 43
0.00000001
 40
0.0
 40
0.0
 40
0.0
 40
0.0
 40
0.5
 40
0.5
 40
1.0
 40
1.0
 40
1.0
 40
1.0
 10
50.62860175682956
 20
34.80805381108505
 30
0.0
 10
50.59585392916
 20
34.80805381108505
 30
0.0
 10
50.56109690164124
 20
34.80805381108505
 30
0.0
 10
50.48982074374328
 20
34.80805381108505
 30
0.0
 10
50.46381843108237
 20
34.80805381108505
 30
0.0
 10
50.42988554913293
 20
34.80805381108505
 30
0.0
  0
SPLINE
  5
10A
330
1F
100
AcDbEntity
  8
0
  6
Continuous
 62
     7
370
    25
100
AcDbSpline
210
0.0
220
0.0
230
1.0
 70
     8
 71
     3
 72
    10
 73
     6
 74
     0
 42
0.000000001
 43
0.00000001
 40
0.0
 40
0.0
 40
0.0
 40
0.0
 40
0.5
 40
0.5
 40
1.0
 40
1.0
 40
1.0
 40
1.0
 10
50.57131115291565
 20
36.93947729796506
 30
0.0
 10
50.54842702141928
 20
36.93383974852603
 30
0.0
 10
50.52089587620419
 20
36.93084473039824
 30
0.0
 10
50.47045512892493
 20
36.92814368843496
 30
0.0
 10
50.44770665274041
 20
36.92827016271795
 30
0.0
 10
50.42988554913293
 20
36.92827016271795
 30
0.0
  0
SPLINE
  5
10B
330
1F
100
AcDbEntity
  8
0
  6
Continuous
 62
     7
370
    25
100
AcDbSpline
210
0.0
220
0.0
230
1.0
 70
     8
 71
     3
 72
    14
 73
    10
 74
     0
 42
0.000000001
 43
0.00000001
 40
0.0
 40
0.0
 40
0.0
 40
0.0
 40
0.25
 40
0.25
 40
0.5
 40
0.5
 40
0.75
 40
0.75
 40
1.0
 40
1.0
 40
1.0
 40
1.0
 10
50.62860175682956
 20
34.80805381108505
 30
0.0
 10
50.62041479991218
 20
34.98923960714001
 30
0.0
 10
50.60866278011594
 20
35.1692542757243
 30
0.0
 10
50.58317681301686
 20
35.52694525765605
 30
0.0
 10
50.56944286571402
 20
35.7046215710035
 30
0.0
 10
50.54514124185282
 20
36.0576397421661
 30
0.0
 10
50.54043315412726
 20
36.23497118738257
 30
0.0
 10
50.54530524715006
 20
36.58863475015347
 30
0.0
 10
50.55488542789841
 20
36.76496686770788
 30
0.0
 10
50.57131115291565
 20
36.93947729796506
 30
0.0
  0
SPLINE
  5
10C
330
1F
100
AcDbEntity
  8
0
  6
Continuous
 62
     7
370
    25
100
AcDbSpline
210
0.0
220
0.0
230
1.0
 70
     8
 71
     3
 72
    13
 73
     9
 74
     0
 42
0.000000001
 43
0.00000001
 40
0.0
 40
0.0
 40
0.0
 40
0.0
 40
0.284282899174241
 40
0.5198370183905274
 40
0.7070414958140503
 40
0.8468107266085059
 40
0.9415978142010789
 40
1.0
 40
1.0
 40
1.0
 40
1.0
 10
59.26130903601292
 20
41.36662820730233
 30
0.0
 10
59.26428859173896
 20
41.35657586692268
 30
0.0
 10
59.26973697913493
 20
41.3381942524605
 30
0.0
 10
59.280667706523
 20
41.32153599574529
 30
0.0
 10
59.29117503348227
 20
41.31275126916297
 30
0.0
 10
59.30138381368683
 20
41.30915167005382
 30
0.0
 10
59.30993524786201
 20
41.30809952400026
 30
0.0
 10
59.31778364173427
 20
41.30806642848547
 30
0.0
 10
59.32077577915359
 20
41.30805381108505
 30
0.0
  0
SPLINE
  5
10D
330
1F
100
AcDbEntity
  8
0
  6
Continuous
 62
     7
370
    25
100
AcDbSpline
210
0.0
220
0.0
230
1.0
 70
     8
 71
     3
 72
    12
 73
     8
 74
     0
 42
0.000000001
 43
0.00000001
 40
0.0
 40
0.0
 40
0.0
 40
0.0
 40
0.25
 40
0.25
 40
0.5
 40
0.5
 40
1.0
 40
1.0
 40
1.0
 40
1.0
 10
63.6884599453502
 20
36.93947729796506
 30
0.0
 10
63.67701787960202
 20
36.94229607268457
 30
0.0
 10
63.6667880003473
 20
36.94582460656208
 30
0.0
 10
63.64984481067457
 20
36.95405540722519
 30
0.0
 10
63.64313150025659
 20
36.9587576740108
 30
0.0
 10
63.62990471603254
 20
36.97425639561794
 30
0.0
 10
63.62988554913293
 20
36.98617281737053
 30
0.0
 10
63.62988554913293
 20
36.99894404110572
 30
0.0
  0
SPLINE
  5
10E
330
1F
100
AcDbEntity
  8
0
  6
Continuous
 62
     7
370
    25
100
AcDbSpline
210
0.0
220
0.0
230
1.0
 70
     8
 71
     3
 72
    12
 73
     8
 74
     0
 42
0.000000001
 43
0.00000001
 40
0.0
 40
0.0
 40
0.0
 40
0.0
 40
0.25
 40
0.25
 40
0.5
 40
0.5
 40
1.0
 40
1.0
 40
1.0
 40
1.0
 10
50.57131115291565
 20
32.67663032420505
 30
0.0
 10
50.58275321866383
 20
32.67381154948553
 30
0.0
 10
50.59298309791856
 20
32.67028301560802
 30
0.0
 10
50.60992628759128
 20
32.66205221494491
 30
0.0
 10
50.61663959800926
 20
32.6573499481593
 30
0.0
 10
50.62986638223331
 20
32.64185122655214
 30
0.0
 10
50.62988554913293
 20
32.62993480479957
 30
0.0
 10
50.62988554913293
 20
32.61716358106439
 30
0.0
  0
SPLINE
  5
10F
330
1F
100
AcDbEntity
  8
0
  6
Continuous
 62
     7
370
    25
100
AcDbSpline
210
0.0
220
0.0
230
1.0
 70
     8
 71
     3
 72
    12
 73
     8
 74
     0
 42
0.000000001
 43
0.00000001
 40
0.0
 40
0.0
 40
0.0
 40
0.0
 40
0.25
 40
0.25
 40
0.5
 40
0.5
 40
1.0
 40
1.0
 40
1.0
 40
1.0
 10
50.57131115291565
 20
36.93947729796506
 30
0.0
 10
50.58275321866383
 20
36.94229607268456
 30
0.0
 10
50.59298309791856
 20
36.94582460656208
 30
0.0
 10
50.60992628759128
 20
36.95405540722519
 30
0.0
 10
50.61663959800926
 20
36.95875767401079
 30
0.0
 10
50.62986638223331
 20
36.97425639561794
 30
0.0
 10
50.62988554913293
 20
36.98617281737053
 30
0.0
 10
50.62988554913293
 20
36.99894404110571
 30
0.0
  0
SPLINE
  5
110
330
1F
100
AcDbEntity
  8
0
  6
Continuous
 62
     7
370
    25
100
AcDbSpline
210
0.0
220
0.0
230
1.0
 70
     8
 71
     3
 72
    12
 73
     8
 74
     0
 42
0.000000001
 43
0.00000001
 40
0.0
 40
0.0
 40
0.0
 40
0.0
 40
0.25
 40
0.25
 40
0.5
 40
0.5
 40
1.0
 40
1.0
 40
1.0
 40
1.0
 10
54.99846206225293
 20
41.36662820730233
 30
0.0
 10
54.99564328753341
 20
41.35518614155414
 30
0.0
 10
54.9921147536559
 20
41.34495626229941
 30
0.0
 10
54.98388395299278
 20
41.3280130726267
 30
0.0
 10
54.97918168620718
 20
41.32129976220872
 30
0.0
 10
54.96368296460003
 20
41.30807297798466
 30
0.0
 10
54.95176654284744
 20
41.30805381108505
 30
0.0
 10
54.93899531911226
 20
41.30805381108505
 30
0.0
  0
SPLINE
  5
111
330
1F
100
AcDbEntity
  8
0
  6
Continuous
 62
     7
370
    25
100
AcDbSpline
210
0.0
220
0.0
230
1.0
 70
     8
 71
     3
 72
    12
 73
     8
 74
     0
 42
0.000000001
 43
0.00000001
 40
0.0
 40
0.0
 40
0.0
 40
0.0
 40
0.25
 40
0.25
 40
0.5
 40
0.5
 40
1.0
 40
1.0
 40
1.0
 40
1.0
 10
63.6884599453502
 20
32.67663032420504
 30
0.0
 10
63.67701787960202
 20
32.67381154948553
 30
0.0
 10
63.66678800034728
 20
32.67028301560802
 30
0.0
 10
63.64984481067457
 20
32.66205221494491
 30
0.0
 10
63.64313150025659
 20
32.6573499481593
 30
0.0
 10
63.62990471603254
 20
32.64185122655215
 30
0.0
 10
63.62988554913293
 20
32.62993480479957
 30
0.0
 10
63.62988554913293
 20
32.61716358106439
 30
0.0
  0
LINE
  5
112
330
1F
100
AcDbEntity
  8
0
  6
Continuous
 62
     7
370
    25
100
AcDbLine
 10
60.3932263464
 20
32.4435214875
 30
0.0
 11
59.8665445712
 21
32.4435214875
 31
0.0
  0
SPLINE
  5
113
330
1F
100
AcDbEntity
  8
0
  6
Continuous
 62
     7
370
    25
100
AcDbSpline
210
0.0
220
0.0
230
1.0
 70
     8
 71
     3
 72
    10
 73
     6
 74
     0
 42
0.000000001
 43
0.00000001
 40
0.0
 40
0.0
 40
0.0
 40
0.0
 40
0.5
 40
0.5
 40
1.0
 40
1.0
 40
1.0
 40
1.0
 10
59.79729040413341
 20
32.53719114297708
 30
0.0
 10
59.78969868197562
 20
32.51692984610472
 30
0.0
 10
59.79343071596811
 20
32.49082450507721
 30
0.0
 10
59.8194356306418
 20
32.45565160015126
 30
0.0
 10
59.84397284789771
 20
32.44352141151198
 30
0.0
 10
59.86654466048174
 20
32.44352141151198
 30
0.0
  0
SPLINE
  5
114
330
1F
100
AcDbEntity
  8
0
  6
Continuous
 62
     7
370
    25
100
AcDbSpline
210
0.0
220
0.0
230
1.0
 70
     8
 71
     3
 72
    14
 73
    10
 74
     0
 42
0.000000001
 43
0.00000001
 40
0.0
 40
0.0
 40
0.0
 40
0.0
 40
0.25
 40
0.25
 40
0.5
 40
0.5
 40
0.75
 40
0.75
 40
1.0
 40
1.0
 40
1.0
 40
1.0
 10
60.1991398072806
 20
33.2400129595943
 30
0.0
 10
60.19439054464544
 20
33.25268811007285
 30
0.0
 10
60.18494923659761
 20
33.26520182606565
 30
0.0
 10
60.15954530297499
 20
33.28226602780052
 30
0.0
 10
60.14400612385292
 20
33.28653207823423
 30
0.0
 10
60.11576497791955
 20
33.28653207823423
 30
0.0
 10
60.10022579879749
 20
33.28226602780052
 30
0.0
 10
60.07482186517486
 20
33.26520182606565
 30
0.0
 10
60.06538055712704
 20
33.25268811007285
 30
0.0
 10
60.06063129449188
 20
33.2400129595943
 30
0.0
  0
LINE
  5
115
330
1F
100
AcDbEntity
  8
0
  6
Continuous
 62
     7
370
    25
100
AcDbLine
 10
60.199139886
 20
33.2400130006
 30
0.0
 11
60.4624806572
 21
32.5371911181
 31
0.0
  0
SPLINE
  5
116
330
1F
100
AcDbEntity
  8
0
  6
Continuous
 62
     7
370
    25
100
AcDbSpline
210
0.0
220
0.0
230
1.0
 70
     8
 71
     3
 72
    10
 73
     6
 74
     0
 42
0.000000001
 43
0.00000001
 40
0.0
 40
0.0
 40
0.0
 40
0.0
 40
0.5
 40
0.5
 40
1.0
 40
1.0
 40
1.0
 40
1.0
 10
60.39322643819654
 20
32.44352141151198
 30
0.0
 10
60.41579825074007
 20
32.44352141151198
 30
0.0
 10
60.44033546794664
 20
32.45565160009925
 30
0.0
 10
60.46634038264234
 20
32.49082450491598
 30
0.0
 10
60.47007241670197
 20
32.51692984586845
 30
0.0
 10
60.46248069463692
 20
32.53719114273141
 30
0.0
  0
LINE
  5
117
330
1F
100
AcDbEntity
  8
0
  6
Continuous
 62
     7
370
    25
100
AcDbLine
 10
59.7972904932
 20
32.5371911181
 30
0.0
 11
60.0606312644
 21
33.2400130006
 31
0.0
  0
SPLINE
  5
118
330
1F
100
AcDbEntity
  8
0
  6
Continuous
 62
     7
370
    25
100
AcDbSpline
210
0.0
220
0.0
230
1.0
 70
     8
 71
     3
 72
    14
 73
    10
 74
     0
 42
0.000000001
 43
0.00000001
 40
0.0
 40
0.0
 40
0.0
 40
0.0
 40
0.25
 40
0.25
 40
0.5
 40
0.5
 40
0.75
 40
0.75
 40
1.0
 40
1.0
 40
1.0
 40
1.0
 10
62.59407500193092
 20
32.14250346626633
 30
0.0
 10
62.52158778238713
 20
32.10107989579515
 30
0.0
 10
62.43553445927066
 20
32.07318321143515
 30
0.0
 10
62.25861824214439
 20
32.05720011603809
 30
0.0
 10
62.16859866126743
 20
32.06918989221817
 30
0.0
 10
62.00987608000968
 20
32.12460021291405
 30
0.0
 10
61.93302657125429
 20
32.170864717237
 30
0.0
 10
61.8087906426143
 20
32.29198053441143
 30
0.0
 10
61.76199642276595
 20
32.3662545199784
 30
0.0
 10
61.73472508818764
 20
32.44250396986925
 30
0.0
  0
LWPOLYLINE
  5
119
330
1F
100
AcDbEntity
  8
0
  6
Continuous
 62
     7
370
    25
100
AcDbPolyline
 90
        9
 70
   128
 43
0.0
 10
62.5940747694
 20
32.1425033631
 10
62.592168352
 20
32.145840059
 10
62.5865212776
 20
32.1557213916
 10
62.5773514755
 20
32.1717680795
 10
62.5650105201
 20
32.1933633545
 10
62.5499733858
 20
32.2196769426
 10
62.5328174927
 20
32.2496981258
 10
62.514202217
 20
32.2822729955
 10
62.4948432804
 20
32.3161496213
  0
LINE
  5
11A
330
1F
100
AcDbEntity
  8
0
  6
Continuous
 62
     7
370
    25
100
AcDbLine
 10
61.9396832906
 20
30.8468008312
 30
0.0
 11
62.6301933214
 21
32.1631437996
 31
0.0
  0
LWPOLYLINE
  5
11B
330
1F
100
AcDbEntity
  8
0
  6
Continuous
 62
     7
370
    25
100
AcDbPolyline
 90
       10
 70
   128
 43
0.0
 10
62.6301933214
 20
32.1631437996
 10
62.6377151482
 20
32.1709415307
 10
62.6600515232
 20
32.1940984009
 10
62.6965239779
 20
32.2319105631
 10
62.7460242384
 20
32.2832289981
 10
62.8070486844
 20
32.3464944391
 10
62.8777425871
 20
32.4197848691
 10
62.9559578508
 20
32.5008730302
 10
63.0393186719
 20
32.5872953413
 10
63.125291387
 20
32.6764259385
  0
LWPOLYLINE
  5
11C
330
1F
100
AcDbEntity
  8
0
  6
Continuous
 62
     7
370
    25
100
AcDbPolyline
 90
        9
 70
   128
 43
0.0
 10
61.9396832906
 20
30.8468008312
 10
61.9430863433
 20
30.8450159514
 10
61.9531651162
 20
30.8397288332
 10
61.9695317135
 20
30.831143436
 10
61.991557958
 20
30.8195894482
 10
62.018396812
 20
30.8055106448
 10
62.0490168356
 20
30.7894481244
 10
62.0822417684
 20
30.7720193537
 10
62.1167943016
 20
30.7538944194
  0
ARC
  5
11D
330
1F
100
AcDbEntity
  8
0
  6
Continuous
 62
     7
370
    25
100
AcDbCircle
 10
63.4298855491
 20
30.0080538111
 30
0.0
 40
0.2000000000000028
100
AcDbArc
 50
270.0
 51
0.0
  0
LINE
  5
11E
330
1F
100
AcDbEntity
  8
0
  6
Continuous
 62
     7
370
    25
100
AcDbLine
 10
63.4298855573
 20
30.0080535831
 30
0.0
 11
63.4298855573
 21
29.8080539228
 31
0.0
  0
LINE
  5
11F
330
1F
100
AcDbEntity
  8
0
  6
Continuous
 62
     7
370
    25
100
AcDbLine
 10
52.1298856609
 20
40.8080538632
 30
0.0
 11
52.1298856609
 21
41.1080538193
 31
0.0
  0
LINE
  5
120
330
1F
100
AcDbEntity
  8
0
  6
Continuous
 62
     7
370
    25
100
AcDbLine
 10
52.1298856609
 20
41.1080538193
 30
0.0
 11
52.3298853211
 21
41.1080538193
 31
0.0
  0
LINE
  5
121
330
1F
100
AcDbEntity
  8
0
  6
Continuous
 62
     7
370
    25
100
AcDbLine
 10
52.1298856609
 20
40.8080538632
 30
0.0
 11
52.3298853211
 21
40.8080538632
 31
0.0
  0
LINE
  5
122
330
1F
100
AcDbEntity
  8
0
  6
Continuous
 62
     7
370
    25
100
AcDbLine
 10
63.4298855573
 20
39.6080540391
 30
0.0
 11
63.4298855573
 21
39.8080536993
 31
0.0
  0
ARC
  5
123
330
1F
100
AcDbEntity
  8
0
  6
Continuous
 62
     7
370
    25
100
AcDbCircle
 10
63.4298855491
 20
39.6080538111
 30
0.0
 40
0.2000000000000028
100
AcDbArc
 50
0.0
 51
90.0
  0
ARC
  5
124
330
1F
100
AcDbEntity
  8
0
  6
Continuous
 62
     7
370
    25
100
AcDbCircle
 10
51.1298855491
 20
40.8080538111
 30
0.0
 40
1.0
100
AcDbArc
 50
270.0
 51
0.0
  0
LINE
  5
125
330
1F
100
AcDbEntity
  8
0
  6
Continuous
 62
     7
370
    25
100
AcDbLine
 10
51.129885497
 20
39.8080536993
 30
0.0
 11
51.129885497
 21
39.6080540391
 31
0.0
  0
LINE
  5
126
330
1F
100
AcDbEntity
  8
0
  6
Continuous
 62
     7
370
    25
100
AcDbLine
 10
61.9298857771
 20
40.8080538632
 30
0.0
 11
62.1298854374
 21
40.8080538632
 31
0.0
  0
ARC
  5
127
330
1F
100
AcDbEntity
  8
0
  6
Continuous
 62
     7
370
    25
100
AcDbCircle
 10
63.1298855491
 20
40.8080538111
 30
0.0
 40
1.0
100
AcDbArc
 50
180.0
 51
270.0
  0
LINE
  5
128
330
1F
100
AcDbEntity
  8
0
  6
Continuous
 62
     7
370
    25
100
AcDbLine
 10
63.1298856013
 20
39.6080540391
 30
0.0
 11
63.1298856013
 21
39.8080536993
 31
0.0
  0
ARC
  5
129
330
1F
100
AcDbEntity
  8
0
  6
Continuous
 62
     7
370
    25
100
AcDbCircle
 10
52.3298855491
 20
41.1080538111
 30
0.0
 40
0.2000000000000028
100
AcDbArc
 50
90.0
 51
180.0
  0
LINE
  5
12A
330
1F
100
AcDbEntity
  8
0
  6
Continuous
 62
     7
370
    25
100
AcDbLine
 10
63.1298856013
 20
39.8080536993
 30
0.0
 11
63.4298855573
 21
39.8080536993
 31
0.0
  0
LWPOLYLINE
  5
12B
330
1F
100
AcDbEntity
  8
0
  6
Continuous
 62
     7
370
    25
100
AcDbPolyline
 90
        9
 70
   128
 43
0.0
 10
57.1437274764
 20
32.6587967007
 10
57.2385121475
 20
32.5620995732
 10
57.3296542996
 20
32.4691184228
 10
57.4136513885
 20
32.3834267343
 10
57.4872754358
 20
32.3083171984
 10
57.5476971415
 20
32.2466762168
 10
57.5925945439
 20
32.2008730741
 10
57.6202421933
 20
32.1726675043
 10
57.6295776544
 20
32.1631437996
  0
LINE
  5
12C
330
1F
100
AcDbEntity
  8
0
  6
Continuous
 62
     7
370
    25
100
AcDbLine
 10
57.6295776544
 20
32.1631437996
 30
0.0
 11
58.3200878598
 21
30.8468008312
 31
0.0
  0
LWPOLYLINE
  5
12D
330
1F
100
AcDbEntity
  8
0
  6
Continuous
 62
     7
370
    25
100
AcDbPolyline
 90
        9
 70
   128
 43
0.0
 10
58.1429767324
 20
30.7538944194
 10
58.177529382
 20
30.7720193537
 10
58.2107541984
 20
30.7894481244
 10
58.2413743385
 20
30.8055106448
 10
58.2682131924
 20
30.8195894482
 10
58.2902392041
 20
30.831143436
 10
58.3066060342
 20
30.8397288332
 10
58.3166846907
 20
30.8450159514
 10
58.3200878598
 20
30.8468008312
  0
SPLINE
  5
12E
330
1F
100
AcDbEntity
  8
0
  6
Continuous
 62
     7
370
    25
100
AcDbSpline
210
0.0
220
0.0
230
1.0
 70
     8
 71
     3
 72
    10
 73
     6
 74
     0
 42
0.000000001
 43
0.00000001
 40
0.0
 40
0.0
 40
0.0
 40
0.0
 40
0.5
 40
0.5
 40
1.0
 40
1.0
 40
1.0
 40
1.0
 10
61.823792889292
 20
30.82685109989396
 30
0.0
 10
61.83985706481701
 20
30.81259252628235
 30
0.0
 10
61.86537707611987
 20
30.80545118956836
 30
0.0
 10
61.90857959278664
 20
30.81288828769056
 30
0.0
 10
61.92986663439837
 20
30.82808722549342
 30
0.0
 10
61.93968329545194
 20
30.84680105625137
 30
0.0
  0
LWPOLYLINE
  5
12F
330
1F
100
AcDbEntity
  8
0
  6
Continuous
 62
     7
370
    25
100
AcDbPolyline
 90
        9
 70
   128
 43
0.0
 10
61.823792769
 20
30.8268509703
 10
61.8212418765
 20
30.8239769088
 10
61.8136865221
 20
30.8154650861
 10
61.8014177442
 20
30.8016428622
 10
61.7849067919
 20
30.7830410907
 10
61.764787896
 20
30.7603745619
 10
61.7418349855
 20
30.734514528
 10
61.7169290915
 20
30.7064547101
 10
61.6910276138
 20
30.6772735799
  0
LWPOLYLINE
  5
130
330
1F
100
AcDbEntity
  8
0
  6
Continuous
 62
     7
370
    25
100
AcDbPolyline
 90
        9
 70
   128
 43
0.0
 10
57.7707330365
 20
32.3137486717
 10
57.75192131
 20
32.2795649422
 10
57.7338325809
 20
32.2466948433
 10
57.7171618486
 20
32.2164014811
 10
57.7025498631
 20
32.1898492416
 10
57.6905580954
 20
32.1680583889
 10
57.6816473756
 20
32.1518661818
 10
57.6761601976
 20
32.1418952094
 10
57.6743074478
 20
32.1385284783
  0
LINE
  5
131
330
1F
100
AcDbEntity
  8
0
  6
Continuous
 62
     7
370
    25
100
AcDbLine
 10
57.6743074478
 20
32.1385284783
 30
0.0
 11
57.6295776544
 21
32.1631437996
 31
0.0
  0
LINE
  5
132
330
1F
100
AcDbEntity
  8
0
  6
Continuous
 62
     7
370
    25
100
AcDbLine
 10
63.4298855573
 20
29.8080539228
 30
0.0
 11
50.8298855409
 21
29.8080539228
 31
0.0
  0
LINE
  5
133
330
1F
100
AcDbEntity
  8
0
  6
Continuous
 62
     7
370
    25
100
AcDbLine
 10
50.8298855409
 20
29.8080539228
 30
0.0
 11
50.8298855409
 21
30.0080535831
 31
0.0
  0
LINE
  5
134
330
1F
100
AcDbEntity
  8
0
  6
Continuous
 62
     7
370
    25
100
AcDbLine
 10
50.8298855409
 20
39.8080536993
 30
0.0
 11
50.8298855409
 21
39.6080540391
 31
0.0
  0
ARC
  5
135
330
1F
100
AcDbEntity
  8
0
  6
Continuous
 62
     7
370
    25
100
AcDbCircle
 10
50.8298855491
 20
39.6080538111
 30
0.0
 40
0.2000000000000028
100
AcDbArc
 50
90.0
 51
180.0
  0
LINE
  5
136
330
1F
100
AcDbEntity
  8
0
  6
Continuous
 62
     7
370
    25
100
AcDbLine
 10
62.1298854374
 20
41.3080539452
 30
0.0
 11
62.1298854374
 21
40.8080538632
 31
0.0
  0
LINE
  5
137
330
1F
100
AcDbEntity
  8
0
  6
Continuous
 62
     7
370
    25
100
AcDbLine
 10
52.0618232102
 20
43.308054273
 30
0.0
 11
62.1979478881
 21
43.308054273
 31
0.0
  0
SPLINE
  5
138
330
1F
100
AcDbEntity
  8
0
  6
Continuous
 62
     7
370
    25
100
AcDbSpline
210
0.0
220
0.0
230
1.0
 70
     8
 71
     3
 72
    14
 73
    10
 74
     0
 42
0.000000001
 43
0.00000001
 40
0.0
 40
0.0
 40
0.0
 40
0.0
 40
0.25
 40
0.25
 40
0.5000000000000001
 40
0.5000000000000001
 40
0.7500000000000002
 40
0.7500000000000002
 40
1.0
 40
1.0
 40
1.0
 40
1.0
 10
58.43597820897384
 20
30.826851099894
 30
0.0
 10
58.64258664114502
 20
31.01023689110963
 30
0.0
 10
58.89774885680688
 20
31.17225997239666
 30
0.0
 10
59.47872254812491
 20
31.39894626245043
 30
0.0
 10
59.80385118603817
 20
31.46219946163645
 30
0.0
 10
60.45591991222798
 20
31.46219946163644
 30
0.0
 10
60.78104855014121
 20
31.39894626245041
 30
0.0
 10
61.36202224145913
 20
31.17225997239663
 30
0.0
 10
61.61718445712091
 20
31.0102368911096
 30
0.0
 10
61.823792889292
 20
30.82685109989396
 30
0.0
  0
LWPOLYLINE
  5
139
330
1F
100
AcDbEntity
  8
0
  6
Continuous
 62
     7
370
    25
100
AcDbPolyline
 90
        9
 70
   128
 43
0.0
 10
58.435978265
 20
30.8268509703
 10
58.4385292739
 20
30.8239769088
 10
58.4460843955
 20
30.8154650861
 10
58.4583531734
 20
30.8016428622
 10
58.4748642421
 20
30.7830410907
 10
58.4949830216
 20
30.7603745619
 10
58.5179362813
 20
30.734514528
 10
58.5428421753
 20
30.7064547101
 10
58.5687433038
 20
30.6772735799
  0
SPLINE
  5
13A
330
1F
100
AcDbEntity
  8
0
  6
Continuous
 62
     7
370
    25
100
AcDbSpline
210
0.0
220
0.0
230
1.0
 70
     8
 71
     3
 72
    14
 73
    10
 74
     0
 42
0.000000001
 43
0.00000001
 40
0.0
 40
0.0
 40
0.0
 40
0.0
 40
0.25
 40
0.25
 40
0.5
 40
0.5
 40
0.75
 40
0.75
 40
1.0
 40
1.0
 40
1.0
 40
1.0
 10
58.52530056770781
 20
32.44321570178793
 30
0.0
 10
58.49826473149712
 20
32.36762469495646
 30
0.0
 10
58.45207267948322
 20
32.29401009946592
 30
0.0
 10
58.32954354241449
 20
32.17356941769575
 30
0.0
 10
58.25376955969185
 20
32.1272968359165
 30
0.0
 10
58.09689786525772
 20
32.0711309197175
 30
0.0
 10
58.00790178708366
 20
32.05840967558181
 30
0.0
 10
57.83248426820926
 20
32.07217434438584
 30
0.0
 10
57.74686898689558
 20
32.09859699957895
 30
0.0
 10
57.67430743495506
 20
32.1385284275634
 30
0.0
  0
LINE
  5
13B
330
1F
100
AcDbEntity
  8
0
  6
Continuous
 62
     7
370
    25
100
AcDbLine
 10
62.6301933214
 20
32.1631437996
 30
0.0
 11
62.5940747694
 21
32.1425033631
 31
0.0
  0
SPLINE
  5
13C
330
1F
100
AcDbEntity
  8
0
  6
Continuous
 62
     7
370
    25
100
AcDbSpline
210
0.0
220
0.0
230
1.0
 70
     8
 71
     3
 72
    10
 73
     6
 74
     0
 42
0.000000001
 43
0.00000001
 40
0.0
 40
0.0
 40
0.0
 40
0.0
 40
0.5
 40
0.5
 40
1.0
 40
1.0
 40
1.0
 40
1.0
 10
58.32008780281398
 20
30.84680105625138
 30
0.0
 10
58.32990446386756
 20
30.82808722549349
 30
0.0
 10
58.35119150547926
 20
30.81288828769067
 30
0.0
 10
58.39439402214602
 20
30.80545118956849
 30
0.0
 10
58.41991403344884
 20
30.81259252628244
 30
0.0
 10
58.43597820897384
 20
30.826851099894
 30
0.0
  0
LINE
  5
13D
330
1F
100
AcDbEntity
  8
0
  6
Continuous
 62
     7
370
    25
100
AcDbLine
 10
50.8298855409
 20
39.8080536993
 30
0.0
 11
51.129885497
 21
39.8080536993
 31
0.0
  0
ARC
  5
13E
330
1F
100
AcDbEntity
  8
0
  6
Continuous
 62
     7
370
    25
100
AcDbCircle
 10
50.8298855491
 20
30.0080538111
 30
0.0
 40
0.1999999999999993
100
AcDbArc
 50
180.0
 51
270.0
  0
ARC
  5
13F
330
1F
100
AcDbEntity
  8
0
  6
Continuous
 62
     7
370
    25
100
AcDbCircle
 10
63.8098539065
 20
29.9821808246
 30
0.0
 40
0.1818184836971028
100
AcDbArc
 50
83.6747277536
 51
171.8190444576
  0
SPLINE
  5
140
330
1F
100
AcDbEntity
  8
0
  6
Continuous
 62
     7
370
    25
100
AcDbSpline
210
0.0
220
0.0
230
1.0
 70
    24
 71
     3
 72
    12
 73
     8
 74
     0
 42
0.000000001
 43
0.00000001
 40
0.0
 40
0.0
 40
0.0
 40
0.0
 40
0.25
 40
0.25
 40
0.5
 40
0.5
 40
1.0
 40
1.0
 40
1.0
 40
1.0
 10
62.12988554913292
 20
41.50805381108505
 30
0.0
 10
62.12988554913292
 20
41.470872978533
 30
0.0
 10
62.12988554913293
 20
41.4366129032995
 30
0.0
 10
62.12988554913292
 20
41.38488723385316
 30
0.0
 10
62.12988554913292
 20
41.36553248697761
 30
0.0
 10
62.12988554913292
 20
41.3211231733334
 30
0.0
 10
62.12988554913292
 20
41.30805381108505
 30
0.0
 10
62.12988554913292
 20
41.30805381108505
 30
0.0
  0
ARC
  5
141
330
1F
100
AcDbEntity
  8
0
  6
Continuous
 62
     7
370
    25
100
AcDbCircle
 10
50.4499171918
 20
39.6339267976
 30
0.0
 40
0.1818184836971054
100
AcDbArc
 50
263.6747277536
 51
351.8190444576
  0
ARC
  5
142
330
1F
100
AcDbEntity
  8
0
  6
Continuous
 62
     7
370
    25
100
AcDbCircle
 10
52.3040125626
 20
41.4880221684
 30
0.0
 40
0.1818184836971013
100
AcDbArc
 50
278.1809555424
 51
6.3252722464
  0
ARC
  5
143
330
1F
100
AcDbEntity
  8
0
  6
Continuous
 62
     7
370
    25
100
AcDbCircle
 10
50.4499171918
 20
29.9821808246
 30
0.0
 40
0.1818184836971019
100
AcDbArc
 50
8.1809555424
 51
96.3252722464
  0
ARC
  5
144
330
1F
100
AcDbEntity
  8
0
  6
Continuous
 62
     7
370
    25
100
AcDbCircle
 10
63.8098539065
 20
39.6339267976
 30
0.0
 40
0.1818184836971046
100
AcDbArc
 50
188.1809555424
 51
276.3252722464
  0
LINE
  5
145
330
1F
100
AcDbEntity
  8
0
  6
Continuous
 62
     7
370
    25
100
AcDbLine
 10
61.9121650368
 20
52.4531055139
 30
0.0
 11
52.3476060614
 21
52.4531055139
 31
0.0
  0
LINE
  5
146
330
1F
100
AcDbEntity
  8
0
  6
Continuous
 62
     7
370
    25
100
AcDbLine
 10
53.1298853591
 20
53.8080532001
 30
0.0
 11
61.1298857391
 21
53.8080532001
 31
0.0
  0
LINE
  5
147
330
1F
100
AcDbEntity
  8
0
  6
Continuous
 62
     7
370
    25
100
AcDbLine
 10
50.8298855409
 20
39.8403119193
 30
0.0
 11
50.8298855409
 21
39.8080536993
 31
0.0
  0
LINE
  5
148
330
1F
100
AcDbEntity
  8
0
  6
Continuous
 62
     7
370
    25
100
AcDbLine
 10
63.4298855573
 20
29.8080539228
 30
0.0
 11
63.4298855573
 21
29.7757957028
 31
0.0
  0
LINE
  5
149
330
1F
100
AcDbEntity
  8
0
  6
Continuous
 62
     7
370
    25
100
AcDbLine
 10
50.8298855409
 20
29.7757957028
 30
0.0
 11
50.8298855409
 21
29.8080539228
 31
0.0
  0
LINE
  5
14A
330
1F
100
AcDbEntity
  8
0
  6
Continuous
 62
     7
370
    25
100
AcDbLine
 10
63.4298855573
 20
39.8403119193
 30
0.0
 11
63.4298855573
 21
39.8080536993
 31
0.0
  0
LINE
  5
14B
330
1F
100
AcDbEntity
  8
0
  6
Continuous
 62
     7
370
    25
100
AcDbLine
 10
52.0976274409
 20
41.1080538193
 30
0.0
 11
52.1298856609
 21
41.1080538193
 31
0.0
  0
LINE
  5
14C
330
1F
100
AcDbEntity
  8
0
  6
Continuous
 62
     7
370
    25
100
AcDbLine
 10
52.0976274409
 20
40.8080538632
 30
0.0
 11
52.1298856609
 21
40.8080538632
 31
0.0
  0
ARC
  5
14D
330
1F
100
AcDbEntity
  8
0
  6
Continuous
 62
     7
370
    25
100
AcDbCircle
 10
51.7274430003
 20
40.2019597726
 30
0.0
 40
0.1490119422214818
100
AcDbArc
 50
317.3216122879
 51
15.7343760625
  0
ARC
  5
14E
330
1F
100
AcDbEntity
  8
0
  6
Continuous
 62
     7
370
    25
100
AcDbCircle
 10
51.7359795876
 20
40.21049636
 30
0.0
 40
0.1490119422214818
100
AcDbArc
 50
254.2656239375
 51
312.6783877121
  0
LINE
  5
14F
330
1F
100
AcDbEntity
  8
0
  6
Continuous
 62
     7
370
    25
100
AcDbLine
 10
51.129885497
 20
39.8403119193
 30
0.0
 11
51.129885497
 21
39.8080536993
 31
0.0
  0
LINE
  5
150
330
1F
100
AcDbEntity
  8
0
  6
Continuous
 62
     7
370
    25
100
AcDbLine
 10
63.1298856013
 20
39.8403119193
 30
0.0
 11
63.1298856013
 21
39.8080536993
 31
0.0
  0
SPLINE
  5
151
330
1F
100
AcDbEntity
  8
0
  6
Continuous
 62
     7
370
    25
100
AcDbSpline
210
0.0
220
0.0
230
1.0
 70
     8
 71
     3
 72
     8
 73
     4
 74
     0
 42
0.000000001
 43
0.00000001
 40
0.0
 40
0.0
 40
0.0
 40
0.0
 40
1.0
 40
1.0
 40
1.0
 40
1.0
 10
62.38506464763498
 20
40.14078937722708
 30
0.0
 10
62.42776383260335
 20
40.09312724535307
 30
0.0
 10
62.49661410460432
 20
40.06707706548769
 30
0.0
 10
62.56420012418369
 20
40.06706791597288
 30
0.0
  0
ARC
  5
152
330
1F
100
AcDbEntity
  8
0
  6
Continuous
 62
     7
370
    25
100
AcDbCircle
 10
51.6366835092
 20
40.301255851
 30
0.0
 40
0.2414780747458582
100
AcDbArc
 50
284.1145898145
 51
345.8854101855
  0
SPLINE
  5
153
330
1F
100
AcDbEntity
  8
0
  6
Continuous
 62
     8
370
    25
100
AcDbSpline
210
0.0
220
0.0
230
1.0
 70
     8
 71
     3
 72
    35
 73
    31
 74
     0
 42
0.000000001
 43
0.00000001
 40
0.0
 40
0.0
 40
0.0
 40
0.0
 40
0.0270826785169683
 40
0.0610677873154103
 40
0.1019499262805886
 40
0.1474827572619666
 40
0.1878705048728887
 40
0.2220916337304681
 40
0.2501493849895888
 40
0.2982132825416332
 40
0.3490009573001979
 40
0.4004397193406818
 40
0.450490972850623
 40
0.5005567832573058
 40
0.5396119432544856
 40
0.581264350206857
 40
0.6255051453076672
 40
0.6505550737879346
 40
0.6755964690955027
 40
0.7006288452006848
 40
0.725651828737397
 40
0.7506649122985005
 40
0.776259595074154
 40
0.8034915338926891
 40
0.8323624173008725
 40
0.8628743038644926
 40
0.8950296700209518
 40
0.9288313054883616
 40
0.964282392953492
 40
1.0
 40
1.0
 40
1.0
 40
1.0
 10
67.20286096859465
 20
34.80267620765583
 30
0.0
 10
67.20289127023536
 20
34.70882596299968
 30
0.0
 10
67.2029595963482
 20
34.49720631922737
 30
0.0
 10
67.20268940168815
 20
34.14467564172165
 30
0.0
 10
67.2022147038358
 20
33.73079810692862
 30
0.0
 10
67.20153300914369
 20
33.29983588700559
 30
0.0
 10
67.20100112800331
 20
32.89805593964505
 30
0.0
 10
67.20063977411695
 20
32.56078774240941
 30
0.0
 10
67.20041689730165
 20
32.20463995100287
 30
0.0
 10
67.20051384298657
 20
31.80467330206166
 30
0.0
 10
67.20102059610286
 20
31.34883445783396
 30
0.0
 10
67.20194683952529
 20
30.90839691354969
 30
0.0
 10
67.20288751435429
 20
30.49454963611247
 30
0.0
 10
67.2039667828325
 20
30.1386755716848
 30
0.0
 10
67.20463431314137
 20
29.82726314736678
 30
0.0
 10
67.20454014000498
 20
29.55156980870926
 30
0.0
 10
67.20397009308877
 20
29.32824977558351
 30
0.0
 10
67.20327379200022
 20
29.1536908963488
 30
0.0
 10
67.20269582881026
 20
29.02348093398935
 30
0.0
 10
67.20206441330228
 20
28.90239656893222
 30
0.0
 10
67.20140184689825
 20
28.79057236199769
 30
0.0
 10
67.20064883989953
 20
28.68750083949947
 30
0.0
 10
67.19999133682812
 20
28.59109218806334
 30
0.0
 10
67.19959204212682
 20
28.50026766202883
 30
0.0
 10
67.19938463953545
 20
28.41606231695545
 30
0.0
 10
67.19938689334617
 20
28.34084898912781
 30
0.0
 10
67.19959067704681
 20
28.27705630816352
 30
0.0
 10
67.20000480738105
 20
28.22787389391378
 30
0.0
 10
67.20060540005646
 20
28.19456219135428
 30
0.0
 10
67.20115723277308
 20
28.18953067196243
 30
0.0
 10
67.20143418241034
 20
28.18700549100024
 30
0.0
  0
SPLINE
  5
154
330
1F
100
AcDbEntity
  8
0
  6
Continuous
 62
     8
370
    25
100
AcDbSpline
210
0.0
220
0.0
230
1.0
 70
     8
 71
     3
 72
    23
 73
    19
 74
     0
 42
0.000000001
 43
0.00000001
 40
0.0
 40
0.0
 40
0.0
 40
0.0
 40
0.0002952497044782
 40
0.0835946758721776
 40
0.1668964874986206
 40
0.2502006133079355
 40
0.3335069529999742
 40
0.4168154210462318
 40
0.5001259654998234
 40
0.5834384679255435
 40
0.6667528058274739
 40
0.7501005477566175
 40
0.7917953388461134
 40
0.8334880226448966
 40
0.8572557940679232
 40
0.8929302270586298
 40
0.9405113439226354
 40
1.0
 40
1.0
 40
1.0
 40
1.0
 10
67.20176107663403
 20
41.43022018392069
 30
0.0
 10
67.20176107644626
 20
41.4302546370588
 30
0.0
 10
67.20176102328438
 20
41.44000942722416
 30
0.0
 10
67.20185106988343
 20
41.38774069775481
 30
0.0
 10
67.20190974634603
 20
41.22361681806903
 30
0.0
 10
67.20198724367462
 20
40.94243611779783
 30
0.0
 10
67.20205443697849
 20
40.55811838269651
 30
0.0
 10
67.20212167304227
 20
40.07479764690227
 30
0.0
 10
67.20218786664587
 20
39.5014096061288
 30
0.0
 10
67.20224142296917
 20
38.84755727504626
 30
0.0
 10
67.20232423063965
 20
38.1245326885897
 30
0.0
 10
67.20229694693825
 20
37.47416599450455
 30
0.0
 10
67.20218977953198
 20
36.93243072757908
 30
0.0
 10
67.20200930197004
 20
36.57632791392777
 30
0.0
 10
67.20200527081815
 20
36.23579376292695
 30
0.0
 10
67.2021718445083
 20
35.87162390300054
 30
0.0
 10
67.20245349897264
 20
35.38045734845652
 30
0.0
 10
67.20271543516024
 20
35.0090387662821
 30
0.0
 10
67.20286096859465
 20
34.80267620765583
 30
0.0
  0
LINE
  5
155
330
1F
100
AcDbEntity
  8
0
  6
Continuous
 62
     8
370
    25
100
AcDbLine
 10
68.1298854895
 20
42.0580536025
 30
0.0
 11
68.1298854895
 21
27.5580540197
 31
0.0
  0
SPLINE
  5
156
330
1F
100
AcDbEntity
  8
0
  6
Continuous
 62
     8
370
    25
100
AcDbSpline
210
0.0
220
0.0
230
1.0
 70
     8
 71
     3
 72
    35
 73
    31
 74
     0
 42
0.000000001
 43
0.00000001
 40
0.0
 40
0.0
 40
0.0
 40
0.0
 40
0.0270826785169683
 40
0.0610677873154103
 40
0.1019499262805886
 40
0.1474827572619666
 40
0.1878705048728887
 40
0.2220916337304681
 40
0.2501493849895888
 40
0.2982132825416332
 40
0.3490009573001979
 40
0.4004397193406818
 40
0.450490972850623
 40
0.5005567832573058
 40
0.5396119432544856
 40
0.581264350206857
 40
0.6255051453076672
 40
0.6505550737879346
 40
0.6755964690955027
 40
0.7006288452006848
 40
0.725651828737397
 40
0.7506649122985005
 40
0.776259595074154
 40
0.8034915338926891
 40
0.8323624173008725
 40
0.8628743038644926
 40
0.8950296700209518
 40
0.9288313054883616
 40
0.964282392953492
 40
1.0
 40
1.0
 40
1.0
 40
1.0
 10
47.05691012967119
 20
34.81343141451428
 30
0.0
 10
47.05687982803051
 20
34.90728165917042
 30
0.0
 10
47.05681150191764
 20
35.11890130294273
 30
0.0
 10
47.0570816965777
 20
35.47143198044844
 30
0.0
 10
47.05755639443004
 20
35.88530951524149
 30
0.0
 10
47.05823808912215
 20
36.31627173516451
 30
0.0
 10
47.05876997026255
 20
36.71805168252505
 30
0.0
 10
47.05913132414891
 20
37.05531987976068
 30
0.0
 10
47.05935420096419
 20
37.41146767116724
 30
0.0
 10
47.05925725527928
 20
37.81143432010844
 30
0.0
 10
47.05875050216298
 20
38.26727316433615
 30
0.0
 10
47.05782425874055
 20
38.7077107086204
 30
0.0
 10
47.05688358391156
 20
39.12155798605763
 30
0.0
 10
47.05580431543335
 20
39.4774320504853
 30
0.0
 10
47.05513678512447
 20
39.78884447480333
 30
0.0
 10
47.05523095826086
 20
40.06453781346084
 30
0.0
 10
47.05580100517707
 20
40.2878578465866
 30
0.0
 10
47.05649730626563
 20
40.46241672582129
 30
0.0
 10
47.05707526945559
 20
40.59262668818075
 30
0.0
 10
47.05770668496356
 20
40.71371105323788
 30
0.0
 10
47.05836925136759
 20
40.82553526017242
 30
0.0
 10
47.05912225836632
 20
40.92860678267063
 30
0.0
 10
47.05977976143772
 20
41.02501543410677
 30
0.0
 10
47.06017905613903
 20
41.11583996014127
 30
0.0
 10
47.0603864587304
 20
41.20004530521465
 30
0.0
 10
47.06038420491967
 20
41.27525863304229
 30
0.0
 10
47.06018042121904
 20
41.33905131400658
 30
0.0
 10
47.0597662908848
 20
41.38823372825631
 30
0.0
 10
47.05916569820939
 20
41.42154543081583
 30
0.0
 10
47.05861386549276
 20
41.42657695020767
 30
0.0
 10
47.05833691585551
 20
41.42910213116986
 30
0.0
  0
SPLINE
  5
157
330
1F
100
AcDbEntity
  8
0
  6
Continuous
 62
     8
370
    25
100
AcDbSpline
210
0.0
220
0.0
230
1.0
 70
     8
 71
     3
 72
    23
 73
    19
 74
     0
 42
0.000000001
 43
0.00000001
 40
0.0
 40
0.0
 40
0.0
 40
0.0
 40
0.0002952497044782
 40
0.0835946758721776
 40
0.1668964874986206
 40
0.2502006133079355
 40
0.3335069529999742
 40
0.4168154210462318
 40
0.5001259654998234
 40
0.5834384679255435
 40
0.6667528058274739
 40
0.7501005477566175
 40
0.7917953388461134
 40
0.8334880226448966
 40
0.8572557940679232
 40
0.8929302270586298
 40
0.9405113439226354
 40
1.0
 40
1.0
 40
1.0
 40
1.0
 10
47.05801002163182
 20
28.18588743824942
 30
0.0
 10
47.05801002181958
 20
28.1858529851113
 30
0.0
 10
47.05801007498147
 20
28.17609819494594
 30
0.0
 10
47.05792002838243
 20
28.22836692441529
 30
0.0
 10
47.05786135191981
 20
28.39249080410107
 30
0.0
 10
47.05778385459121
 20
28.67367150437228
 30
0.0
 10
47.05771666128736
 20
29.0579892394736
 30
0.0
 10
47.05764942522358
 20
29.54130997526783
 30
0.0
 10
47.05758323161997
 20
30.1146980160413
 30
0.0
 10
47.05752967529668
 20
30.76855034712384
 30
0.0
 10
47.0574468676262
 20
31.4915749335804
 30
0.0
 10
47.0574741513276
 20
32.14194162766555
 30
0.0
 10
47.05758131873387
 20
32.68367689459102
 30
0.0
 10
47.05776179629581
 20
33.03977970824233
 30
0.0
 10
47.0577658274477
 20
33.38031385924316
 30
0.0
 10
47.05759925375754
 20
33.74448371916957
 30
0.0
 10
47.0573175992932
 20
34.23565027371359
 30
0.0
 10
47.05705566310561
 20
34.607068855888
 30
0.0
 10
47.05691012967119
 20
34.81343141451428
 30
0.0
  0
LINE
  5
158
330
1F
100
AcDbEntity
  8
0
  6
Continuous
 62
     8
370
    25
100
AcDbLine
 10
46.1298856087
 20
42.0580536025
 30
0.0
 11
46.1298856087
 21
27.5580540197
 31
0.0
  0
SPLINE
  5
159
330
1F
100
AcDbEntity
  8
0
  6
Continuous
 62
     8
370
    25
100
AcDbSpline
210
0.0
220
0.0
230
1.0
 70
    24
 71
     3
 72
    20
 73
    16
 74
     0
 42
0.000000001
 43
0.00000001
 40
0.0
 40
0.0
 40
0.0
 40
0.0
 40
0.0833038291646626
 40
0.1666076749156882
 40
0.2499115064485127
 40
0.3332153246910356
 40
0.4165191778127426
 40
0.4998229767161654
 40
0.5831268337211676
 40
0.6664306774139157
 40
0.7497344819988483
 40
0.8330383297980234
 40
0.9163421651065389
 40
0.9996460002284524
 40
1.0
 40
1.0
 40
1.0
 40
1.0
 10
66.27583551633845
 20
34.8031877247565
 30
0.0
 10
66.27583551633845
 20
35.06499462183084
 30
0.0
 10
66.27583551633845
 20
35.58860846810707
 30
0.0
 10
66.27583551633845
 20
36.36069605227027
 30
0.0
 10
66.27583551633845
 20
37.10621110865596
 30
0.0
 10
66.27583551633845
 20
37.81240723371346
 30
0.0
 10
66.27583551633845
 20
38.46719246882954
 30
0.0
 10
66.27583551633845
 20
39.05938670763663
 30
0.0
 10
66.27583551633845
 20
39.57877403201422
 30
0.0
 10
66.27583551633845
 20
40.0167766840921
 30
0.0
 10
66.27583551633846
 20
40.36474837086033
 30
0.0
 10
66.2758355163384
 20
40.62103154415679
 30
0.0
 10
66.27583551633859
 20
40.76521057012541
 30
0.0
 10
66.27583551633815
 20
40.82495856982539
 30
0.0
 10
66.27583551633845
 20
40.80790854692474
 30
0.0
 10
66.27583551633845
 20
40.80783639941794
 30
0.0
  0
SPLINE
  5
15A
330
1F
100
AcDbEntity
  8
0
  6
Continuous
 62
     8
370
    25
100
AcDbSpline
210
0.0
220
0.0
230
1.0
 70
    24
 71
     3
 72
    19
 73
    15
 74
     0
 42
0.000000001
 43
0.00000001
 40
0.0
 40
0.0
 40
0.0
 40
0.0
 40
0.0828604653630955
 40
0.1662367987221346
 40
0.2496131178506003
 40
0.3329894236771999
 40
0.4163657644133341
 40
0.4997420508840053
 40
0.5831183955068138
 40
0.6664947268057843
 40
0.7498710189629091
 40
0.8332473543718799
 40
0.916623677279322
 40
1.0
 40
1.0
 40
1.0
 40
1.0
 10
66.27583551633845
 20
28.80836947728378
 30
0.0
 10
66.27583551633845
 20
28.81802454885904
 30
0.0
 10
66.27583551633845
 20
28.83739480200776
 30
0.0
 10
66.27583551633845
 20
28.9959144807491
 30
0.0
 10
66.27583551633845
 20
29.24672280612811
 30
0.0
 10
66.27583551633845
 20
29.59469238349974
 30
0.0
 10
66.27583551633845
 20
30.03132716732662
 30
0.0
 10
66.27583551633845
 20
30.54983683901708
 30
0.0
 10
66.27583551633845
 20
31.14116733670537
 30
0.0
 10
66.27583551633845
 20
31.79524943380122
 30
0.0
 10
66.27583551633845
 20
32.50087855761257
 30
0.0
 10
66.27583551633845
 20
33.24598614166452
 30
0.0
 10
66.27583551633845
 20
34.01781517179056
 30
0.0
 10
66.27583551633845
 20
34.54139687396333
 30
0.0
 10
66.27583551633845
 20
34.8031877247565
 30
0.0
  0
SPLINE
  5
15B
330
1F
100
AcDbEntity
  8
0
  6
Continuous
 62
     8
370
    25
100
AcDbSpline
210
0.0
220
0.0
230
1.0
 70
    24
 71
     3
 72
    20
 73
    16
 74
     0
 42
0.000000001
 43
0.00000001
 40
0.0
 40
0.0
 40
0.0
 40
0.0
 40
0.0833038291646626
 40
0.1666076749156882
 40
0.2499115064485127
 40
0.3332153246910356
 40
0.4165191778127426
 40
0.4998229767161654
 40
0.5831268337211676
 40
0.6664306774139157
 40
0.7497344819988483
 40
0.8330383297980234
 40
0.9163421651065389
 40
0.9996460002284524
 40
1.0
 40
1.0
 40
1.0
 40
1.0
 10
47.9839355819274
 20
34.8129198974136
 30
0.0
 10
47.9839355819274
 20
34.55111300033926
 30
0.0
 10
47.9839355819274
 20
34.02749915406303
 30
0.0
 10
47.9839355819274
 20
33.25541156989983
 30
0.0
 10
47.9839355819274
 20
32.50989651351414
 30
0.0
 10
47.9839355819274
 20
31.80370038845665
 30
0.0
 10
47.9839355819274
 20
31.14891515334056
 30
0.0
 10
47.9839355819274
 20
30.55672091453346
 30
0.0
 10
47.9839355819274
 20
30.03733359015589
 30
0.0
 10
47.9839355819274
 20
29.599330938078
 30
0.0
 10
47.98393558192738
 20
29.25135925130978
 30
0.0
 10
47.98393558192744
 20
28.99507607801332
 30
0.0
 10
47.98393558192726
 20
28.85089705204469
 30
0.0
 10
47.98393558192771
 20
28.79114905234471
 30
0.0
 10
47.9839355819274
 20
28.80819907524536
 30
0.0
 10
47.9839355819274
 20
28.80827122275216
 30
0.0
  0
SPLINE
  5
15C
330
1F
100
AcDbEntity
  8
0
  6
Continuous
 62
     8
370
    25
100
AcDbSpline
210
0.0
220
0.0
230
1.0
 70
    24
 71
     3
 72
    19
 73
    15
 74
     0
 42
0.000000001
 43
0.00000001
 40
0.0
 40
0.0
 40
0.0
 40
0.0
 40
0.0828604653630955
 40
0.1662367987221346
 40
0.2496131178506003
 40
0.3329894236771999
 40
0.4163657644133341
 40
0.4997420508840053
 40
0.5831183955068138
 40
0.6664947268057843
 40
0.7498710189629091
 40
0.8332473543718799
 40
0.916623677279322
 40
1.0
 40
1.0
 40
1.0
 40
1.0
 10
47.9839355819274
 20
40.80773814488632
 30
0.0
 10
47.9839355819274
 20
40.79808307331106
 30
0.0
 10
47.9839355819274
 20
40.77871282016234
 30
0.0
 10
47.9839355819274
 20
40.620193141421
 30
0.0
 10
47.9839355819274
 20
40.36938481604199
 30
0.0
 10
47.9839355819274
 20
40.02141523867035
 30
0.0
 10
47.9839355819274
 20
39.58478045484348
 30
0.0
 10
47.9839355819274
 20
39.06627078315302
 30
0.0
 10
47.9839355819274
 20
38.47494028546473
 30
0.0
 10
47.9839355819274
 20
37.82085818836888
 30
0.0
 10
47.9839355819274
 20
37.11522906455752
 30
0.0
 10
47.9839355819274
 20
36.37012148050557
 30
0.0
 10
47.9839355819274
 20
35.59829245037955
 30
0.0
 10
47.9839355819274
 20
35.07471074820678
 30
0.0
 10
47.9839355819274
 20
34.8129198974136
 30
0.0
  0
LWPOLYLINE
  5
15D
330
1F
100
AcDbEntity
  8
0
  6
Continuous
 62
     8
370
    25
100
AcDbPolyline
 90
        9
 70
   128
 43
0.0
 10
51.6955708288
 20
40.0670680115
 10
51.5080285393
 20
40.2485608952
 10
51.3456878387
 20
40.405664769
 10
51.2092765555
 20
40.537675553
 10
51.0994065687
 20
40.6440013917
 10
51.0165700823
 20
40.724165448
 10
50.961138694
 20
40.777808697
 10
50.9333606013
 20
40.8046908574
 10
50.9298853711
 20
40.8080538632
  0
LWPOLYLINE
  5
15E
330
1F
100
AcDbEntity
  8
0
  6
Continuous
 62
     8
370
    25
100
AcDbPolyline
 90
        9
 70
   128
 43
0.0
 10
63.3298857272
 20
40.8080538632
 10
63.326410497
 20
40.8046908574
 10
63.2986324042
 20
40.777808697
 10
63.2432010159
 20
40.724165448
 10
63.1603645295
 20
40.6440013917
 10
63.0504945428
 20
40.537675553
 10
62.9140832596
 20
40.405664769
 10
62.751742559
 20
40.2485608952
 10
62.5642002695
 20
40.0670680115
  0
LWPOLYLINE
  5
15F
330
1F
100
AcDbEntity
  8
0
  6
Continuous
 62
     8
370
    25
100
AcDbPolyline
 90
        9
 70
   128
 43
0.0
 10
51.129885497
 20
41.0080539892
 10
51.1332485028
 20
41.004578759
 10
51.1601306633
 20
40.9768006662
 10
51.2137739122
 20
40.9213692779
 10
51.2939379685
 20
40.8385327915
 10
51.4002638072
 20
40.7286628047
 10
51.5322745912
 20
40.5922515215
 10
51.689378465
 20
40.4299108209
 10
51.8708713487
 20
40.2423685314
  0
LWPOLYLINE
  5
160
330
1F
100
AcDbEntity
  8
0
  6
Continuous
 62
     8
370
    25
100
AcDbPolyline
 90
        9
 70
   128
 43
0.0
 10
62.3412770354
 20
40.1931583779
 10
62.5314014167
 20
40.3896199437
 10
62.6965221152
 20
40.5602452243
 10
62.8358754464
 20
40.7042435268
 10
62.948815538
 20
40.8209484899
 10
63.0348203838
 20
40.9098199466
 10
63.0934913777
 20
40.9704462523
 10
63.1245565735
 20
41.0025475444
 10
63.1298856013
 20
41.0080539892
  0
LINE
  5
161
330
1F
100
AcDbEntity
  8
0
  6
Continuous
 62
     7
370
    18
100
AcDbLine
 10
61.4290799195
 20
53.2898339603
 30
0.0
 11
61.6941355491
 21
44.8080538111
 31
0.0
  0
LINE
  5
162
330
1F
100
AcDbEntity
  8
0
  6
Continuous
 62
     7
370
    18
100
AcDbLine
 10
52.8306911788
 20
53.2898339603
 30
0.0
 11
52.5656355491
 21
44.8080538111
 31
0.0
  0
LINE
  5
163
330
1F
100
AcDbEntity
  8
0
  6
Continuous
 62
     7
370
    18
100
AcDbLine
 10
52.1086980491
 20
44.8080538111
 30
0.0
 11
62.1510730491
 21
44.8080538111
 31
0.0
  0
LINE
  5
164
330
1F
100
AcDbEntity
  8
0
  6
CENTERX2
 62
     7
370
    18
100
AcDbLine
 10
57.1298855491
 20
52.4531057516
 30
0.0
 11
57.1298855491
 21
27.4303857338
 31
0.0
  0
LINE
  5
165
330
1F
100
AcDbEntity
  8
0
  6
CENTERX2
 62
     7
370
    18
100
AcDbLine
 10
57.1298855491
 20
52.4531057516
 30
0.0
 11
57.1298855491
 21
54.8080538111
 31
0.0
  0
LINE
  5
166
330
1F
100
AcDbEntity
  8
0
  6
CENTERX2
 62
     7
370
    18
100
AcDbLine
 10
34.6298855491
 20
34.8080538111
 30
0.0
 11
79.6298855491
 21
34.8080538111
 31
0.0
  0
LINE
  5
167
330
1F
100
AcDbEntity
  8
0
  6
Continuous
 62
     7
370
    25
100
AcDbLine
 10
96.8409444757
 20
42.3761160942
 30
0.0
 11
96.8409444757
 21
41.5080536054
 31
0.0
  0
LINE
  5
168
330
1F
100
AcDbEntity
  8
0
  6
Continuous
 62
     7
370
    25
100
AcDbLine
 10
108.84094458
 20
41.5080536054
 30
0.0
 11
108.84094458
 21
42.3761160942
 31
0.0
  0
LINE
  5
169
330
1F
100
AcDbEntity
  8
0
  6
Continuous
 62
     7
370
    25
100
AcDbLine
 10
108.84094458
 20
42.3761160942
 30
0.0
 11
107.9090068669
 21
43.308054273
 31
0.0
  0
LINE
  5
16A
330
1F
100
AcDbEntity
  8
0
  6
Continuous
 62
     7
370
    25
100
AcDbLine
 10
97.7728821889
 20
43.308054273
 30
0.0
 11
96.8409444757
 21
42.3761160942
 31
0.0
  0
LINE
  5
16B
330
1F
100
AcDbEntity
  8
0
  6
Continuous
 62
     7
370
    25
100
AcDbLine
 10
107.9090068669
 20
43.308054273
 30
0.0
 11
107.6232240156
 21
52.4531055139
 31
0.0
  0
LINE
  5
16C
330
1F
100
AcDbEntity
  8
0
  6
Continuous
 62
     7
370
    25
100
AcDbLine
 10
98.0586650402
 20
52.4531055139
 30
0.0
 11
97.7728821889
 21
43.308054273
 31
0.0
  0
LINE
  5
16D
330
1F
100
AcDbEntity
  8
0
  6
Continuous
 62
     7
370
    25
100
AcDbLine
 10
107.6232240156
 20
52.4531055139
 30
0.0
 11
106.8409447179
 21
53.8080532001
 31
0.0
  0
LINE
  5
16E
330
1F
100
AcDbEntity
  8
0
  6
Continuous
 62
     7
370
    25
100
AcDbLine
 10
98.8409443379
 20
53.8080532001
 30
0.0
 11
98.0586650402
 21
52.4531055139
 31
0.0
  0
CIRCLE
  5
16F
330
1F
100
AcDbEntity
  8
0
  6
Continuous
 62
     7
370
    25
100
AcDbCircle
 10
102.8409445279
 20
34.8080538111
 30
0.0
 40
4.618423633796667
  0
CIRCLE
  5
170
330
1F
100
AcDbEntity
  8
0
  6
Continuous
 62
     7
370
    25
100
AcDbCircle
 10
102.8409445279
 20
34.8080538111
 30
0.0
 40
5.0
  0
CIRCLE
  5
171
330
1F
100
AcDbEntity
  8
0
  6
Continuous
 62
     7
370
    25
100
AcDbCircle
 10
102.8409445279
 20
34.8080538111
 30
0.0
 40
6.749999999999986
  0
CIRCLE
  5
172
330
1F
100
AcDbEntity
  8
0
  6
Continuous
 62
     7
370
    25
100
AcDbCircle
 10
102.8409445279
 20
34.8080538111
 30
0.0
 40
7.249999999999996
  0
CIRCLE
  5
173
330
1F
100
AcDbEntity
  8
0
  6
Continuous
 62
     7
370
    25
100
AcDbCircle
 10
102.8409445279
 20
34.8080538111
 30
0.0
 40
4.342497099879523
  0
CIRCLE
  5
174
330
1F
100
AcDbEntity
  8
0
  6
Continuous
 62
     7
370
    25
100
AcDbCircle
 10
102.8409445279
 20
34.8080538111
 30
0.0
 40
4.282999999999987
  0
CIRCLE
  5
175
330
1F
100
AcDbEntity
  8
0
  6
Continuous
 62
     7
370
    25
100
AcDbCircle
 10
102.8409445279
 20
34.8080538111
 30
0.0
 40
1.999999999999986
  0
LINE
  5
176
330
1F
100
AcDbEntity
  8
0
  6
Continuous
 62
     7
370
    25
100
AcDbLine
 10
108.6409444541
 20
39.6080540391
 30
0.0
 11
108.84094458
 21
39.6080540391
 31
0.0
  0
LINE
  5
177
330
1F
100
AcDbEntity
  8
0
  6
Continuous
 62
     7
370
    25
100
AcDbLine
 10
108.84094458
 20
39.6080540391
 30
0.0
 11
108.84094458
 21
38.8777588392
 31
0.0
  0
LINE
  5
178
330
1F
100
AcDbEntity
  8
0
  6
Continuous
 62
     7
370
    25
100
AcDbLine
 10
96.8409444757
 20
30.0080535831
 30
0.0
 11
96.8409444757
 21
30.738348783
 31
0.0
  0
LINE
  5
179
330
1F
100
AcDbEntity
  8
0
  6
Continuous
 62
     7
370
    25
100
AcDbLine
 10
96.8409444757
 20
30.0080535831
 30
0.0
 11
97.0409446016
 21
30.0080535831
 31
0.0
  0
LINE
  5
17A
330
1F
100
AcDbEntity
  8
0
  6
Continuous
 62
     7
370
    25
100
AcDbLine
 10
108.84094458
 20
30.738348783
 30
0.0
 11
108.84094458
 21
30.0080535831
 31
0.0
  0
LINE
  5
17B
330
1F
100
AcDbEntity
  8
0
  6
Continuous
 62
     7
370
    25
100
AcDbLine
 10
108.84094458
 20
30.0080535831
 30
0.0
 11
108.6409444541
 21
30.0080535831
 31
0.0
  0
LINE
  5
17C
330
1F
100
AcDbEntity
  8
0
  6
Continuous
 62
     7
370
    25
100
AcDbLine
 10
96.8409444757
 20
38.8777588392
 30
0.0
 11
96.8409444757
 21
39.6080540391
 31
0.0
  0
LINE
  5
17D
330
1F
100
AcDbEntity
  8
0
  6
Continuous
 62
     7
370
    25
100
AcDbLine
 10
96.8409444757
 20
39.6080540391
 30
0.0
 11
97.0409446016
 21
39.6080540391
 31
0.0
  0
ARC
  5
17E
330
1F
100
AcDbEntity
  8
0
  6
Continuous
 62
     7
370
    25
100
AcDbCircle
 10
108.6409445279
 20
30.0080538111
 30
0.0
 40
0.2000000000000028
100
AcDbArc
 50
270.0
 51
0.0
  0
LINE
  5
17F
330
1F
100
AcDbEntity
  8
0
  6
Continuous
 62
     7
370
    25
100
AcDbLine
 10
108.6409444541
 20
30.0080535831
 30
0.0
 11
108.6409444541
 21
29.8080539228
 31
0.0
  0
LINE
  5
180
330
1F
100
AcDbEntity
  8
0
  6
Continuous
 62
     7
370
    25
100
AcDbLine
 10
97.0409446016
 20
29.8080539228
 30
0.0
 11
97.0409446016
 21
30.0080535831
 31
0.0
  0
ARC
  5
181
330
1F
100
AcDbEntity
  8
0
  6
Continuous
 62
     7
370
    25
100
AcDbCircle
 10
97.0409445279
 20
30.0080538111
 30
0.0
 40
0.2000000000000171
100
AcDbArc
 50
180.0
 51
270.0
  0
LINE
  5
182
330
1F
100
AcDbEntity
  8
0
  6
Continuous
 62
     7
370
    25
100
AcDbLine
 10
97.5909445987
 20
29.8080539228
 30
0.0
 11
97.0409446016
 21
29.8080539228
 31
0.0
  0
LINE
  5
183
330
1F
100
AcDbEntity
  8
0
  6
Continuous
 62
     7
370
    25
100
AcDbLine
 10
97.0409446016
 20
39.6080540391
 30
0.0
 11
97.0409446016
 21
39.8080536993
 31
0.0
  0
LINE
  5
184
330
1F
100
AcDbEntity
  8
0
  6
Continuous
 62
     7
370
    25
100
AcDbLine
 10
97.0409446016
 20
39.8080536993
 30
0.0
 11
97.5909445987
 21
39.8080536993
 31
0.0
  0
LINE
  5
185
330
1F
100
AcDbEntity
  8
0
  6
Continuous
 62
     7
370
    25
100
AcDbLine
 10
108.6409444541
 20
29.8080539228
 30
0.0
 11
108.0909444571
 21
29.8080539228
 31
0.0
  0
LINE
  5
186
330
1F
100
AcDbEntity
  8
0
  6
Continuous
 62
     7
370
    25
100
AcDbLine
 10
108.6409444541
 20
39.6080540391
 30
0.0
 11
108.6409444541
 21
39.8080536993
 31
0.0
  0
ARC
  5
187
330
1F
100
AcDbEntity
  8
0
  6
Continuous
 62
     7
370
    25
100
AcDbCircle
 10
108.6409445279
 20
39.6080538111
 30
0.0
 40
0.2000000000000028
100
AcDbArc
 50
0.0
 51
90.0
  0
ARC
  5
188
330
1F
100
AcDbEntity
  8
0
  6
Continuous
 62
     7
370
    25
100
AcDbCircle
 10
97.0409445279
 20
39.6080538111
 30
0.0
 40
0.2000000000000171
100
AcDbArc
 50
90.0
 51
180.0
  0
LINE
  5
189
330
1F
100
AcDbEntity
  8
0
  6
Continuous
 62
     7
370
    25
100
AcDbLine
 10
108.0909444571
 20
39.8080536993
 30
0.0
 11
108.6409444541
 21
39.8080536993
 31
0.0
  0
LINE
  5
18A
330
1F
100
AcDbEntity
  8
0
  6
Continuous
 62
     7
370
    25
100
AcDbLine
 10
108.84094458
 20
42.3761160942
 30
0.0
 11
96.8409444757
 21
42.3761160942
 31
0.0
  0
SPLINE
  5
18B
330
1F
100
AcDbEntity
  8
0
  6
Continuous
 62
     7
370
    25
100
AcDbSpline
210
0.0
220
0.0
230
1.0
 70
    24
 71
     3
 72
    14
 73
    10
 74
     0
 42
0.000000001
 43
0.00000001
 40
0.0
 40
0.0
 40
0.0
 40
0.0
 40
0.25
 40
0.25
 40
0.5
 40
0.5
 40
0.75
 40
0.75
 40
1.0
 40
1.0
 40
1.0
 40
1.0
 10
108.8409445278889
 20
41.50805381108505
 30
0.0
 10
108.8409445278889
 20
41.50805381108505
 30
0.0
 10
108.832979109255
 20
41.50805381108505
 30
0.0
 10
108.8010459325096
 20
41.50805381108505
 30
0.0
 10
108.7770779414656
 20
41.50805381108505
 30
0.0
 10
108.7129281283059
 20
41.50805381108505
 30
0.0
 10
108.6727458268034
 20
41.50805381108505
 30
0.0
 10
108.5758265304838
 20
41.50805381108505
 30
0.0
 10
108.5190887830538
 20
41.50805381108505
 30
0.0
 10
108.4538477536953
 20
41.50805381108505
 30
0.0
  0
LINE
  5
18C
330
1F
100
AcDbEntity
  8
0
  6
Continuous
 62
     7
370
    25
100
AcDbLine
 10
106.6386381716
 20
41.5080536054
 30
0.0
 11
108.4538478025
 21
41.5080536054
 31
0.0
  0
LINE
  5
18D
330
1F
100
AcDbEntity
  8
0
  6
Continuous
 62
     7
370
    25
100
AcDbLine
 10
99.5243197393
 20
41.2549522603
 30
0.0
 11
99.5243197393
 21
41.5080536054
 31
0.0
  0
LINE
  5
18E
330
1F
100
AcDbEntity
  8
0
  6
Continuous
 62
     7
370
    25
100
AcDbLine
 10
97.2280412533
 20
41.5080536054
 30
0.0
 11
99.5243197393
 21
41.5080536054
 31
0.0
  0
SPLINE
  5
18F
330
1F
100
AcDbEntity
  8
0
  6
Continuous
 62
     7
370
    25
100
AcDbSpline
210
0.0
220
0.0
230
1.0
 70
    24
 71
     3
 72
    14
 73
    10
 74
     0
 42
0.000000001
 43
0.00000001
 40
0.0
 40
0.0
 40
0.0
 40
0.0
 40
0.25
 40
0.25
 40
0.5
 40
0.5
 40
0.75
 40
0.75
 40
1.0
 40
1.0
 40
1.0
 40
1.0
 10
96.84094452788885
 20
41.50805381108505
 30
0.0
 10
96.84094452788885
 20
41.50805381108505
 30
0.0
 10
96.84890994652268
 20
41.50805381108505
 30
0.0
 10
96.88084312326808
 20
41.50805381108505
 30
0.0
 10
96.90481111431207
 20
41.50805381108505
 30
0.0
 10
96.96896092747181
 20
41.50805381108505
 30
0.0
 10
97.00914322897435
 20
41.50805381108505
 30
0.0
 10
97.10606252529392
 20
41.50805381108505
 30
0.0
 10
97.16280027272394
 20
41.50805381108505
 30
0.0
 10
97.2280413020824
 20
41.50805381108505
 30
0.0
  0
LINE
  5
190
330
1F
100
AcDbEntity
  8
0
  6
Continuous
 62
     7
370
    25
100
AcDbLine
 10
108.6409444541
 20
39.8080536993
 30
0.0
 11
108.6409444541
 21
40.8080538632
 31
0.0
  0
LINE
  5
191
330
1F
100
AcDbEntity
  8
0
  6
Continuous
 62
     7
370
    25
100
AcDbLine
 10
108.6409444541
 20
40.8080538632
 30
0.0
 11
108.84094458
 21
40.8080538632
 31
0.0
  0
LINE
  5
192
330
1F
100
AcDbEntity
  8
0
  6
Continuous
 62
     7
370
    25
100
AcDbLine
 10
108.84094458
 20
40.8080538632
 30
0.0
 11
108.84094458
 21
39.6080540391
 31
0.0
  0
LINE
  5
193
330
1F
100
AcDbEntity
  8
0
  6
Continuous
 62
     7
370
    25
100
AcDbLine
 10
96.8409444757
 20
40.8080538632
 30
0.0
 11
97.0409446016
 21
40.8080538632
 31
0.0
  0
LINE
  5
194
330
1F
100
AcDbEntity
  8
0
  6
Continuous
 62
     7
370
    25
100
AcDbLine
 10
97.0409446016
 20
40.8080538632
 30
0.0
 11
97.0409446016
 21
39.8080536993
 31
0.0
  0
LINE
  5
195
330
1F
100
AcDbEntity
  8
0
  6
Continuous
 62
     7
370
    25
100
AcDbLine
 10
96.8409444757
 20
39.6080540391
 30
0.0
 11
96.8409444757
 21
40.8080538632
 31
0.0
  0
LINE
  5
196
330
1F
100
AcDbEntity
  8
0
  6
Continuous
 62
     7
370
    25
100
AcDbLine
 10
102.8409445279
 20
43.308054273
 30
0.0
 11
107.9090068669
 21
43.308054273
 31
0.0
  0
LINE
  5
197
330
1F
100
AcDbEntity
  8
0
  6
Continuous
 62
     7
370
    25
100
AcDbLine
 10
97.7728821889
 20
43.308054273
 30
0.0
 11
102.8409445279
 21
43.308054273
 31
0.0
  0
LWPOLYLINE
  5
198
330
1F
100
AcDbEntity
  8
0
  6
Continuous
 62
     7
370
    25
100
AcDbPolyline
 90
        9
 70
   128
 43
0.0
 10
106.6386381716
 20
41.5080536054
 10
106.6410705533
 20
41.4690358462
 10
106.6482741006
 20
41.4315170506
 10
106.6599724435
 20
41.3969398374
 10
106.6757155203
 20
41.3666322725
 10
106.694898437
 20
41.3417599062
 10
106.7167840519
 20
41.3232778097
 10
106.7405313805
 20
41.3118965821
 10
106.7652277269
 20
41.3080539452
  0
LINE
  5
199
330
1F
100
AcDbEntity
  8
0
  6
Continuous
 62
     7
370
    25
100
AcDbLine
 10
107.6232240156
 20
52.4531055139
 30
0.0
 11
98.0586650402
 21
52.4531055139
 31
0.0
  0
SPLINE
  5
19A
330
1F
100
AcDbEntity
  8
0
  6
Continuous
 62
     7
370
    25
100
AcDbSpline
210
0.0
220
0.0
230
1.0
 70
     8
 71
     3
 72
     8
 73
     4
 74
     0
 42
0.000000001
 43
0.00000001
 40
0.0
 40
0.0
 40
0.0
 40
0.0
 40
1.0
 40
1.0
 40
1.0
 40
1.0
 10
97.2280413020824
 20
41.50805381108505
 30
0.0
 10
97.2268577815371
 20
41.45569193118304
 30
0.0
 10
97.20551005346954
 20
41.40365253557601
 30
0.0
 10
97.16966067218445
 20
41.36662820730233
 30
0.0
  0
SPLINE
  5
19B
330
1F
100
AcDbEntity
  8
0
  6
Continuous
 62
     7
370
    25
100
AcDbSpline
210
0.0
220
0.0
230
1.0
 70
     8
 71
     3
 72
    12
 73
     8
 74
     0
 42
0.000000001
 43
0.00000001
 40
0.0
 40
0.0
 40
0.0
 40
0.0
 40
0.25
 40
0.25
 40
0.5
 40
0.5
 40
1.0
 40
1.0
 40
1.0
 40
1.0
 10
99.52431973753346
 20
41.50805381108505
 30
0.0
 10
99.52431973753346
 20
41.470872978533
 30
0.0
 10
99.50463784901775
 20
41.4366129032995
 30
0.0
 10
99.45301742331866
 20
41.38488723385316
 30
0.0
 10
99.42101564663852
 20
41.36553248697761
 30
0.0
 10
99.32145391297534
 20
41.3211231733334
 30
0.0
 10
99.24823056291446
 20
41.30805381108505
 30
0.0
 10
99.17488397192419
 20
41.30805381108505
 30
0.0
  0
SPLINE
  5
19C
330
1F
100
AcDbEntity
  8
0
  6
Continuous
 62
     7
370
    25
100
AcDbSpline
210
0.0
220
0.0
230
1.0
 70
     8
 71
     3
 72
    13
 73
     9
 74
     0
 42
0.000000001
 43
0.00000001
 40
0.0
 40
0.0
 40
0.0
 40
0.0
 40
0.284282899174241
 40
0.5198370183905274
 40
0.7070414958140503
 40
0.8468107266085059
 40
0.9415978142010789
 40
1.0
 40
1.0
 40
1.0
 40
1.0
 10
97.16966067218445
 20
41.36662820730233
 30
0.0
 10
97.15853812778901
 20
41.35657586692268
 30
0.0
 10
97.13819954839421
 20
41.3381942524605
 30
0.0
 10
97.10566356791011
 20
41.32153599574529
 30
0.0
 10
97.0785559092687
 20
41.31275126916297
 30
0.0
 10
97.05909805056572
 20
41.30915167005382
 30
0.0
 10
97.04497133899952
 20
41.30809952400026
 30
0.0
 10
97.04205598376501
 20
41.30806642848547
 30
0.0
 10
97.04094452788887
 20
41.30805381108505
 30
0.0
  0
LINE
  5
19D
330
1F
100
AcDbEntity
  8
0
  6
Continuous
 62
     7
370
    25
100
AcDbLine
 10
97.0409446016
 20
41.3080539452
 30
0.0
 11
97.0409446016
 21
40.8080538632
 31
0.0
  0
ARC
  5
19E
330
1F
100
AcDbEntity
  8
0
  6
Continuous
 62
     7
370
    25
100
AcDbCircle
 10
97.0409445279
 20
41.1080538111
 30
0.0
 40
0.2000000000000171
100
AcDbArc
 50
90.0
 51
180.0
  0
LINE
  5
19F
330
1F
100
AcDbEntity
  8
0
  6
Continuous
 62
     7
370
    25
100
AcDbLine
 10
96.8409444757
 20
40.8080538632
 30
0.0
 11
96.8409444757
 21
41.1080538193
 31
0.0
  0
LINE
  5
1A0
330
1F
100
AcDbEntity
  8
0
  6
Continuous
 62
     7
370
    25
100
AcDbLine
 10
97.0409446016
 20
41.3080539452
 30
0.0
 11
99.1748840169
 21
41.3080539452
 31
0.0
  0
LINE
  5
1A1
330
1F
100
AcDbEntity
  8
0
  6
Continuous
 62
     7
370
    25
100
AcDbLine
 10
108.6409444541
 20
40.8080538632
 30
0.0
 11
108.6409444541
 21
41.1080538193
 31
0.0
  0
LINE
  5
1A2
330
1F
100
AcDbEntity
  8
0
  6
Continuous
 62
     7
370
    25
100
AcDbLine
 10
108.6409444541
 20
41.1080538193
 30
0.0
 11
108.84094458
 21
41.1080538193
 31
0.0
  0
LINE
  5
1A3
330
1F
100
AcDbEntity
  8
0
  6
Continuous
 62
     7
370
    25
100
AcDbLine
 10
108.84094458
 20
41.1080538193
 30
0.0
 11
108.84094458
 21
40.8080538632
 31
0.0
  0
ARC
  5
1A4
330
1F
100
AcDbEntity
  8
0
  6
Continuous
 62
     7
370
    25
100
AcDbCircle
 10
108.6409445279
 20
41.1080538111
 30
0.0
 40
0.2000000000000028
100
AcDbArc
 50
0.0
 51
90.0
  0
LINE
  5
1A5
330
1F
100
AcDbEntity
  8
0
  6
Continuous
 62
     7
370
    25
100
AcDbLine
 10
108.6409444541
 20
41.3080539452
 30
0.0
 11
108.6409444541
 21
41.1080538193
 31
0.0
  0
LINE
  5
1A6
330
1F
100
AcDbEntity
  8
0
  6
Continuous
 62
     7
370
    25
100
AcDbLine
 10
106.7652277269
 20
41.3080539452
 30
0.0
 11
108.6409444541
 21
41.3080539452
 31
0.0
  0
SPLINE
  5
1A7
330
1F
100
AcDbEntity
  8
0
  6
Continuous
 62
     7
370
    25
100
AcDbSpline
210
0.0
220
0.0
230
1.0
 70
     8
 71
     3
 72
    10
 73
     6
 74
     0
 42
0.000000001
 43
0.00000001
 40
0.0
 40
0.0
 40
0.0
 40
0.0
 40
0.5
 40
0.5
 40
1.0
 40
1.0
 40
1.0
 40
1.0
 10
108.5122283835933
 20
41.36662820730233
 30
0.0
 10
108.4898987428584
 20
41.3895123387987
 30
0.0
 10
108.474162690226
 20
41.41704348401379
 30
0.0
 10
108.4564028593277
 20
41.46748423129306
 30
0.0
 10
108.4538477536953
 20
41.49023270747757
 30
0.0
 10
108.4538477536953
 20
41.50805381108505
 30
0.0
  0
SPLINE
  5
1A8
330
1F
100
AcDbEntity
  8
0
  6
Continuous
 62
     7
370
    25
100
AcDbSpline
210
0.0
220
0.0
230
1.0
 70
     8
 71
     3
 72
    12
 73
     8
 74
     0
 42
0.000000001
 43
0.00000001
 40
0.0
 40
0.0
 40
0.0
 40
0.0
 40
0.25
 40
0.25
 40
0.5
 40
0.5
 40
1.0
 40
1.0
 40
1.0
 40
1.0
 10
108.5122283835933
 20
41.36662820730233
 30
0.0
 10
108.5233932039607
 20
41.35518614155414
 30
0.0
 10
108.5364758180904
 20
41.34495626229941
 30
0.0
 10
108.5637449929434
 20
41.3280130726267
 30
0.0
 10
108.5779315536665
 20
41.32129976220872
 30
0.0
 10
108.6180496943291
 20
41.30807297798466
 30
0.0
 10
108.6409445278889
 20
41.30805381108505
 30
0.0
 10
108.6409445278889
 20
41.30805381108505
 30
0.0
  0
LINE
  5
1A9
330
1F
100
AcDbEntity
  8
0
  6
Continuous
 62
     7
370
    25
100
AcDbLine
 10
102.8409445279
 20
53.8080532001
 30
0.0
 11
106.8409447179
 21
53.8080532001
 31
0.0
  0
LINE
  5
1AA
330
1F
100
AcDbEntity
  8
0
  6
Continuous
 62
     7
370
    25
100
AcDbLine
 10
98.8409443379
 20
53.8080532001
 30
0.0
 11
102.8409445279
 21
53.8080532001
 31
0.0
  0
SPLINE
  5
1AB
330
1F
100
AcDbEntity
  8
0
  6
Continuous
 62
     7
370
    25
100
AcDbSpline
210
0.0
220
0.0
230
1.0
 70
     8
 71
     3
 72
    12
 73
     8
 74
     0
 42
0.000000001
 43
0.00000001
 40
0.0
 40
0.0
 40
0.0
 40
0.0
 40
0.25
 40
0.25
 40
0.5
 40
0.5
 40
1.0
 40
1.0
 40
1.0
 40
1.0
 10
96.8417733055318
 20
41.30933760338841
 30
0.0
 10
96.84177970246178
 20
41.30115064647103
 30
0.0
 10
96.84868509407839
 20
41.29513201469053
 30
0.0
 10
96.86590427747252
 20
41.28369517744702
 30
0.0
 10
96.87621806925003
 20
41.27827697198402
 30
0.0
 10
96.8966876610054
 20
41.25731865913686
 30
0.0
 10
96.89961742664912
 20
41.24956942231992
 30
0.0
 10
96.89952317165002
 20
41.24947516732083
 30
0.0
  0
LINE
  5
1AC
330
1F
100
AcDbEntity
  8
0
  6
Continuous
 62
     7
370
    25
100
AcDbLine
 10
96.8406431929
 20
41.1545696566
 30
0.0
 11
96.840315833
 21
41.205088784
 31
0.0
  0
LINE
  5
1AD
330
1F
100
AcDbEntity
  8
0
  6
Continuous
 62
     7
370
    25
100
AcDbLine
 10
108.8412458629
 20
41.1545696566
 30
0.0
 11
108.8415732228
 21
41.205088784
 31
0.0
  0
SPLINE
  5
1AE
330
1F
100
AcDbEntity
  8
0
  6
Continuous
 62
     7
370
    25
100
AcDbSpline
210
0.0
220
0.0
230
1.0
 70
     8
 71
     3
 72
    12
 73
     8
 74
     0
 42
0.000000001
 43
0.00000001
 40
0.0
 40
0.0
 40
0.0
 40
0.0
 40
0.25
 40
0.25
 40
0.5
 40
0.5
 40
1.0
 40
1.0
 40
1.0
 40
1.0
 10
108.8401157502459
 20
41.30933760338841
 30
0.0
 10
108.840109353316
 20
41.30115064647102
 30
0.0
 10
108.8332039616993
 20
41.29513201469052
 30
0.0
 10
108.8159847783052
 20
41.28369517744702
 30
0.0
 10
108.8056709865277
 20
41.27827697198401
 30
0.0
 10
108.7852013947723
 20
41.25731865913685
 30
0.0
 10
108.7822716291286
 20
41.24956942231992
 30
0.0
 10
108.7823658841277
 20
41.24947516732083
 30
0.0
  0
SPLINE
  5
1AF
330
1F
100
AcDbEntity
  8
0
  6
Continuous
 62
     7
370
    25
100
AcDbSpline
210
0.0
220
0.0
230
1.0
 70
     8
 71
     3
 72
    12
 73
     8
 74
     0
 42
0.000000001
 43
0.00000001
 40
0.0
 40
0.0
 40
0.0
 40
0.0
 40
0.25
 40
0.25
 40
0.5
 40
0.5
 40
1.0
 40
1.0
 40
1.0
 40
1.0
 10
108.8401157502459
 20
41.30933760338841
 30
0.0
 10
108.8401221471759
 20
41.31752456030581
 30
0.0
 10
108.833230640769
 20
41.32927658010204
 30
0.0
 10
108.8040967408627
 20
41.35476254720112
 30
0.0
 10
108.7818543473634
 20
41.36849649450397
 30
0.0
 10
108.6897682155985
 20
41.40494893029575
 30
0.0
 10
108.6083029381207
 20
41.39947965733679
 30
0.0
 10
108.5122283835933
 20
41.36662820730233
 30
0.0
  0
SPLINE
  5
1B0
330
1F
100
AcDbEntity
  8
0
  6
Continuous
 62
     7
370
    25
100
AcDbSpline
210
0.0
220
0.0
230
1.0
 70
     8
 71
     3
 72
    12
 73
     8
 74
     0
 42
0.000000001
 43
0.00000001
 40
0.0
 40
0.0
 40
0.0
 40
0.0
 40
0.25
 40
0.25
 40
0.5
 40
0.5
 40
1.0
 40
1.0
 40
1.0
 40
1.0
 10
96.8417733055318
 20
41.30933760338841
 30
0.0
 10
96.84176690860183
 20
41.31752456030581
 30
0.0
 10
96.84865841500871
 20
41.32927658010205
 30
0.0
 10
96.87779231491496
 20
41.35476254720113
 30
0.0
 10
96.90003470841432
 20
41.36849649450397
 30
0.0
 10
96.99212084017924
 20
41.40494893029575
 30
0.0
 10
97.07358611765702
 20
41.39947965733679
 30
0.0
 10
97.16966067218445
 20
41.36662820730233
 30
0.0
  0
SPLINE
  5
1B1
330
1F
100
AcDbEntity
  8
0
  6
Continuous
 62
     7
370
    25
100
AcDbSpline
210
0.0
220
0.0
230
1.0
 70
     8
 71
     3
 72
    10
 73
     6
 74
     0
 42
0.000000001
 43
0.00000001
 40
0.0
 40
0.0
 40
0.0
 40
0.0
 40
0.5
 40
0.5
 40
1.0
 40
1.0
 40
1.0
 40
1.0
 10
108.8401157502459
 20
41.30933760338841
 30
0.0
 10
108.8401413379658
 20
41.34208543105797
 30
0.0
 10
108.8404263419014
 20
41.37684245857675
 30
0.0
 10
108.8374189063085
 20
41.44811861647469
 30
0.0
 10
108.8409445278889
 20
41.47412092913561
 30
0.0
 10
108.8409445278889
 20
41.50805381108505
 30
0.0
  0
SPLINE
  5
1B2
330
1F
100
AcDbEntity
  8
0
  6
Continuous
 62
     7
370
    25
100
AcDbSpline
210
0.0
220
0.0
230
1.0
 70
     8
 71
     3
 72
    10
 73
     6
 74
     0
 42
0.000000001
 43
0.00000001
 40
0.0
 40
0.0
 40
0.0
 40
0.0
 40
0.5
 40
0.5
 40
1.0
 40
1.0
 40
1.0
 40
1.0
 10
96.8417733055318
 20
41.30933760338841
 30
0.0
 10
96.8417477178119
 20
41.34208543105797
 30
0.0
 10
96.84146271387637
 20
41.37684245857675
 30
0.0
 10
96.84447014946919
 20
41.44811861647469
 30
0.0
 10
96.84094452788885
 20
41.47412092913561
 30
0.0
 10
96.84094452788885
 20
41.50805381108505
 30
0.0
  0
LINE
  5
1B3
330
1F
100
AcDbEntity
  8
0
  6
Continuous
 62
     8
370
    25
100
AcDbLine
 10
97.4074833647
 20
39.6080540391
 30
0.0
 11
97.0409446016
 21
39.6080540391
 31
0.0
  0
LINE
  5
1B4
330
1F
100
AcDbEntity
  8
0
  6
Continuous
 62
     8
370
    25
100
AcDbLine
 10
97.0409446016
 20
39.6080540391
 30
0.0
 11
97.0409446016
 21
39.1580538722
 31
0.0
  0
LINE
  5
1B5
330
1F
100
AcDbEntity
  8
0
  6
Continuous
 62
     8
370
    25
100
AcDbLine
 10
108.6409444541
 20
30.0080535831
 30
0.0
 11
108.6409444541
 21
30.45805375
 31
0.0
  0
LINE
  5
1B6
330
1F
100
AcDbEntity
  8
0
  6
Continuous
 62
     8
370
    25
100
AcDbLine
 10
108.2744056911
 20
30.0080535831
 30
0.0
 11
108.6409444541
 21
30.0080535831
 31
0.0
  0
LINE
  5
1B7
330
1F
100
AcDbEntity
  8
0
  6
Continuous
 62
     8
370
    25
100
AcDbLine
 10
108.6409444541
 20
39.1580538722
 30
0.0
 11
108.6409444541
 21
39.6080540391
 31
0.0
  0
LINE
  5
1B8
330
1F
100
AcDbEntity
  8
0
  6
Continuous
 62
     8
370
    25
100
AcDbLine
 10
97.0409446016
 20
30.45805375
 30
0.0
 11
97.0409446016
 21
30.0080535831
 31
0.0
  0
LINE
  5
1B9
330
1F
100
AcDbEntity
  8
0
  6
Continuous
 62
     8
370
    25
100
AcDbLine
 10
108.6409444541
 20
39.6080540391
 30
0.0
 11
108.2744056911
 21
39.6080540391
 31
0.0
  0
LINE
  5
1BA
330
1F
100
AcDbEntity
  8
0
  6
Continuous
 62
     8
370
    25
100
AcDbLine
 10
97.0409446016
 20
30.0080535831
 30
0.0
 11
97.4074833647
 21
30.0080535831
 31
0.0
  0
SPLINE
  5
1BB
330
1F
100
AcDbEntity
  8
0
  6
Continuous
 62
     8
370
    25
100
AcDbSpline
210
0.0
220
0.0
230
1.0
 70
     8
 71
     3
 72
    11
 73
     7
 74
     0
 42
0.000000001
 43
0.00000001
 40
0.0
 40
0.0
 40
0.0
 40
0.0
 40
0.0453014372140291
 40
0.2532314554485064
 40
0.6023379143208298
 40
1.0
 40
1.0
 40
1.0
 40
1.0
 10
106.1452169523185
 20
41.24085948709828
 30
0.0
 10
106.1492464392557
 20
41.25018843805008
 30
0.0
 10
106.1717709529261
 20
41.30233653693202
 30
0.0
 10
106.266351569008
 20
41.3907171400956
 30
0.0
 10
106.4302654380305
 20
41.48681383422214
 30
0.0
 10
106.5662336643846
 20
41.50067329640947
 30
0.0
 10
106.6386381716078
 20
41.50805360544903
 30
0.0
  0
LINE
  5
1BC
330
1F
100
AcDbEntity
  8
0
  6
Continuous
 62
     8
370
    25
100
AcDbLine
 10
97.0409446016
 20
40.8080538632
 30
0.0
 11
98.7712394998
 21
40.8080538632
 31
0.0
  0
LINE
  5
1BD
330
1F
100
AcDbEntity
  8
0
  6
Continuous
 62
     8
370
    25
100
AcDbLine
 10
106.910649556
 20
40.8080538632
 30
0.0
 11
108.6409444541
 21
40.8080538632
 31
0.0
  0
SPLINE
  5
1BE
330
1F
100
AcDbEntity
  8
0
  6
Continuous
 62
     8
370
    25
100
AcDbSpline
210
0.0
220
0.0
230
1.0
 70
     8
 71
     3
 72
    11
 73
     7
 74
     0
 42
0.000000001
 43
0.00000001
 40
0.0
 40
0.0
 40
0.0
 40
0.0
 40
0.0175825660330429
 40
0.2095915918425508
 40
0.5716305477300042
 40
1.0
 40
1.0
 40
1.0
 40
1.0
 10
106.2618241265958
 20
41.18126368988735
 30
0.0
 10
106.2639991821543
 20
41.18361218094591
 30
0.0
 10
106.2899267604148
 20
41.2116071834084
 30
0.0
 10
106.388398127244
 20
41.24969379050298
 30
0.0
 10
106.553108035459
 20
41.29853900606554
 30
0.0
 10
106.6906730447158
 20
41.30470968583879
 30
0.0
 10
106.7652277269011
 20
41.3080539451955
 30
0.0
  0
LINE
  5
1BF
330
1F
100
AcDbEntity
  8
0
  6
Continuous
 62
     8
370
    25
100
AcDbLine
 10
108.6409444541
 20
41.1080538193
 30
0.0
 11
106.4287711487
 21
41.1080538193
 31
0.0
  0
SPLINE
  5
1C0
330
1F
100
AcDbEntity
  8
0
  6
Continuous
 62
     8
370
    25
100
AcDbSpline
210
0.0
220
0.0
230
1.0
 70
     8
 71
     3
 72
     9
 73
     5
 74
     0
 42
0.000000001
 43
0.00000001
 40
0.0
 40
0.0
 40
0.0
 40
0.0
 40
0.1250039728915086
 40
1.0
 40
1.0
 40
1.0
 40
1.0
 10
96.84031583299694
 20
41.20508878399117
 30
0.0
 10
96.84028139309589
 20
41.2094331264637
 30
0.0
 10
96.84000588264412
 20
41.24418676166459
 30
0.0
 10
96.84094853540526
 20
41.27893404152976
 30
0.0
 10
96.84177335282621
 20
41.30933777336461
 30
0.0
  0
SPLINE
  5
1C1
330
1F
100
AcDbEntity
  8
0
  6
Continuous
 62
     8
370
    25
100
AcDbSpline
210
0.0
220
0.0
230
1.0
 70
     8
 71
     3
 72
     9
 73
     5
 74
     0
 42
0.000000001
 43
0.00000001
 40
0.0
 40
0.0
 40
0.0
 40
0.0
 40
0.1250039728915086
 40
1.0
 40
1.0
 40
1.0
 40
1.0
 10
108.8415732227808
 20
41.20508878399117
 30
0.0
 10
108.8416076626818
 20
41.2094331264637
 30
0.0
 10
108.8418831731336
 20
41.24418676166459
 30
0.0
 10
108.8409405203725
 20
41.27893404152976
 30
0.0
 10
108.8401157029515
 20
41.30933777336461
 30
0.0
  0
INSERT
  5
1CD
330
1F
100
AcDbEntity
  8
0
  6
Continuous
 62
     7
370
    18
100
AcDbBlockReference
  2
SW_CENTERMARKSYMBOL_0
 10
102.8409445279
 20
34.8080538111
 30
0.0
  0
LINE
  5
1CE
330
1F
100
AcDbEntity
  8
0
  6
Continuous
 62
     7
370
    18
100
AcDbLine
 10
107.1401388982
 20
53.2898339603
 30
0.0
 11
107.4051945279
 21
44.8080538111
 31
0.0
  0
LINE
  5
1CF
330
1F
100
AcDbEntity
  8
0
  6
Continuous
 62
     7
370
    18
100
AcDbLine
 10
98.5417501576
 20
53.2898339603
 30
0.0
 11
98.2766945279
 21
44.8080538111
 31
0.0
  0
LINE
  5
1D0
330
1F
100
AcDbEntity
  8
0
  6
Continuous
 62
     7
370
    18
100
AcDbLine
 10
97.8197570279
 20
44.8080538111
 30
0.0
 11
107.8621320279
 21
44.8080538111
 31
0.0
  0
ARC
  5
1D1
330
1F
100
AcDbEntity
  8
0
  6
Continuous
 62
     7
370
    18
100
AcDbCircle
 10
102.8409445279
 20
34.8080538111
 30
0.0
 40
4.929554999999999
100
AcDbArc
 50
75.0
 51
345.0
  0
ARC
  5
1D2
330
1F
100
AcDbEntity
  8
0
  6
Continuous
 62
     7
370
    18
100
AcDbCircle
 10
102.8409445279
 20
34.8080538111
 30
0.0
 40
4.929554999999999
100
AcDbArc
 50
75.0
 51
345.0
  0
SPLINE
  5
1D3
330
1F
100
AcDbEntity
  8
0
  6
Continuous
 62
     7
370
    25
100
AcDbSpline
210
0.0
220
0.0
230
1.0
 70
     8
 71
     3
 72
    11
 73
     7
 74
     0
 42
0.000000001
 43
0.00000001
 40
0.0
 40
0.0
 40
0.0
 40
0.0
 40
0.2500907897024823
 40
0.5000509169085089
 40
0.7499732838271033
 40
1.0
 40
1.0
 40
1.0
 40
1.0
 10
47.9839355819274
 20
84.17121191511838
 30
0.0
 10
47.88520923289773
 20
84.17984912549089
 30
0.0
 10
47.68780811543134
 20
84.19711903363682
 30
0.0
 10
47.41842214418375
 20
84.33037248020838
 30
0.0
 10
47.19339218738004
 20
84.52955219704432
 30
0.0
 10
47.10294998747722
 20
84.70581790895125
 30
0.0
 10
47.05771944898854
 20
84.79396915997354
 30
0.0
  0
ARC
  5
1D4
330
1F
100
AcDbEntity
  8
0
  6
Continuous
 62
     7
370
    25
100
AcDbCircle
 10
68.1298855491
 20
84.4236104843
 30
0.0
 40
1.0
100
AcDbArc
 50
90.0
 51
158.2165750553
  0
ARC
  5
1D5
330
1F
100
AcDbEntity
  8
0
  6
Continuous
 62
     7
370
    25
100
AcDbCircle
 10
68.1298855491
 20
71.9236104843
 30
0.0
 40
1.0
100
AcDbArc
 50
202.0289979159
 51
270.0
  0
ARC
  5
1D6
330
1F
100
AcDbEntity
  8
0
  6
Continuous
 62
     7
370
    25
100
AcDbCircle
 10
46.1298855491
 20
71.9236104843
 30
0.0
 40
1.000000000000002
100
AcDbArc
 50
270.0
 51
337.9646523652
  0
ARC
  5
1D7
330
1F
100
AcDbEntity
  8
0
  6
Continuous
 62
     7
370
    25
100
AcDbCircle
 10
46.1298855491
 20
84.4236104843
 30
0.0
 40
1.0
100
AcDbArc
 50
21.7594231021
 51
90.0
  0
LINE
  5
1D8
330
1F
100
AcDbEntity
  8
0
  6
Continuous
 62
     7
370
    25
100
AcDbLine
 10
78.6298862793
 20
85.4236102756
 30
0.0
 11
68.1298854895
 21
85.4236102756
 31
0.0
  0
LINE
  5
1D9
330
1F
100
AcDbEntity
  8
0
  6
Continuous
 62
     7
370
    25
100
AcDbLine
 10
68.1298854895
 20
70.9236106929
 30
0.0
 11
78.6298862793
 21
70.9236106929
 31
0.0
  0
LINE
  5
1DA
330
1F
100
AcDbEntity
  8
0
  6
Continuous
 62
     7
370
    25
100
AcDbLine
 10
78.6298862793
 20
70.9236106929
 30
0.0
 11
79.1298854299
 21
71.4236103092
 31
0.0
  0
LINE
  5
1DB
330
1F
100
AcDbEntity
  8
0
  6
Continuous
 62
     7
370
    25
100
AcDbLine
 10
79.1298854299
 20
84.9236106593
 30
0.0
 11
78.6298862793
 21
85.4236102756
 31
0.0
  0
LINE
  5
1DC
330
1F
100
AcDbEntity
  8
0
  6
Continuous
 62
     7
370
    25
100
AcDbLine
 10
35.629884819
 20
70.9236106929
 30
0.0
 11
46.1298856087
 21
70.9236106929
 31
0.0
  0
LINE
  5
1DD
330
1F
100
AcDbEntity
  8
0
  6
Continuous
 62
     7
370
    25
100
AcDbLine
 10
46.1298856087
 20
85.4236102756
 30
0.0
 11
35.629884819
 21
85.4236102756
 31
0.0
  0
LINE
  5
1DE
330
1F
100
AcDbEntity
  8
0
  6
Continuous
 62
     7
370
    25
100
AcDbLine
 10
35.629884819
 20
85.4236102756
 30
0.0
 11
35.1298856683
 21
84.9236106593
 31
0.0
  0
LINE
  5
1DF
330
1F
100
AcDbEntity
  8
0
  6
Continuous
 62
     7
370
    25
100
AcDbLine
 10
35.1298856683
 20
71.4236103092
 30
0.0
 11
35.629884819
 21
70.9236106929
 31
0.0
  0
ARC
  5
1E0
330
1F
100
AcDbEntity
  8
0
  6
Continuous
 62
     7
370
    25
100
AcDbCircle
 10
51.9298342864
 20
81.5500040929
 30
0.0
 40
0.2000513777876694
100
AcDbArc
 50
349.9821124935
 51
359.9895221082
  0
SPLINE
  5
1E1
330
1F
100
AcDbEntity
  8
0
  6
Continuous
 62
     7
370
    25
100
AcDbSpline
210
0.0
220
0.0
230
1.0
 70
     8
 71
     3
 72
    11
 73
     7
 74
     0
 42
0.000000001
 43
0.00000001
 40
0.0
 40
0.0
 40
0.0
 40
0.0
 40
0.2500267161728967
 40
0.4999490830914911
 40
0.7499092102975177
 40
1.0
 40
1.0
 40
1.0
 40
1.0
 10
67.20205164927731
 20
84.79396915997354
 30
0.0
 10
67.15682111078861
 20
84.70581790895125
 30
0.0
 10
67.0663789108858
 20
84.52955219704432
 30
0.0
 10
66.8413489540821
 20
84.33037248020838
 30
0.0
 10
66.5719629828345
 20
84.19711903363682
 30
0.0
 10
66.37456186536812
 20
84.17984912549089
 30
0.0
 10
66.27583551633845
 20
84.17121191511838
 30
0.0
  0
LINE
  5
1E2
330
1F
100
AcDbEntity
  8
0
  6
Continuous
 62
     7
370
    25
100
AcDbLine
 10
57.1298855491
 20
84.1755881999
 30
0.0
 11
54.9389952928
 21
84.1736105364
 31
0.0
  0
LINE
  5
1E3
330
1F
100
AcDbEntity
  8
0
  6
Continuous
 62
     7
370
    25
100
AcDbLine
 10
59.3207758054
 20
84.1736105364
 30
0.0
 11
57.1298855491
 21
84.1755881999
 31
0.0
  0
SPLINE
  5
1E4
330
1F
100
AcDbEntity
  8
0
  6
Continuous
 62
     7
370
    25
100
AcDbSpline
210
0.0
220
0.0
230
1.0
 70
     8
 71
     3
 72
     9
 73
     5
 74
     0
 42
0.000000001
 43
0.00000001
 40
0.0
 40
0.0
 40
0.0
 40
0.0
 40
0.4307633248000125
 40
0.9999999999999999
 40
0.9999999999999999
 40
0.9999999999999999
 40
0.9999999999999999
 10
56.19995087798426
 20
72.17337387616722
 30
0.0
 10
56.33326922973832
 20
72.17298665134234
 30
0.0
 10
56.64276250383715
 20
72.17208772424571
 30
0.0
 10
56.95318288400938
 20
72.17179780263038
 30
0.0
 10
57.12988554913292
 20
72.17163276861397
 30
0.0
  0
SPLINE
  5
1E5
330
1F
100
AcDbEntity
  8
0
  6
Continuous
 62
     7
370
    25
100
AcDbSpline
210
0.0
220
0.0
230
1.0
 70
     8
 71
     3
 72
    10
 73
     6
 74
     0
 42
0.000000001
 43
0.00000001
 40
0.0
 40
0.0
 40
0.0
 40
0.0
 40
0.3964967899863839
 40
0.77606423746502
 40
0.9999999999999999
 40
0.9999999999999999
 40
0.9999999999999999
 40
0.9999999999999999
 10
57.12988554913292
 20
72.17163276861397
 30
0.0
 10
57.25077537570343
 20
72.17155419348633
 30
0.0
 10
57.48739335961682
 20
72.17140039817681
 30
0.0
 10
57.7919838452081
 20
72.17307618927254
 30
0.0
 10
57.97503390136886
 20
72.1733296520755
 30
0.0
 10
58.04295641317705
 20
72.17342370192496
 30
0.0
  0
LINE
  5
1E6
330
1F
100
AcDbEntity
  8
0
  6
Continuous
 62
     7
370
    25
100
AcDbLine
 10
50.4298857548
 20
84.1736105364
 30
0.0
 11
47.9839355819
 21
84.1736105364
 31
0.0
  0
LINE
  5
1E7
330
1F
100
AcDbEntity
  8
0
  6
Continuous
 62
     7
370
    25
100
AcDbLine
 10
66.2758355163
 20
84.1736105364
 30
0.0
 11
64.6298853815
 21
84.1736105364
 31
0.0
  0
LINE
  5
1E8
330
1F
100
AcDbEntity
  8
0
  6
Continuous
 62
     7
370
    25
100
AcDbLine
 10
63.8298853435
 20
72.1736104321
 30
0.0
 11
66.2758355163
 21
72.1736104321
 31
0.0
  0
LINE
  5
1E9
330
1F
100
AcDbEntity
  8
0
  6
Continuous
 62
     7
370
    25
100
AcDbLine
 10
47.9839355819
 20
72.1736104321
 30
0.0
 11
50.4298857548
 21
72.1736104321
 31
0.0
  0
ARC
  5
1EA
330
1F
100
AcDbEntity
  8
0
  6
Continuous
 62
     7
370
    25
100
AcDbCircle
 10
63.8798855491
 20
84.2236104843
 30
0.0
 40
0.25
100
AcDbArc
 50
90.0
 51
180.0
  0
ARC
  5
1EB
330
1F
100
AcDbEntity
  8
0
  6
Continuous
 62
     7
370
    25
100
AcDbCircle
 10
64.3798855491
 20
84.2236104843
 30
0.0
 40
0.25
100
AcDbArc
 50
0.0
 51
90.0
  0
LINE
  5
1EC
330
1F
100
AcDbEntity
  8
0
  6
Continuous
 62
     7
370
    25
100
AcDbLine
 10
64.6298853815
 20
84.1736105364
 30
0.0
 11
64.6298853815
 21
84.2236104515
 31
0.0
  0
LINE
  5
1ED
330
1F
100
AcDbEntity
  8
0
  6
Continuous
 62
     7
370
    25
100
AcDbLine
 10
63.6298856832
 20
84.2236104515
 30
0.0
 11
63.6298856832
 21
84.1736105364
 31
0.0
  0
CIRCLE
  5
1EE
330
1F
100
AcDbEntity
  8
0
  6
Continuous
 62
     7
370
    25
100
AcDbCircle
 10
57.1298855491
 20
78.1736104843
 30
0.0
 40
4.000000000000007
  0
CIRCLE
  5
1EF
330
1F
100
AcDbEntity
  8
0
  6
Continuous
 62
     7
370
    25
100
AcDbCircle
 10
57.1298855491
 20
78.1736104843
 30
0.0
 40
4.782279626857608
  0
CIRCLE
  5
1F0
330
1F
100
AcDbEntity
  8
0
  6
Continuous
 62
     7
370
    25
100
AcDbCircle
 10
57.1298855491
 20
78.1736104843
 30
0.0
 40
2.200000000000003
  0
CIRCLE
  5
1F1
330
1F
100
AcDbEntity
  8
0
  6
Continuous
 62
     7
370
    25
100
AcDbCircle
 10
57.1298855491
 20
78.1736104843
 30
0.0
 40
2.0
  0
CIRCLE
  5
1F2
330
1F
100
AcDbEntity
  8
0
  6
Continuous
 62
     7
370
    25
100
AcDbCircle
 10
57.1298855491
 20
78.1736104843
 30
0.0
 40
5.068062500000003
  0
CIRCLE
  5
1F3
330
1F
100
AcDbEntity
  8
0
  6
Continuous
 62
     7
370
    25
100
AcDbCircle
 10
57.1298855491
 20
78.1736104843
 30
0.0
 40
5.999999999999993
  0
LINE
  5
1F4
330
1F
100
AcDbEntity
  8
0
  6
Continuous
 62
     7
370
    25
100
AcDbLine
 10
47.058617244
 20
84.7941884864
 30
0.0
 11
47.0586386644
 21
84.7942932602
 31
0.0
  0
SPLINE
  5
1F5
330
1F
100
AcDbEntity
  8
0
  6
Continuous
 62
     7
370
    25
100
AcDbSpline
210
0.0
220
0.0
230
1.0
 70
     8
 71
     3
 72
     9
 73
     5
 74
     0
 42
0.000000001
 43
0.00000001
 40
0.001813512106624
 40
0.001813512106624
 40
0.001813512106624
 40
0.001813512106624
 40
0.501813512106624
 40
1.0
 40
1.0
 40
1.0
 40
1.0
 10
47.98393517090683
 20
72.17150790450597
 30
0.0
 10
47.78620191219029
 20
72.1715497668416
 30
0.0
 10
47.39189832018936
 20
72.05085135957248
 30
0.0
 10
47.13200424309057
 20
71.73084223565812
 30
0.0
 10
47.0577193967653
 20
71.54828345904613
 30
0.0
  0
LINE
  5
1F6
330
1F
100
AcDbEntity
  8
0
  6
Continuous
 62
     7
370
    25
100
AcDbLine
 10
78.6298862793
 20
70.9236106929
 30
0.0
 11
78.6298862793
 21
85.4236102756
 31
0.0
  0
LINE
  5
1F7
330
1F
100
AcDbEntity
  8
0
  6
Continuous
 62
     7
370
    25
100
AcDbLine
 10
79.1298854299
 20
84.9236106593
 30
0.0
 11
79.1298854299
 21
71.4236103092
 31
0.0
  0
LINE
  5
1F8
330
1F
100
AcDbEntity
  8
0
  6
Continuous
 62
     7
370
    25
100
AcDbLine
 10
35.629884819
 20
78.1736104843
 30
0.0
 11
35.629884819
 21
70.9236106929
 31
0.0
  0
LINE
  5
1F9
330
1F
100
AcDbEntity
  8
0
  6
Continuous
 62
     7
370
    25
100
AcDbLine
 10
35.629884819
 20
85.4236102756
 30
0.0
 11
35.629884819
 21
78.1736104843
 31
0.0
  0
LINE
  5
1FA
330
1F
100
AcDbEntity
  8
0
  6
Continuous
 62
     7
370
    25
100
AcDbLine
 10
35.1298856683
 20
71.4236103092
 30
0.0
 11
35.1298856683
 21
84.9236106593
 31
0.0
  0
ARC
  5
1FB
330
1F
100
AcDbEntity
  8
0
  6
Continuous
 62
     7
370
    25
100
AcDbCircle
 10
51.9298855491
 20
81.5499990875
 30
0.0
 40
0.2000000000000109
100
AcDbArc
 50
327.0041145264
 51
349.981283946
  0
SPLINE
  5
1FC
330
1F
100
AcDbEntity
  8
0
  6
Continuous
 62
     7
370
    25
100
AcDbSpline
210
0.0
220
0.0
230
1.0
 70
     8
 71
     3
 72
    14
 73
    10
 74
     0
 42
0.000000001
 43
0.00000001
 40
0.0
 40
0.0
 40
0.0
 40
0.0
 40
0.5000000000000014
 40
0.5000000000000014
 40
0.7500000000000022
 40
0.7500000000000022
 40
0.8750000000000011
 40
0.8750000000000011
 40
1.0
 40
1.0
 40
1.0
 40
1.0
 10
52.32988554913292
 20
82.09789385832495
 30
0.0
 10
52.28885234614825
 20
81.99751406637219
 30
0.0
 10
52.25033417343949
 20
81.89680921956959
 30
0.0
 10
52.19680428368045
 20
81.74820478862297
 30
0.0
 10
52.17963028348377
 20
81.69893499010412
 30
0.0
 10
52.15612040001029
 20
81.62957807185492
 30
0.0
 10
52.14855564002785
 20
81.60690193779566
 30
0.0
 10
52.13568265091789
 20
81.56786915075169
 30
0.0
 10
52.12988554913292
 20
81.54999908748208
 30
0.0
 10
52.12988554913293
 20
81.54999908748208
 30
0.0
  0
LWPOLYLINE
  5
1FD
330
1F
100
AcDbEntity
  8
0
  6
Continuous
 62
     7
370
    25
100
AcDbPolyline
 90
        9
 70
   128
 43
0.0
 10
52.4847242184
 20
81.971304128
 10
52.4817491085
 20
81.9737365097
 10
52.4729378656
 20
81.980940057
 10
52.4586290256
 20
81.9926383999
 10
52.439373
 20
82.0083814767
 10
52.4159092591
 20
82.0275643934
 10
52.3891397886
 20
82.0494500082
 10
52.3600932345
 20
82.0731973369
 10
52.3298853211
 20
82.0978936833
  0
SPLINE
  5
1FE
330
1F
100
AcDbEntity
  8
0
  6
Continuous
 62
     7
370
    25
100
AcDbSpline
210
0.0
220
0.0
230
1.0
 70
     8
 71
     3
 72
    10
 73
     6
 74
     0
 42
0.000000001
 43
0.00000001
 40
0.0
 40
0.0
 40
0.0
 40
0.0
 40
0.5
 40
0.5
 40
1.0
 40
1.0
 40
1.0
 40
1.0
 10
59.26130903601292
 20
83.84489433995965
 30
0.0
 10
59.2556714865739
 20
83.82256469922481
 30
0.0
 10
59.25267646844611
 20
83.80682864659241
 30
0.0
 10
59.24997542648283
 20
83.7890688156941
 30
0.0
 10
59.25010190076582
 20
83.7865137100617
 30
0.0
 10
59.25010190076582
 20
83.7865137100617
 30
0.0
  0
SPLINE
  5
1FF
330
1F
100
AcDbEntity
  8
0
  6
Continuous
 62
     7
370
    25
100
AcDbSpline
210
0.0
220
0.0
230
1.0
 70
     8
 71
     3
 72
    12
 73
     8
 74
     0
 42
0.000000001
 43
0.00000001
 40
0.0
 40
0.0
 40
0.0
 40
0.0
 40
0.25
 40
0.25
 40
0.5
 40
0.5
 40
1.0
 40
1.0
 40
1.0
 40
1.0
 10
59.26130903601292
 20
83.84489433995965
 30
0.0
 10
59.26412781073244
 20
83.85605916032705
 30
0.0
 10
59.26765634460995
 20
83.8691417744568
 30
0.0
 10
59.27588714527306
 20
83.89641094930974
 30
0.0
 10
59.28058941205867
 20
83.9105975100329
 30
0.0
 10
59.29608813366583
 20
83.95071565069546
 30
0.0
 10
59.30800455541841
 20
83.97361048425523
 30
0.0
 10
59.32077577915359
 20
83.97361048425523
 30
0.0
  0
ARC
  5
200
330
1F
100
AcDbEntity
  8
0
  6
Continuous
 62
     7
370
    25
100
AcDbCircle
 10
57.1298855491
 20
78.1736104843
 30
0.0
 40
6.20000000000001
100
AcDbArc
 50
39.2680260018
 51
69.3064587688
  0
LWPOLYLINE
  5
201
330
1F
100
AcDbEntity
  8
0
  6
Continuous
 62
     7
370
    25
100
AcDbPolyline
 90
        9
 70
   128
 43
0.0
 10
61.7750468798
 20
81.971304128
 10
61.7780219898
 20
81.9737365097
 10
61.7868332327
 20
81.980940057
 10
61.8011420727
 20
81.9926383999
 10
61.8203980983
 20
82.0083814767
 10
61.8438618392
 20
82.0275643934
 10
61.8706313096
 20
82.0494500082
 10
61.8996778638
 20
82.0731973369
 10
61.9298857771
 20
82.0978936833
  0
SPLINE
  5
202
330
1F
100
AcDbEntity
  8
0
  6
Continuous
 62
     7
370
    25
100
AcDbSpline
210
0.0
220
0.0
230
1.0
 70
     8
 71
     3
 72
     8
 73
     4
 74
     0
 42
0.000000001
 43
0.00000001
 40
0.0
 40
0.0
 40
0.0
 40
0.0
 40
1.0
 40
1.0
 40
1.0
 40
1.0
 10
55.00966919750002
 20
83.7865137100617
 30
0.0
 10
55.01280236184967
 20
83.78769723060698
 30
0.0
 10
55.00832233625293
 20
83.80904495867456
 30
0.0
 10
54.99846206225292
 20
83.84489433995965
 30
0.0
  0
ARC
  5
203
330
1F
100
AcDbEntity
  8
0
  6
Continuous
 62
     7
370
    25
100
AcDbCircle
 10
57.1298855491
 20
78.1736104843
 30
0.0
 40
6.20000000000001
100
AcDbArc
 50
110.6935412312
 51
140.7319739982
  0
SPLINE
  5
204
330
1F
100
AcDbEntity
  8
0
  6
Continuous
 62
     7
370
    25
100
AcDbSpline
210
0.0
220
0.0
230
1.0
 70
     8
 71
     3
 72
    13
 73
     9
 74
     0
 42
0.000000001
 43
0.00000001
 40
0.0
 40
0.0
 40
0.0
 40
0.0
 40
0.2842828991742473
 40
0.5198370183905271
 40
0.7070414958140453
 40
0.8468107266085023
 40
0.9415978142010821
 40
1.0
 40
1.0
 40
1.0
 40
1.0
 10
54.99846206225292
 20
83.84489433995965
 30
0.0
 10
54.99548250652689
 20
83.85601688435509
 30
0.0
 10
54.99003411913092
 20
83.87635546374989
 30
0.0
 10
54.97910339174286
 20
83.908891444234
 30
0.0
 10
54.96859606478358
 20
83.93599910287541
 30
0.0
 10
54.95838728457903
 20
83.95545696157836
 30
0.0
 10
54.94983585040384
 20
83.96958367314458
 30
0.0
 10
54.94198745653156
 20
83.97249902837908
 30
0.0
 10
54.93899531911226
 20
83.97361048425525
 30
0.0
  0
SPLINE
  5
205
330
1F
100
AcDbEntity
  8
0
  6
Continuous
 62
     7
370
    25
100
AcDbSpline
210
0.0
220
0.0
230
1.0
 70
     8
 71
     3
 72
     8
 73
     4
 74
     0
 42
0.000000001
 43
0.00000001
 40
0.0
 40
0.0
 40
0.0
 40
0.0
 40
1.0
 40
1.0
 40
1.0
 40
1.0
 10
59.25010190076582
 20
72.56070725844879
 30
0.0
 10
59.24696873641618
 20
72.5595237379035
 30
0.0
 10
59.25144876201291
 20
72.53817600983592
 30
0.0
 10
59.26130903601292
 20
72.50232662855085
 30
0.0
  0
SPLINE
  5
206
330
1F
100
AcDbEntity
  8
0
  6
Continuous
 62
     7
370
    25
100
AcDbSpline
210
0.0
220
0.0
230
1.0
 70
    24
 71
     3
 72
    12
 73
     8
 74
     0
 42
0.000000001
 43
0.00000001
 40
0.0
 40
0.0
 40
0.0
 40
0.0
 40
0.25
 40
0.25
 40
0.5
 40
0.5
 40
1.0
 40
1.0
 40
1.0
 40
1.0
 10
62.12988554913292
 20
74.85698569389984
 30
0.0
 10
62.12988554913292
 20
74.85698569389984
 30
0.0
 10
62.12988554913293
 20
74.83730380538414
 30
0.0
 10
62.12988554913292
 20
74.78568337968504
 30
0.0
 10
62.12988554913292
 20
74.75368160300489
 30
0.0
 10
62.12988554913292
 20
74.65411986934171
 30
0.0
 10
62.12988554913292
 20
74.58089651928083
 30
0.0
 10
62.12988554913292
 20
74.50754992829057
 30
0.0
  0
ARC
  5
207
330
1F
100
AcDbEntity
  8
0
  6
Continuous
 62
     7
370
    25
100
AcDbCircle
 10
57.1298855491
 20
78.1736104843
 30
0.0
 40
6.199999999999997
100
AcDbArc
 50
290.6935412312
 51
323.7506791171
  0
SPLINE
  5
208
330
1F
100
AcDbEntity
  8
0
  6
Continuous
 62
     7
370
    25
100
AcDbSpline
210
0.0
220
0.0
230
1.0
 70
     8
 71
     3
 72
    13
 73
     9
 74
     0
 42
0.000000001
 43
0.00000001
 40
0.0
 40
0.0
 40
0.0
 40
0.0
 40
0.284282899174241
 40
0.5198370183905274
 40
0.7070414958140503
 40
0.8468107266085059
 40
0.9415978142010789
 40
1.0
 40
1.0
 40
1.0
 40
1.0
 10
59.26130903601292
 20
72.50232662855085
 30
0.0
 10
59.26428859173896
 20
72.49120408415541
 30
0.0
 10
59.26973697913493
 20
72.47086550476061
 30
0.0
 10
59.280667706523
 20
72.4383295242765
 30
0.0
 10
59.29117503348227
 20
72.41122186563507
 30
0.0
 10
59.30138381368683
 20
72.39176400693212
 30
0.0
 10
59.30993524786201
 20
72.37763729536589
 30
0.0
 10
59.31778364173427
 20
72.3747219401314
 30
0.0
 10
59.32077577915359
 20
72.37361048425524
 30
0.0
  0
SPLINE
  5
209
330
1F
100
AcDbEntity
  8
0
  6
Continuous
 62
     7
370
    25
100
AcDbSpline
210
0.0
220
0.0
230
1.0
 70
     8
 71
     3
 72
    10
 73
     6
 74
     0
 42
0.000000001
 43
0.00000001
 40
0.0
 40
0.0
 40
0.0
 40
0.0
 40
0.5
 40
0.5
 40
1.0
 40
1.0
 40
1.0
 40
1.0
 10
54.99846206225293
 20
72.50232662855085
 30
0.0
 10
55.00409961169195
 20
72.52465626928566
 30
0.0
 10
55.00709462981974
 20
72.54039232191809
 30
0.0
 10
55.00979567178302
 20
72.55815215281639
 30
0.0
 10
55.00966919750002
 20
72.56070725844879
 30
0.0
 10
55.00966919750002
 20
72.56070725844879
 30
0.0
  0
SPLINE
  5
20A
330
1F
100
AcDbEntity
  8
0
  6
Continuous
 62
     7
370
    25
100
AcDbSpline
210
0.0
220
0.0
230
1.0
 70
     8
 71
     3
 72
    12
 73
     8
 74
     0
 42
0.000000001
 43
0.00000001
 40
0.0
 40
0.0
 40
0.0
 40
0.0
 40
0.25
 40
0.25
 40
0.5
 40
0.5
 40
1.0
 40
1.0
 40
1.0
 40
1.0
 10
54.99846206225293
 20
72.50232662855085
 30
0.0
 10
54.99564328753341
 20
72.49116180818343
 30
0.0
 10
54.9921147536559
 20
72.47807919405366
 30
0.0
 10
54.98388395299278
 20
72.45081001920074
 30
0.0
 10
54.97918168620718
 20
72.4366234584776
 30
0.0
 10
54.96368296460003
 20
72.39650531781504
 30
0.0
 10
54.95176654284744
 20
72.37361048425524
 30
0.0
 10
54.93899531911226
 20
72.37361048425524
 30
0.0
  0
ARC
  5
20B
330
1F
100
AcDbEntity
  8
0
  6
Continuous
 62
     7
370
    25
100
AcDbCircle
 10
57.1298855491
 20
78.1736104843
 30
0.0
 40
6.199999999999997
100
AcDbArc
 50
219.2680260018
 51
249.3064587688
  0
LWPOLYLINE
  5
20C
330
1F
100
AcDbEntity
  8
0
  6
Continuous
 62
     7
370
    25
100
AcDbPolyline
 90
        9
 70
   128
 43
0.0
 10
52.4847242184
 20
74.3759168405
 10
52.4817491085
 20
74.3734844588
 10
52.4729378656
 20
74.3662809115
 10
52.4586290256
 20
74.3545825687
 10
52.439373
 20
74.3388394919
 10
52.4159092591
 20
74.3196565751
 10
52.3891397886
 20
74.2977709603
 10
52.3600932345
 20
74.2740236316
 10
52.3298853211
 20
74.2493272852
  0
SPLINE
  5
20D
330
1F
100
AcDbEntity
  8
0
  6
Continuous
 62
     7
370
    25
100
AcDbSpline
210
0.0
220
0.0
230
1.0
 70
     8
 71
     3
 72
    14
 73
    10
 74
     0
 42
0.000000001
 43
0.00000001
 40
0.0
 40
0.0
 40
0.0
 40
0.0
 40
0.1250000000000005
 40
0.1250000000000005
 40
0.2500000000000009
 40
0.2500000000000009
 40
0.5000000000000007
 40
0.5000000000000007
 40
1.0
 40
1.0
 40
1.0
 40
1.0
 10
62.12988554913292
 20
81.54999908748208
 30
0.0
 10
62.12988554913293
 20
81.54999908748208
 30
0.0
 10
62.12410032965254
 20
81.56783292056133
 30
0.0
 10
62.11121974020271
 20
81.60688915529926
 30
0.0
 10
62.1036522160539
 20
81.6295733550034
 30
0.0
 10
62.08016286511909
 20
81.69887041703768
 30
0.0
 10
62.06297437102099
 20
81.74818082361536
 30
0.0
 10
62.00957746371969
 20
81.8964250313759
 30
0.0
 10
61.97090707468179
 20
81.99754263295952
 30
0.0
 10
61.92988554913293
 20
82.09789385832495
 30
0.0
  0
ARC
  5
20E
330
1F
100
AcDbEntity
  8
0
  6
Continuous
 62
     7
370
    25
100
AcDbCircle
 10
62.3298855491
 20
81.5499990875
 30
0.0
 40
0.200000000000005
100
AcDbArc
 50
180.0
 51
212.9958854736
  0
SPLINE
  5
20F
330
1F
100
AcDbEntity
  8
0
  6
Continuous
 62
     7
370
    25
100
AcDbSpline
210
0.0
220
0.0
230
1.0
 70
     8
 71
     3
 72
    14
 73
    10
 74
     0
 42
0.000000001
 43
0.00000001
 40
0.0
 40
0.0
 40
0.0
 40
0.0
 40
0.1250000000000001
 40
0.1250000000000001
 40
0.2500000000000001
 40
0.2500000000000001
 40
0.5000000000000002
 40
0.5000000000000002
 40
1.0
 40
1.0
 40
1.0
 40
1.0
 10
52.12988554913293
 20
74.79722188102842
 30
0.0
 10
52.12988554913293
 20
74.79722188102842
 30
0.0
 10
52.13567076861331
 20
74.77938804794915
 30
0.0
 10
52.14855135806314
 20
74.74033181321123
 30
0.0
 10
52.15611888221196
 20
74.7176476135071
 30
0.0
 10
52.17960823314675
 20
74.64835055147282
 30
0.0
 10
52.19679672724486
 20
74.59904014489513
 30
0.0
 10
52.25019363454616
 20
74.45079593713459
 30
0.0
 10
52.28886402358406
 20
74.34967833555096
 30
0.0
 10
52.32988554913292
 20
74.24932711018553
 30
0.0
  0
ARC
  5
210
330
1F
100
AcDbEntity
  8
0
  6
Continuous
 62
     7
370
    25
100
AcDbCircle
 10
51.9298855491
 20
74.797221881
 30
0.0
 40
0.2000000000000032
100
AcDbArc
 50
0.0
 51
32.9958854736
  0
SPLINE
  5
211
330
1F
100
AcDbEntity
  8
0
  6
Continuous
 62
     7
370
    25
100
AcDbSpline
210
0.0
220
0.0
230
1.0
 70
     8
 71
     3
 72
     9
 73
     5
 74
     0
 42
0.000000001
 43
0.00000001
 40
0.001813512106624
 40
0.001813512106624
 40
0.001813512106624
 40
0.001813512106624
 40
0.501813512106624
 40
1.0
 40
1.0
 40
1.0
 40
1.0
 10
66.27583592735901
 20
72.17150790450597
 30
0.0
 10
66.47356918607555
 20
72.1715497668416
 30
0.0
 10
66.86787277807649
 20
72.05085135957248
 30
0.0
 10
67.12776685517527
 20
71.73084223565812
 30
0.0
 10
67.20205170150055
 20
71.54828345904613
 30
0.0
  0
SPLINE
  5
212
330
1F
100
AcDbEntity
  8
0
  6
Continuous
 62
     7
370
    25
100
AcDbSpline
210
0.0
220
0.0
230
1.0
 70
     8
 71
     3
 72
     9
 73
     5
 74
     0
 42
0.000000001
 43
0.00000001
 40
0.0
 40
0.0
 40
0.0
 40
0.0
 40
0.6198366243912011
 40
1.0
 40
1.0
 40
1.0
 40
1.0
 10
59.31039365421722
 20
84.11503174344985
 30
0.0
 10
58.90308645563026
 20
84.11989529389635
 30
0.0
 10
58.24596620400424
 20
84.12774179772511
 30
0.0
 10
57.58973212799369
 20
84.15468128670445
 30
0.0
 10
57.34025596646799
 20
84.164922693772
 30
0.0
  0
SPLINE
  5
213
330
1F
100
AcDbEntity
  8
0
  6
Continuous
 62
     7
370
    25
100
AcDbSpline
210
0.0
220
0.0
230
1.0
 70
     8
 71
     3
 72
    12
 73
     8
 74
     0
 42
0.000000001
 43
0.00000001
 40
0.0
 40
0.0
 40
0.0
 40
0.0
 40
0.25
 40
0.25
 40
0.5
 40
0.5
 40
1.0
 40
1.0
 40
1.0
 40
1.0
 10
59.31039361049729
 20
84.11503184049408
 30
0.0
 10
59.30907427522986
 20
84.10358949898794
 30
0.0
 10
59.30757000767721
 20
84.08959364221182
 30
0.0
 10
59.30528819992506
 20
84.06019663170696
 30
0.0
 10
59.30451065972557
 20
84.04479547797818
 30
0.0
 10
59.30491301804235
 20
84.00203667174387
 30
0.0
 10
59.30882789547384
 20
83.9781236741903
 30
0.0
 10
59.32077577915359
 20
83.97361048425523
 30
0.0
  0
SPLINE
  5
214
330
1F
100
AcDbEntity
  8
0
  6
Continuous
 62
     7
370
    25
100
AcDbSpline
210
0.0
220
0.0
230
1.0
 70
     8
 71
     3
 72
    12
 73
     8
 74
     0
 42
0.000000001
 43
0.00000001
 40
0.0
 40
0.0
 40
0.0
 40
0.0
 40
0.25
 40
0.25
 40
0.5
 40
0.5
 40
1.0
 40
1.0
 40
1.0
 40
1.0
 10
54.94937748776857
 20
84.11503184049408
 30
0.0
 10
54.95069682303599
 20
84.10358949898794
 30
0.0
 10
54.95220109058864
 20
84.08959364221182
 30
0.0
 10
54.95448289834079
 20
84.06019663170696
 30
0.0
 10
54.95526043854027
 20
84.04479547797818
 30
0.0
 10
54.9548580802235
 20
84.00203667174387
 30
0.0
 10
54.950943202792
 20
83.9781236741903
 30
0.0
 10
54.93899531911226
 20
83.97361048425525
 30
0.0
  0
SPLINE
  5
215
330
1F
100
AcDbEntity
  8
0
  6
Continuous
 62
     7
370
    25
100
AcDbSpline
210
0.0
220
0.0
230
1.0
 70
     8
 71
     3
 72
    12
 73
     8
 74
     0
 42
0.000000001
 43
0.00000001
 40
0.0
 40
0.0
 40
0.0
 40
0.0
 40
0.25
 40
0.25
 40
0.5
 40
0.5
 40
1.0
 40
1.0
 40
1.0
 40
1.0
 10
59.31039361049729
 20
72.2321891280164
 30
0.0
 10
59.30907427522987
 20
72.24363146952255
 30
0.0
 10
59.30757000767721
 20
72.25762732629866
 30
0.0
 10
59.30528819992506
 20
72.28702433680354
 30
0.0
 10
59.30451065972558
 20
72.3024254905323
 30
0.0
 10
59.30491301804235
 20
72.34518429676662
 30
0.0
 10
59.30882789547384
 20
72.36909729432017
 30
0.0
 10
59.32077577915359
 20
72.37361048425524
 30
0.0
  0
SPLINE
  5
216
330
1F
100
AcDbEntity
  8
0
  6
Continuous
 62
     7
370
    25
100
AcDbSpline
210
0.0
220
0.0
230
1.0
 70
     8
 71
     3
 72
     9
 73
     5
 74
     0
 42
0.000000001
 43
0.00000001
 40
0.0
 40
0.0
 40
0.0
 40
0.0
 40
0.6198366243912011
 40
1.0
 40
1.0
 40
1.0
 40
1.0
 10
54.94937744404862
 20
72.23218922506062
 30
0.0
 10
55.35668464263559
 20
72.22732567461414
 30
0.0
 10
56.01380489426161
 20
72.21947917078538
 30
0.0
 10
56.67003897027216
 20
72.19253968180604
 30
0.0
 10
56.91951513179785
 20
72.18229827473847
 30
0.0
  0
SPLINE
  5
217
330
1F
100
AcDbEntity
  8
0
  6
Continuous
 62
     7
370
    25
100
AcDbSpline
210
0.0
220
0.0
230
1.0
 70
     8
 71
     3
 72
    12
 73
     8
 74
     0
 42
0.000000001
 43
0.00000001
 40
0.0
 40
0.0
 40
0.0
 40
0.0
 40
0.25
 40
0.25
 40
0.5
 40
0.5
 40
1.0
 40
1.0
 40
1.0
 40
1.0
 10
54.94937748776857
 20
72.2321891280164
 30
0.0
 10
54.95069682303599
 20
72.24363146952255
 30
0.0
 10
54.95220109058864
 20
72.25762732629866
 30
0.0
 10
54.95448289834079
 20
72.28702433680354
 30
0.0
 10
54.95526043854028
 20
72.3024254905323
 30
0.0
 10
54.9548580802235
 20
72.34518429676662
 30
0.0
 10
54.950943202792
 20
72.36909729432017
 30
0.0
 10
54.93899531911226
 20
72.37361048425524
 30
0.0
  0
LINE
  5
218
330
1F
100
AcDbEntity
  8
0
  6
Continuous
 62
     7
370
    25
100
AcDbLine
 10
61.9298857771
 20
83.9736104105
 30
0.0
 11
59.3207758054
 21
83.9736104105
 31
0.0
  0
SPLINE
  5
219
330
1F
100
AcDbEntity
  8
0
  6
Continuous
 62
     7
370
    25
100
AcDbSpline
210
0.0
220
0.0
230
1.0
 70
     8
 71
     3
 72
    10
 73
     6
 74
     0
 42
0.000000001
 43
0.00000001
 40
0.0
 40
0.0
 40
0.0
 40
0.0
 40
0.5
 40
0.5
 40
1.0
 40
1.0
 40
1.0
 40
1.0
 10
59.31039361049729
 20
84.11503184049408
 30
0.0
 10
59.31303228103212
 20
84.13791652350638
 30
0.0
 10
59.3156278231962
 20
84.15256118444665
 30
0.0
 10
59.31949957225694
 20
84.17040816482108
 30
0.0
 10
59.32077577915359
 20
84.17361048425525
 30
0.0
 10
59.32077577915359
 20
84.17361048425525
 30
0.0
  0
LINE
  5
21A
330
1F
100
AcDbEntity
  8
0
  6
Continuous
 62
     7
370
    25
100
AcDbLine
 10
59.3207758054
 20
84.1736105364
 30
0.0
 11
61.9298857771
 21
84.1736105364
 31
0.0
  0
LINE
  5
21B
330
1F
100
AcDbEntity
  8
0
  6
Continuous
 62
     7
370
    25
100
AcDbLine
 10
61.9298857771
 20
83.9736104105
 30
0.0
 11
61.9298857771
 21
84.1736105364
 31
0.0
  0
LINE
  5
21C
330
1F
100
AcDbEntity
  8
0
  6
Continuous
 62
     7
370
    25
100
AcDbLine
 10
61.9298857771
 20
82.0978936833
 30
0.0
 11
61.9298857771
 21
83.9736104105
 31
0.0
  0
LINE
  5
21D
330
1F
100
AcDbEntity
  8
0
  6
Continuous
 62
     7
370
    25
100
AcDbLine
 10
54.9389952928
 20
83.9736104105
 30
0.0
 11
52.3298853211
 21
83.9736104105
 31
0.0
  0
LINE
  5
21E
330
1F
100
AcDbEntity
  8
0
  6
Continuous
 62
     7
370
    25
100
AcDbLine
 10
52.3298853211
 20
83.9736104105
 30
0.0
 11
52.3298853211
 21
82.0978936833
 31
0.0
  0
LINE
  5
21F
330
1F
100
AcDbEntity
  8
0
  6
Continuous
 62
     7
370
    25
100
AcDbLine
 10
52.3298853211
 20
83.9736104105
 30
0.0
 11
52.3298853211
 21
84.1736105364
 31
0.0
  0
LINE
  5
220
330
1F
100
AcDbEntity
  8
0
  6
Continuous
 62
     7
370
    25
100
AcDbLine
 10
52.3298853211
 20
84.1736105364
 30
0.0
 11
54.9389952928
 21
84.1736105364
 31
0.0
  0
SPLINE
  5
221
330
1F
100
AcDbEntity
  8
0
  6
Continuous
 62
     7
370
    25
100
AcDbSpline
210
0.0
220
0.0
230
1.0
 70
     8
 71
     3
 72
    10
 73
     6
 74
     0
 42
0.000000001
 43
0.00000001
 40
0.0
 40
0.0
 40
0.0
 40
0.0
 40
0.5
 40
0.5
 40
1.0
 40
1.0
 40
1.0
 40
1.0
 10
54.94937748776857
 20
84.11503184049408
 30
0.0
 10
54.94673881723373
 20
84.13791652350638
 30
0.0
 10
54.94414327506965
 20
84.15256118444665
 30
0.0
 10
54.94027152600891
 20
84.1704081648211
 30
0.0
 10
54.93899531911226
 20
84.17361048425525
 30
0.0
 10
54.93899531911226
 20
84.17361048425525
 30
0.0
  0
LINE
  5
222
330
1F
100
AcDbEntity
  8
0
  6
Continuous
 62
     7
370
    25
100
AcDbLine
 10
59.3207758054
 20
72.373610558
 30
0.0
 11
62.1298854374
 21
72.373610558
 31
0.0
  0
LINE
  5
223
330
1F
100
AcDbEntity
  8
0
  6
Continuous
 62
     7
370
    25
100
AcDbLine
 10
62.1298854374
 20
72.373610558
 30
0.0
 11
62.1298854374
 21
74.5075499732
 31
0.0
  0
LINE
  5
224
330
1F
100
AcDbEntity
  8
0
  6
Continuous
 62
     7
370
    25
100
AcDbLine
 10
52.3298853211
 20
74.2493272852
 30
0.0
 11
52.3298853211
 21
72.373610558
 31
0.0
  0
LINE
  5
225
330
1F
100
AcDbEntity
  8
0
  6
Continuous
 62
     7
370
    25
100
AcDbLine
 10
52.3298853211
 20
72.373610558
 30
0.0
 11
54.9389952928
 21
72.373610558
 31
0.0
  0
LINE
  5
226
330
1F
100
AcDbEntity
  8
0
  6
Continuous
 62
     7
370
    25
100
AcDbLine
 10
61.9298857771
 20
72.1736104321
 30
0.0
 11
59.3207758054
 21
72.1736104321
 31
0.0
  0
SPLINE
  5
227
330
1F
100
AcDbEntity
  8
0
  6
Continuous
 62
     7
370
    25
100
AcDbSpline
210
0.0
220
0.0
230
1.0
 70
     8
 71
     3
 72
    10
 73
     6
 74
     0
 42
0.000000001
 43
0.00000001
 40
0.0
 40
0.0
 40
0.0
 40
0.0
 40
0.5
 40
0.5
 40
1.0
 40
1.0
 40
1.0
 40
1.0
 10
59.31039361049729
 20
72.2321891280164
 30
0.0
 10
59.31303228103213
 20
72.20930444500412
 30
0.0
 10
59.3156278231962
 20
72.19465978406382
 30
0.0
 10
59.31949957225694
 20
72.17681280368939
 30
0.0
 10
59.32077577915359
 20
72.17361048425525
 30
0.0
 10
59.32077577915359
 20
72.17361048425525
 30
0.0
  0
ARC
  5
228
330
1F
100
AcDbEntity
  8
0
  6
Continuous
 62
     7
370
    25
100
AcDbCircle
 10
61.9298855491
 20
72.3736104843
 30
0.0
 40
0.1999999999999957
100
AcDbArc
 50
270.0
 51
0.0
  0
SPLINE
  5
229
330
1F
100
AcDbEntity
  8
0
  6
Continuous
 62
     7
370
    25
100
AcDbSpline
210
0.0
220
0.0
230
1.0
 70
     8
 71
     3
 72
    10
 73
     6
 74
     0
 42
0.000000001
 43
0.00000001
 40
0.0
 40
0.0
 40
0.0
 40
0.0
 40
0.5
 40
0.5
 40
1.0
 40
1.0
 40
1.0
 40
1.0
 10
54.94937748776857
 20
72.2321891280164
 30
0.0
 10
54.94673881723373
 20
72.20930444500412
 30
0.0
 10
54.94414327506965
 20
72.19465978406382
 30
0.0
 10
54.94027152600891
 20
72.17681280368939
 30
0.0
 10
54.93899531911226
 20
72.17361048425525
 30
0.0
 10
54.93899531911226
 20
72.17361048425525
 30
0.0
  0
LINE
  5
22A
330
1F
100
AcDbEntity
  8
0
  6
Continuous
 62
     7
370
    25
100
AcDbLine
 10
54.9389952928
 20
72.1736104321
 30
0.0
 11
52.3298853211
 21
72.1736104321
 31
0.0
  0
LINE
  5
22B
330
1F
100
AcDbEntity
  8
0
  6
Continuous
 62
     7
370
    25
100
AcDbLine
 10
52.3298853211
 20
72.373610558
 30
0.0
 11
52.3298853211
 21
72.1736104321
 31
0.0
  0
LINE
  5
22C
330
1F
100
AcDbEntity
  8
0
  6
Continuous
 62
     7
370
    25
100
AcDbLine
 10
56.9556417311
 20
84.1736105364
 30
0.0
 11
54.9389952928
 21
84.1736105364
 31
0.0
  0
LINE
  5
22D
330
1F
100
AcDbEntity
  8
0
  6
Continuous
 62
     7
370
    25
100
AcDbLine
 10
59.3207758054
 20
84.1736105364
 30
0.0
 11
57.3041293672
 21
84.1736105364
 31
0.0
  0
LINE
  5
22E
330
1F
100
AcDbEntity
  8
0
  6
Continuous
 62
     7
370
    25
100
AcDbLine
 10
54.9389952928
 20
72.1736104321
 30
0.0
 11
56.199950878
 21
72.1736104321
 31
0.0
  0
LINE
  5
22F
330
1F
100
AcDbEntity
  8
0
  6
Continuous
 62
     7
370
    25
100
AcDbLine
 10
58.0429564132
 20
72.1736104321
 30
0.0
 11
59.3207758054
 21
72.1736104321
 31
0.0
  0
ARC
  5
230
330
1F
100
AcDbEntity
  8
0
  6
Continuous
 62
     7
370
    25
100
AcDbCircle
 10
61.9298855491
 20
83.9736104843
 30
0.0
 40
0.2000000000000028
100
AcDbArc
 50
0.0
 51
90.0
  0
LINE
  5
231
330
1F
100
AcDbEntity
  8
0
  6
Continuous
 62
     7
370
    25
100
AcDbLine
 10
61.9298857771
 20
83.9736104105
 30
0.0
 11
62.1298854374
 21
83.9736104105
 31
0.0
  0
LINE
  5
232
330
1F
100
AcDbEntity
  8
0
  6
Continuous
 62
     7
370
    25
100
AcDbLine
 10
62.1298854374
 20
83.9736104105
 30
0.0
 11
62.1298854374
 21
81.5499991738
 31
0.0
  0
LINE
  5
233
330
1F
100
AcDbEntity
  8
0
  6
Continuous
 62
     7
370
    25
100
AcDbLine
 10
52.3298853211
 20
83.9736104105
 30
0.0
 11
52.1298856609
 21
83.9736104105
 31
0.0
  0
ARC
  5
234
330
1F
100
AcDbEntity
  8
0
  6
Continuous
 62
     7
370
    25
100
AcDbCircle
 10
52.3298855491
 20
83.9736104843
 30
0.0
 40
0.2000000000000028
100
AcDbArc
 50
90.0
 51
180.0
  0
LINE
  5
235
330
1F
100
AcDbEntity
  8
0
  6
Continuous
 62
     7
370
    25
100
AcDbLine
 10
52.1298856609
 20
81.5499991738
 30
0.0
 11
52.1298856609
 21
83.9736104105
 31
0.0
  0
LINE
  5
236
330
1F
100
AcDbEntity
  8
0
  6
Continuous
 62
     7
370
    25
100
AcDbLine
 10
52.3298853211
 20
72.373610558
 30
0.0
 11
52.1298856609
 21
72.373610558
 31
0.0
  0
LINE
  5
237
330
1F
100
AcDbEntity
  8
0
  6
Continuous
 62
     7
370
    25
100
AcDbLine
 10
52.1298856609
 20
72.373610558
 30
0.0
 11
52.1298856609
 21
74.7972217948
 31
0.0
  0
ARC
  5
238
330
1F
100
AcDbEntity
  8
0
  6
Continuous
 62
     7
370
    25
100
AcDbCircle
 10
52.3298855491
 20
72.3736104843
 30
0.0
 40
0.1999999999999957
100
AcDbArc
 50
180.0
 51
270.0
  0
LWPOLYLINE
  5
239
330
1F
100
AcDbEntity
  8
0
  6
Continuous
 62
     7
370
    25
100
AcDbPolyline
 90
        9
 70
   128
 43
0.0
 10
62.5642002695
 20
81.0619959235
 10
62.5342247211
 20
81.0506892018
 10
62.505084569
 20
81.0423801746
 10
62.477591461
 20
81.0373005085
 10
62.4525118754
 20
81.0355912987
 10
62.4305438385
 20
81.0373005085
 10
62.4123001606
 20
81.0423801746
 10
62.3982884124
 20
81.0506892018
 10
62.3888997496
 20
81.0619959235
  0
ELLIPSE
  5
23A
330
1F
100
AcDbEntity
  8
0
  6
Continuous
 62
     7
370
    25
100
AcDbEllipse
 10
57.1298855491
 20
78.1736104843
 30
0.0
 11
6.200000000000002
 21
0.0
 31
0.0
210
0.0
220
0.0
230
1.0
 40
0.9677419355
 41
5.780936796291605
 42
6.785433818067581
  0
SPLINE
  5
23B
330
1F
100
AcDbEntity
  8
0
  6
Continuous
 62
     7
370
    25
100
AcDbSpline
210
0.0
220
0.0
230
1.0
 70
     8
 71
     3
 72
     8
 73
     4
 74
     0
 42
0.000000001
 43
0.00000001
 40
0.0
 40
0.0
 40
0.0
 40
0.0
 40
1.0
 40
1.0
 40
1.0
 40
1.0
 10
62.38506464763498
 20
75.24772877146611
 30
0.0
 10
62.42776383260335
 20
75.27254582029828
 30
0.0
 10
62.49661410460432
 20
75.28524166950682
 30
0.0
 10
62.56420012418369
 20
75.28522501057088
 30
0.0
  0
SPLINE
  5
23C
330
1F
100
AcDbEntity
  8
0
  6
Continuous
 62
     7
370
    25
100
AcDbSpline
210
0.0
220
0.0
230
1.0
 70
     8
 71
     3
 72
     8
 73
     4
 74
     0
 42
0.000000001
 43
0.00000001
 40
0.0
 40
0.0
 40
0.0
 40
0.0
 40
1.0
 40
1.0
 40
1.0
 40
1.0
 10
62.38506464763499
 20
75.24772877146613
 30
0.0
 10
62.36749466530771
 20
75.23751698148186
 30
0.0
 10
62.35305985164524
 20
75.22081257166907
 30
0.0
 10
62.34127697213237
 20
75.20016140342548
 30
0.0
  0
LWPOLYLINE
  5
23D
330
1F
100
AcDbEntity
  8
0
  6
Continuous
 62
     7
370
    25
100
AcDbPolyline
 90
        9
 70
   128
 43
0.0
 10
51.8708713487
 20
75.285225045
 10
51.8614826858
 20
75.2965317667
 10
51.8474709377
 20
75.3048407939
 10
51.8292272598
 20
75.30992046
 10
51.8072592229
 20
75.3116296698
 10
51.7821796373
 20
75.30992046
 10
51.7546865292
 20
75.3048407939
 10
51.7255463772
 20
75.2965317667
 10
51.6955708288
 20
75.285225045
  0
ELLIPSE
  5
23E
330
1F
100
AcDbEntity
  8
0
  6
Continuous
 62
     7
370
    25
100
AcDbEllipse
 10
57.1298855491
 20
78.1736104843
 30
0.0
 11
6.200000000000002
 21
0.0
 31
0.0
210
0.0
220
0.0
230
1.0
 40
0.9677419355
 41
2.639344142701795
 42
3.6438411644778
  0
LWPOLYLINE
  5
23F
330
1F
100
AcDbEntity
  8
0
  6
Continuous
 62
     7
370
    25
100
AcDbPolyline
 90
        9
 70
   128
 43
0.0
 10
51.8708713487
 20
81.0619959235
 10
51.8614826858
 20
81.0506892018
 10
51.8474709377
 20
81.0423801746
 10
51.8292272598
 20
81.0373005085
 10
51.8072592229
 20
81.0355912987
 10
51.7821796373
 20
81.0373005085
 10
51.7546865292
 20
81.0423801746
 10
51.7255463772
 20
81.0506892018
 10
51.6955708288
 20
81.0619959235
  0
SPLINE
  5
240
330
1F
100
AcDbEntity
  8
0
  6
Continuous
 62
     7
370
    25
100
AcDbSpline
210
0.0
220
0.0
230
1.0
 70
    24
 71
     3
 72
    14
 73
    10
 74
     0
 42
0.000000001
 43
0.00000001
 40
0.0
 40
0.0
 40
0.0
 40
0.0
 40
0.25
 40
0.25
 40
0.5
 40
0.5
 40
0.75
 40
0.75
 40
1.0
 40
1.0
 40
1.0
 40
1.0
 10
50.42988554913293
 20
84.17361048425525
 30
0.0
 10
50.42988554913293
 20
84.17361048425525
 30
0.0
 10
50.42988554913293
 20
84.16564506562143
 30
0.0
 10
50.42988554913293
 20
84.13371188887601
 30
0.0
 10
50.42988554913293
 20
84.10974389783203
 30
0.0
 10
50.42988554913293
 20
84.0455940846723
 30
0.0
 10
50.42988554913293
 20
84.00541178316976
 30
0.0
 10
50.42988554913293
 20
83.90849248685018
 30
0.0
 10
50.42988554913293
 20
83.85175473942016
 30
0.0
 10
50.42988554913293
 20
83.7865137100617
 30
0.0
  0
LINE
  5
241
330
1F
100
AcDbEntity
  8
0
  6
Continuous
 62
     7
370
    25
100
AcDbLine
 10
50.4298857548
 20
81.971304128
 30
0.0
 11
50.4298857548
 21
83.7865137589
 31
0.0
  0
SPLINE
  5
242
330
1F
100
AcDbEntity
  8
0
  6
Continuous
 62
     7
370
    25
100
AcDbSpline
210
0.0
220
0.0
230
1.0
 70
     8
 71
     3
 72
    12
 73
     8
 74
     0
 42
0.000000001
 43
0.00000001
 40
0.0
 40
0.0
 40
0.0
 40
0.0
 40
0.5000000000000007
 40
0.5000000000000007
 40
0.7500000000000003
 40
0.7500000000000003
 40
1.0
 40
1.0
 40
1.0
 40
1.0
 10
50.42988554913293
 20
81.97130407206464
 30
0.0
 10
50.42988554913293
 20
81.86266920250343
 30
0.0
 10
50.4592931737154
 20
81.75141546144255
 30
0.0
 10
50.55094973878381
 20
81.59901720155968
 30
0.0
 10
50.59031148475409
 20
81.54980767003698
 30
0.0
 10
50.6927377049397
 20
81.47073271607009
 30
0.0
 10
50.75887456841008
 20
81.44108332608765
 30
0.0
 10
50.82988554913293
 20
81.44108332608765
 30
0.0
  0
LINE
  5
243
330
1F
100
AcDbEntity
  8
0
  6
Continuous
 62
     7
370
    25
100
AcDbLine
 10
51.129885497
 20
81.441083327
 30
0.0
 11
50.8298855409
 21
81.441083327
 31
0.0
  0
SPLINE
  5
244
330
1F
100
AcDbEntity
  8
0
  6
Continuous
 62
     7
370
    25
100
AcDbSpline
210
0.0
220
0.0
230
1.0
 70
     8
 71
     3
 72
    10
 73
     6
 74
     0
 42
0.000000001
 43
0.00000001
 40
0.0
 40
0.0
 40
0.0
 40
0.0
 40
0.5
 40
0.5
 40
1.0
 40
1.0
 40
1.0
 40
1.0
 10
51.69557097408212
 20
81.06199595793967
 30
0.0
 10
51.63919247500638
 20
81.16133552298209
 30
0.0
 10
51.56798319958752
 20
81.25217799715462
 30
0.0
 10
51.37732123602463
 20
81.39404832227017
 30
0.0
 10
51.25749941059032
 20
81.44108332608765
 30
0.0
 10
51.12988554913293
 20
81.44108332608765
 30
0.0
  0
SPLINE
  5
245
330
1F
100
AcDbEntity
  8
0
  6
Continuous
 62
     7
370
    25
100
AcDbSpline
210
0.0
220
0.0
230
1.0
 70
     8
 71
     3
 72
    10
 73
     6
 74
     0
 42
0.000000001
 43
0.00000001
 40
0.0
 40
0.0
 40
0.0
 40
0.0
 40
0.5
 40
0.5
 40
1.0
 40
1.0
 40
1.0
 40
1.0
 10
51.12988554913293
 20
74.90613764242283
 30
0.0
 10
51.25749941059033
 20
74.90613764242283
 30
0.0
 10
51.37732123602467
 20
74.95317264624033
 30
0.0
 10
51.56798319958756
 20
75.09504297135591
 30
0.0
 10
51.6391924750064
 20
75.18588544552841
 30
0.0
 10
51.69557097408214
 20
75.28522501057084
 30
0.0
  0
LINE
  5
246
330
1F
100
AcDbEntity
  8
0
  6
Continuous
 62
     7
370
    25
100
AcDbLine
 10
50.8298855409
 20
74.9061376415
 30
0.0
 11
51.129885497
 21
74.9061376415
 31
0.0
  0
SPLINE
  5
247
330
1F
100
AcDbEntity
  8
0
  6
Continuous
 62
     7
370
    25
100
AcDbSpline
210
0.0
220
0.0
230
1.0
 70
     8
 71
     3
 72
    14
 73
    10
 74
     0
 42
0.000000001
 43
0.00000001
 40
0.0
 40
0.0
 40
0.0
 40
0.0
 40
0.25
 40
0.25
 40
0.5
 40
0.5
 40
0.75
 40
0.75
 40
1.0
 40
1.0
 40
1.0
 40
1.0
 10
50.82988554913292
 20
74.90613764242285
 30
0.0
 10
50.75893185959269
 20
74.90613764242285
 30
0.0
 10
50.6927452153341
 20
74.87650539669119
 30
0.0
 10
50.59021555299316
 20
74.7973278814883
 30
0.0
 10
50.5508833186076
 20
74.74815561302043
 30
0.0
 10
50.48957784124088
 20
74.64609749391329
 30
0.0
 10
50.46723010747117
 20
74.59191617321783
 30
0.0
 10
50.43756285276826
 20
74.4843575960634
 30
0.0
 10
50.42988554913293
 20
74.43028052512757
 30
0.0
 10
50.42988554913293
 20
74.37591689644584
 30
0.0
  0
LINE
  5
248
330
1F
100
AcDbEntity
  8
0
  6
Continuous
 62
     7
370
    25
100
AcDbLine
 10
50.4298857548
 20
72.5607072097
 30
0.0
 11
50.4298857548
 21
74.3759168405
 31
0.0
  0
SPLINE
  5
249
330
1F
100
AcDbEntity
  8
0
  6
Continuous
 62
     7
370
    25
100
AcDbSpline
210
0.0
220
0.0
230
1.0
 70
    24
 71
     3
 72
    14
 73
    10
 74
     0
 42
0.000000001
 43
0.00000001
 40
0.0
 40
0.0
 40
0.0
 40
0.0
 40
0.25
 40
0.25
 40
0.5
 40
0.5
 40
0.75
 40
0.75
 40
1.0
 40
1.0
 40
1.0
 40
1.0
 10
50.42988554913293
 20
72.17361048425525
 30
0.0
 10
50.42988554913293
 20
72.17361048425525
 30
0.0
 10
50.42988554913293
 20
72.18157590288905
 30
0.0
 10
50.42988554913293
 20
72.21350907963448
 30
0.0
 10
50.42988554913293
 20
72.23747707067844
 30
0.0
 10
50.42988554913293
 20
72.3016268838382
 30
0.0
 10
50.42988554913293
 20
72.34180918534072
 30
0.0
 10
50.42988554913293
 20
72.4387284816603
 30
0.0
 10
50.42988554913293
 20
72.49546622909033
 30
0.0
 10
50.42988554913293
 20
72.56070725844879
 30
0.0
  0
SPLINE
  5
24A
330
1F
100
AcDbEntity
  8
0
  6
Continuous
 62
     7
370
    25
100
AcDbSpline
210
0.0
220
0.0
230
1.0
 70
    24
 71
     3
 72
    14
 73
    10
 74
     0
 42
0.000000001
 43
0.00000001
 40
0.0
 40
0.0
 40
0.0
 40
0.0
 40
0.25
 40
0.25
 40
0.5
 40
0.5
 40
0.75
 40
0.75
 40
1.0
 40
1.0
 40
1.0
 40
1.0
 10
63.82988554913292
 20
72.17361048425525
 30
0.0
 10
63.82988554913292
 20
72.17361048425525
 30
0.0
 10
63.82988554913292
 20
72.18157590288905
 30
0.0
 10
63.82988554913292
 20
72.21350907963448
 30
0.0
 10
63.82988554913292
 20
72.23747707067844
 30
0.0
 10
63.82988554913292
 20
72.3016268838382
 30
0.0
 10
63.82988554913292
 20
72.34180918534072
 30
0.0
 10
63.82988554913292
 20
72.4387284816603
 30
0.0
 10
63.82988554913292
 20
72.49546622909033
 30
0.0
 10
63.82988554913292
 20
72.56070725844879
 30
0.0
  0
LINE
  5
24B
330
1F
100
AcDbEntity
  8
0
  6
Continuous
 62
     7
370
    25
100
AcDbLine
 10
63.8298853435
 20
74.3759168405
 30
0.0
 11
63.8298853435
 21
72.5607072097
 31
0.0
  0
SPLINE
  5
24C
330
1F
100
AcDbEntity
  8
0
  6
Continuous
 62
     7
370
    25
100
AcDbSpline
210
0.0
220
0.0
230
1.0
 70
     8
 71
     3
 72
    12
 73
     8
 74
     0
 42
0.000000001
 43
0.00000001
 40
0.0
 40
0.0
 40
0.0
 40
0.0
 40
0.4999999999999979
 40
0.4999999999999979
 40
0.7499999999999989
 40
0.7499999999999989
 40
1.0
 40
1.0
 40
1.0
 40
1.0
 10
63.82988554913292
 20
74.37591689644583
 30
0.0
 10
63.82988554913292
 20
74.48455176600704
 30
0.0
 10
63.80047792455046
 20
74.59580550706794
 30
0.0
 10
63.70882135948204
 20
74.7482037669508
 30
0.0
 10
63.66945961351175
 20
74.79741329847349
 30
0.0
 10
63.56703339332614
 20
74.87648825244041
 30
0.0
 10
63.50089652985577
 20
74.90613764242283
 30
0.0
 10
63.42988554913291
 20
74.90613764242282
 30
0.0
  0
LINE
  5
24D
330
1F
100
AcDbEntity
  8
0
  6
Continuous
 62
     7
370
    25
100
AcDbLine
 10
63.1298856013
 20
74.9061376415
 30
0.0
 11
63.4298855573
 21
74.9061376415
 31
0.0
  0
SPLINE
  5
24E
330
1F
100
AcDbEntity
  8
0
  6
Continuous
 62
     7
370
    25
100
AcDbSpline
210
0.0
220
0.0
230
1.0
 70
     8
 71
     3
 72
    10
 73
     6
 74
     0
 42
0.000000001
 43
0.00000001
 40
0.0
 40
0.0
 40
0.0
 40
0.0
 40
0.5
 40
0.5
 40
1.0
 40
1.0
 40
1.0
 40
1.0
 10
62.56420012418372
 20
75.28522501057081
 30
0.0
 10
62.62057862325947
 20
75.1858854455284
 30
0.0
 10
62.69178789867833
 20
75.09504297135587
 30
0.0
 10
62.88244986224122
 20
74.95317264624032
 30
0.0
 10
63.00227168767552
 20
74.90613764242283
 30
0.0
 10
63.12988554913293
 20
74.90613764242283
 30
0.0
  0
SPLINE
  5
24F
330
1F
100
AcDbEntity
  8
0
  6
Continuous
 62
     7
370
    25
100
AcDbSpline
210
0.0
220
0.0
230
1.0
 70
     8
 71
     3
 72
    10
 73
     6
 74
     0
 42
0.000000001
 43
0.00000001
 40
0.0
 40
0.0
 40
0.0
 40
0.0
 40
0.5
 40
0.5
 40
1.0
 40
1.0
 40
1.0
 40
1.0
 10
63.12988554913293
 20
81.44108332608765
 30
0.0
 10
63.00227168767552
 20
81.44108332608765
 30
0.0
 10
62.88244986224119
 20
81.39404832227015
 30
0.0
 10
62.6917878986783
 20
81.25217799715458
 30
0.0
 10
62.62057862325945
 20
81.16133552298207
 30
0.0
 10
62.56420012418371
 20
81.06199595793964
 30
0.0
  0
LINE
  5
250
330
1F
100
AcDbEntity
  8
0
  6
Continuous
 62
     7
370
    25
100
AcDbLine
 10
63.4298855573
 20
81.441083327
 30
0.0
 11
63.1298856013
 21
81.441083327
 31
0.0
  0
SPLINE
  5
251
330
1F
100
AcDbEntity
  8
0
  6
Continuous
 62
     7
370
    25
100
AcDbSpline
210
0.0
220
0.0
230
1.0
 70
     8
 71
     3
 72
    14
 73
    10
 74
     0
 42
0.000000001
 43
0.00000001
 40
0.0
 40
0.0
 40
0.0
 40
0.0
 40
0.25
 40
0.25
 40
0.5
 40
0.5
 40
0.75
 40
0.75
 40
1.0
 40
1.0
 40
1.0
 40
1.0
 10
63.42988554913293
 20
81.44108332608764
 30
0.0
 10
63.50083923867317
 20
81.44108332608764
 30
0.0
 10
63.56702588293174
 20
81.4707155718193
 30
0.0
 10
63.66955554527268
 20
81.5498930870222
 30
0.0
 10
63.70888777965825
 20
81.59906535549007
 30
0.0
 10
63.77019325702496
 20
81.7011234745972
 30
0.0
 10
63.79254099079469
 20
81.75530479529267
 30
0.0
 10
63.82220824549758
 20
81.8628633724471
 30
0.0
 10
63.82988554913292
 20
81.91694044338293
 30
0.0
 10
63.82988554913292
 20
81.97130407206465
 30
0.0
  0
LINE
  5
252
330
1F
100
AcDbEntity
  8
0
  6
Continuous
 62
     7
370
    25
100
AcDbLine
 10
63.8298853435
 20
83.7865137589
 30
0.0
 11
63.8298853435
 21
81.971304128
 31
0.0
  0
SPLINE
  5
253
330
1F
100
AcDbEntity
  8
0
  6
Continuous
 62
     7
370
    25
100
AcDbSpline
210
0.0
220
0.0
230
1.0
 70
    24
 71
     3
 72
    14
 73
    10
 74
     0
 42
0.000000001
 43
0.00000001
 40
0.0
 40
0.0
 40
0.0
 40
0.0
 40
0.25
 40
0.25
 40
0.5
 40
0.5
 40
0.75
 40
0.75
 40
1.0
 40
1.0
 40
1.0
 40
1.0
 10
63.82988554913292
 20
84.17361048425525
 30
0.0
 10
63.82988554913292
 20
84.17361048425525
 30
0.0
 10
63.82988554913292
 20
84.16564506562143
 30
0.0
 10
63.82988554913292
 20
84.13371188887601
 30
0.0
 10
63.82988554913292
 20
84.10974389783203
 30
0.0
 10
63.82988554913292
 20
84.0455940846723
 30
0.0
 10
63.82988554913292
 20
84.00541178316976
 30
0.0
 10
63.82988554913292
 20
83.90849248685018
 30
0.0
 10
63.82988554913292
 20
83.85175473942016
 30
0.0
 10
63.82988554913292
 20
83.7865137100617
 30
0.0
  0
LINE
  5
254
330
1F
100
AcDbEntity
  8
0
  6
Continuous
 62
     7
370
    25
100
AcDbLine
 10
63.1298856013
 20
83.9736104105
 30
0.0
 11
62.1298854374
 21
83.9736104105
 31
0.0
  0
LINE
  5
255
330
1F
100
AcDbEntity
  8
0
  6
Continuous
 62
     7
370
    25
100
AcDbLine
 10
63.1298856013
 20
83.9736104105
 30
0.0
 11
63.1298856013
 21
84.1736105364
 31
0.0
  0
LINE
  5
256
330
1F
100
AcDbEntity
  8
0
  6
Continuous
 62
     7
370
    25
100
AcDbLine
 10
61.9298857771
 20
84.1736105364
 30
0.0
 11
63.1298856013
 21
84.1736105364
 31
0.0
  0
LINE
  5
257
330
1F
100
AcDbEntity
  8
0
  6
Continuous
 62
     7
370
    25
100
AcDbLine
 10
52.1298856609
 20
83.9736104105
 30
0.0
 11
51.129885497
 21
83.9736104105
 31
0.0
  0
LINE
  5
258
330
1F
100
AcDbEntity
  8
0
  6
Continuous
 62
     7
370
    25
100
AcDbLine
 10
51.129885497
 20
83.9736104105
 30
0.0
 11
51.129885497
 21
84.1736105364
 31
0.0
  0
LINE
  5
259
330
1F
100
AcDbEntity
  8
0
  6
Continuous
 62
     7
370
    25
100
AcDbLine
 10
51.129885497
 20
84.1736105364
 30
0.0
 11
52.3298853211
 21
84.1736105364
 31
0.0
  0
LINE
  5
25A
330
1F
100
AcDbEntity
  8
0
  6
Continuous
 62
     7
370
    25
100
AcDbLine
 10
51.129885497
 20
81.5499991738
 30
0.0
 11
51.129885497
 21
83.9736104105
 31
0.0
  0
SPLINE
  5
25B
330
1F
100
AcDbEntity
  8
0
  6
Continuous
 62
     7
370
    25
100
AcDbSpline
210
0.0
220
0.0
230
1.0
 70
     8
 71
     3
 72
    10
 73
     6
 74
     0
 42
0.000000001
 43
0.00000001
 40
0.0
 40
0.0
 40
0.0
 40
0.0
 40
0.5
 40
0.5
 40
1.0
 40
1.0
 40
1.0
 40
1.0
 10
51.83699233031947
 20
81.15827547372908
 30
0.0
 10
51.9113723136437
 20
81.26661707424945
 30
0.0
 10
51.98267348344081
 20
81.36241698157112
 30
0.0
 10
52.09393764583223
 20
81.50636420428346
 30
0.0
 10
52.12988554913292
 20
81.54999908748208
 30
0.0
 10
52.12988554913292
 20
81.54999908748208
 30
0.0
  0
SPLINE
  5
25C
330
1F
100
AcDbEntity
  8
0
  6
Continuous
 62
     7
370
    25
100
AcDbSpline
210
0.0
220
0.0
230
1.0
 70
     8
 71
     3
 72
    10
 73
     6
 74
     0
 42
0.000000001
 43
0.00000001
 40
0.0
 40
0.0
 40
0.0
 40
0.0
 40
0.5
 40
0.5
 40
1.0
 40
1.0
 40
1.0
 40
1.0
 10
51.12988554913293
 20
81.54999908748206
 30
0.0
 10
51.28173320315699
 20
81.54999908748206
 30
0.0
 10
51.42705860115016
 20
81.50636420428346
 30
0.0
 10
51.66882989421362
 20
81.3624169815711
 30
0.0
 10
51.76261234699524
 20
81.26661707424945
 30
0.0
 10
51.83699233031947
 20
81.15827547372908
 30
0.0
  0
LINE
  5
25D
330
1F
100
AcDbEntity
  8
0
  6
Continuous
 62
     7
370
    25
100
AcDbLine
 10
63.1298856013
 20
83.9736104105
 30
0.0
 11
63.1298856013
 21
81.5499991738
 31
0.0
  0
SPLINE
  5
25E
330
1F
100
AcDbEntity
  8
0
  6
Continuous
 62
     7
370
    25
100
AcDbSpline
210
0.0
220
0.0
230
1.0
 70
     8
 71
     3
 72
    10
 73
     6
 74
     0
 42
0.000000001
 43
0.00000001
 40
0.0
 40
0.0
 40
0.0
 40
0.0
 40
0.5
 40
0.5
 40
1.0
 40
1.0
 40
1.0
 40
1.0
 10
62.42277876794638
 20
81.15827547372909
 30
0.0
 10
62.4971587512706
 20
81.26661707424945
 30
0.0
 10
62.59094120405223
 20
81.36241698157112
 30
0.0
 10
62.83271249711569
 20
81.50636420428346
 30
0.0
 10
62.97803789510886
 20
81.54999908748208
 30
0.0
 10
63.12988554913293
 20
81.54999908748208
 30
0.0
  0
SPLINE
  5
25F
330
1F
100
AcDbEntity
  8
0
  6
Continuous
 62
     7
370
    25
100
AcDbSpline
210
0.0
220
0.0
230
1.0
 70
     8
 71
     3
 72
    10
 73
     6
 74
     0
 42
0.000000001
 43
0.00000001
 40
0.0
 40
0.0
 40
0.0
 40
0.0
 40
0.5
 40
0.5
 40
1.0
 40
1.0
 40
1.0
 40
1.0
 10
62.12988554913293
 20
81.54999908748208
 30
0.0
 10
62.12988554913292
 20
81.54999908748208
 30
0.0
 10
62.16583345243362
 20
81.50636420428346
 30
0.0
 10
62.27709761482504
 20
81.3624169815711
 30
0.0
 10
62.34839878462215
 20
81.26661707424945
 30
0.0
 10
62.42277876794638
 20
81.15827547372909
 30
0.0
  0
ARC
  5
260
330
1F
100
AcDbEntity
  8
0
  6
Continuous
 62
     7
370
    25
100
AcDbCircle
 10
62.4789657411
 20
81.0844038102
 30
0.0
 40
0.0928116168452347
100
AcDbArc
 50
127.2565853611
 51
193.9711959526
  0
ARC
  5
261
330
1F
100
AcDbEntity
  8
0
  6
Continuous
 62
     7
370
    25
100
AcDbCircle
 10
51.7808053571
 20
81.0844038102
 30
0.0
 40
0.0928116168452347
100
AcDbArc
 50
346.0288040474
 51
52.7434146389
  0
SPLINE
  5
262
330
1F
100
AcDbEntity
  8
0
  6
Continuous
 62
     7
370
    25
100
AcDbSpline
210
0.0
220
0.0
230
1.0
 70
     8
 71
     3
 72
    10
 73
     6
 74
     0
 42
0.000000001
 43
0.00000001
 40
0.0
 40
0.0
 40
0.0
 40
0.0
 40
0.5
 40
0.5
 40
1.0
 40
1.0
 40
1.0
 40
1.0
 10
52.12988554913292
 20
74.79722188102842
 30
0.0
 10
52.12988554913293
 20
74.79722188102842
 30
0.0
 10
52.09393764583223
 20
74.84085676422703
 30
0.0
 10
51.98267348344081
 20
74.98480398693938
 30
0.0
 10
51.9113723136437
 20
75.08060389426103
 30
0.0
 10
51.83699233031947
 20
75.18894549478141
 30
0.0
  0
ARC
  5
263
330
1F
100
AcDbEntity
  8
0
  6
Continuous
 62
     7
370
    25
100
AcDbCircle
 10
51.7808053571
 20
75.2628171583
 30
0.0
 40
0.0928116168452347
100
AcDbArc
 50
307.2565853611
 51
13.9711959526
  0
LINE
  5
264
330
1F
100
AcDbEntity
  8
0
  6
Continuous
 62
     7
370
    25
100
AcDbLine
 10
51.129885497
 20
72.373610558
 30
0.0
 11
52.1298856609
 21
72.373610558
 31
0.0
  0
LINE
  5
265
330
1F
100
AcDbEntity
  8
0
  6
Continuous
 62
     7
370
    25
100
AcDbLine
 10
51.129885497
 20
72.373610558
 30
0.0
 11
51.129885497
 21
74.7972217948
 31
0.0
  0
SPLINE
  5
266
330
1F
100
AcDbEntity
  8
0
  6
Continuous
 62
     7
370
    25
100
AcDbSpline
210
0.0
220
0.0
230
1.0
 70
     8
 71
     3
 72
    10
 73
     6
 74
     0
 42
0.000000001
 43
0.00000001
 40
0.0
 40
0.0
 40
0.0
 40
0.0
 40
0.5
 40
0.5
 40
1.0
 40
1.0
 40
1.0
 40
1.0
 10
51.83699233031947
 20
75.18894549478141
 30
0.0
 10
51.76261234699525
 20
75.08060389426103
 30
0.0
 10
51.66882989421362
 20
74.98480398693938
 30
0.0
 10
51.42705860115016
 20
74.84085676422703
 30
0.0
 10
51.28173320315699
 20
74.79722188102842
 30
0.0
 10
51.12988554913293
 20
74.79722188102843
 30
0.0
  0
LINE
  5
267
330
1F
100
AcDbEntity
  8
0
  6
Continuous
 62
     7
370
    25
100
AcDbLine
 10
62.1298854374
 20
72.373610558
 30
0.0
 11
63.1298856013
 21
72.373610558
 31
0.0
  0
SPLINE
  5
268
330
1F
100
AcDbEntity
  8
0
  6
Continuous
 62
     7
370
    25
100
AcDbSpline
210
0.0
220
0.0
230
1.0
 70
     8
 71
     3
 72
    10
 73
     6
 74
     0
 42
0.000000001
 43
0.00000001
 40
0.0
 40
0.0
 40
0.0
 40
0.0
 40
0.5
 40
0.5
 40
1.0
 40
1.0
 40
1.0
 40
1.0
 10
63.12988554913293
 20
74.79722188102842
 30
0.0
 10
62.96447592998111
 20
74.79722188102842
 30
0.0
 10
62.80627254692565
 20
74.84979206645068
 30
0.0
 10
62.55397724210692
 20
75.0155483904007
 30
0.0
 10
62.45830609398035
 20
75.12554075537949
 30
0.0
 10
62.38506464763499
 20
75.24772877146613
 30
0.0
  0
LINE
  5
269
330
1F
100
AcDbEntity
  8
0
  6
Continuous
 62
     7
370
    25
100
AcDbLine
 10
63.1298856013
 20
74.7972217948
 30
0.0
 11
63.1298856013
 21
72.373610558
 31
0.0
  0
LINE
  5
26A
330
1F
100
AcDbEntity
  8
0
  6
Continuous
 62
     7
370
    25
100
AcDbLine
 10
51.129885497
 20
72.373610558
 30
0.0
 11
51.129885497
 21
72.1736104321
 31
0.0
  0
LINE
  5
26B
330
1F
100
AcDbEntity
  8
0
  6
Continuous
 62
     7
370
    25
100
AcDbLine
 10
52.3298853211
 20
72.1736104321
 30
0.0
 11
51.129885497
 21
72.1736104321
 31
0.0
  0
LINE
  5
26C
330
1F
100
AcDbEntity
  8
0
  6
Continuous
 62
     7
370
    25
100
AcDbLine
 10
63.1298856013
 20
72.1736104321
 30
0.0
 11
63.1298856013
 21
72.373610558
 31
0.0
  0
LINE
  5
26D
330
1F
100
AcDbEntity
  8
0
  6
Continuous
 62
     7
370
    25
100
AcDbLine
 10
63.1298856013
 20
72.1736104321
 30
0.0
 11
61.9298857771
 21
72.1736104321
 31
0.0
  0
ARC
  5
26E
330
1F
100
AcDbEntity
  8
0
  6
Continuous
 62
     7
370
    25
100
AcDbCircle
 10
51.5380638038
 20
81.4453555655
 30
0.0
 40
0.4144551580180289
100
AcDbArc
 50
292.3357847406
 51
316.1582933691
  0
ARC
  5
26F
330
1F
100
AcDbEntity
  8
0
  6
Continuous
 62
     7
370
    25
100
AcDbCircle
 10
62.7217072944
 20
81.4453555655
 30
0.0
 40
0.4144551580180289
100
AcDbArc
 50
223.8417066309
 51
247.6642152594
  0
ARC
  5
270
330
1F
100
AcDbEntity
  8
0
  6
Continuous
 62
     7
370
    25
100
AcDbCircle
 10
51.5380638038
 20
74.901865403
 30
0.0
 40
0.4144551580180289
100
AcDbArc
 50
43.8417066309
 51
67.6642152594
  0
LINE
  5
271
330
1F
100
AcDbEntity
  8
0
  6
Continuous
 62
     7
370
    25
100
AcDbLine
 10
63.1298856013
 20
74.9061376415
 30
0.0
 11
63.1298856013
 21
74.7972217948
 31
0.0
  0
LINE
  5
272
330
1F
100
AcDbEntity
  8
0
  6
Continuous
 62
     7
370
    25
100
AcDbLine
 10
63.1298856013
 20
81.441083327
 30
0.0
 11
63.1298856013
 21
81.5499991738
 31
0.0
  0
LINE
  5
273
330
1F
100
AcDbEntity
  8
0
  6
Continuous
 62
     7
370
    25
100
AcDbLine
 10
51.129885497
 20
81.5499991738
 30
0.0
 11
51.129885497
 21
81.441083327
 31
0.0
  0
LINE
  5
274
330
1F
100
AcDbEntity
  8
0
  6
Continuous
 62
     7
370
    25
100
AcDbLine
 10
51.129885497
 20
74.9061376415
 30
0.0
 11
51.129885497
 21
74.7972217948
 31
0.0
  0
LINE
  5
275
330
1F
100
AcDbEntity
  8
0
  6
Continuous
 62
     7
370
    25
100
AcDbLine
 10
63.4298855573
 20
81.441083327
 30
0.0
 11
63.4298855573
 21
81.5499991738
 31
0.0
  0
SPLINE
  5
276
330
1F
100
AcDbEntity
  8
0
  6
Continuous
 62
     7
370
    25
100
AcDbSpline
210
0.0
220
0.0
230
1.0
 70
     8
 71
     3
 72
    14
 73
    10
 74
     0
 42
0.000000001
 43
0.00000001
 40
0.0
 40
0.0
 40
0.0
 40
0.0
 40
0.4999999999999998
 40
0.4999999999999998
 40
0.7499999999999997
 40
0.7499999999999997
 40
0.8749999999999998
 40
0.8749999999999998
 40
1.0
 40
1.0
 40
1.0
 40
1.0
 10
63.62988554913293
 20
82.09789385832495
 30
0.0
 10
63.62988554913293
 20
81.99751406637219
 30
0.0
 10
63.61850699549959
 20
81.89680921956959
 30
0.0
 10
63.58076959281099
 20
81.74820478862297
 30
0.0
 10
63.56483543994634
 20
81.69893499010414
 30
0.0
 10
63.52989906033221
 20
81.62957807185492
 30
0.0
 10
63.51630772763023
 20
81.60690193779566
 30
0.0
 10
63.48121354536458
 20
81.56786915075169
 30
0.0
 10
63.45754455548866
 20
81.54999908748208
 30
0.0
 10
63.42988554913293
 20
81.54999908748208
 30
0.0
  0
LWPOLYLINE
  5
277
330
1F
100
AcDbEntity
  8
0
  6
Continuous
 62
     7
370
    25
100
AcDbPolyline
 90
        9
 70
   128
 43
0.0
 10
63.8298853435
 20
81.971304128
 10
63.7908675842
 20
81.9737365097
 10
63.7533487887
 20
81.980940057
 10
63.7187715754
 20
81.9926383999
 10
63.6884640105
 20
82.0083814767
 10
63.6635916442
 20
82.0275643934
 10
63.6451095477
 20
82.0494500082
 10
63.6337283202
 20
82.0731973369
 10
63.6298856832
 20
82.0978936833
  0
LINE
  5
278
330
1F
100
AcDbEntity
  8
0
  6
Continuous
 62
     7
370
    25
100
AcDbLine
 10
50.8298855409
 20
74.9061376415
 30
0.0
 11
50.8298855409
 21
74.7972217948
 31
0.0
  0
SPLINE
  5
279
330
1F
100
AcDbEntity
  8
0
  6
Continuous
 62
     7
370
    25
100
AcDbSpline
210
0.0
220
0.0
230
1.0
 70
     8
 71
     3
 72
    14
 73
    10
 74
     0
 42
0.000000001
 43
0.00000001
 40
0.0
 40
0.0
 40
0.0
 40
0.0
 40
0.4999999999999986
 40
0.4999999999999986
 40
0.7499999999999978
 40
0.7499999999999978
 40
0.8749999999999989
 40
0.8749999999999989
 40
1.0
 40
1.0
 40
1.0
 40
1.0
 10
50.62988554913293
 20
74.24932711018553
 30
0.0
 10
50.62988554913292
 20
74.3497069021383
 30
0.0
 10
50.64126410276625
 20
74.45041174894091
 30
0.0
 10
50.67900150545486
 20
74.59901617988751
 30
0.0
 10
50.6949356583195
 20
74.64828597840636
 30
0.0
 10
50.72987203793363
 20
74.71764289665558
 30
0.0
 10
50.74346337063562
 20
74.74031903071483
 30
0.0
 10
50.77855755290127
 20
74.7793518177588
 30
0.0
 10
50.80222654277719
 20
74.79722188102842
 30
0.0
 10
50.82988554913292
 20
74.79722188102842
 30
0.0
  0
LWPOLYLINE
  5
27A
330
1F
100
AcDbEntity
  8
0
  6
Continuous
 62
     7
370
    25
100
AcDbPolyline
 90
        9
 70
   128
 43
0.0
 10
50.4298857548
 20
74.3759168405
 10
50.468903514
 20
74.3734844588
 10
50.5064223096
 20
74.3662809115
 10
50.5409995228
 20
74.3545825687
 10
50.5713070877
 20
74.3388394919
 10
50.5961794541
 20
74.3196565751
 10
50.6146615506
 20
74.2977709603
 10
50.6260427781
 20
74.2740236316
 10
50.629885415
 20
74.2493272852
  0
SPLINE
  5
27B
330
1F
100
AcDbEntity
  8
0
  6
Continuous
 62
     7
370
    25
100
AcDbSpline
210
0.0
220
0.0
230
1.0
 70
     8
 71
     3
 72
    14
 73
    10
 74
     0
 42
0.000000001
 43
0.00000001
 40
0.0
 40
0.0
 40
0.0
 40
0.0
 40
0.1249999999999999
 40
0.1249999999999999
 40
0.2499999999999999
 40
0.2499999999999999
 40
0.4999999999999998
 40
0.4999999999999998
 40
1.0
 40
1.0
 40
1.0
 40
1.0
 10
50.82988554913292
 20
81.54999908748205
 30
0.0
 10
50.80216029293648
 20
81.54999908748205
 30
0.0
 10
50.77859632579206
 20
81.56783292056132
 30
0.0
 10
50.74346867258524
 20
81.60688915529924
 30
0.0
 10
50.72987617594691
 20
81.6295733550034
 30
0.0
 10
50.69496466371309
 20
81.69887041703768
 30
0.0
 10
50.67901530496999
 20
81.74818082361536
 30
0.0
 10
50.64134627181691
 20
81.8964250313759
 30
0.0
 10
50.62988554913292
 20
81.99754263295952
 30
0.0
 10
50.62988554913292
 20
82.09789385832495
 30
0.0
  0
LINE
  5
27C
330
1F
100
AcDbEntity
  8
0
  6
Continuous
 62
     7
370
    25
100
AcDbLine
 10
50.8298855409
 20
81.5499991738
 30
0.0
 11
50.8298855409
 21
81.441083327
 31
0.0
  0
LWPOLYLINE
  5
27D
330
1F
100
AcDbEntity
  8
0
  6
Continuous
 62
     7
370
    25
100
AcDbPolyline
 90
        9
 70
   128
 43
0.0
 10
50.629885415
 20
82.0978936833
 10
50.6260427781
 20
82.0731973369
 10
50.6146615506
 20
82.0494500082
 10
50.5961794541
 20
82.0275643934
 10
50.5713070877
 20
82.0083814767
 10
50.5409995228
 20
81.9926383999
 10
50.5064223096
 20
81.980940057
 10
50.468903514
 20
81.9737365097
 10
50.4298857548
 20
81.971304128
  0
LWPOLYLINE
  5
27E
330
1F
100
AcDbEntity
  8
0
  6
Continuous
 62
     7
370
    25
100
AcDbPolyline
 90
        9
 70
   128
 43
0.0
 10
63.6298856832
 20
74.2493272852
 10
63.6337283202
 20
74.2740236316
 10
63.6451095477
 20
74.2977709603
 10
63.6635916442
 20
74.3196565751
 10
63.6884640105
 20
74.3388394919
 10
63.7187715754
 20
74.3545825687
 10
63.7533487887
 20
74.3662809115
 10
63.7908675842
 20
74.3734844588
 10
63.8298853435
 20
74.3759168405
  0
SPLINE
  5
27F
330
1F
100
AcDbEntity
  8
0
  6
Continuous
 62
     7
370
    25
100
AcDbSpline
210
0.0
220
0.0
230
1.0
 70
     8
 71
     3
 72
    14
 73
    10
 74
     0
 42
0.000000001
 43
0.00000001
 40
0.0
 40
0.0
 40
0.0
 40
0.0
 40
0.1249999999999984
 40
0.1249999999999984
 40
0.2499999999999969
 40
0.2499999999999969
 40
0.4999999999999972
 40
0.4999999999999972
 40
1.0
 40
1.0
 40
1.0
 40
1.0
 10
63.42988554913293
 20
74.79722188102843
 30
0.0
 10
63.45761080532937
 20
74.79722188102843
 30
0.0
 10
63.48117477247379
 20
74.77938804794915
 30
0.0
 10
63.51630242568061
 20
74.74033181321123
 30
0.0
 10
63.52989492231895
 20
74.7176476135071
 30
0.0
 10
63.56480643455276
 20
74.64835055147282
 30
0.0
 10
63.58075579329586
 20
74.59904014489513
 30
0.0
 10
63.61842482644894
 20
74.45079593713459
 30
0.0
 10
63.62988554913293
 20
74.34967833555096
 30
0.0
 10
63.62988554913293
 20
74.24932711018553
 30
0.0
  0
LINE
  5
280
330
1F
100
AcDbEntity
  8
0
  6
Continuous
 62
     7
370
    25
100
AcDbLine
 10
63.4298855573
 20
74.9061376415
 30
0.0
 11
63.4298855573
 21
74.7972217948
 31
0.0
  0
LINE
  5
281
330
1F
100
AcDbEntity
  8
0
  6
Continuous
 62
     7
370
    25
100
AcDbLine
 10
63.1298856013
 20
81.5499991738
 30
0.0
 11
63.4298855573
 21
81.5499991738
 31
0.0
  0
LINE
  5
282
330
1F
100
AcDbEntity
  8
0
  6
Continuous
 62
     7
370
    25
100
AcDbLine
 10
50.8298855409
 20
81.5499991738
 30
0.0
 11
51.129885497
 21
81.5499991738
 31
0.0
  0
LINE
  5
283
330
1F
100
AcDbEntity
  8
0
  6
Continuous
 62
     7
370
    25
100
AcDbLine
 10
63.4298855573
 20
74.7972217948
 30
0.0
 11
63.1298856013
 21
74.7972217948
 31
0.0
  0
LINE
  5
284
330
1F
100
AcDbEntity
  8
0
  6
Continuous
 62
     7
370
    25
100
AcDbLine
 10
51.129885497
 20
74.7972217948
 30
0.0
 11
50.8298855409
 21
74.7972217948
 31
0.0
  0
LINE
  5
285
330
1F
100
AcDbEntity
  8
0
  6
Continuous
 62
     7
370
    25
100
AcDbLine
 10
51.129885497
 20
83.9736104105
 30
0.0
 11
50.8298855409
 21
83.9736104105
 31
0.0
  0
LINE
  5
286
330
1F
100
AcDbEntity
  8
0
  6
Continuous
 62
     7
370
    25
100
AcDbLine
 10
50.8298855409
 20
83.9736104105
 30
0.0
 11
50.8298855409
 21
84.1736105364
 31
0.0
  0
LINE
  5
287
330
1F
100
AcDbEntity
  8
0
  6
Continuous
 62
     7
370
    25
100
AcDbLine
 10
50.8298855409
 20
84.1736105364
 30
0.0
 11
51.129885497
 21
84.1736105364
 31
0.0
  0
LINE
  5
288
330
1F
100
AcDbEntity
  8
0
  6
Continuous
 62
     7
370
    25
100
AcDbLine
 10
63.6298856832
 20
83.9736104105
 30
0.0
 11
63.4298855573
 21
83.9736104105
 31
0.0
  0
LINE
  5
289
330
1F
100
AcDbEntity
  8
0
  6
Continuous
 62
     7
370
    25
100
AcDbLine
 10
63.4298855573
 20
84.1736105364
 30
0.0
 11
63.4298855573
 21
83.9736104105
 31
0.0
  0
ARC
  5
28A
330
1F
100
AcDbEntity
  8
0
  6
Continuous
 62
     7
370
    25
100
AcDbCircle
 10
63.4298855491
 20
83.9736104843
 30
0.0
 40
0.2000000000000028
100
AcDbArc
 50
0.0
 51
90.0
  0
LINE
  5
28B
330
1F
100
AcDbEntity
  8
0
  6
Continuous
 62
     7
370
    25
100
AcDbLine
 10
63.4298855573
 20
83.9736104105
 30
0.0
 11
63.1298856013
 21
83.9736104105
 31
0.0
  0
LINE
  5
28C
330
1F
100
AcDbEntity
  8
0
  6
Continuous
 62
     7
370
    25
100
AcDbLine
 10
63.1298856013
 20
84.1736105364
 30
0.0
 11
63.4298855573
 21
84.1736105364
 31
0.0
  0
LINE
  5
28D
330
1F
100
AcDbEntity
  8
0
  6
Continuous
 62
     7
370
    25
100
AcDbLine
 10
63.6298856832
 20
83.9736104105
 30
0.0
 11
63.6298856832
 21
82.0978936833
 31
0.0
  0
LINE
  5
28E
330
1F
100
AcDbEntity
  8
0
  6
Continuous
 62
     7
370
    25
100
AcDbLine
 10
63.4298855573
 20
81.5499991738
 30
0.0
 11
63.4298855573
 21
83.9736104105
 31
0.0
  0
LINE
  5
28F
330
1F
100
AcDbEntity
  8
0
  6
Continuous
 62
     7
370
    25
100
AcDbLine
 10
50.8298855409
 20
83.9736104105
 30
0.0
 11
50.629885415
 21
83.9736104105
 31
0.0
  0
ARC
  5
290
330
1F
100
AcDbEntity
  8
0
  6
Continuous
 62
     7
370
    25
100
AcDbCircle
 10
50.8298855491
 20
83.9736104843
 30
0.0
 40
0.2000000000000028
100
AcDbArc
 50
90.0
 51
180.0
  0
LINE
  5
291
330
1F
100
AcDbEntity
  8
0
  6
Continuous
 62
     7
370
    25
100
AcDbLine
 10
50.8298855409
 20
83.9736104105
 30
0.0
 11
50.8298855409
 21
81.5499991738
 31
0.0
  0
LINE
  5
292
330
1F
100
AcDbEntity
  8
0
  6
Continuous
 62
     7
370
    25
100
AcDbLine
 10
50.629885415
 20
82.0978936833
 30
0.0
 11
50.629885415
 21
83.9736104105
 31
0.0
  0
LINE
  5
293
330
1F
100
AcDbEntity
  8
0
  6
Continuous
 62
     7
370
    25
100
AcDbLine
 10
63.6298856832
 20
74.2493272852
 30
0.0
 11
63.6298856832
 21
72.373610558
 31
0.0
  0
LINE
  5
294
330
1F
100
AcDbEntity
  8
0
  6
Continuous
 62
     7
370
    25
100
AcDbLine
 10
63.6298856832
 20
72.373610558
 30
0.0
 11
63.4298855573
 21
72.373610558
 31
0.0
  0
LINE
  5
295
330
1F
100
AcDbEntity
  8
0
  6
Continuous
 62
     7
370
    25
100
AcDbLine
 10
63.4298855573
 20
72.373610558
 30
0.0
 11
63.4298855573
 21
74.7972217948
 31
0.0
  0
LINE
  5
296
330
1F
100
AcDbEntity
  8
0
  6
Continuous
 62
     7
370
    25
100
AcDbLine
 10
63.1298856013
 20
72.373610558
 30
0.0
 11
63.4298855573
 21
72.373610558
 31
0.0
  0
LINE
  5
297
330
1F
100
AcDbEntity
  8
0
  6
Continuous
 62
     7
370
    25
100
AcDbLine
 10
50.8298855409
 20
74.7972217948
 30
0.0
 11
50.8298855409
 21
72.373610558
 31
0.0
  0
LINE
  5
298
330
1F
100
AcDbEntity
  8
0
  6
Continuous
 62
     7
370
    25
100
AcDbLine
 10
50.8298855409
 20
72.373610558
 30
0.0
 11
50.629885415
 21
72.373610558
 31
0.0
  0
LINE
  5
299
330
1F
100
AcDbEntity
  8
0
  6
Continuous
 62
     7
370
    25
100
AcDbLine
 10
50.629885415
 20
72.373610558
 30
0.0
 11
50.629885415
 21
74.2493272852
 31
0.0
  0
LINE
  5
29A
330
1F
100
AcDbEntity
  8
0
  6
Continuous
 62
     7
370
    25
100
AcDbLine
 10
50.8298855409
 20
72.373610558
 30
0.0
 11
51.129885497
 21
72.373610558
 31
0.0
  0
LINE
  5
29B
330
1F
100
AcDbEntity
  8
0
  6
Continuous
 62
     7
370
    25
100
AcDbLine
 10
63.4298855573
 20
72.1736104321
 30
0.0
 11
63.4298855573
 21
72.373610558
 31
0.0
  0
ARC
  5
29C
330
1F
100
AcDbEntity
  8
0
  6
Continuous
 62
     7
370
    25
100
AcDbCircle
 10
63.4298855491
 20
72.3736104843
 30
0.0
 40
0.2000000000000028
100
AcDbArc
 50
270.0
 51
0.0
  0
LINE
  5
29D
330
1F
100
AcDbEntity
  8
0
  6
Continuous
 62
     7
370
    25
100
AcDbLine
 10
63.4298855573
 20
72.1736104321
 30
0.0
 11
63.1298856013
 21
72.1736104321
 31
0.0
  0
LINE
  5
29E
330
1F
100
AcDbEntity
  8
0
  6
Continuous
 62
     7
370
    25
100
AcDbLine
 10
50.8298855409
 20
72.373610558
 30
0.0
 11
50.8298855409
 21
72.1736104321
 31
0.0
  0
ARC
  5
29F
330
1F
100
AcDbEntity
  8
0
  6
Continuous
 62
     7
370
    25
100
AcDbCircle
 10
50.8298855491
 20
72.3736104843
 30
0.0
 40
0.1999999999999957
100
AcDbArc
 50
180.0
 51
270.0
  0
LINE
  5
2A0
330
1F
100
AcDbEntity
  8
0
  6
Continuous
 62
     7
370
    25
100
AcDbLine
 10
51.129885497
 20
72.1736104321
 30
0.0
 11
50.8298855409
 21
72.1736104321
 31
0.0
  0
SPLINE
  5
2A1
330
1F
100
AcDbEntity
  8
0
  6
Continuous
 62
     7
370
    25
100
AcDbSpline
210
0.0
220
0.0
230
1.0
 70
     8
 71
     3
 72
    14
 73
    10
 74
     0
 42
0.000000001
 43
0.00000001
 40
0.0
 40
0.0
 40
0.0
 40
0.0
 40
0.0484762997290651
 40
0.1220108450216317
 40
0.2276037384067111
 40
0.3675059195106766
 40
0.5426256501523746
 40
0.7533872704160025
 40
1.0
 40
1.0
 40
1.0
 40
1.0
 10
50.62988554913293
 20
83.97361048425523
 30
0.0
 10
50.62987851345532
 20
83.97282410665596
 30
0.0
 10
50.62986080523552
 20
83.97084485914884
 30
0.0
 10
50.62925155483311
 20
83.9604359796839
 30
0.0
 10
50.62718299273333
 20
83.94598108518159
 30
0.0
 10
50.62224919652652
 20
83.92565570240572
 30
0.0
 10
50.6125715939052
 20
83.9008591449351
 30
0.0
 10
50.59643476522574
 20
83.8722130658507
 30
0.0
 10
50.58011217041984
 20
83.85446432463351
 30
0.0
 10
50.57131115291565
 20
83.84489433995965
 30
0.0
  0
SPLINE
  5
2A2
330
1F
100
AcDbEntity
  8
0
  6
Continuous
 62
     7
370
    25
100
AcDbSpline
210
0.0
220
0.0
230
1.0
 70
     8
 71
     3
 72
     8
 73
     4
 74
     0
 42
0.000000001
 43
0.00000001
 40
0.0
 40
0.0
 40
0.0
 40
0.0
 40
1.0
 40
1.0
 40
1.0
 40
1.0
 10
50.57131115291565
 20
83.84489433995965
 30
0.0
 10
50.53428682464197
 20
83.80904495867456
 30
0.0
 10
50.48224742903493
 20
83.78769723060698
 30
0.0
 10
50.42988554913293
 20
83.7865137100617
 30
0.0
  0
SPLINE
  5
2A3
330
1F
100
AcDbEntity
  8
0
  6
Continuous
 62
     7
370
    25
100
AcDbSpline
210
0.0
220
0.0
230
1.0
 70
     8
 71
     3
 72
     8
 73
     4
 74
     0
 42
0.000000001
 43
0.00000001
 40
0.0
 40
0.0
 40
0.0
 40
0.0
 40
1.0
 40
1.0
 40
1.0
 40
1.0
 10
63.82988554913292
 20
83.7865137100617
 30
0.0
 10
63.77752366923092
 20
83.78769723060698
 30
0.0
 10
63.72548427362387
 20
83.80904495867456
 30
0.0
 10
63.6884599453502
 20
83.84489433995965
 30
0.0
  0
SPLINE
  5
2A4
330
1F
100
AcDbEntity
  8
0
  6
Continuous
 62
     7
370
    25
100
AcDbSpline
210
0.0
220
0.0
230
1.0
 70
     8
 71
     3
 72
    13
 73
     9
 74
     0
 42
0.000000001
 43
0.00000001
 40
0.0
 40
0.0
 40
0.0
 40
0.0
 40
0.2842828991742481
 40
0.5198370183905306
 40
0.7070414958140518
 40
0.8468107266085061
 40
0.941597814201084
 40
1.0
 40
1.0
 40
1.0
 40
1.0
 10
63.6884599453502
 20
83.84489433995965
 30
0.0
 10
63.67840760497055
 20
83.85601688435509
 30
0.0
 10
63.66002599050838
 20
83.87635546374989
 30
0.0
 10
63.64336773379317
 20
83.908891444234
 30
0.0
 10
63.63458300721084
 20
83.93599910287541
 30
0.0
 10
63.63098340810169
 20
83.95545696157836
 30
0.0
 10
63.62993126204812
 20
83.96958367314458
 30
0.0
 10
63.62989816653334
 20
83.97249902837908
 30
0.0
 10
63.62988554913293
 20
83.97361048425525
 30
0.0
  0
SPLINE
  5
2A5
330
1F
100
AcDbEntity
  8
0
  6
Continuous
 62
     7
370
    25
100
AcDbSpline
210
0.0
220
0.0
230
1.0
 70
     8
 71
     3
 72
    12
 73
     8
 74
     0
 42
0.000000001
 43
0.00000001
 40
0.0
 40
0.0
 40
0.0
 40
0.0
 40
0.25
 40
0.25
 40
0.5
 40
0.5
 40
1.0
 40
1.0
 40
1.0
 40
1.0
 10
50.57131115291565
 20
72.50232662855085
 30
0.0
 10
50.58275321866383
 20
72.49116180818343
 30
0.0
 10
50.59298309791856
 20
72.47807919405366
 30
0.0
 10
50.60992628759128
 20
72.45081001920074
 30
0.0
 10
50.61663959800926
 20
72.4366234584776
 30
0.0
 10
50.62986638223331
 20
72.39650531781504
 30
0.0
 10
50.62988554913293
 20
72.37361048425524
 30
0.0
 10
50.62988554913293
 20
72.37361048425524
 30
0.0
  0
SPLINE
  5
2A6
330
1F
100
AcDbEntity
  8
0
  6
Continuous
 62
     7
370
    25
100
AcDbSpline
210
0.0
220
0.0
230
1.0
 70
     8
 71
     3
 72
    10
 73
     6
 74
     0
 42
0.000000001
 43
0.00000001
 40
0.0
 40
0.0
 40
0.0
 40
0.0
 40
0.5
 40
0.5
 40
1.0
 40
1.0
 40
1.0
 40
1.0
 10
50.57131115291565
 20
72.50232662855085
 30
0.0
 10
50.54842702141928
 20
72.52465626928567
 30
0.0
 10
50.52089587620419
 20
72.54039232191809
 30
0.0
 10
50.47045512892493
 20
72.5581521528164
 30
0.0
 10
50.44770665274041
 20
72.56070725844879
 30
0.0
 10
50.42988554913293
 20
72.56070725844879
 30
0.0
  0
SPLINE
  5
2A7
330
1F
100
AcDbEntity
  8
0
  6
Continuous
 62
     7
370
    25
100
AcDbSpline
210
0.0
220
0.0
230
1.0
 70
     8
 71
     3
 72
    12
 73
     8
 74
     0
 42
0.000000001
 43
0.00000001
 40
0.0
 40
0.0
 40
0.0
 40
0.0
 40
0.25
 40
0.25
 40
0.5
 40
0.5
 40
1.0
 40
1.0
 40
1.0
 40
1.0
 10
63.6884599453502
 20
72.50232662855085
 30
0.0
 10
63.67701787960202
 20
72.49116180818343
 30
0.0
 10
63.6667880003473
 20
72.47807919405366
 30
0.0
 10
63.64984481067457
 20
72.45081001920074
 30
0.0
 10
63.64313150025659
 20
72.4366234584776
 30
0.0
 10
63.62990471603254
 20
72.39650531781504
 30
0.0
 10
63.62988554913293
 20
72.37361048425524
 30
0.0
 10
63.62988554913293
 20
72.37361048425524
 30
0.0
  0
SPLINE
  5
2A8
330
1F
100
AcDbEntity
  8
0
  6
Continuous
 62
     7
370
    25
100
AcDbSpline
210
0.0
220
0.0
230
1.0
 70
     8
 71
     3
 72
    10
 73
     6
 74
     0
 42
0.000000001
 43
0.00000001
 40
0.0
 40
0.0
 40
0.0
 40
0.0
 40
0.5
 40
0.5
 40
1.0
 40
1.0
 40
1.0
 40
1.0
 10
63.6884599453502
 20
72.50232662855085
 30
0.0
 10
63.71134407684657
 20
72.52465626928567
 30
0.0
 10
63.73887522206166
 20
72.54039232191809
 30
0.0
 10
63.78931596934093
 20
72.5581521528164
 30
0.0
 10
63.81206444552544
 20
72.56070725844879
 30
0.0
 10
63.82988554913292
 20
72.56070725844879
 30
0.0
  0
SPLINE
  5
2A9
330
1F
100
AcDbEntity
  8
0
  6
Continuous
 62
     7
370
    25
100
AcDbSpline
210
0.0
220
0.0
230
1.0
 70
     8
 71
     3
 72
    12
 73
     8
 74
     0
 42
0.000000001
 43
0.00000001
 40
0.0
 40
0.0
 40
0.0
 40
0.0
 40
0.25
 40
0.25
 40
0.5
 40
0.5
 40
1.0
 40
1.0
 40
1.0
 40
1.0
 10
63.63116934143628
 20
84.1727817066123
 30
0.0
 10
63.62298238451891
 20
84.17277530968232
 30
0.0
 10
63.6169637527384
 20
84.16586991806571
 30
0.0
 10
63.6055269154949
 20
84.14865073467158
 30
0.0
 10
63.6001087100319
 20
84.13833694289406
 30
0.0
 10
63.57915039718473
 20
84.1178673511387
 30
0.0
 10
63.5714011603678
 20
84.11493758549499
 30
0.0
 10
63.57130690536871
 20
84.11503184049408
 30
0.0
  0
SPLINE
  5
2AA
330
1F
100
AcDbEntity
  8
0
  6
Continuous
 62
     7
370
    25
100
AcDbSpline
210
0.0
220
0.0
230
1.0
 70
     8
 71
     3
 72
     9
 73
     5
 74
     0
 42
0.000000001
 43
0.00000001
 40
0.0
 40
0.0
 40
0.0
 40
0.0
 40
0.4105980787743589
 40
1.0
 40
1.0
 40
1.0
 40
1.0
 10
63.47640139464031
 20
84.17391181926219
 30
0.0
 10
63.49758594306233
 20
84.17415070640124
 30
0.0
 10
63.5491803111735
 20
84.17473250926732
 30
0.0
 10
63.60076524959848
 20
84.17350509792261
 30
0.0
 10
63.63116951141248
 20
84.17278165931789
 30
0.0
  0
SPLINE
  5
2AB
330
1F
100
AcDbEntity
  8
0
  6
Continuous
 62
     7
370
    25
100
AcDbSpline
210
0.0
220
0.0
230
1.0
 70
     8
 71
     3
 72
    12
 73
     8
 74
     0
 42
0.000000001
 43
0.00000001
 40
0.0
 40
0.0
 40
0.0
 40
0.0
 40
0.25
 40
0.25
 40
0.5
 40
0.5
 40
1.0
 40
1.0
 40
1.0
 40
1.0
 10
63.63116934143628
 20
84.1727817066123
 30
0.0
 10
63.63935629835368
 20
84.17278810354229
 30
0.0
 10
63.65110831814992
 20
84.16589659713539
 30
0.0
 10
63.676594285249
 20
84.13676269722913
 30
0.0
 10
63.69032823255184
 20
84.11452030372976
 30
0.0
 10
63.72678066834363
 20
84.02243417196486
 30
0.0
 10
63.72131139538467
 20
83.94096889448709
 30
0.0
 10
63.6884599453502
 20
83.84489433995965
 30
0.0
  0
SPLINE
  5
2AC
330
1F
100
AcDbEntity
  8
0
  6
Continuous
 62
     7
370
    25
100
AcDbSpline
210
0.0
220
0.0
230
1.0
 70
     8
 71
     3
 72
     9
 73
     5
 74
     0
 42
0.000000001
 43
0.00000001
 40
0.0
 40
0.0
 40
0.0
 40
0.0
 40
0.4105980787743589
 40
1.0
 40
1.0
 40
1.0
 40
1.0
 10
50.78336970362554
 20
84.17391181926219
 30
0.0
 10
50.76218515520352
 20
84.17415070640124
 30
0.0
 10
50.71059078709235
 20
84.17473250926732
 30
0.0
 10
50.65900584866736
 20
84.17350509792261
 30
0.0
 10
50.62860158685336
 20
84.17278165931789
 30
0.0
  0
SPLINE
  5
2AD
330
1F
100
AcDbEntity
  8
0
  6
Continuous
 62
     7
370
    25
100
AcDbSpline
210
0.0
220
0.0
230
1.0
 70
     8
 71
     3
 72
    12
 73
     8
 74
     0
 42
0.000000001
 43
0.00000001
 40
0.0
 40
0.0
 40
0.0
 40
0.0
 40
0.25
 40
0.25
 40
0.5
 40
0.5
 40
1.0
 40
1.0
 40
1.0
 40
1.0
 10
50.62860175682956
 20
84.1727817066123
 30
0.0
 10
50.63678871374695
 20
84.17277530968232
 30
0.0
 10
50.64280734552745
 20
84.16586991806571
 30
0.0
 10
50.65424418277095
 20
84.14865073467158
 30
0.0
 10
50.65966238823396
 20
84.13833694289406
 30
0.0
 10
50.68062070108112
 20
84.1178673511387
 30
0.0
 10
50.68836993789805
 20
84.11493758549499
 30
0.0
 10
50.68846419289714
 20
84.11503184049408
 30
0.0
  0
SPLINE
  5
2AE
330
1F
100
AcDbEntity
  8
0
  6
Continuous
 62
     7
370
    25
100
AcDbSpline
210
0.0
220
0.0
230
1.0
 70
     8
 71
     3
 72
    14
 73
    10
 74
     0
 42
0.000000001
 43
0.00000001
 40
0.0
 40
0.0
 40
0.0
 40
0.0
 40
0.25
 40
0.25
 40
0.5
 40
0.5
 40
0.75
 40
0.75
 40
1.0
 40
1.0
 40
1.0
 40
1.0
 10
50.62860175682956
 20
84.1727817066123
 30
0.0
 10
50.62041479991217
 20
84.17278810354227
 30
0.0
 10
50.60866278011593
 20
84.16589659713537
 30
0.0
 10
50.58317681301686
 20
84.13676269722913
 30
0.0
 10
50.56944286571402
 20
84.11452030372976
 30
0.0
 10
50.54514124185282
 20
84.05312954921983
 30
0.0
 10
50.54043315412726
 20
84.0174155412229
 30
0.0
 10
50.54530524715006
 20
83.93731657522467
 30
0.0
 10
50.55488542789841
 20
83.89293161722335
 30
0.0
 10
50.57131115291565
 20
83.84489433995965
 30
0.0
  0
SPLINE
  5
2AF
330
1F
100
AcDbEntity
  8
0
  6
Continuous
 62
     7
370
    25
100
AcDbSpline
210
0.0
220
0.0
230
1.0
 70
     8
 71
     3
 72
    12
 73
     8
 74
     0
 42
0.000000001
 43
0.00000001
 40
0.0
 40
0.0
 40
0.0
 40
0.0
 40
0.25
 40
0.25
 40
0.5
 40
0.5
 40
1.0
 40
1.0
 40
1.0
 40
1.0
 10
63.63116934143628
 20
72.17443926189819
 30
0.0
 10
63.62298238451891
 20
72.17444565882816
 30
0.0
 10
63.6169637527384
 20
72.18135105044476
 30
0.0
 10
63.6055269154949
 20
72.1985702338389
 30
0.0
 10
63.60010871003188
 20
72.20888402561641
 30
0.0
 10
63.57915039718473
 20
72.22935361737179
 30
0.0
 10
63.5714011603678
 20
72.23228338301548
 30
0.0
 10
63.57130690536871
 20
72.2321891280164
 30
0.0
  0
SPLINE
  5
2B0
330
1F
100
AcDbEntity
  8
0
  6
Continuous
 62
     7
370
    25
100
AcDbSpline
210
0.0
220
0.0
230
1.0
 70
     8
 71
     3
 72
    12
 73
     8
 74
     0
 42
0.000000001
 43
0.00000001
 40
0.0
 40
0.0
 40
0.0
 40
0.0
 40
0.25
 40
0.25
 40
0.5
 40
0.5
 40
1.0
 40
1.0
 40
1.0
 40
1.0
 10
63.63116934143628
 20
72.17443926189819
 30
0.0
 10
63.63935629835368
 20
72.17443286496821
 30
0.0
 10
63.65110831814992
 20
72.18132437137508
 30
0.0
 10
63.676594285249
 20
72.21045827128135
 30
0.0
 10
63.69032823255184
 20
72.23270066478071
 30
0.0
 10
63.72678066834363
 20
72.32478679654562
 30
0.0
 10
63.72131139538467
 20
72.4062520740234
 30
0.0
 10
63.6884599453502
 20
72.50232662855085
 30
0.0
  0
SPLINE
  5
2B1
330
1F
100
AcDbEntity
  8
0
  6
Continuous
 62
     7
370
    25
100
AcDbSpline
210
0.0
220
0.0
230
1.0
 70
     8
 71
     3
 72
    12
 73
     8
 74
     0
 42
0.000000001
 43
0.00000001
 40
0.0
 40
0.0
 40
0.0
 40
0.0
 40
0.25
 40
0.25
 40
0.5
 40
0.5
 40
1.0
 40
1.0
 40
1.0
 40
1.0
 10
50.62860175682956
 20
72.17443926189819
 30
0.0
 10
50.63678871374695
 20
72.17444565882816
 30
0.0
 10
50.64280734552746
 20
72.18135105044477
 30
0.0
 10
50.65424418277097
 20
72.19857023383891
 30
0.0
 10
50.65966238823397
 20
72.20888402561643
 30
0.0
 10
50.68062070108112
 20
72.22935361737179
 30
0.0
 10
50.68836993789805
 20
72.23228338301548
 30
0.0
 10
50.68846419289714
 20
72.2321891280164
 30
0.0
  0
SPLINE
  5
2B2
330
1F
100
AcDbEntity
  8
0
  6
Continuous
 62
     7
370
    25
100
AcDbSpline
210
0.0
220
0.0
230
1.0
 70
     8
 71
     3
 72
    14
 73
    10
 74
     0
 42
0.000000001
 43
0.00000001
 40
0.0
 40
0.0
 40
0.0
 40
0.0
 40
0.25
 40
0.25
 40
0.5
 40
0.5
 40
0.75
 40
0.75
 40
1.0
 40
1.0
 40
1.0
 40
1.0
 10
50.62860175682956
 20
72.17443926189819
 30
0.0
 10
50.62041479991218
 20
72.17443286496821
 30
0.0
 10
50.60866278011594
 20
72.1813243713751
 30
0.0
 10
50.58317681301686
 20
72.21045827128137
 30
0.0
 10
50.56944286571402
 20
72.23270066478072
 30
0.0
 10
50.54514124185282
 20
72.29409141929065
 30
0.0
 10
50.54043315412726
 20
72.32980542728758
 30
0.0
 10
50.54530524715006
 20
72.40990439328581
 30
0.0
 10
50.55488542789841
 20
72.45428935128713
 30
0.0
 10
50.57131115291565
 20
72.50232662855085
 30
0.0
  0
SPLINE
  5
2B3
330
1F
100
AcDbEntity
  8
0
  6
Continuous
 62
     7
370
    25
100
AcDbSpline
210
0.0
220
0.0
230
1.0
 70
     8
 71
     3
 72
     9
 73
     5
 74
     0
 42
0.000000001
 43
0.00000001
 40
0.0
 40
0.0
 40
0.0
 40
0.0
 40
0.4105980787743589
 40
1.0
 40
1.0
 40
1.0
 40
1.0
 10
63.47640139464031
 20
72.17330914924828
 30
0.0
 10
63.49758594306233
 20
72.17307026210926
 30
0.0
 10
63.5491803111735
 20
72.17248845924318
 30
0.0
 10
63.60076524959848
 20
72.17371587058788
 30
0.0
 10
63.63116951141248
 20
72.17443930919258
 30
0.0
  0
SPLINE
  5
2B4
330
1F
100
AcDbEntity
  8
0
  6
Continuous
 62
     7
370
    25
100
AcDbSpline
210
0.0
220
0.0
230
1.0
 70
     8
 71
     3
 72
     9
 73
     5
 74
     0
 42
0.000000001
 43
0.00000001
 40
0.0
 40
0.0
 40
0.0
 40
0.0
 40
0.4105980787743589
 40
1.0
 40
1.0
 40
1.0
 40
1.0
 10
50.78336970362554
 20
72.17330914924828
 30
0.0
 10
50.76218515520352
 20
72.17307026210926
 30
0.0
 10
50.71059078709235
 20
72.17248845924318
 30
0.0
 10
50.65900584866736
 20
72.17371587058788
 30
0.0
 10
50.62860158685336
 20
72.17443930919258
 30
0.0
  0
SPLINE
  5
2B5
330
1F
100
AcDbEntity
  8
0
  6
Continuous
 62
     7
370
    25
100
AcDbSpline
210
0.0
220
0.0
230
1.0
 70
     8
 71
     3
 72
     9
 73
     5
 74
     0
 42
0.000000001
 43
0.00000001
 40
0.0
 40
0.0
 40
0.0
 40
0.0
 40
0.1239257456654217
 40
1.0
 40
1.0
 40
1.0
 40
1.0
 10
63.73430277634154
 20
84.17223962957947
 30
0.0
 10
63.73004277035417
 20
84.17217256360514
 30
0.0
 10
63.69566729845769
 20
84.17163138490189
 30
0.0
 10
63.66128817572511
 20
84.1722445133073
 30
0.0
 10
63.63116951141248
 20
84.17278165931789
 30
0.0
  0
SPLINE
  5
2B6
330
1F
100
AcDbEntity
  8
0
  6
Continuous
 62
     7
370
    25
100
AcDbSpline
210
0.0
220
0.0
230
1.0
 70
     8
 71
     3
 72
    10
 73
     6
 74
     0
 42
0.000000001
 43
0.00000001
 40
0.0
 40
0.0
 40
0.0
 40
0.0
 40
0.5
 40
0.5
 40
1.0
 40
1.0
 40
1.0
 40
1.0
 10
50.62860175682956
 20
84.1727817066123
 30
0.0
 10
50.59585392916
 20
84.1728072943322
 30
0.0
 10
50.56109690164124
 20
84.17309229826775
 30
0.0
 10
50.48982074374328
 20
84.17008486267493
 30
0.0
 10
50.46381843108237
 20
84.17361048425525
 30
0.0
 10
50.42988554913293
 20
84.17361048425525
 30
0.0
  0
SPLINE
  5
2B7
330
1F
100
AcDbEntity
  8
0
  6
Continuous
 62
     7
370
    25
100
AcDbSpline
210
0.0
220
0.0
230
1.0
 70
     8
 71
     3
 72
    10
 73
     6
 74
     0
 42
0.000000001
 43
0.00000001
 40
0.0
 40
0.0
 40
0.0
 40
0.0
 40
0.5
 40
0.5
 40
1.0
 40
1.0
 40
1.0
 40
1.0
 10
63.63116934143628
 20
72.17443926189819
 30
0.0
 10
63.66391716910584
 20
72.17441367417828
 30
0.0
 10
63.69867419662462
 20
72.17412867024274
 30
0.0
 10
63.76995035452257
 20
72.17713610583557
 30
0.0
 10
63.79595266718348
 20
72.17361048425525
 30
0.0
 10
63.82988554913292
 20
72.17361048425525
 30
0.0
  0
SPLINE
  5
2B8
330
1F
100
AcDbEntity
  8
0
  6
Continuous
 62
     7
370
    25
100
AcDbSpline
210
0.0
220
0.0
230
1.0
 70
     8
 71
     3
 72
    10
 73
     6
 74
     0
 42
0.000000001
 43
0.00000001
 40
0.0
 40
0.0
 40
0.0
 40
0.0
 40
0.5
 40
0.5
 40
1.0
 40
1.0
 40
1.0
 40
1.0
 10
50.62860175682956
 20
72.17443926189819
 30
0.0
 10
50.59585392916
 20
72.17441367417828
 30
0.0
 10
50.56109690164124
 20
72.17412867024274
 30
0.0
 10
50.48982074374328
 20
72.17713610583557
 30
0.0
 10
50.46381843108237
 20
72.17361048425525
 30
0.0
 10
50.42988554913293
 20
72.17361048425525
 30
0.0
  0
SPLINE
  5
2B9
330
1F
100
AcDbEntity
  8
0
  6
Continuous
 62
     7
370
    25
100
AcDbSpline
210
0.0
220
0.0
230
1.0
 70
     8
 71
     3
 72
    16
 73
    12
 74
     0
 42
0.000000001
 43
0.00000001
 40
0.0
 40
0.0
 40
0.0
 40
0.0
 40
0.25
 40
0.25
 40
0.375
 40
0.375
 40
0.5
 40
0.5
 40
0.75
 40
0.75
 40
1.0
 40
1.0
 40
1.0
 40
1.0
 10
58.12988554913302
 20
76.44155967668635
 30
0.0
 10
57.97219146927448
 20
76.48065884524344
 30
0.0
 10
57.81406901811393
 20
76.52340719706183
 30
0.0
 10
57.56919965385193
 20
76.58067792314374
 30
0.0
 10
57.48621287995206
 20
76.59846487868879
 30
0.0
 10
57.31415717626466
 20
76.62526070284504
 30
0.0
 10
57.2235320828601
 20
76.63385442498688
 30
0.0
 10
56.95607251174263
 20
76.63462973082102
 30
0.0
 10
56.77958326674877
 20
76.60133287979401
 30
0.0
 10
56.44895150026478
 20
76.52432540495994
 30
0.0
 10
56.28919753416108
 20
76.48105999376466
 30
0.0
 10
56.12988554913291
 20
76.44155967668638
 30
0.0
  0
SPLINE
  5
2BA
330
1F
100
AcDbEntity
  8
0
  6
Continuous
 62
     7
370
    25
100
AcDbSpline
210
0.0
220
0.0
230
1.0
 70
     8
 71
     3
 72
    16
 73
    12
 74
     0
 42
0.000000001
 43
0.00000001
 40
0.0
 40
0.0
 40
0.0
 40
0.0
 40
0.25
 40
0.25
 40
0.375
 40
0.375
 40
0.5
 40
0.5
 40
0.75
 40
0.75
 40
1.0
 40
1.0
 40
1.0
 40
1.0
 10
56.12988554913283
 20
79.90566129182413
 30
0.0
 10
56.28757962899137
 20
79.86656212326704
 30
0.0
 10
56.44570208015192
 20
79.82381377144866
 30
0.0
 10
56.69057144441392
 20
79.76654304536675
 30
0.0
 10
56.77355821831379
 20
79.7487560898217
 30
0.0
 10
56.94561392200119
 20
79.72196026566544
 30
0.0
 10
57.03623901540575
 20
79.7133665435236
 30
0.0
 10
57.30369858652323
 20
79.71259123768945
 30
0.0
 10
57.48018783151709
 20
79.74588808871648
 30
0.0
 10
57.81081959800107
 20
79.82289556355055
 30
0.0
 10
57.97057356410477
 20
79.86616097474582
 30
0.0
 10
58.12988554913294
 20
79.9056612918241
 30
0.0
  0
SPLINE
  5
2BB
330
1F
100
AcDbEntity
  8
0
  6
Continuous
 62
     7
370
    25
100
AcDbSpline
210
0.0
220
0.0
230
1.0
 70
    11
 71
     3
 72
    26
 73
    22
 74
     0
 42
0.000000001
 43
0.00000001
 40
0.0
 40
0.0
 40
0.0
 40
0.0
 40
0.1249999999999999
 40
0.1249999999999999
 40
0.2499999999999999
 40
0.2499999999999999
 40
0.3749999999999998
 40
0.3749999999999998
 40
0.4374999999999998
 40
0.4374999999999998
 40
0.4999999999999999
 40
0.4999999999999999
 40
0.6249999999999999
 40
0.6249999999999999
 40
0.75
 40
0.75
 40
0.875
 40
0.875
 40
0.9375
 40
0.9375
 40
1.0
 40
1.0
 40
1.0
 40
1.0
 10
57.15709707780165
 20
77.7704936564552
 30
0.0
 10
57.2548795227679
 20
77.78054416334149
 30
0.0
 10
57.33859028852036
 20
77.84390062369351
 30
0.0
 10
57.44511503427054
 20
78.00451500571624
 30
0.0
 10
57.4703463701079
 20
78.10372441840295
 30
0.0
 10
57.45935603088127
 20
78.29651265129218
 30
0.0
 10
57.42293275121757
 20
78.39248138318337
 30
0.0
 10
57.32885778167884
 20
78.5007251340923
 30
0.0
 10
57.29009226831251
 20
78.5316702920099
 30
0.0
 10
57.20212066691252
 20
78.57232954859575
 30
0.0
 10
57.15272651266367
 20
78.58158161240677
 30
0.0
 10
57.00722461265703
 20
78.56748351556551
 30
0.0
 10
56.92165643870022
 20
78.50392026036957
 30
0.0
 10
56.81448775542272
 20
78.34256907862463
 30
0.0
 10
56.78934598065402
 20
78.24338066662331
 30
0.0
 10
56.80054089788628
 20
78.05000464795967
 30
0.0
 10
56.8366673191946
 20
77.95454213534656
 30
0.0
 10
56.93203014154223
 20
77.84541114017028
 30
0.0
 10
56.97095876888067
 20
77.8147127115931
 30
0.0
 10
57.05893412269389
 20
77.77455180145067
 30
0.0
 10
57.10820585531853
 20
77.76546840301206
 30
0.0
 10
57.15709707780165
 20
77.7704936564552
 30
0.0
  0
LINE
  5
2BC
330
1F
100
AcDbEntity
  8
0
  6
Continuous
 62
     7
370
    25
100
AcDbLine
 10
63.8798857242
 20
84.4736104925
 30
0.0
 11
64.3798853405
 21
84.4736104925
 31
0.0
  0
LINE
  5
2BD
330
1F
100
AcDbEntity
  8
0
  6
Continuous
 62
     7
370
    25
100
AcDbLine
 10
63.6298856832
 20
84.1736105364
 30
0.0
 11
64.6298853815
 21
84.1736105364
 31
0.0
  0
SPLINE
  5
2BE
330
1F
100
AcDbEntity
  8
0
  6
Continuous
 62
     8
370
    25
100
AcDbSpline
210
0.0
220
0.0
230
1.0
 70
     8
 71
     3
 72
    74
 73
    70
 74
     0
 42
0.000000001
 43
0.00000001
 40
0.0
 40
0.0
 40
0.0
 40
0.0
 40
0.013549177547468
 40
0.030551567942185
 40
0.0510044695638769
 40
0.0737840632004152
 40
0.0939896260578652
 40
0.1111100947912521
 40
0.1251470909160755
 40
0.1491929503811187
 40
0.1746014867670495
 40
0.2003357552321058
 40
0.2253758678581386
 40
0.2504232631456101
 40
0.2699621465176895
 40
0.2908004050645124
 40
0.3129336068187801
 40
0.3254658210278684
 40
0.3379937661809298
 40
0.3505171991224539
 40
0.3630359330613389
 40
0.3755497141471613
 40
0.3883544631671365
 40
0.4019783140644155
 40
0.4164221116010823
 40
0.4316868856558227
 40
0.4477738751640703
 40
0.4646844757922831
 40
0.4824202798049816
 40
0.5009830667624959
 40
0.5181238744863182
 40
0.5329414377977236
 40
0.5454335053823215
 40
0.5555982841214756
 40
0.5634344613774172
 40
0.5733264225630224
 40
0.5845125745993377
 40
0.5969919337968299
 40
0.6107632175875962
 40
0.6258248361170405
 40
0.6445923185161603
 40
0.660618083469689
 40
0.6739046623247332
 40
0.6844540729392208
 40
0.6959327505731349
 40
0.7051180985991768
 40
0.7143094868966067
 40
0.7235072466234692
 40
0.732711635473011
 40
0.7419230012272702
 40
0.7511415966668221
 40
0.76124643477955
 40
0.7750453113799027
 40
0.792540992716188
 40
0.8137373777459685
 40
0.831634279945411
 40
0.8480006576464005
 40
0.8628339247015554
 40
0.8761320416840764
 40
0.8895063733458137
 40
0.9060700068650354
 40
0.9258203128362288
 40
0.9492206555730273
 40
0.9611012179356017
 40
0.9716829150932852
 40
0.9809662811168348
 40
0.9889517679650843
 40
0.9956397526910872
 40
1.0
 40
1.0
 40
1.0
 40
1.0
 10
47.05691012967119
 20
71.54861102814762
 30
0.0
 10
47.05687982803051
 20
71.54978394973371
 30
0.0
 10
47.05681150191764
 20
71.5524287297141
 30
0.0
 10
47.0570816965777
 20
71.57873574477783
 30
0.0
 10
47.05755639443004
 20
71.63316635263493
 30
0.0
 10
47.05823808912215
 20
71.72081308017977
 30
0.0
 10
47.05876997026255
 20
71.83077791468875
 30
0.0
 10
47.05913132414891
 20
71.94447480380734
 30
0.0
 10
47.0593542009642
 20
72.08382535729349
 30
0.0
 10
47.05925725527928
 20
72.26760222161118
 30
0.0
 10
47.05875050216298
 20
72.52046755412232
 30
0.0
 10
47.05782425874055
 20
72.81206252514934
 30
0.0
 10
47.05688358391156
 20
73.13618788937968
 30
0.0
 10
47.05580431543336
 20
73.46238515791408
 30
0.0
 10
47.05513678512445
 20
73.7919682966672
 30
0.0
 10
47.05523095826101
 20
74.12623801736817
 30
0.0
 10
47.05580100517656
 20
74.43958246914552
 30
0.0
 10
47.05649730626663
 20
74.71601908005927
 30
0.0
 10
47.05707526945179
 20
74.94149932875482
 30
0.0
 10
47.05770668497772
 20
75.17189919271169
 30
0.0
 10
47.05836925131481
 20
75.40682668400567
 30
0.0
 10
47.05912225856516
 20
75.64784216195225
 30
0.0
 10
47.05977976065576
 20
75.89980916382854
 30
0.0
 10
47.06017905934342
 20
76.16800931211768
 30
0.0
 10
47.06038644568777
 20
76.45617836592787
 30
0.0
 10
47.06038425775562
 20
76.76442628307491
 30
0.0
 10
47.06018020806393
 20
77.09270292284491
 30
0.0
 10
47.05976714762335
 20
77.44073952086538
 30
0.0
 10
47.05915433337242
 20
77.80801901408395
 30
0.0
 10
47.05833830488435
 20
78.1781529659442
 30
0.0
 10
47.05751235050437
 20
78.52814160876082
 30
0.0
 10
47.05685387844551
 20
78.83528044863147
 30
0.0
 10
47.05635252667658
 20
79.09311513376647
 30
0.0
 10
47.05601530151215
 20
79.30186272419891
 30
0.0
 10
47.05580398006877
 20
79.49184139800296
 30
0.0
 10
47.05581034413736
 20
79.68758956116078
 30
0.0
 10
47.05600078905466
 20
79.9129148526342
 30
0.0
 10
47.05638652507133
 20
80.16163985721174
 30
0.0
 10
47.05695817380536
 20
80.43244086325868
 30
0.0
 10
47.05778252772809
 20
80.73917252125871
 30
0.0
 10
47.0586818007908
 20
81.05327337859906
 30
0.0
 10
47.05947643055706
 20
81.34818285353579
 30
0.0
 10
47.06007950141592
 20
81.58655759782762
 30
0.0
 10
47.06054471794027
 20
81.79303352349662
 30
0.0
 10
47.0608093837647
 20
81.97163057801859
 30
0.0
 10
47.06096366998643
 20
82.13871524209723
 30
0.0
 10
47.0610254978142
 20
82.28985202595982
 30
0.0
 10
47.06100442595865
 20
82.43778609798821
 30
0.0
 10
47.06090377693735
 20
82.5824006910249
 30
0.0
 10
47.06071816675666
 20
82.72358483410588
 30
0.0
 10
47.06045204072169
 20
82.86557639684163
 30
0.0
 10
47.05999602218944
 20
83.02575020909472
 30
0.0
 10
47.05930815948319
 20
83.21834773809498
 30
0.0
 10
47.05836515948961
 20
83.44918803751474
 30
0.0
 10
47.0572505291542
 20
83.67944722108504
 30
0.0
 10
47.05622232514988
 20
83.88540756792614
 30
0.0
 10
47.05554194498325
 20
84.05154475911165
 30
0.0
 10
47.05513232593574
 20
84.18830847513756
 30
0.0
 10
47.05501750726359
 20
84.30379230290902
 30
0.0
 10
47.05521348245333
 20
84.41180171414199
 30
0.0
 10
47.05560354554601
 20
84.52036548778538
 30
0.0
 10
47.05621802548386
 20
84.62795092041857
 30
0.0
 10
47.0568947072845
 20
84.70172393779151
 30
0.0
 10
47.05742689880846
 20
84.74589199274301
 30
0.0
 10
47.05778558319468
 20
84.76879239015189
 30
0.0
 10
47.05808294563118
 20
84.78295932017748
 30
0.0
 10
47.05832451316265
 20
84.7906003573085
 30
0.0
 10
47.05850122077766
 20
84.79393769802674
 30
0.0
 10
47.05858441204566
 20
84.79411751905373
 30
0.0
 10
47.05861724395047
 20
84.79418848643986
 30
0.0
  0
LINE
  5
2BF
330
1F
100
AcDbEntity
  8
0
  6
Continuous
 62
     8
370
    25
100
AcDbLine
 10
47.9839355819
 20
84.1721762996
 30
0.0
 11
47.9839355819
 21
72.1736122947
 31
0.0
  0
SPLINE
  5
2C0
330
1F
100
AcDbEntity
  8
0
  6
Continuous
 62
     8
370
    25
100
AcDbSpline
210
0.0
220
0.0
230
1.0
 70
     8
 71
     3
 72
    50
 73
    46
 74
     0
 42
0.000000001
 43
0.00000001
 40
0.0
 40
0.0
 40
0.0
 40
0.0
 40
0.0010283531841097
 40
0.0355554655206709
 40
0.07088988920272
 40
0.0800382774901052
 40
0.0891870122148684
 40
0.0983361536056596
 40
0.1074857710201483
 40
0.1166359202700575
 40
0.1257866678569167
 40
0.1381306367004574
 40
0.1544700420569427
 40
0.1748034552906974
 40
0.1977084945745143
 40
0.2085764977062658
 40
0.218633989949825
 40
0.2278810472940682
 40
0.2363177835902349
 40
0.2439442512452608
 40
0.2507605049111499
 40
0.2862630744515917
 40
0.3205408036148091
 40
0.3535939558414207
 40
0.385422761881991
 40
0.4100078406419588
 40
0.4338092279289983
 40
0.4568270365368042
 40
0.4790613432825968
 40
0.5005352446570611
 40
0.5421526596976102
 40
0.5837712665426069
 40
0.6253910295817515
 40
0.6670118987038598
 40
0.7086338311778417
 40
0.7502568010503963
 40
0.7918807491498421
 40
0.833505614275716
 40
0.87514716846331
 40
0.8959783975081194
 40
0.9168085737246413
 40
0.9286832438563374
 40
0.9465066281509844
 40
0.9702787377527435
 40
1.0
 40
1.0
 40
1.0
 40
1.0
 10
67.20115385431538
 20
84.79418848643986
 30
0.0
 10
67.20114604462321
 20
84.79423142824186
 30
0.0
 10
67.20087602334539
 20
84.79571614748386
 30
0.0
 10
67.2006856721711
 20
84.76576789748682
 30
0.0
 10
67.20101849004963
 20
84.67744384944504
 30
0.0
 10
67.20137770845948
 20
84.59174876059357
 30
0.0
 10
67.20157629886889
 20
84.54265146955687
 30
0.0
 10
67.20179393632264
 20
84.48831032474378
 30
0.0
 10
67.20203238065545
 20
84.42878686115861
 30
0.0
 10
67.20228030846708
 20
84.36409770431293
 30
0.0
 10
67.20261625753537
 20
84.28629087711705
 30
0.0
 10
67.20285323485722
 20
84.18161090606769
 30
0.0
 10
67.20288677260955
 20
84.03142346943989
 30
0.0
 10
67.20278445562751
 20
83.82744166285245
 30
0.0
 10
67.20256723533606
 20
83.6201016698738
 30
0.0
 10
67.20241566081171
 20
83.43908881890962
 30
0.0
 10
67.2023170692129
 20
83.30902386058169
 30
0.0
 10
67.20223554852693
 20
83.18493539483705
 30
0.0
 10
67.2021713918413
 20
83.0680514803352
 30
0.0
 10
67.2021212481327
 20
82.95944915991072
 30
0.0
 10
67.20204846330267
 20
82.71678037258587
 30
0.0
 10
67.20197152868651
 20
82.3193143273231
 30
0.0
 10
67.20187009602749
 20
81.73701033708838
 30
0.0
 10
67.20179471638919
 20
81.13642437526471
 30
0.0
 10
67.20174589939779
 20
80.56629775123592
 30
0.0
 10
67.20171685885164
 20
80.03779811794081
 30
0.0
 10
67.20170582441277
 20
79.55675933733544
 30
0.0
 10
67.20170821035278
 20
79.08424498163234
 30
0.0
 10
67.20172503598225
 20
78.62313970585632
 30
0.0
 10
67.20177108907572
 20
78.03088029289529
 30
0.0
 10
67.20183992069401
 20
77.3034246999964
 30
0.0
 10
67.20191273388805
 20
76.45116394686161
 30
0.0
 10
67.20198644313277
 20
75.62827707298948
 30
0.0
 10
67.20205465149148
 20
74.84895373513075
 30
0.0
 10
67.20212161556105
 20
74.12651799403218
 30
0.0
 10
67.20218788205024
 20
73.4733491685665
 30
0.0
 10
67.20224141883489
 20
72.90064895795001
 30
0.0
 10
67.20232423177258
 20
72.41811640859079
 30
0.0
 10
67.20229694679728
 20
72.09821378921433
 30
0.0
 10
67.20218977955895
 20
71.89519991357426
 30
0.0
 10
67.20200930196626
 20
71.78806203077124
 30
0.0
 10
67.20200527081936
 20
71.70390721715893
 30
0.0
 10
67.2021718445078
 20
71.63181494404776
 30
0.0
 10
67.20245349897283
 20
71.56448201235914
 30
0.0
 10
67.2027154351603
 20
71.55427957057402
 30
0.0
 10
67.20286096859465
 20
71.54861102814762
 30
0.0
  0
LINE
  5
2C1
330
1F
100
AcDbEntity
  8
0
  6
Continuous
 62
     8
370
    25
100
AcDbLine
 10
68.1298854895
 20
85.4236102756
 30
0.0
 11
68.1298854895
 21
70.9236106929
 31
0.0
  0
LINE
  5
2C2
330
1F
100
AcDbEntity
  8
0
  6
Continuous
 62
     8
370
    25
100
AcDbLine
 10
46.1298856087
 20
85.4236102756
 30
0.0
 11
46.1298856087
 21
70.9236106929
 31
0.0
  0
SPLINE
  5
2C3
330
1F
100
AcDbEntity
  8
0
  6
Continuous
 62
     8
370
    25
100
AcDbSpline
210
0.0
220
0.0
230
1.0
 70
     8
 71
     3
 72
    10
 73
     6
 74
     0
 42
0.000000001
 43
0.00000001
 40
0.0
 40
0.0
 40
0.0
 40
0.0
 40
0.4015980586590085
 40
0.8001768424764958
 40
1.0
 40
1.0
 40
1.0
 40
1.0
 10
59.26130899641404
 20
83.84489418010203
 30
0.0
 10
59.06468852135031
 20
83.89536901970246
 30
0.0
 10
58.67292579364173
 20
83.99593922143808
 30
0.0
 10
58.17593010002884
 20
84.0981890070061
 30
0.0
 10
57.87520159078153
 20
84.12773792816289
 30
0.0
 10
57.77477992413307
 20
84.13760514001338
 30
0.0
  0
LINE
  5
2C4
330
1F
100
AcDbEntity
  8
0
  6
Continuous
 62
     8
370
    25
100
AcDbLine
 10
57.4973564497
 20
84.1600039136
 30
0.0
 11
57.3507939687
 21
84.1651001107
 31
0.0
  0
SPLINE
  5
2C5
330
1F
100
AcDbEntity
  8
0
  6
Continuous
 62
     8
370
    25
100
AcDbSpline
210
0.0
220
0.0
230
1.0
 70
     8
 71
     3
 72
    10
 73
     6
 74
     0
 42
0.000000001
 43
0.00000001
 40
0.0
 40
0.0
 40
0.0
 40
0.0
 40
0.4324831786344839
 40
0.8617148834321859
 40
0.9999999999999999
 40
0.9999999999999999
 40
0.9999999999999999
 40
0.9999999999999999
 10
54.9984621018518
 20
83.84489418010205
 30
0.0
 10
55.19510117656733
 20
83.89519204465537
 30
0.0
 10
55.58690096374452
 20
83.99540962682195
 30
0.0
 10
56.04819041225605
 20
84.09239420590987
 30
0.0
 10
56.31294471150853
 20
84.11922697580465
 30
0.0
 10
56.37745659513141
 20
84.12576523612229
 30
0.0
  0
SPLINE
  5
2C6
330
1F
100
AcDbEntity
  8
0
  6
Continuous
 62
     8
370
    25
100
AcDbSpline
210
0.0
220
0.0
230
1.0
 70
     8
 71
     3
 72
    10
 73
     6
 74
     0
 42
0.000000001
 43
0.00000001
 40
0.0
 40
0.0
 40
0.0
 40
0.0
 40
0.4324831786344839
 40
0.8617148834321859
 40
0.9999999999999999
 40
0.9999999999999999
 40
0.9999999999999999
 40
0.9999999999999999
 10
59.26130899641404
 20
72.50232678840844
 30
0.0
 10
59.06466992169852
 20
72.45202892385512
 30
0.0
 10
58.67287013452133
 20
72.35181134168855
 30
0.0
 10
58.2115806860098
 20
72.25482676260062
 30
0.0
 10
57.94682638675732
 20
72.22799399270583
 30
0.0
 10
57.88231450313444
 20
72.22145573238818
 30
0.0
  0
SPLINE
  5
2C7
330
1F
100
AcDbEntity
  8
0
  6
Continuous
 62
     8
370
    25
100
AcDbSpline
210
0.0
220
0.0
230
1.0
 70
     8
 71
     3
 72
    10
 73
     6
 74
     0
 42
0.000000001
 43
0.00000001
 40
0.0
 40
0.0
 40
0.0
 40
0.0
 40
0.4212602800340237
 40
0.8393534616774677
 40
1.0
 40
1.0
 40
1.0
 40
1.0
 10
54.9984621018518
 20
72.50232678840844
 30
0.0
 10
55.19509413618541
 20
72.45196191609931
 30
0.0
 10
55.58687989552942
 20
72.35161082219552
 30
0.0
 10
56.06054185593148
 20
72.25283419036275
 30
0.0
 10
56.33775845097271
 20
72.22506293205902
 30
0.0
 10
56.41470821754748
 20
72.21735418776957
 30
0.0
  0
LINE
  5
2C8
330
1F
100
AcDbEntity
  8
0
  6
Continuous
 62
     8
370
    25
100
AcDbLine
 10
56.4422597661
 20
72.2143208701
 30
0.0
 11
56.4849911741
 21
72.2096158285
 31
0.0
  0
LINE
  5
2C9
330
1F
100
AcDbEntity
  8
0
  6
Continuous
 62
     8
370
    25
100
AcDbLine
 10
56.7624146486
 20
72.1872170549
 30
0.0
 11
56.9089771296
 21
72.1821208578
 31
0.0
  0
SPLINE
  5
2CA
330
1F
100
AcDbEntity
  8
0
  6
Continuous
 62
     8
370
    25
100
AcDbSpline
210
0.0
220
0.0
230
1.0
 70
    24
 71
     3
 72
    32
 73
    28
 74
     0
 42
0.000000001
 43
0.00000001
 40
0.0
 40
0.0
 40
0.0
 40
0.0
 40
0.0416176797032943
 40
0.0832353676929536
 40
0.1248530485793556
 40
0.1664707228260686
 40
0.2080884144980396
 40
0.2497060790831502
 40
0.2913237726951729
 40
0.3329414596565394
 40
0.3745591270800701
 40
0.4161768160929624
 40
0.4577944988656582
 40
0.4994121815451297
 40
0.541029861248424
 40
0.5826475492380834
 40
0.6242652301244853
 40
0.6658829043711982
 40
0.7075005960431693
 40
0.7491182606282799
 40
0.7907359542403026
 40
0.8323536412016692
 40
0.8739713086251997
 40
0.9155889976380921
 40
0.9572066804107879
 40
0.9988243630902593
 40
1.0
 40
1.0
 40
1.0
 40
1.0
 10
66.27583551633845
 20
72.17361229474632
 30
0.0
 10
66.27583551633845
 20
72.18330680515069
 30
0.0
 10
66.27583551633845
 20
72.20269582788967
 30
0.0
 10
66.27583551633845
 20
72.36145187493406
 30
0.0
 10
66.27583551633845
 20
72.61228464517743
 30
0.0
 10
66.27583551633845
 20
72.96024767213308
 30
0.0
 10
66.27583551633845
 20
73.39688421276277
 30
0.0
 10
66.27583551633845
 20
73.91539340765944
 30
0.0
 10
66.27583551633845
 20
74.50672405572072
 30
0.0
 10
66.27583551633845
 20
75.1608060281186
 30
0.0
 10
66.27583551633845
 20
75.86643550034881
 30
0.0
 10
66.27583551633845
 20
76.61154181542278
 30
0.0
 10
66.27583551633845
 20
77.38337557304166
 30
0.0
 10
66.27583551633845
 20
78.16873046629394
 30
0.0
 10
66.27583551633845
 20
78.95416886983215
 30
0.0
 10
66.27583551633845
 20
79.72625172413412
 30
0.0
 10
66.27583551633845
 20
80.471768058497
 30
0.0
 10
66.27583551633845
 20
81.17796380150628
 30
0.0
 10
66.27583551633845
 20
81.83274928683825
 30
0.0
 10
66.27583551633845
 20
82.42494290683031
 30
0.0
 10
66.27583551633845
 20
82.9443324562533
 30
0.0
 10
66.27583551633845
 20
83.38232682696616
 30
0.0
 10
66.27583551633845
 20
83.73032941413953
 30
0.0
 10
66.27583551633845
 20
83.98649726713688
 30
0.0
 10
66.27583551633845
 20
84.13110667387151
 30
0.0
 10
66.27583551633845
 20
84.1904841733283
 30
0.0
 10
66.27583551633845
 20
84.1726658134686
 30
0.0
 10
66.27583551633845
 20
84.17217629964439
 30
0.0
  0
SPLINE
  5
2CB
330
1F
100
AcDbEntity
  8
0
  6
Continuous
 62
     8
370
    25
100
AcDbSpline
210
0.0
220
0.0
230
1.0
 70
     8
 71
     3
 72
     9
 73
     5
 74
     0
 42
0.000000001
 43
0.00000001
 40
0.0
 40
0.0
 40
0.0
 40
0.0
 40
0.6198366243912011
 40
1.0
 40
1.0
 40
1.0
 40
1.0
 10
54.94937744404862
 20
84.11503174344985
 30
0.0
 10
55.35668464263559
 20
84.11989529389635
 30
0.0
 10
56.01380489426161
 20
84.12774179772511
 30
0.0
 10
56.67003897027216
 20
84.15468128670445
 30
0.0
 10
56.91951513179785
 20
84.164922693772
 30
0.0
  0
SPLINE
  5
2CC
330
1F
100
AcDbEntity
  8
0
  6
Continuous
 62
     8
370
    25
100
AcDbSpline
210
0.0
220
0.0
230
1.0
 70
     8
 71
     3
 72
     9
 73
     5
 74
     0
 42
0.000000001
 43
0.00000001
 40
0.0
 40
0.0
 40
0.0
 40
0.0
 40
0.6198366243912011
 40
1.0
 40
1.0
 40
1.0
 40
1.0
 10
59.31039365421722
 20
72.23218922506062
 30
0.0
 10
58.90308645563026
 20
72.22732567461414
 30
0.0
 10
58.24596620400424
 20
72.21947917078538
 30
0.0
 10
57.58973212799369
 20
72.19253968180604
 30
0.0
 10
57.34025596646799
 20
72.18229827473847
 30
0.0
  0
LINE
  5
2CD
330
1F
100
AcDbEntity
  8
0
  6
Continuous
 62
     8
370
    25
100
AcDbLine
 10
57.1298855491
 20
84.1736105364
 30
0.0
 11
57.1298855491
 21
84.1740850453
 31
0.0
  0
LINE
  5
2CE
330
1F
100
AcDbEntity
  8
0
  6
Continuous
 62
     8
370
    25
100
AcDbLine
 10
57.1298855491
 20
72.1736104321
 30
0.0
 11
57.1298855491
 21
72.1731359232
 31
0.0
  0
LINE
  5
2CF
330
1F
100
AcDbEntity
  8
0
  6
Continuous
 62
     8
370
    25
100
AcDbLine
 10
64.6298853815
 20
84.2236104515
 30
0.0
 11
63.6298856832
 21
84.2236104515
 31
0.0
  0
INSERT
  5
2DB
330
1F
100
AcDbEntity
  8
0
  6
Continuous
 62
     7
370
    18
100
AcDbBlockReference
  2
SW_CENTERMARKSYMBOL_1
 10
57.1298855491
 20
78.1736104843
 30
0.0
  0
ARC
  5
2DC
330
1F
100
AcDbEntity
  8
0
  6
Continuous
 62
     7
370
    18
100
AcDbCircle
 10
57.1298855491
 20
78.1736104843
 30
0.0
 40
4.283000000000005
100
AcDbArc
 50
75.0
 51
345.0
  0
ENDSEC
  0
SECTION
  2
OBJECTS
  0
DICTIONARY
  5
C
330
0
100
AcDbDictionary
281
     1
  3
ACAD_GROUP
350
D
  3
ACAD_LAYOUT
350
1A
  3
ACAD_MLINESTYLE
350
17
  3
ACAD_PLOTSETTINGS
350
19
  3
ACAD_PLOTSTYLENAME
350
E
  3
ACAD_SCALELIST
350
47
  0
DICTIONARY
  5
D
102
{ACAD_REACTORS
330
C
102
}
330
C
100
AcDbDictionary
281
     1
  0
DICTIONARY
  5
1A
102
{ACAD_REACTORS
330
C
102
}
330
C
100
AcDbDictionary
281
     1
  3
Layout1
350
1E
  3
Layout2
350
26
  3
Model
350
22
  0
DICTIONARY
  5
17
102
{ACAD_REACTORS
330
C
102
}
330
C
100
AcDbDictionary
281
     1
  3
Standard
350
18
  0
DICTIONARY
  5
19
102
{ACAD_REACTORS
330
C
102
}
330
C
100
AcDbDictionary
281
     1
  0
ACDBDICTIONARYWDFLT
  5
E
102
{ACAD_REACTORS
330
C
102
}
330
C
100
AcDbDictionary
281
     1
  3
Normal
350
F
100
AcDbDictionaryWithDefault
340
F
  0
DICTIONARY
  5
47
102
{ACAD_REACTORS
330
C
102
}
330
C
100
AcDbDictionary
281
     1
  3
A0
350
48
  3
A1
350
49
  3
A2
350
4A
  3
A3
350
4B
  3
A4
350
4C
  3
A5
350
4D
  3
A6
350
4E
  3
A7
350
4F
  3
A8
350
50
  3
A9
350
51
  3
B0
350
52
  3
B1
350
53
  3
B2
350
54
  3
B3
350
55
  3
B4
350
56
  3
B5
350
57
  3
B6
350
58
  3
B7
350
59
  3
B8
350
5A
  3
B9
350
5B
  3
C0
350
5C
  3
C1
350
5D
  3
C2
350
5E
  3
C3
350
5F
  3
C4
350
60
  3
C5
350
61
  3
C6
350
62
  3
C7
350
63
  3
C8
350
64
  3
C9
350
65
  3
D0
350
66
  3
D1
350
67
  3
D2
350
68
  0
LAYOUT
  5
1E
102
{ACAD_REACTORS
330
1A
102
}
330
1A
100
AcDbPlotSettings
  1

  2
none_device
  4

  6

 40
0.0
 41
0.0
 42
0.0
 43
0.0
 44
0.0
 45
0.0
 46
0.0
 47
0.0
 48
0.0
 49
0.0
140
0.0
141
0.0
142
1.0
143
1.0
 70
   688
 72
     1
 73
     0
 74
     5
  7

 75
    16
147
1.0
148
0.0
149
0.0
100
AcDbLayout
  1
Layout1
 70
     1
 71
     1
 10
0.0
 20
0.0
 11
420.0
 21
297.0
 12
0.0
 22
0.0
 32
0.0
 14
1.0000000000E+20
 24
1.0000000000E+20
 34
1.0000000000E+20
 15
-1.0000000000E+20
 25
-1.0000000000E+20
 35
-1.0000000000E+20
146
0.0
 13
0.0
 23
0.0
 33
0.0
 16
1.0
 26
0.0
 36
0.0
 17
0.0
 27
1.0
 37
0.0
 76
     0
330
1B
  0
LAYOUT
  5
26
102
{ACAD_REACTORS
330
1A
102
}
330
1A
100
AcDbPlotSettings
  1

  2
none_device
  4

  6

 40
0.0
 41
0.0
 42
0.0
 43
0.0
 44
0.0
 45
0.0
 46
0.0
 47
0.0
 48
0.0
 49
0.0
140
0.0
141
0.0
142
1.0
143
1.0
 70
   688
 72
     1
 73
     0
 74
     5
  7

 75
    16
147
1.0
148
0.0
149
0.0
100
AcDbLayout
  1
Layout2
 70
     1
 71
     2
 10
0.0
 20
0.0
 11
0.0
 21
0.0
 12
0.0
 22
0.0
 32
0.0
 14
0.0
 24
0.0
 34
0.0
 15
0.0
 25
0.0
 35
0.0
146
0.0
 13
0.0
 23
0.0
 33
0.0
 16
1.0
 26
0.0
 36
0.0
 17
0.0
 27
1.0
 37
0.0
 76
     0
330
23
  0
LAYOUT
  5
22
102
{ACAD_REACTORS
330
1A
102
}
330
1A
100
AcDbPlotSettings
  1

  2
none_device
  4
Letter_(8.50_x_11.00_Inches)
  6

 40
6.35
 41
6.35
 42
6.35000508
 43
6.35000508
 44
215.9
 45
279.4
 46
0.0
 47
0.0
 48
0.0
 49
0.0
140
0.0
141
0.0
142
1.0
143
1.0
 70
  1712
 72
     1
 73
     0
 74
     0
  7

 75
     0
147
1.0
148
0.0
149
0.0
100
AcDbLayout
  1
Model
 70
     1
 71
     0
 10
0.0
 20
0.0
 11
215.9
 21
139.7
 12
0.0
 22
0.0
 32
0.0
 14
0.0
 24
0.0
 34
0.0
 15
215.9
 25
139.7
 35
0.0
146
0.0
 13
0.0
 23
0.0
 33
0.0
 16
1.0
 26
0.0
 36
0.0
 17
0.0
 27
1.0
 37
0.0
 76
     0
330
1F
331
29
  0
MLINESTYLE
  5
18
102
{ACAD_REACTORS
330
17
102
}
330
17
100
AcDbMlineStyle
  2
Standard
 70
     0
  3

 62
   256
 51
90.0
 52
90.0
 71
     2
 49
0.5
 62
   256
  6
BYLAYER
 49
-0.5
 62
   256
  6
BYLAYER
  0
ACDBPLACEHOLDER
  5
F
102
{ACAD_REACTORS
330
E
102
}
330
E
  0
SCALE
  5
48
102
{ACAD_REACTORS
330
47
102
}
330
47
100
AcDbScale
 70
     0
300
1:1
140
1.0
141
1.0
290
     1
  0
SCALE
  5
49
102
{ACAD_REACTORS
330
47
102
}
330
47
100
AcDbScale
 70
     0
300
1:2
140
1.0
141
2.0
290
     0
  0
SCALE
  5
4A
102
{ACAD_REACTORS
330
47
102
}
330
47
100
AcDbScale
 70
     0
300
1:4
140
1.0
141
4.0
290
     0
  0
SCALE
  5
4B
102
{ACAD_REACTORS
330
47
102
}
330
47
100
AcDbScale
 70
     0
300
1:5
140
1.0
141
5.0
290
     0
  0
SCALE
  5
4C
102
{ACAD_REACTORS
330
47
102
}
330
47
100
AcDbScale
 70
     0
300
1:8
140
1.0
141
8.0
290
     0
  0
SCALE
  5
4D
102
{ACAD_REACTORS
330
47
102
}
330
47
100
AcDbScale
 70
     0
300
1:10
140
1.0
141
10.0
290
     0
  0
SCALE
  5
4E
102
{ACAD_REACTORS
330
47
102
}
330
47
100
AcDbScale
 70
     0
300
1:16
140
1.0
141
16.0
290
     0
  0
SCALE
  5
4F
102
{ACAD_REACTORS
330
47
102
}
330
47
100
AcDbScale
 70
     0
300
1:20
140
1.0
141
20.0
290
     0
  0
SCALE
  5
50
102
{ACAD_REACTORS
330
47
102
}
330
47
100
AcDbScale
 70
     0
300
1:30
140
1.0
141
30.0
290
     0
  0
SCALE
  5
51
102
{ACAD_REACTORS
330
47
102
}
330
47
100
AcDbScale
 70
     0
300
1:40
140
1.0
141
40.0
290
     0
  0
SCALE
  5
52
102
{ACAD_REACTORS
330
47
102
}
330
47
100
AcDbScale
 70
     0
300
1:50
140
1.0
141
50.0
290
     0
  0
SCALE
  5
53
102
{ACAD_REACTORS
330
47
102
}
330
47
100
AcDbScale
 70
     0
300
1:100
140
1.0
141
100.0
290
     0
  0
SCALE
  5
54
102
{ACAD_REACTORS
330
47
102
}
330
47
100
AcDbScale
 70
     0
300
2:1
140
2.0
141
1.0
290
     0
  0
SCALE
  5
55
102
{ACAD_REACTORS
330
47
102
}
330
47
100
AcDbScale
 70
     0
300
4:1
140
4.0
141
1.0
290
     0
  0
SCALE
  5
56
102
{ACAD_REACTORS
330
47
102
}
330
47
100
AcDbScale
 70
     0
300
8:1
140
8.0
141
1.0
290
     0
  0
SCALE
  5
57
102
{ACAD_REACTORS
330
47
102
}
330
47
100
AcDbScale
 70
     0
300
10:1
140
10.0
141
1.0
290
     0
  0
SCALE
  5
58
102
{ACAD_REACTORS
330
47
102
}
330
47
100
AcDbScale
 70
     0
300
100:1
140
100.0
141
1.0
290
     0
  0
SCALE
  5
59
102
{ACAD_REACTORS
330
47
102
}
330
47
100
AcDbScale
 70
     0
300
1/128" = 1'-0"
140
0.0078125
141
12.0
290
     0
  0
SCALE
  5
5A
102
{ACAD_REACTORS
330
47
102
}
330
47
100
AcDbScale
 70
     0
300
1/64" = 1'-0"
140
0.015625
141
12.0
290
     0
  0
SCALE
  5
5B
102
{ACAD_REACTORS
330
47
102
}
330
47
100
AcDbScale
 70
     0
300
1/32" = 1'-0"
140
0.03125
141
12.0
290
     0
  0
SCALE
  5
5C
102
{ACAD_REACTORS
330
47
102
}
330
47
100
AcDbScale
 70
     0
300
1/16" = 1'-0"
140
0.0625
141
12.0
290
     0
  0
SCALE
  5
5D
102
{ACAD_REACTORS
330
47
102
}
330
47
100
AcDbScale
 70
     0
300
3/32" = 1'-0"
140
0.09375
141
12.0
290
     0
  0
SCALE
  5
5E
102
{ACAD_REACTORS
330
47
102
}
330
47
100
AcDbScale
 70
     0
300
1/8" = 1'-0"
140
0.125
141
12.0
290
     0
  0
SCALE
  5
5F
102
{ACAD_REACTORS
330
47
102
}
330
47
100
AcDbScale
 70
     0
300
3/16" = 1'-0"
140
0.1875
141
12.0
290
     0
  0
SCALE
  5
60
102
{ACAD_REACTORS
330
47
102
}
330
47
100
AcDbScale
 70
     0
300
1/4" = 1'-0"
140
0.25
141
12.0
290
     0
  0
SCALE
  5
61
102
{ACAD_REACTORS
330
47
102
}
330
47
100
AcDbScale
 70
     0
300
3/8" = 1'-0"
140
0.375
141
12.0
290
     0
  0
SCALE
  5
62
102
{ACAD_REACTORS
330
47
102
}
330
47
100
AcDbScale
 70
     0
300
1/2" = 1'-0"
140
0.5
141
12.0
290
     0
  0
SCALE
  5
63
102
{ACAD_REACTORS
330
47
102
}
330
47
100
AcDbScale
 70
     0
300
3/4" = 1'-0"
140
0.75
141
12.0
290
     0
  0
SCALE
  5
64
102
{ACAD_REACTORS
330
47
102
}
330
47
100
AcDbScale
 70
     0
300
1" = 1'-0"
140
1.0
141
12.0
290
     0
  0
SCALE
  5
65
102
{ACAD_REACTORS
330
47
102
}
330
47
100
AcDbScale
 70
     0
300
1-1/2" = 1'-0"
140
1.5
141
12.0
290
     0
  0
SCALE
  5
66
102
{ACAD_REACTORS
330
47
102
}
330
47
100
AcDbScale
 70
     0
300
3" = 1'-0"
140
3.0
141
12.0
290
     0
  0
SCALE
  5
67
102
{ACAD_REACTORS
330
47
102
}
330
47
100
AcDbScale
 70
     0
300
6" = 1'-0"
140
6.0
141
12.0
290
     0
  0
SCALE
  5
68
102
{ACAD_REACTORS
330
47
102
}
330
47
100
AcDbScale
 70
     0
300
1'-0" = 1'-0"
140
12.0
141
12.0
290
     0
  0
ENDSEC
  0
EOF
