  0
SECTION
  2
HEADER
  9
$ACADVER
  1
AC1015
  9
$ACADMAINTVER
 70
     6
  9
$DWGCODEPAGE
  3
DOS932
  9
$INSBASE
 10
0.0
 20
0.0
 30
0.0
  9
$EXTMIN
 10
0.0
 20
0.0
 30
0.0
  9
$EXTMAX
 10
431.8
 20
279.4
 30
0.0
  9
$LIMMIN
 10
0.0
 20
0.0
  9
$LIMMAX
 10
431.8
 20
279.4
  9
$ORTHOMODE
 70
     0
  9
$REGENMODE
 70
     1
  9
$FILLMODE
 70
     1
  9
$QTEXTMODE
 70
     0
  9
$MIRRTEXT
 70
     1
  9
$LTSCALE
 40
1.0
  9
$ATTMODE
 70
     1
  9
$TEXTSIZE
 40
3.5
  9
$TRACEWID
 40
1.0
  9
$TEXTSTYLE
  7
Standard
  9
$CLAYER
  8
0
  9
$CELTYPE
  6
ByLayer
  9
$CECOLOR
 62
   256
  9
$CELTSCALE
 40
1.0
  9
$DISPSILH
 70
     0
  9
$DIMSCALE
 40
1.0
  9
$DIMASZ
 40
3.302
  9
$DIMEXO
 40
1.0
  9
$DIMDLI
 40
3.75
  9
$DIMRND
 40
0.0
  9
$DIMDLE
 40
0.0
  9
$DIMEXE
 40
1.0
  9
$DIMTP
 40
0.0
  9
$DIMTM
 40
0.0
  9
$DIMTXT
 40
3.5
  9
$DIMCEN
 40
2.5
  9
$DIMTSZ
 40
0.0
  9
$DIMTOL
 70
     0
  9
$DIMLIM
 70
     0
  9
$DIMTIH
 70
     1
  9
$DIMTOH
 70
     1
  9
$DIMSE1
 70
     0
  9
$DIMSE2
 70
     0
  9
$DIMTAD
 70
     1
  9
$DIMZIN
 70
     1
  9
$DIMBLK
  1

  9
$DIMASO
 70
     1
  9
$DIMSHO
 70
     1
  9
$DIMPOST
  1

  9
$DIMAPOST
  1

  9
$DIMALT
 70
     0
  9
$DIMALTD
 70
     3
  9
$DIMALTF
 40
0.0393700787
  9
$DIMLFAC
 40
1.0
  9
$DIMTOFL
 70
     1
  9
$DIMTVP
 40
0.0
  9
$DIMTIX
 70
     0
  9
$DIMSOXD
 70
     0
  9
$DIMSAH
 70
     0
  9
$DIMBLK1
  1

  9
$DIMBLK2
  1

  9
$DIMSTYLE
  2
ISO-25
  9
$DIMCLRD
 70
     0
  9
$DIMCLRE
 70
     0
  9
$DIMCLRT
 70
     0
  9
$DIMTFAC
 40
1.0
  9
$DIMGAP
 40
1.524
  9
$DIMJUST
 70
     0
  9
$DIMSD1
 70
     0
  9
$DIMSD2
 70
     0
  9
$DIMTOLJ
 70
     0
  9
$DIMTZIN
 70
     1
  9
$DIMALTZ
 70
     0
  9
$DIMALTTZ
 70
     0
  9
$DIMUPT
 70
     0
  9
$DIMDEC
 70
     2
  9
$DIMTDEC
 70
     2
  9
$DIMALTU
 70
     2
  9
$DIMALTTD
 70
     3
  9
$DIMTXSTY
  7
Standard
  9
$DIMAUNIT
 70
     0
  9
$DIMADEC
 70
     2
  9
$DIMALTRND
 40
0.0
  9
$DIMAZIN
 70
     0
  9
$DIMDSEP
 70
    44
  9
$DIMATFIT
 70
     3
  9
$DIMFRAC
 70
     0
  9
$DIMLDRBLK
  1

  9
$DIMLUNIT
 70
     2
  9
$DIMLWD
 70
    -2
  9
$DIMLWE
 70
    -2
  9
$DIMTMOVE
 70
     0
  9
$LUNITS
 70
     2
  9
$LUPREC
 70
     2
  9
$SKETCHINC
 40
1.0
  9
$FILLETRAD
 40
10.0
  9
$AUNITS
 70
     0
  9
$AUPREC
 70
     2
  9
$MENU
  1
.
  9
$ELEVATION
 40
0.0
  9
$PELEVATION
 40
0.0
  9
$THICKNESS
 40
0.0
  9
$LIMCHECK
 70
     0
  9
$CHAMFERA
 40
0.0
  9
$CHAMFERB
 40
0.0
  9
$CHAMFERC
 40
0.0
  9
$CHAMFERD
 40
0.0
  9
$SKPOLY
 70
     0
  9
$TDCREATE
 40
2459230.376885509
  9
$TDUCREATE
 40
2459230.001885509
  9
$TDUPDATE
 40
2459230.376886412
  9
$TDUUPDATE
 40
2459230.001886412
  9
$TDINDWG
 40
0.0000000116
  9
$TDUSRTIMER
 40
0.0000000116
  9
$USRTIMER
 70
     1
  9
$ANGBASE
 50
0.0
  9
$ANGDIR
 70
     0
  9
$PDMODE
 70
     0
  9
$PDSIZE
 40
-1.0
  9
$PLINEWID
 40
0.0
  9
$SPLFRAME
 70
     0
  9
$SPLINETYPE
 70
     6
  9
$SPLINESEGS
 70
     8
  9
$HANDSEED
  5
205
  9
$SURFTAB1
 70
     6
  9
$SURFTAB2
 70
     6
  9
$SURFTYPE
 70
     6
  9
$SURFU
 70
     6
  9
$SURFV
 70
     6
  9
$UCSBASE
  2

  9
$UCSNAME
  2

  9
$UCSORG
 10
0.0
 20
0.0
 30
0.0
  9
$UCSXDIR
 10
1.0
 20
0.0
 30
0.0
  9
$UCSYDIR
 10
0.0
 20
1.0
 30
0.0
  9
$UCSORTHOREF
  2

  9
$UCSORTHOVIEW
 70
     0
  9
$UCSORGTOP
 10
0.0
 20
0.0
 30
0.0
  9
$UCSORGBOTTOM
 10
0.0
 20
0.0
 30
0.0
  9
$UCSORGLEFT
 10
0.0
 20
0.0
 30
0.0
  9
$UCSORGRIGHT
 10
0.0
 20
0.0
 30
0.0
  9
$UCSORGFRONT
 10
0.0
 20
0.0
 30
0.0
  9
$UCSORGBACK
 10
0.0
 20
0.0
 30
0.0
  9
$PUCSBASE
  2

  9
$PUCSNAME
  2

  9
$PUCSORG
 10
0.0
 20
0.0
 30
0.0
  9
$PUCSXDIR
 10
1.0
 20
0.0
 30
0.0
  9
$PUCSYDIR
 10
0.0
 20
1.0
 30
0.0
  9
$PUCSORTHOREF
  2

  9
$PUCSORTHOVIEW
 70
     0
  9
$PUCSORGTOP
 10
0.0
 20
0.0
 30
0.0
  9
$PUCSORGBOTTOM
 10
0.0
 20
0.0
 30
0.0
  9
$PUCSORGLEFT
 10
0.0
 20
0.0
 30
0.0
  9
$PUCSORGRIGHT
 10
0.0
 20
0.0
 30
0.0
  9
$PUCSORGFRONT
 10
0.0
 20
0.0
 30
0.0
  9
$PUCSORGBACK
 10
0.0
 20
0.0
 30
0.0
  9
$USERI1
 70
     0
  9
$USERI2
 70
     0
  9
$USERI3
 70
     0
  9
$USERI4
 70
     0
  9
$USERI5
 70
     0
  9
$USERR1
 40
0.0
  9
$USERR2
 40
0.0
  9
$USERR3
 40
0.0
  9
$USERR4
 40
0.0
  9
$USERR5
 40
0.0
  9
$WORLDVIEW
 70
     1
  9
$SHADEDGE
 70
     3
  9
$SHADEDIF
 70
    70
  9
$TILEMODE
 70
     1
  9
$MAXACTVP
 70
    64
  9
$PINSBASE
 10
0.0
 20
0.0
 30
0.0
  9
$PLIMCHECK
 70
     0
  9
$PEXTMIN
 10
1.0000000000E+20
 20
1.0000000000E+20
 30
1.0000000000E+20
  9
$PEXTMAX
 10
-1.0000000000E+20
 20
-1.0000000000E+20
 30
-1.0000000000E+20
  9
$PLIMMIN
 10
0.0
 20
0.0
  9
$PLIMMAX
 10
420.0
 20
297.0
  9
$UNITMODE
 70
     0
  9
$VISRETAIN
 70
     1
  9
$PLINEGEN
 70
     0
  9
$PSLTSCALE
 70
     1
  9
$TREEDEPTH
 70
  3020
  9
$CMLSTYLE
  2
Standard
  9
$CMLJUST
 70
     0
  9
$CMLSCALE
 40
20.0
  9
$PROXYGRAPHICS
 70
     1
  9
$MEASUREMENT
 70
     1
  9
$CELWEIGHT
370
    -1
  9
$ENDCAPS
280
     0
  9
$JOINSTYLE
280
     0
  9
$LWDISPLAY
290
     1
  9
$INSUNITS
 70
     4
  9
$HYPERLINKBASE
  1

  9
$STYLESHEET
  1

  9
$XEDIT
290
     1
  9
$CEPSNTYPE
380
     0
  9
$PSTYLEMODE
290
     1
  9
$FINGERPRINTGUID
  2
{2BAEFB70-9B54-46F7-BA21-6DDEEAFD3A75}
  9
$VERSIONGUID
  2
{FAEB1C32-E019-11D5-929B-00C0DF256EC4}
  9
$EXTNAMES
290
     1
  9
$PSVPSCALE
 40
0.0
  9
$OLESTARTUP
290
     0
  0
ENDSEC
  0
SECTION
  2
CLASSES
  0
CLASS
  1
ACDBDICTIONARYWDFLT
  2
AcDbDictionaryWithDefault
  3
ObjectDBX Classes
 90
        0
280
     0
281
     0
  0
CLASS
  1
VISUALSTYLE
  2
AcDbVisualStyle
  3
ObjectDBX Classes
 90
     4095
280
     0
281
     0
  0
CLASS
  1
MATERIAL
  2
AcDbMaterial
  3
ObjectDBX Classes
 90
     1153
280
     0
281
     0
  0
CLASS
  1
SCALE
  2
AcDbScale
  3
ObjectDBX Classes
 90
     1153
280
     0
281
     0
  0
CLASS
  1
TABLESTYLE
  2
AcDbTableStyle
  3
ObjectDBX Classes
 90
     4095
280
     0
281
     0
  0
CLASS
  1
MLEADERSTYLE
  2
AcDbMLeaderStyle
  3
ACDB_MLEADERSTYLE_CLASS
 90
     4095
280
     0
281
     0
  0
CLASS
  1
SUN
  2
AcDbSun
  3
SCENEOE
 90
     1153
280
     0
281
     0
  0
CLASS
  1
ACDBPLACEHOLDER
  2
AcDbPlaceHolder
  3
ObjectDBX Classes
 90
        0
280
     0
281
     0
  0
CLASS
  1
LAYOUT
  2
AcDbLayout
  3
ObjectDBX Classes
 90
        0
280
     0
281
     0
  0
ENDSEC
  0
SECTION
  2
TABLES
  0
TABLE
  2
VPORT
  5
8
330
0
100
AcDbSymbolTable
 70
     1
  0
VPORT
  5
29
330
8
100
AcDbSymbolTableRecord
100
AcDbViewportTableRecord
  2
*Active
 70
     0
 10
0.0
 20
0.0
 11
1.0
 21
1.0
 12
215.9
 22
139.7
 13
0.0
 23
0.0
 14
10.0
 24
10.0
 15
10.0
 25
10.0
 16
0.0
 26
0.0
 36
1.0
 17
0.0
 27
0.0
 37
0.0
 40
279.4
 41
1.5454545455
 42
50.0
 43
0.0
 44
0.0
 50
0.0
 51
0.0
 71
     0
 72
  2000
 73
     1
 74
     3
 75
     0
 76
     0
 77
     0
 78
     0
281
     0
 65
     1
110
0.0
120
0.0
130
0.0
111
1.0
121
0.0
131
0.0
112
0.0
122
1.0
132
0.0
 79
     0
146
0.0
  0
ENDTAB
  0
TABLE
  2
LTYPE
  5
5
330
0
100
AcDbSymbolTable
 70
     6
  0
LTYPE
  5
14
330
5
100
AcDbSymbolTableRecord
100
AcDbLinetypeTableRecord
  2
ByBlock
 70
     0
  3

 72
    65
 73
     0
 40
0.0
  0
LTYPE
  5
15
330
5
100
AcDbSymbolTableRecord
100
AcDbLinetypeTableRecord
  2
ByLayer
 70
     0
  3

 72
    65
 73
     0
 40
0.0
  0
LTYPE
  5
16
330
5
100
AcDbSymbolTableRecord
100
AcDbLinetypeTableRecord
  2
Continuous
 70
     0
  3
Solid line
 72
    65
 73
     0
 40
0.0
  0
LTYPE
  5
6E
330
5
100
AcDbSymbolTableRecord
100
AcDbLinetypeTableRecord
  2
HIDDEN
 70
     0
  3
Hidden __ __ __ __ __ __ __ __ __ __ __ __ __ __
 72
    65
 73
     2
 40
1.905
 49
1.27
 74
     0
 49
-0.635
 74
     0
  0
LTYPE
  5
6F
330
5
100
AcDbSymbolTableRecord
100
AcDbLinetypeTableRecord
  2
PHANTOM
 70
     0
  3
Phantom ______  __  __  ______  __  __  ______
 72
    65
 73
     6
 40
12.7
 49
6.35
 74
     0
 49
-1.27
 74
     0
 49
1.27
 74
     0
 49
-1.27
 74
     0
 49
1.27
 74
     0
 49
-1.27
 74
     0
  0
LTYPE
  5
70
330
5
100
AcDbSymbolTableRecord
100
AcDbLinetypeTableRecord
  2
CENTER
 70
     0
  3
Center ____ _ ____ _ ____ _ ____ _ ____ _ ____
 72
    65
 73
     4
 40
10.16
 49
6.35
 74
     0
 49
-1.27
 74
     0
 49
1.27
 74
     0
 49
-1.27
 74
     0
  0
LTYPE
  5
71
330
5
100
AcDbSymbolTableRecord
100
AcDbLinetypeTableRecord
  2
CENTERX2
 70
     0
  3
Center (2x) ________  __  ________  __  _____
 72
    65
 73
     4
 40
20.32
 49
12.7
 74
     0
 49
-2.54
 74
     0
 49
2.54
 74
     0
 49
-2.54
 74
     0
  0
LTYPE
  5
72
330
5
100
AcDbSymbolTableRecord
100
AcDbLinetypeTableRecord
  2
DOT2
 70
     0
  3
Dot (.5x) ........................................
 72
    65
 73
     2
 40
0.635
 49
0.0
 74
     0
 49
-0.635
 74
     0
  0
ENDTAB
  0
TABLE
  2
LAYER
  5
2
330
0
100
AcDbSymbolTable
 70
     1
  0
LAYER
  5
10
330
2
100
AcDbSymbolTableRecord
100
AcDbLayerTableRecord
  2
0
 70
     0
 62
     7
  6
Continuous
370
    -3
390
F
  0
ENDTAB
  0
TABLE
  2
STYLE
  5
3
330
0
100
AcDbSymbolTable
 70
     2
  0
STYLE
  5
11
330
3
100
AcDbSymbolTableRecord
100
AcDbTextStyleTableRecord
  2
Standard
 70
     0
 40
0.0
 41
1.0
 50
0.0
 71
     0
 42
3.5
  3
txt
  4
bigfont
  0
STYLE
  5
73
330
3
100
AcDbSymbolTableRecord
100
AcDbTextStyleTableRecord
  2
SLDTEXTSTYLE0
 70
     0
 40
0.0
 41
0.7
 50
0.0
 71
     0
 42
3.5
  3
TXT
  4
bigfont
  0
ENDTAB
  0
TABLE
  2
VIEW
  5
6
330
0
100
AcDbSymbolTable
 70
     0
  0
ENDTAB
  0
TABLE
  2
UCS
  5
7
330
0
100
AcDbSymbolTable
 70
     0
  0
ENDTAB
  0
TABLE
  2
APPID
  5
9
330
0
100
AcDbSymbolTable
 70
     1
  0
APPID
  5
12
330
9
100
AcDbSymbolTableRecord
100
AcDbRegAppTableRecord
  2
ACAD
 70
     0
  0
ENDTAB
  0
TABLE
  2
DIMSTYLE
  5
A
330
0
100
AcDbSymbolTable
 70
     1
100
AcDbDimStyleTable
  0
DIMSTYLE
105
27
330
A
100
AcDbSymbolTableRecord
100
AcDbDimStyleTableRecord
  2
ISO-25
 70
     0
 41
2.5
 42
0.625
 43
3.75
 44
1.25
 73
     0
 74
     0
 77
     1
 78
     8
140
2.5
141
2.5
143
0.0393700787
147
0.625
171
     3
172
     1
178
     0
271
     2
272
     2
274
     3
278
    44
283
     0
284
     8
340
11
  0
ENDTAB
  0
TABLE
  2
BLOCK_RECORD
  5
1
330
0
100
AcDbSymbolTable
 70
     3
  0
BLOCK_RECORD
  5
1F
330
1
100
AcDbSymbolTableRecord
100
AcDbBlockTableRecord
  2
*Model_Space
340
22
  0
BLOCK_RECORD
  5
1B
330
1
100
AcDbSymbolTableRecord
100
AcDbBlockTableRecord
  2
*Paper_Space
340
1E
  0
BLOCK_RECORD
  5
23
330
1
100
AcDbSymbolTableRecord
100
AcDbBlockTableRecord
  2
*Paper_Space0
340
26
  0
BLOCK_RECORD
  5
179
330
1
100
AcDbSymbolTableRecord
100
AcDbBlockTableRecord
  2
SW_CENTERMARKSYMBOL_0
340
0
102
{BLKREFS
331
184
102
}
  0
BLOCK_RECORD
  5
1F8
330
1
100
AcDbSymbolTableRecord
100
AcDbBlockTableRecord
  2
SW_CENTERMARKSYMBOL_1
340
0
102
{BLKREFS
331
203
102
}
  0
ENDTAB
  0
ENDSEC
  0
SECTION
  2
BLOCKS
  0
BLOCK
  5
20
330
1F
100
AcDbEntity
  8
0
100
AcDbBlockBegin
  2
*Model_Space
 70
     0
 10
0.0
 20
0.0
 30
0.0
  3
*Model_Space
  1

  0
ENDBLK
  5
21
330
1F
100
AcDbEntity
  8
0
100
AcDbBlockEnd
  0
BLOCK
  5
1C
330
1B
100
AcDbEntity
 67
     1
  8
0
100
AcDbBlockBegin
  2
*Paper_Space
 70
     0
 10
0.0
 20
0.0
 30
0.0
  3
*Paper_Space
  1

  0
ENDBLK
  5
1D
330
1B
100
AcDbEntity
 67
     1
  8
0
100
AcDbBlockEnd
  0
BLOCK
  5
24
330
23
100
AcDbEntity
  8
0
100
AcDbBlockBegin
  2
*Paper_Space0
 70
     0
 10
0.0
 20
0.0
 30
0.0
  3
*Paper_Space0
  1

  0
ENDBLK
  5
25
330
23
100
AcDbEntity
  8
0
100
AcDbBlockEnd
  0
BLOCK
  5
17A
330
179
100
AcDbEntity
  8
0
100
AcDbBlockBegin
  2
SW_CENTERMARKSYMBOL_0
 70
     0
 10
0.0
 20
0.0
 30
0.0
  3
SW_CENTERMARKSYMBOL_0
  1

  0
LINE
  5
17C
330
179
100
AcDbEntity
  8
0
  6
Continuous
 62
     0
370
    18
100
AcDbLine
 10
0.0
 20
0.0
 30
0.0
 11
0.0
 21
2.5
 31
0.0
  0
LINE
  5
17D
330
179
100
AcDbEntity
  8
0
  6
Continuous
 62
     0
370
    18
100
AcDbLine
 10
0.0
 20
0.0
 30
0.0
 11
-2.5
 21
0.0
 31
0.0
  0
LINE
  5
17E
330
179
100
AcDbEntity
  8
0
  6
Continuous
 62
     0
370
    18
100
AcDbLine
 10
0.0
 20
0.0
 30
0.0
 11
0.0
 21
-2.5
 31
0.0
  0
LINE
  5
17F
330
179
100
AcDbEntity
  8
0
  6
Continuous
 62
     0
370
    18
100
AcDbLine
 10
0.0
 20
0.0
 30
0.0
 11
2.5
 21
0.0
 31
0.0
  0
LINE
  5
180
330
179
100
AcDbEntity
  8
0
  6
Continuous
 62
     0
370
    18
100
AcDbLine
 10
0.0
 20
5.0
 30
0.0
 11
0.0
 21
36.8769169938
 31
0.0
  0
LINE
  5
181
330
179
100
AcDbEntity
  8
0
  6
Continuous
 62
     0
370
    18
100
AcDbLine
 10
-5.0
 20
0.0
 30
0.0
 11
-16.5
 21
0.0
 31
0.0
  0
LINE
  5
182
330
179
100
AcDbEntity
  8
0
  6
Continuous
 62
     0
370
    18
100
AcDbLine
 10
0.0
 20
-5.0
 30
0.0
 11
0.0
 21
-16.5
 31
0.0
  0
LINE
  5
183
330
179
100
AcDbEntity
  8
0
  6
Continuous
 62
     0
370
    18
100
AcDbLine
 10
5.0
 20
0.0
 30
0.0
 11
16.5
 21
0.0
 31
0.0
  0
ENDBLK
  5
17B
330
179
100
AcDbEntity
  8
0
100
AcDbBlockEnd
  0
BLOCK
  5
1F9
330
1F8
100
AcDbEntity
  8
0
100
AcDbBlockBegin
  2
SW_CENTERMARKSYMBOL_1
 70
     0
 10
0.0
 20
0.0
 30
0.0
  3
SW_CENTERMARKSYMBOL_1
  1

  0
LINE
  5
1FB
330
1F8
100
AcDbEntity
  8
0
  6
Continuous
 62
     0
370
    18
100
AcDbLine
 10
0.0
 20
0.0
 30
0.0
 11
0.0
 21
2.5
 31
0.0
  0
LINE
  5
1FC
330
1F8
100
AcDbEntity
  8
0
  6
Continuous
 62
     0
370
    18
100
AcDbLine
 10
0.0
 20
0.0
 30
0.0
 11
-2.5
 21
0.0
 31
0.0
  0
LINE
  5
1FD
330
1F8
100
AcDbEntity
  8
0
  6
Continuous
 62
     0
370
    18
100
AcDbLine
 10
0.0
 20
0.0
 30
0.0
 11
0.0
 21
-2.5
 31
0.0
  0
LINE
  5
1FE
330
1F8
100
AcDbEntity
  8
0
  6
Continuous
 62
     0
370
    18
100
AcDbLine
 10
0.0
 20
0.0
 30
0.0
 11
2.5
 21
0.0
 31
0.0
  0
LINE
  5
1FF
330
1F8
100
AcDbEntity
  8
0
  6
Continuous
 62
     0
370
    18
100
AcDbLine
 10
0.0
 20
5.0
 30
0.0
 11
0.0
 21
16.5
 31
0.0
  0
LINE
  5
200
330
1F8
100
AcDbEntity
  8
0
  6
Continuous
 62
     0
370
    18
100
AcDbLine
 10
-5.0
 20
0.0
 30
0.0
 11
-36.1736599285
 21
0.0
 31
0.0
  0
LINE
  5
201
330
1F8
100
AcDbEntity
  8
0
  6
Continuous
 62
     0
370
    18
100
AcDbLine
 10
0.0
 20
-5.0
 30
0.0
 11
0.0
 21
-16.5
 31
0.0
  0
LINE
  5
202
330
1F8
100
AcDbEntity
  8
0
  6
Continuous
 62
     0
370
    18
100
AcDbLine
 10
5.0
 20
0.0
 30
0.0
 11
36.8355287886
 21
0.0
 31
0.0
  0
ENDBLK
  5
1FA
330
1F8
100
AcDbEntity
  8
0
100
AcDbBlockEnd
  0
ENDSEC
  0
SECTION
  2
ENTITIES
  0
MTEXT
  5
74
330
1F
100
AcDbEntity
  8
0
  6
Continuous
 62
     7
370
     0
100
AcDbMText
 10
179.4123844671
 20
130.626942272
 30
0.0
 40
5.2916666667
 41
0.0
 71
     1
 72
     1
  1
5R-TF1444
  7
SLDTEXTSTYLE0
 73
     1
 44
1.0
  0
ARC
  5
75
330
1F
100
AcDbEntity
  8
0
  6
Continuous
 62
     7
370
    25
100
AcDbCircle
 10
158.2991791908
 20
91.4680531792
 30
0.0
 40
1.0
100
AcDbArc
 50
90.0
 51
180.0
  0
ARC
  5
76
330
1F
100
AcDbEntity
  8
0
  6
Continuous
 62
     7
370
    25
100
AcDbCircle
 10
158.2991791908
 20
65.4680531792
 30
0.0
 40
1.0
100
AcDbArc
 50
180.0
 51
270.0
  0
LINE
  5
77
330
1F
100
AcDbEntity
  8
0
  6
Continuous
 62
     7
370
    25
100
AcDbLine
 10
125.2991787586
 20
111.4680530004
 30
0.0
 11
125.2991787586
 21
97.4680525682
 31
0.0
  0
LINE
  5
78
330
1F
100
AcDbEntity
  8
0
  6
Continuous
 62
     7
370
    25
100
AcDbLine
 10
153.2991796229
 20
97.4680525682
 30
0.0
 11
153.2991796229
 21
111.4680530004
 31
0.0
  0
LINE
  5
79
330
1F
100
AcDbEntity
  8
0
  6
Continuous
 62
     7
370
    25
100
AcDbLine
 10
172.2991790119
 20
64.4680527471
 30
0.0
 11
173.2991810385
 21
65.468052911
 31
0.0
  0
LINE
  5
7A
330
1F
100
AcDbEntity
  8
0
  6
Continuous
 62
     7
370
    25
100
AcDbLine
 10
173.2991810385
 20
91.4680534474
 30
0.0
 11
172.2991790119
 21
92.4680536113
 31
0.0
  0
LINE
  5
7B
330
1F
100
AcDbEntity
  8
0
  6
Continuous
 62
     7
370
    25
100
AcDbLine
 10
172.2991790119
 20
92.4680536113
 30
0.0
 11
158.2991785798
 21
92.4680536113
 31
0.0
  0
LINE
  5
7C
330
1F
100
AcDbEntity
  8
0
  6
Continuous
 62
     7
370
    25
100
AcDbLine
 10
158.2991785798
 20
64.4680527471
 30
0.0
 11
172.2991790119
 21
64.4680527471
 31
0.0
  0
LINE
  5
7D
330
1F
100
AcDbEntity
  8
0
  6
Continuous
 62
     7
370
    25
100
AcDbLine
 10
106.2991793696
 20
64.4680527471
 30
0.0
 11
120.2991798017
 21
64.4680527471
 31
0.0
  0
LINE
  5
7E
330
1F
100
AcDbEntity
  8
0
  6
Continuous
 62
     7
370
    25
100
AcDbLine
 10
120.2991798017
 20
92.4680536113
 30
0.0
 11
106.2991793696
 21
92.4680536113
 31
0.0
  0
ARC
  5
7F
330
1F
100
AcDbEntity
  8
0
  6
Continuous
 62
     7
370
    25
100
AcDbCircle
 10
120.2991791908
 20
65.4680531792
 30
0.0
 40
1.0
100
AcDbArc
 50
270.0
 51
0.0
  0
ARC
  5
80
330
1F
100
AcDbEntity
  8
0
  6
Continuous
 62
     7
370
    25
100
AcDbCircle
 10
120.2991791908
 20
91.4680531792
 30
0.0
 40
1.0
100
AcDbArc
 50
0.0
 51
90.0
  0
LINE
  5
81
330
1F
100
AcDbEntity
  8
0
  6
Continuous
 62
     7
370
    25
100
AcDbLine
 10
153.2991796229
 20
111.4680530004
 30
0.0
 11
152.299179459
 21
112.4680550269
 31
0.0
  0
LINE
  5
82
330
1F
100
AcDbEntity
  8
0
  6
Continuous
 62
     7
370
    25
100
AcDbLine
 10
126.2991789225
 20
112.4680550269
 30
0.0
 11
125.2991787586
 21
111.4680530004
 31
0.0
  0
LINE
  5
83
330
1F
100
AcDbEntity
  8
0
  6
Continuous
 62
     7
370
    25
100
AcDbLine
 10
106.2991793696
 20
92.4680536113
 30
0.0
 11
105.299177343
 21
91.4680534474
 31
0.0
  0
LINE
  5
84
330
1F
100
AcDbEntity
  8
0
  6
Continuous
 62
     7
370
    25
100
AcDbLine
 10
105.299177343
 20
65.468052911
 30
0.0
 11
106.2991793696
 21
64.4680527471
 31
0.0
  0
ARC
  5
85
330
1F
100
AcDbEntity
  8
0
  6
Continuous
 62
     7
370
    25
100
AcDbCircle
 10
126.2991791908
 20
97.4680531792
 30
0.0
 40
1.0
100
AcDbArc
 50
180.0
 51
270.0
  0
ARC
  5
86
330
1F
100
AcDbEntity
  8
0
  6
Continuous
 62
     7
370
    25
100
AcDbCircle
 10
152.2991791908
 20
97.4680531792
 30
0.0
 40
1.0
100
AcDbArc
 50
270.0
 51
0.0
  0
ARC
  5
87
330
1F
100
AcDbEntity
  8
0
  6
Continuous
 62
     7
370
    25
100
AcDbCircle
 10
127.2991791908
 20
95.4680531792
 30
0.0
 40
1.0
100
AcDbArc
 50
0.0
 51
90.0
  0
ARC
  5
88
330
1F
100
AcDbEntity
  8
0
  6
Continuous
 62
     7
370
    25
100
AcDbCircle
 10
151.2991791908
 20
95.4680531792
 30
0.0
 40
1.0
100
AcDbArc
 50
90.0
 51
180.0
  0
ARC
  5
89
330
1F
100
AcDbEntity
  8
0
  6
Continuous
 62
     7
370
    25
100
AcDbCircle
 10
122.2991791908
 20
66.4680531792
 30
0.0
 40
1.0
100
AcDbArc
 50
90.0
 51
180.0
  0
ARC
  5
8A
330
1F
100
AcDbEntity
  8
0
  6
Continuous
 62
     7
370
    25
100
AcDbCircle
 10
122.2991791908
 20
90.4680531792
 30
0.0
 40
1.0
100
AcDbArc
 50
180.0
 51
270.0
  0
ARC
  5
8B
330
1F
100
AcDbEntity
  8
0
  6
Continuous
 62
     7
370
    25
100
AcDbCircle
 10
156.2991791908
 20
90.4680531792
 30
0.0
 40
1.0
100
AcDbArc
 50
270.0
 51
0.0
  0
ARC
  5
8C
330
1F
100
AcDbEntity
  8
0
  6
Continuous
 62
     7
370
    25
100
AcDbCircle
 10
156.2991791908
 20
66.4680531792
 30
0.0
 40
1.0
100
AcDbArc
 50
0.0
 51
90.0
  0
LINE
  5
8D
330
1F
100
AcDbEntity
  8
0
  6
Continuous
 62
     7
370
    25
100
AcDbLine
 10
127.7991791684
 20
89.4680531196
 30
0.0
 11
122.2991782669
 21
89.4680531196
 31
0.0
  0
LINE
  5
8E
330
1F
100
AcDbEntity
  8
0
  6
Continuous
 62
     7
370
    25
100
AcDbLine
 10
156.2991801146
 20
89.4680531196
 30
0.0
 11
150.7991792131
 21
89.4680531196
 31
0.0
  0
LINE
  5
8F
330
1F
100
AcDbEntity
  8
0
  6
Continuous
 62
     7
370
    25
100
AcDbLine
 10
122.2991782669
 20
67.4680532388
 30
0.0
 11
156.2991801146
 21
67.4680532388
 31
0.0
  0
LINE
  5
90
330
1F
100
AcDbEntity
  8
0
  6
Continuous
 62
     7
370
    25
100
AcDbLine
 10
150.2991791311
 20
89.9680532015
 30
0.0
 11
150.2991791311
 21
95.4680541031
 31
0.0
  0
LINE
  5
91
330
1F
100
AcDbEntity
  8
0
  6
Continuous
 62
     7
370
    25
100
AcDbLine
 10
128.2991792504
 20
95.4680541031
 30
0.0
 11
128.2991792504
 21
89.9680532015
 31
0.0
  0
ARC
  5
92
330
1F
100
AcDbEntity
  8
0
  6
Continuous
 62
     7
370
    25
100
AcDbCircle
 10
150.7991791908
 20
89.9680531792
 30
0.0
 40
0.5000000000000341
100
AcDbArc
 50
180.1005417843
 51
269.9608729934
  0
ARC
  5
93
330
1F
100
AcDbEntity
  8
0
  6
Continuous
 62
     7
370
    25
100
AcDbCircle
 10
127.7991791908
 20
89.9680531792
 30
0.0
 40
0.4999999999999915
100
AcDbArc
 50
270.1005417843
 51
359.9608729934
  0
LINE
  5
94
330
1F
100
AcDbEntity
  8
0
  6
Continuous
 62
     7
370
    25
100
AcDbLine
 10
157.2991784159
 20
65.468052911
 30
0.0
 11
157.2991784159
 21
91.4680534474
 31
0.0
  0
LINE
  5
95
330
1F
100
AcDbEntity
  8
0
  6
Continuous
 62
     7
370
    25
100
AcDbLine
 10
153.2991796229
 20
111.4680530004
 30
0.0
 11
125.2991787586
 21
111.4680530004
 31
0.0
  0
LINE
  5
96
330
1F
100
AcDbEntity
  8
0
  6
Continuous
 62
     7
370
    25
100
AcDbLine
 10
173.2991810385
 20
91.4680534474
 30
0.0
 11
173.2991810385
 21
65.468052911
 31
0.0
  0
LINE
  5
97
330
1F
100
AcDbEntity
  8
0
  6
Continuous
 62
     7
370
    25
100
AcDbLine
 10
172.2991790119
 20
64.4680527471
 30
0.0
 11
172.2991790119
 21
92.4680536113
 31
0.0
  0
LINE
  5
98
330
1F
100
AcDbEntity
  8
0
  6
Continuous
 62
     7
370
    25
100
AcDbLine
 10
106.2991793696
 20
78.4680531792
 30
0.0
 11
106.2991793696
 21
64.4680527471
 31
0.0
  0
LINE
  5
99
330
1F
100
AcDbEntity
  8
0
  6
Continuous
 62
     7
370
    25
100
AcDbLine
 10
106.2991793696
 20
92.4680536113
 30
0.0
 11
106.2991793696
 21
78.4680531792
 31
0.0
  0
LINE
  5
9A
330
1F
100
AcDbEntity
  8
0
  6
Continuous
 62
     7
370
    25
100
AcDbLine
 10
121.2991799656
 20
78.4680531792
 30
0.0
 11
121.2991799656
 21
65.468052911
 31
0.0
  0
LINE
  5
9B
330
1F
100
AcDbEntity
  8
0
  6
Continuous
 62
     7
370
    25
100
AcDbLine
 10
121.2991799656
 20
91.4680534474
 30
0.0
 11
121.2991799656
 21
78.4680531792
 31
0.0
  0
LINE
  5
9C
330
1F
100
AcDbEntity
  8
0
  6
Continuous
 62
     7
370
    25
100
AcDbLine
 10
126.2991789225
 20
112.4680550269
 30
0.0
 11
152.299179459
 21
112.4680550269
 31
0.0
  0
LINE
  5
9D
330
1F
100
AcDbEntity
  8
0
  6
Continuous
 62
     7
370
    25
100
AcDbLine
 10
105.299177343
 20
78.4680531792
 30
0.0
 11
105.299177343
 21
91.4680534474
 31
0.0
  0
LINE
  5
9E
330
1F
100
AcDbEntity
  8
0
  6
Continuous
 62
     7
370
    25
100
AcDbLine
 10
105.299177343
 20
65.468052911
 30
0.0
 11
105.299177343
 21
78.4680531792
 31
0.0
  0
LINE
  5
9F
330
1F
100
AcDbEntity
  8
0
  6
Continuous
 62
     7
370
    25
100
AcDbLine
 10
126.2991789225
 20
96.4680524043
 30
0.0
 11
152.299179459
 21
96.4680524043
 31
0.0
  0
ARC
  5
A0
330
1F
100
AcDbEntity
  8
0
  6
Continuous
 62
     7
370
    25
100
AcDbCircle
 10
127.788136496
 20
74.1492947088
 30
0.0
 40
1.193170564788406
100
AcDbArc
 50
60.65213411
 51
82.3649073709
  0
SPLINE
  5
A1
330
1F
100
AcDbEntity
  8
0
  6
Continuous
 62
     7
370
    25
100
AcDbSpline
210
0.0
220
0.0
230
1.0
 70
     8
 71
     3
 72
    12
 73
     8
 74
     0
 42
0.000000001
 43
0.00000001
 40
0.0
 40
0.0
 40
0.0
 40
0.0
 40
0.25
 40
0.25
 40
0.5
 40
0.5
 40
1.0
 40
1.0
 40
1.0
 40
1.0
 10
127.9466648547956
 20
75.33188692843775
 30
0.0
 10
127.9947068254255
 20
75.5838550296238
 30
0.0
 10
128.0314004680691
 20
75.8394535482814
 30
0.0
 10
128.0973911494938
 20
76.35597991314222
 30
0.0
 10
128.1261646376707
 20
76.61740007246263
 30
0.0
 10
128.2066403446814
 20
77.40508382680103
 30
0.0
 10
128.2527700479252
 20
77.93709539943626
 30
0.0
 10
128.2991791907514
 20
78.46805317919079
 30
0.0
  0
SPLINE
  5
A2
330
1F
100
AcDbEntity
  8
0
  6
Continuous
 62
     7
370
    25
100
AcDbSpline
210
0.0
220
0.0
230
1.0
 70
     8
 71
     3
 72
    12
 73
     8
 74
     0
 42
0.000000001
 43
0.00000001
 40
0.0
 40
0.0
 40
0.0
 40
0.0
 40
0.2500000000000001
 40
0.2500000000000001
 40
0.5000000000000001
 40
0.5000000000000001
 40
1.0
 40
1.0
 40
1.0
 40
1.0
 10
128.3729220227735
 20
75.18933391703982
 30
0.0
 10
128.3956345244816
 20
75.46063835541229
 30
0.0
 10
128.4031470443111
 20
75.73275055397264
 30
0.0
 10
128.4047031190115
 20
76.27846023844442
 30
0.0
 10
128.3982762771705
 20
76.55185619260688
 30
0.0
 10
128.3680512768697
 20
77.37207806967614
 30
0.0
 10
128.333355755756
 20
77.92041346699207
 30
0.0
 10
128.2991791907514
 20
78.46805317919079
 30
0.0
  0
LINE
  5
A3
330
1F
100
AcDbEntity
  8
0
  6
Continuous
 62
     7
370
    25
100
AcDbLine
 10
128.7991793323
 20
75.1893339179
 30
0.0
 11
128.3729223031
 21
75.1893339179
 31
0.0
  0
SPLINE
  5
A4
330
1F
100
AcDbEntity
  8
0
  6
Continuous
 62
     7
370
    25
100
AcDbSpline
210
0.0
220
0.0
230
1.0
 70
     8
 71
     3
 72
    12
 73
     8
 74
     0
 42
0.000000001
 43
0.00000001
 40
0.0
 40
0.0
 40
0.0
 40
0.0
 40
0.25
 40
0.25
 40
0.5
 40
0.5
 40
1.0
 40
1.0
 40
1.0
 40
1.0
 10
128.7991791907514
 20
75.18933391703979
 30
0.0
 10
128.7991791907514
 20
75.4668559229496
 30
0.0
 10
128.7794562453435
 20
75.74299224988236
 30
0.0
 10
128.7188197805822
 20
76.29377611329494
 30
0.0
 10
128.6775632348939
 20
76.56798450982032
 30
0.0
 10
128.5357899252218
 20
77.38614078746912
 30
0.0
 10
128.4172228800615
 20
77.92710370257412
 30
0.0
 10
128.2991791907514
 20
78.46805317919079
 30
0.0
  0
LINE
  5
A5
330
1F
100
AcDbEntity
  8
0
  6
Continuous
 62
     7
370
    25
100
AcDbLine
 10
136.0204599295
 20
88.9680530376
 30
0.0
 11
136.0204599295
 21
89.3943100668
 31
0.0
  0
SPLINE
  5
A6
330
1F
100
AcDbEntity
  8
0
  6
Continuous
 62
     7
370
    25
100
AcDbSpline
210
0.0
220
0.0
230
1.0
 70
     8
 71
     3
 72
    12
 73
     8
 74
     0
 42
0.000000001
 43
0.00000001
 40
0.0
 40
0.0
 40
0.0
 40
0.0
 40
0.2500000000000001
 40
0.2500000000000001
 40
0.5000000000000002
 40
0.5000000000000002
 40
1.0
 40
1.0
 40
1.0
 40
1.0
 10
136.0204599286004
 20
89.39431034716873
 30
0.0
 10
136.2917643669729
 20
89.37159784546067
 30
0.0
 10
136.5638765655333
 20
89.36408532563117
 30
0.0
 10
137.1095862500051
 20
89.3625292509307
 30
0.0
 10
137.3829822041675
 20
89.36895609277167
 30
0.0
 10
138.2032040812368
 20
89.3991810930725
 30
0.0
 10
138.7515394785527
 20
89.4338766141862
 30
0.0
 10
139.2991791907514
 20
89.46805317919078
 30
0.0
  0
SPLINE
  5
A7
330
1F
100
AcDbEntity
  8
0
  6
Continuous
 62
     7
370
    25
100
AcDbSpline
210
0.0
220
0.0
230
1.0
 70
     8
 71
     3
 72
    12
 73
     8
 74
     0
 42
0.000000001
 43
0.00000001
 40
0.0
 40
0.0
 40
0.0
 40
0.0
 40
0.2500000000000001
 40
0.2500000000000001
 40
0.5000000000000001
 40
0.5000000000000001
 40
1.0
 40
1.0
 40
1.0
 40
1.0
 10
136.0204599286004
 20
88.96805317919078
 30
0.0
 10
136.2979819345103
 20
88.96805317919078
 30
0.0
 10
136.574118261443
 20
88.98777612459871
 30
0.0
 10
137.1249021248556
 20
89.04841258935997
 30
0.0
 10
137.3991105213809
 20
89.08966913504831
 30
0.0
 10
138.2172667990298
 20
89.2314424447204
 30
0.0
 10
138.7582297141348
 20
89.35000948988073
 30
0.0
 10
139.2991791907514
 20
89.46805317919078
 30
0.0
  0
ARC
  5
A8
330
1F
100
AcDbEntity
  8
0
  6
Continuous
 62
     7
370
    25
100
AcDbCircle
 10
134.9804207204
 20
89.979095874
 30
0.0
 40
1.19317056478839
100
AcDbArc
 50
330.65213411
 51
352.3649073709
  0
SPLINE
  5
A9
330
1F
100
AcDbEntity
  8
0
  6
Continuous
 62
     7
370
    25
100
AcDbSpline
210
0.0
220
0.0
230
1.0
 70
     8
 71
     3
 72
    12
 73
     8
 74
     0
 42
0.000000001
 43
0.00000001
 40
0.0
 40
0.0
 40
0.0
 40
0.0
 40
0.2499999999999999
 40
0.2499999999999999
 40
0.4999999999999999
 40
0.4999999999999999
 40
1.0
 40
1.0
 40
1.0
 40
1.0
 10
136.1630129399984
 20
89.82056751514666
 30
0.0
 10
136.4149810411845
 20
89.77252554451677
 30
0.0
 10
136.6705795598421
 20
89.73583190187314
 30
0.0
 10
137.1871059247029
 20
89.66984122044843
 30
0.0
 10
137.4485260840233
 20
89.6410677322715
 30
0.0
 10
138.2362098383617
 20
89.56059202526079
 30
0.0
 10
138.7682214109969
 20
89.51446232201698
 30
0.0
 10
139.2991791907514
 20
89.46805317919078
 30
0.0
  0
ARC
  5
AA
330
1F
100
AcDbEntity
  8
0
  6
Continuous
 62
     7
370
    25
100
AcDbCircle
 10
127.788136496
 20
82.7868116496
 30
0.0
 40
1.193170564788381
100
AcDbArc
 50
277.6350926291
 51
299.34786589
  0
SPLINE
  5
AB
330
1F
100
AcDbEntity
  8
0
  6
Continuous
 62
     7
370
    25
100
AcDbSpline
210
0.0
220
0.0
230
1.0
 70
     8
 71
     3
 72
    12
 73
     8
 74
     0
 42
0.000000001
 43
0.00000001
 40
0.0
 40
0.0
 40
0.0
 40
0.0
 40
0.2499999999999999
 40
0.2499999999999999
 40
0.4999999999999998
 40
0.4999999999999998
 40
1.0
 40
1.0
 40
1.0
 40
1.0
 10
128.3729220227735
 20
81.74677244134179
 30
0.0
 10
128.3956345244826
 20
81.47546800295673
 30
0.0
 10
128.4031470443118
 20
81.20335580438373
 30
0.0
 10
128.404703119011
 20
80.65764611988648
 30
0.0
 10
128.3982762771689
 20
80.38425016571134
 30
0.0
 10
128.3680512768646
 20
79.56402828860388
 30
0.0
 10
128.3333557557464
 20
79.01569289141699
 30
0.0
 10
128.2991791907514
 20
78.46805317919079
 30
0.0
  0
SPLINE
  5
AC
330
1F
100
AcDbEntity
  8
0
  6
Continuous
 62
     7
370
    25
100
AcDbSpline
210
0.0
220
0.0
230
1.0
 70
     8
 71
     3
 72
    12
 73
     8
 74
     0
 42
0.000000001
 43
0.00000001
 40
0.0
 40
0.0
 40
0.0
 40
0.0
 40
0.2499999999999999
 40
0.2499999999999999
 40
0.4999999999999998
 40
0.4999999999999998
 40
1.0
 40
1.0
 40
1.0
 40
1.0
 10
127.9466648547955
 20
81.60421942994392
 30
0.0
 10
127.9946900724382
 20
81.352339193979
 30
0.0
 10
128.0313743427131
 20
81.09683100349535
 30
0.0
 10
128.0973482356425
 20
80.58048861231543
 30
0.0
 10
128.1260998682108
 20
80.31931956074317
 30
0.0
 10
128.2066547690008
 20
79.53092266186977
 30
0.0
 10
128.2527862456197
 20
78.99882580689417
 30
0.0
 10
128.2991791907514
 20
78.46805317919079
 30
0.0
  0
SPLINE
  5
AD
330
1F
100
AcDbEntity
  8
0
  6
Continuous
 62
     7
370
    25
100
AcDbSpline
210
0.0
220
0.0
230
1.0
 70
     8
 71
     3
 72
    12
 73
     8
 74
     0
 42
0.000000001
 43
0.00000001
 40
0.0
 40
0.0
 40
0.0
 40
0.0
 40
0.2499999999999999
 40
0.2499999999999999
 40
0.4999999999999999
 40
0.4999999999999999
 40
1.0
 40
1.0
 40
1.0
 40
1.0
 10
128.7991791907514
 20
81.74677244134179
 30
0.0
 10
128.7991791907514
 20
81.46925043543197
 30
0.0
 10
128.7794562453435
 20
81.19311410849922
 30
0.0
 10
128.7188197805822
 20
80.64233024508664
 30
0.0
 10
128.6775632348939
 20
80.36812184856126
 30
0.0
 10
128.5357899252218
 20
79.54996557091246
 30
0.0
 10
128.4172228800615
 20
79.00900265580746
 30
0.0
 10
128.2991791907514
 20
78.46805317919079
 30
0.0
  0
LINE
  5
AE
330
1F
100
AcDbEntity
  8
0
  6
Continuous
 62
     7
370
    25
100
AcDbLine
 10
128.3729223031
 20
81.7467724405
 30
0.0
 11
128.7991793323
 21
81.7467724405
 31
0.0
  0
SPLINE
  5
AF
330
1F
100
AcDbEntity
  8
0
  6
Continuous
 62
     7
370
    25
100
AcDbSpline
210
0.0
220
0.0
230
1.0
 70
     8
 71
     3
 72
    12
 73
     8
 74
     0
 42
0.000000001
 43
0.00000001
 40
0.0
 40
0.0
 40
0.0
 40
0.0
 40
0.25
 40
0.25
 40
0.5
 40
0.5
 40
1.0
 40
1.0
 40
1.0
 40
1.0
 10
142.5778984529024
 20
88.96805317919078
 30
0.0
 10
142.3003764469926
 20
88.96805317919078
 30
0.0
 10
142.0242401200599
 20
88.98777612459871
 30
0.0
 10
141.4734562566473
 20
89.04841258935997
 30
0.0
 10
141.1992478601219
 20
89.08966913504831
 30
0.0
 10
140.3810915824731
 20
89.2314424447204
 30
0.0
 10
139.8401286673681
 20
89.35000948988073
 30
0.0
 10
139.2991791907514
 20
89.46805317919078
 30
0.0
  0
SPLINE
  5
B0
330
1F
100
AcDbEntity
  8
0
  6
Continuous
 62
     7
370
    25
100
AcDbSpline
210
0.0
220
0.0
230
1.0
 70
     8
 71
     3
 72
    12
 73
     8
 74
     0
 42
0.000000001
 43
0.00000001
 40
0.0
 40
0.0
 40
0.0
 40
0.0
 40
0.25
 40
0.25
 40
0.5
 40
0.5
 40
1.0
 40
1.0
 40
1.0
 40
1.0
 10
142.5778984529024
 20
89.39431034716873
 30
0.0
 10
142.3065940145174
 20
89.37159784545962
 30
0.0
 10
142.0344818159444
 20
89.36408532563043
 30
0.0
 10
141.4887721314471
 20
89.36252925093125
 30
0.0
 10
141.215376177272
 20
89.36895609277329
 30
0.0
 10
140.3951543001646
 20
89.39918109307766
 30
0.0
 10
139.8468189029777
 20
89.4338766141963
 30
0.0
 10
139.2991791907514
 20
89.46805317919078
 30
0.0
  0
LINE
  5
B1
330
1F
100
AcDbEntity
  8
0
  6
Continuous
 62
     7
370
    25
100
AcDbLine
 10
142.577898452
 20
88.9680530376
 30
0.0
 11
142.577898452
 21
89.3943100668
 31
0.0
  0
ARC
  5
B2
330
1F
100
AcDbEntity
  8
0
  6
Continuous
 62
     7
370
    25
100
AcDbCircle
 10
143.6179376611
 20
89.979095874
 30
0.0
 40
1.19317056478839
100
AcDbArc
 50
187.6350926291
 51
209.34786589
  0
SPLINE
  5
B3
330
1F
100
AcDbEntity
  8
0
  6
Continuous
 62
     7
370
    25
100
AcDbSpline
210
0.0
220
0.0
230
1.0
 70
     8
 71
     3
 72
    12
 73
     8
 74
     0
 42
0.000000001
 43
0.00000001
 40
0.0
 40
0.0
 40
0.0
 40
0.0
 40
0.2499999999999999
 40
0.2499999999999999
 40
0.4999999999999998
 40
0.4999999999999998
 40
1.0
 40
1.0
 40
1.0
 40
1.0
 10
142.4353454415046
 20
89.82056751514668
 30
0.0
 10
142.1834652055396
 20
89.77254229750397
 30
0.0
 10
141.927957015056
 20
89.73585802722909
 30
0.0
 10
141.4116146238761
 20
89.66988413429969
 30
0.0
 10
141.1504455723038
 20
89.64113250173142
 30
0.0
 10
140.3620486734304
 20
89.56057760094146
 30
0.0
 10
139.8299518184548
 20
89.51444612432252
 30
0.0
 10
139.2991791907514
 20
89.46805317919078
 30
0.0
  0
ARC
  5
B4
330
1F
100
AcDbEntity
  8
0
  6
Continuous
 62
     7
370
    25
100
AcDbCircle
 10
150.8102218855
 20
74.1492947088
 30
0.0
 40
1.193170564788403
100
AcDbArc
 50
97.6350926291
 51
119.34786589
  0
SPLINE
  5
B5
330
1F
100
AcDbEntity
  8
0
  6
Continuous
 62
     7
370
    25
100
AcDbSpline
210
0.0
220
0.0
230
1.0
 70
     8
 71
     3
 72
    12
 73
     8
 74
     0
 42
0.000000001
 43
0.00000001
 40
0.0
 40
0.0
 40
0.0
 40
0.0
 40
0.2500000000000001
 40
0.2500000000000001
 40
0.5000000000000001
 40
0.5000000000000001
 40
1.0
 40
1.0
 40
1.0
 40
1.0
 10
150.2254363587294
 20
75.18933391703978
 30
0.0
 10
150.2027238570203
 20
75.4606383554248
 30
0.0
 10
150.1952113371911
 20
75.73275055399776
 30
0.0
 10
150.1936552624919
 20
76.27846023849496
 30
0.0
 10
150.2000821043339
 20
76.55185619267006
 30
0.0
 10
150.2303071046383
 20
77.3720780697774
 30
0.0
 10
150.2650026257566
 20
77.92041346696465
 30
0.0
 10
150.2991791907515
 20
78.46805317919079
 30
0.0
  0
SPLINE
  5
B6
330
1F
100
AcDbEntity
  8
0
  6
Continuous
 62
     7
370
    25
100
AcDbSpline
210
0.0
220
0.0
230
1.0
 70
     8
 71
     3
 72
    12
 73
     8
 74
     0
 42
0.000000001
 43
0.00000001
 40
0.0
 40
0.0
 40
0.0
 40
0.0
 40
0.2499999999999999
 40
0.2499999999999999
 40
0.4999999999999999
 40
0.4999999999999999
 40
1.0
 40
1.0
 40
1.0
 40
1.0
 10
150.6516935267073
 20
75.33188692843765
 30
0.0
 10
150.6036515560711
 20
75.583855029657
 30
0.0
 10
150.5669579134239
 20
75.83945354834881
 30
0.0
 10
150.5009672319928
 20
76.35597991327933
 30
0.0
 10
150.4721937438133
 20
76.61740007263536
 30
0.0
 10
150.3917180367953
 20
77.40508382707974
 30
0.0
 10
150.3455883335947
 20
77.93709539936133
 30
0.0
 10
150.2991791907515
 20
78.46805317919079
 30
0.0
  0
SPLINE
  5
B7
330
1F
100
AcDbEntity
  8
0
  6
Continuous
 62
     7
370
    25
100
AcDbSpline
210
0.0
220
0.0
230
1.0
 70
     8
 71
     3
 72
    12
 73
     8
 74
     0
 42
0.000000001
 43
0.00000001
 40
0.0
 40
0.0
 40
0.0
 40
0.0
 40
0.25
 40
0.25
 40
0.5
 40
0.5
 40
1.0
 40
1.0
 40
1.0
 40
1.0
 10
149.7991791907515
 20
75.18933391703978
 30
0.0
 10
149.7991791907515
 20
75.46685592294959
 30
0.0
 10
149.8189021361594
 20
75.74299224988236
 30
0.0
 10
149.8795386009206
 20
76.29377611329492
 30
0.0
 10
149.920795146609
 20
76.56798450982032
 30
0.0
 10
150.062568456281
 20
77.38614078746912
 30
0.0
 10
150.1811355014414
 20
77.9271037025741
 30
0.0
 10
150.2991791907515
 20
78.46805317919079
 30
0.0
  0
LINE
  5
B8
330
1F
100
AcDbEntity
  8
0
  6
Continuous
 62
     7
370
    25
100
AcDbLine
 10
150.2254360784
 20
75.1893339179
 30
0.0
 11
149.7991790492
 21
75.1893339179
 31
0.0
  0
LINE
  5
B9
330
1F
100
AcDbEntity
  8
0
  6
Continuous
 62
     7
370
    25
100
AcDbLine
 10
149.7991790492
 20
81.7467724405
 30
0.0
 11
150.2254360784
 21
81.7467724405
 31
0.0
  0
SPLINE
  5
BA
330
1F
100
AcDbEntity
  8
0
  6
Continuous
 62
     7
370
    25
100
AcDbSpline
210
0.0
220
0.0
230
1.0
 70
     8
 71
     3
 72
    12
 73
     8
 74
     0
 42
0.000000001
 43
0.00000001
 40
0.0
 40
0.0
 40
0.0
 40
0.0
 40
0.2500000000000001
 40
0.2500000000000001
 40
0.5000000000000001
 40
0.5000000000000001
 40
1.0
 40
1.0
 40
1.0
 40
1.0
 10
150.2254363587294
 20
81.74677244134176
 30
0.0
 10
150.2027238570213
 20
81.47546800296946
 30
0.0
 10
150.1952113371919
 20
81.2033558044093
 30
0.0
 10
150.1936552624913
 20
80.65764611993785
 30
0.0
 10
150.2000821043323
 20
80.38425016577527
 30
0.0
 10
150.2303071046331
 20
79.56402828870586
 30
0.0
 10
150.2650026257468
 20
79.01569289138914
 30
0.0
 10
150.2991791907515
 20
78.46805317919079
 30
0.0
  0
SPLINE
  5
BB
330
1F
100
AcDbEntity
  8
0
  6
Continuous
 62
     7
370
    25
100
AcDbSpline
210
0.0
220
0.0
230
1.0
 70
     8
 71
     3
 72
    12
 73
     8
 74
     0
 42
0.000000001
 43
0.00000001
 40
0.0
 40
0.0
 40
0.0
 40
0.0
 40
0.2499999999999999
 40
0.2499999999999999
 40
0.4999999999999999
 40
0.4999999999999999
 40
1.0
 40
1.0
 40
1.0
 40
1.0
 10
149.7991791907515
 20
81.74677244134179
 30
0.0
 10
149.7991791907515
 20
81.46925043543197
 30
0.0
 10
149.8189021361594
 20
81.19311410849922
 30
0.0
 10
149.8795386009206
 20
80.64233024508664
 30
0.0
 10
149.920795146609
 20
80.36812184856126
 30
0.0
 10
150.062568456281
 20
79.54996557091246
 30
0.0
 10
150.1811355014414
 20
79.00900265580746
 30
0.0
 10
150.2991791907515
 20
78.46805317919079
 30
0.0
  0
ARC
  5
BC
330
1F
100
AcDbEntity
  8
0
  6
Continuous
 62
     7
370
    25
100
AcDbCircle
 10
150.8102218855
 20
82.7868116496
 30
0.0
 40
1.193170564788381
100
AcDbArc
 50
240.65213411
 51
262.3649073709
  0
SPLINE
  5
BD
330
1F
100
AcDbEntity
  8
0
  6
Continuous
 62
     7
370
    25
100
AcDbSpline
210
0.0
220
0.0
230
1.0
 70
     8
 71
     3
 72
    12
 73
     8
 74
     0
 42
0.000000001
 43
0.00000001
 40
0.0
 40
0.0
 40
0.0
 40
0.0
 40
0.2499999999999999
 40
0.2499999999999999
 40
0.4999999999999998
 40
0.4999999999999998
 40
1.0
 40
1.0
 40
1.0
 40
1.0
 10
150.6516935267073
 20
81.6042194299439
 30
0.0
 10
150.6036515560774
 20
81.35225132875783
 30
0.0
 10
150.5669579134338
 20
81.09665281010022
 30
0.0
 10
150.5009672320091
 20
80.58012644523939
 30
0.0
 10
150.4721937438322
 20
80.31870628591896
 30
0.0
 10
150.3917180368214
 20
79.53102253158058
 30
0.0
 10
150.3455883335767
 20
78.99901095894542
 30
0.0
 10
150.2991791907515
 20
78.46805317919079
 30
0.0
  0
ARC
  5
BE
330
1F
100
AcDbEntity
  8
0
  6
Continuous
 62
     7
370
    25
100
AcDbCircle
 10
149.7991791908
 20
88.9680531792
 30
0.0
 40
1.5
100
AcDbArc
 50
180.0
 51
270.0
  0
LINE
  5
BF
330
1F
100
AcDbEntity
  8
0
  6
Continuous
 62
     7
370
    25
100
AcDbLine
 10
148.2991788033
 20
88.9680530376
 30
0.0
 11
148.7991788853
 21
88.9680530376
 31
0.0
  0
ARC
  5
C0
330
1F
100
AcDbEntity
  8
0
  6
Continuous
 62
     7
370
    25
100
AcDbCircle
 10
149.7991791908
 20
88.9680531792
 30
0.0
 40
1.0
100
AcDbArc
 50
180.0
 51
270.0
  0
LINE
  5
C1
330
1F
100
AcDbEntity
  8
0
  6
Continuous
 62
     7
370
    25
100
AcDbLine
 10
149.7991790492
 20
87.4680527918
 30
0.0
 11
149.7991790492
 21
87.9680528737
 31
0.0
  0
LINE
  5
C2
330
1F
100
AcDbEntity
  8
0
  6
Continuous
 62
     7
370
    25
100
AcDbLine
 10
149.7991790492
 20
87.9680528737
 30
0.0
 11
150.2991791311
 21
87.9680528737
 31
0.0
  0
LWPOLYLINE
  5
C3
330
1F
100
AcDbEntity
  8
0
  6
Continuous
 62
     7
370
    25
100
AcDbPolyline
 90
        9
 70
   128
 43
0.0
 10
149.7991790492
 20
87.4680527918
 10
149.896723913
 20
87.5655985869
 10
149.9905211348
 20
87.6593948774
 10
150.0769646335
 20
87.7458383761
 10
150.1527323816
 20
87.8216061241
 10
150.2149139959
 20
87.8837877385
 10
150.2611187715
 20
87.9299925141
 10
150.2895716075
 20
87.9584462814
 10
150.2991791311
 20
87.9680528737
  0
LINE
  5
C4
330
1F
100
AcDbEntity
  8
0
  6
Continuous
 62
     7
370
    25
100
AcDbLine
 10
130.2991795782
 20
88.9680530376
 30
0.0
 11
129.7991794962
 21
88.9680530376
 31
0.0
  0
LINE
  5
C5
330
1F
100
AcDbEntity
  8
0
  6
Continuous
 62
     7
370
    25
100
AcDbLine
 10
129.7991794962
 20
88.9680530376
 30
0.0
 11
129.7991794962
 21
89.4680531196
 31
0.0
  0
LWPOLYLINE
  5
C6
330
1F
100
AcDbEntity
  8
0
  6
Continuous
 62
     7
370
    25
100
AcDbPolyline
 90
        9
 70
   128
 43
0.0
 10
130.2991795782
 20
88.9680530376
 10
130.201633783
 20
89.0655979014
 10
130.1078374926
 20
89.1593951232
 10
130.0213939939
 20
89.245838622
 10
129.9456262458
 20
89.32160637
 10
129.8834446315
 20
89.3837879844
 10
129.8372398559
 20
89.4299927599
 10
129.8087860886
 20
89.4584455959
 10
129.7991794962
 20
89.4680531196
  0
LINE
  5
C7
330
1F
100
AcDbEntity
  8
0
  6
Continuous
 62
     7
370
    25
100
AcDbLine
 10
128.7991793323
 20
75.1893339179
 30
0.0
 11
128.7991793323
 21
68.9680534847
 31
0.0
  0
LWPOLYLINE
  5
C8
330
1F
100
AcDbEntity
  8
0
  6
Continuous
 62
     7
370
    25
100
AcDbPolyline
 90
        9
 70
   128
 43
0.0
 10
128.7991793323
 20
68.9680534847
 10
128.7016344685
 20
68.8705076895
 10
128.6078372467
 20
68.7767113991
 10
128.521393748
 20
68.6902679003
 10
128.4456259999
 20
68.6145001523
 10
128.3834443856
 20
68.5523185379
 10
128.33723961
 20
68.5061137624
 10
128.308786774
 20
68.4776609264
 10
128.2991792504
 20
68.4680534027
  0
LINE
  5
C9
330
1F
100
AcDbEntity
  8
0
  6
Continuous
 62
     7
370
    25
100
AcDbLine
 10
128.2991792504
 20
68.4680534027
 30
0.0
 11
128.2991792504
 21
73.7776374876
 31
0.0
  0
SPLINE
  5
CA
330
1F
100
AcDbEntity
  8
0
  6
Continuous
 62
     7
370
    25
100
AcDbSpline
210
0.0
220
0.0
230
1.0
 70
     8
 71
     3
 72
     8
 73
     4
 74
     0
 42
0.000000001
 43
0.00000001
 40
0.0
 40
0.0
 40
0.0
 40
0.0
 40
1.0
 40
1.0
 40
1.0
 40
1.0
 10
128.3729220227735
 20
75.18933391703982
 30
0.0
 10
128.3298408379351
 20
74.71689296108602
 30
0.0
 10
128.2991791907514
 20
74.2457677827266
 30
0.0
 10
128.2991791907514
 20
73.77763741936735
 30
0.0
  0
SPLINE
  5
CB
330
1F
100
AcDbEntity
  8
0
  6
Continuous
 62
     7
370
    25
100
AcDbSpline
210
0.0
220
0.0
230
1.0
 70
     8
 71
     3
 72
    10
 73
     6
 74
     0
 42
0.000000001
 43
0.00000001
 40
0.0
 40
0.0
 40
0.0
 40
0.0
 40
0.5
 40
0.5
 40
1.0
 40
1.0
 40
1.0
 40
1.0
 10
128.7991791907514
 20
88.03327057049513
 30
0.0
 10
128.8804160114799
 20
88.03327057049513
 30
0.0
 10
128.9561840205895
 20
88.05327771166033
 30
0.0
 10
129.0727691586306
 20
88.10648091460794
 30
0.0
 10
129.1171799304576
 20
88.13934305255741
 30
0.0
 10
129.1527325813447
 20
88.17334993601462
 30
0.0
  0
LINE
  5
CC
330
1F
100
AcDbEntity
  8
0
  6
Continuous
 62
     7
370
    25
100
AcDbLine
 10
127.7991791684
 20
88.0332705996
 30
0.0
 11
128.7991793323
 21
88.0332705996
 31
0.0
  0
LINE
  5
CD
330
1F
100
AcDbEntity
  8
0
  6
Continuous
 62
     7
370
    25
100
AcDbLine
 10
127.7991791684
 20
82.9545376323
 30
0.0
 11
127.7991791684
 21
88.0332705996
 31
0.0
  0
SPLINE
  5
CE
330
1F
100
AcDbEntity
  8
0
  6
Continuous
 62
     7
370
    25
100
AcDbSpline
210
0.0
220
0.0
230
1.0
 70
     8
 71
     3
 72
     8
 73
     4
 74
     0
 42
0.000000001
 43
0.00000001
 40
0.0
 40
0.0
 40
0.0
 40
0.0
 40
1.0
 40
1.0
 40
1.0
 40
1.0
 10
127.9466648547955
 20
81.60421942994392
 30
0.0
 10
127.859473675237
 20
82.06151532487661
 30
0.0
 10
127.7991791907514
 20
82.5107555211105
 30
0.0
 10
127.7991791907514
 20
82.95453781902188
 30
0.0
  0
SPLINE
  5
CF
330
1F
100
AcDbEntity
  8
0
  6
Continuous
 62
     7
370
    25
100
AcDbSpline
210
0.0
220
0.0
230
1.0
 70
     8
 71
     3
 72
     8
 73
     4
 74
     0
 42
0.000000001
 43
0.00000001
 40
0.0
 40
0.0
 40
0.0
 40
0.0
 40
1.0
 40
1.0
 40
1.0
 40
1.0
 10
127.7991791907514
 20
73.98156853935969
 30
0.0
 10
127.7991791907514
 20
74.4253508372711
 30
0.0
 10
127.859473675237
 20
74.87459103350503
 30
0.0
 10
127.9466648547956
 20
75.33188692843775
 30
0.0
  0
LINE
  5
D0
330
1F
100
AcDbEntity
  8
0
  6
Continuous
 62
     7
370
    25
100
AcDbLine
 10
127.7991791684
 20
68.4245746083
 30
0.0
 11
127.7991791684
 21
73.9815687261
 31
0.0
  0
LINE
  5
D1
330
1F
100
AcDbEntity
  8
0
  6
Continuous
 62
     7
370
    25
100
AcDbLine
 10
150.7991792131
 20
68.4245746083
 30
0.0
 11
127.7991791684
 21
68.4245746083
 31
0.0
  0
LINE
  5
D2
330
1F
100
AcDbEntity
  8
0
  6
Continuous
 62
     7
370
    25
100
AcDbLine
 10
150.7991792131
 20
73.9815687261
 30
0.0
 11
150.7991792131
 21
68.4245746083
 31
0.0
  0
SPLINE
  5
D3
330
1F
100
AcDbEntity
  8
0
  6
Continuous
 62
     7
370
    25
100
AcDbSpline
210
0.0
220
0.0
230
1.0
 70
     8
 71
     3
 72
     8
 73
     4
 74
     0
 42
0.000000001
 43
0.00000001
 40
0.0
 40
0.0
 40
0.0
 40
0.0
 40
1.0
 40
1.0
 40
1.0
 40
1.0
 10
150.6516935267073
 20
75.33188692843765
 30
0.0
 10
150.7388847062658
 20
74.87459103350497
 30
0.0
 10
150.7991791907515
 20
74.42535083727107
 30
0.0
 10
150.7991791907515
 20
73.98156853935969
 30
0.0
  0
SPLINE
  5
D4
330
1F
100
AcDbEntity
  8
0
  6
Continuous
 62
     7
370
    25
100
AcDbSpline
210
0.0
220
0.0
230
1.0
 70
     8
 71
     3
 72
     8
 73
     4
 74
     0
 42
0.000000001
 43
0.00000001
 40
0.0
 40
0.0
 40
0.0
 40
0.0
 40
1.0
 40
1.0
 40
1.0
 40
1.0
 10
150.7991791907515
 20
82.95453781902188
 30
0.0
 10
150.7991791907515
 20
82.5107555211105
 30
0.0
 10
150.7388847062658
 20
82.06151532487658
 30
0.0
 10
150.6516935267073
 20
81.6042194299439
 30
0.0
  0
LINE
  5
D5
330
1F
100
AcDbEntity
  8
0
  6
Continuous
 62
     7
370
    25
100
AcDbLine
 10
150.7991792131
 20
88.0332705996
 30
0.0
 11
150.7991792131
 21
82.9545376323
 31
0.0
  0
LINE
  5
D6
330
1F
100
AcDbEntity
  8
0
  6
Continuous
 62
     7
370
    25
100
AcDbLine
 10
149.7991790492
 20
88.0332705996
 30
0.0
 11
150.7991792131
 21
88.0332705996
 31
0.0
  0
SPLINE
  5
D7
330
1F
100
AcDbEntity
  8
0
  6
Continuous
 62
     7
370
    25
100
AcDbSpline
210
0.0
220
0.0
230
1.0
 70
     8
 71
     3
 72
    10
 73
     6
 74
     0
 42
0.000000001
 43
0.00000001
 40
0.0
 40
0.0
 40
0.0
 40
0.0
 40
0.5
 40
0.5
 40
1.0
 40
1.0
 40
1.0
 40
1.0
 10
149.4456258001582
 20
88.17334993601462
 30
0.0
 10
149.4811784510453
 20
88.1393430525574
 30
0.0
 10
149.5255892228723
 20
88.10648091460794
 30
0.0
 10
149.6421743609133
 20
88.05327771166031
 30
0.0
 10
149.717942370023
 20
88.03327057049512
 30
0.0
 10
149.7991791907515
 20
88.03327057049513
 30
0.0
  0
LINE
  5
D8
330
1F
100
AcDbEntity
  8
0
  6
Continuous
 62
     7
370
    25
100
AcDbLine
 10
149.7991790492
 20
81.7467724405
 30
0.0
 11
149.7991790492
 21
87.4680527918
 31
0.0
  0
LINE
  5
D9
330
1F
100
AcDbEntity
  8
0
  6
Continuous
 62
     7
370
    25
100
AcDbLine
 10
150.2991791311
 20
87.9680528737
 30
0.0
 11
150.2991791311
 21
83.1584688708
 31
0.0
  0
SPLINE
  5
DA
330
1F
100
AcDbEntity
  8
0
  6
Continuous
 62
     7
370
    25
100
AcDbSpline
210
0.0
220
0.0
230
1.0
 70
     8
 71
     3
 72
     8
 73
     4
 74
     0
 42
0.000000001
 43
0.00000001
 40
0.0
 40
0.0
 40
0.0
 40
0.0
 40
1.0
 40
1.0
 40
1.0
 40
1.0
 10
150.2254363587294
 20
81.74677244134176
 30
0.0
 10
150.2685175435678
 20
82.21921339729556
 30
0.0
 10
150.2991791907515
 20
82.69033857565499
 30
0.0
 10
150.2991791907515
 20
83.15846893901421
 30
0.0
  0
LWPOLYLINE
  5
DB
330
1F
100
AcDbEntity
  8
0
  6
Continuous
 62
     7
370
    25
100
AcDbPolyline
 90
        9
 70
   128
 43
0.0
 10
148.2991788033
 20
88.9680530376
 10
148.3967245985
 20
89.0655979014
 10
148.4905208889
 20
89.1593951232
 10
148.5769643877
 20
89.245838622
 10
148.6527321357
 20
89.32160637
 10
148.71491375
 20
89.3837879844
 10
148.7611185256
 20
89.4299927599
 10
148.7895722929
 20
89.4584455959
 10
148.7991788853
 20
89.4680531196
  0
LINE
  5
DC
330
1F
100
AcDbEntity
  8
0
  6
Continuous
 62
     7
370
    25
100
AcDbLine
 10
148.7991788853
 20
89.4680531196
 30
0.0
 11
148.7991788853
 21
88.9680530376
 31
0.0
  0
LWPOLYLINE
  5
DD
330
1F
100
AcDbEntity
  8
0
  6
Continuous
 62
     7
370
    25
100
AcDbPolyline
 90
        9
 70
   128
 43
0.0
 10
149.7991790492
 20
68.9680534847
 10
149.896723913
 20
68.8705076895
 10
149.9905211348
 20
68.7767113991
 10
150.0769646335
 20
68.6902679003
 10
150.1527323816
 20
68.6145001523
 10
150.2149139959
 20
68.5523185379
 10
150.2611187715
 20
68.5061137624
 10
150.2895716075
 20
68.4776609264
 10
150.2991791311
 20
68.4680534027
  0
LINE
  5
DE
330
1F
100
AcDbEntity
  8
0
  6
Continuous
 62
     7
370
    25
100
AcDbLine
 10
149.7991790492
 20
68.9680534847
 30
0.0
 11
149.7991790492
 21
75.1893339179
 31
0.0
  0
SPLINE
  5
DF
330
1F
100
AcDbEntity
  8
0
  6
Continuous
 62
     7
370
    25
100
AcDbSpline
210
0.0
220
0.0
230
1.0
 70
     8
 71
     3
 72
     8
 73
     4
 74
     0
 42
0.000000001
 43
0.00000001
 40
0.0
 40
0.0
 40
0.0
 40
0.0
 40
1.0
 40
1.0
 40
1.0
 40
1.0
 10
150.2991791907515
 20
73.77763741936735
 30
0.0
 10
150.2991791907515
 20
74.24586184314091
 30
0.0
 10
150.2685221607679
 20
74.7168423275105
 30
0.0
 10
150.2254363587294
 20
75.18933391703978
 30
0.0
  0
LINE
  5
E0
330
1F
100
AcDbEntity
  8
0
  6
Continuous
 62
     7
370
    25
100
AcDbLine
 10
150.2991791311
 20
73.7776374876
 30
0.0
 11
150.2991791311
 21
68.4680534027
 31
0.0
  0
LINE
  5
E1
330
1F
100
AcDbEntity
  8
0
  6
Continuous
 62
     7
370
    25
100
AcDbLine
 10
136.0204599295
 20
88.9680530376
 30
0.0
 11
130.2991795782
 21
88.9680530376
 31
0.0
  0
LINE
  5
E2
330
1F
100
AcDbEntity
  8
0
  6
Continuous
 62
     7
370
    25
100
AcDbLine
 10
129.7991794962
 20
89.4680531196
 30
0.0
 11
134.6087634992
 21
89.4680531196
 31
0.0
  0
SPLINE
  5
E3
330
1F
100
AcDbEntity
  8
0
  6
Continuous
 62
     7
370
    25
100
AcDbSpline
210
0.0
220
0.0
230
1.0
 70
     8
 71
     3
 72
     8
 73
     4
 74
     0
 42
0.000000001
 43
0.00000001
 40
0.0
 40
0.0
 40
0.0
 40
0.0
 40
1.0
 40
1.0
 40
1.0
 40
1.0
 10
136.0204599286004
 20
89.39431034716873
 30
0.0
 10
135.5480189726467
 20
89.43739153200713
 30
0.0
 10
135.0768937942873
 20
89.46805317919078
 30
0.0
 10
134.608763430928
 20
89.46805317919078
 30
0.0
  0
LWPOLYLINE
  5
E4
330
1F
100
AcDbEntity
  8
0
  6
Continuous
 62
     7
370
    25
100
AcDbPolyline
 90
        9
 70
   128
 43
0.0
 10
128.2991792504
 20
87.9680528737
 10
128.308786774
 20
87.9584462814
 10
128.33723961
 20
87.9299925141
 10
128.3834443856
 20
87.8837877385
 10
128.4456259999
 20
87.8216061241
 10
128.521393748
 20
87.7458383761
 10
128.6078372467
 20
87.6593948774
 10
128.7016344685
 20
87.5655985869
 10
128.7991793323
 20
87.4680527918
  0
LINE
  5
E5
330
1F
100
AcDbEntity
  8
0
  6
Continuous
 62
     7
370
    25
100
AcDbLine
 10
128.2991792504
 20
87.9680528737
 30
0.0
 11
128.7991793323
 21
87.9680528737
 31
0.0
  0
LINE
  5
E6
330
1F
100
AcDbEntity
  8
0
  6
Continuous
 62
     7
370
    25
100
AcDbLine
 10
128.7991793323
 20
87.4680527918
 30
0.0
 11
128.7991793323
 21
87.9680528737
 31
0.0
  0
LINE
  5
E7
330
1F
100
AcDbEntity
  8
0
  6
Continuous
 62
     7
370
    25
100
AcDbLine
 10
128.7991793323
 20
68.9680534847
 30
0.0
 11
149.7991790492
 21
68.9680534847
 31
0.0
  0
LINE
  5
E8
330
1F
100
AcDbEntity
  8
0
  6
Continuous
 62
     7
370
    25
100
AcDbLine
 10
150.2991791311
 20
68.4680534027
 30
0.0
 11
128.2991792504
 21
68.4680534027
 31
0.0
  0
LINE
  5
E9
330
1F
100
AcDbEntity
  8
0
  6
Continuous
 62
     7
370
    25
100
AcDbLine
 10
128.7991793323
 20
87.4680527918
 30
0.0
 11
128.7991793323
 21
81.7467724405
 31
0.0
  0
ARC
  5
EA
330
1F
100
AcDbEntity
  8
0
  6
Continuous
 62
     7
370
    25
100
AcDbCircle
 10
128.7991791908
 20
88.9680531792
 30
0.0
 40
1.5
100
AcDbArc
 50
270.0
 51
0.0
  0
LINE
  5
EB
330
1F
100
AcDbEntity
  8
0
  6
Continuous
 62
     7
370
    25
100
AcDbLine
 10
148.2991788033
 20
88.9680530376
 30
0.0
 11
142.577898452
 21
88.9680530376
 31
0.0
  0
LINE
  5
EC
330
1F
100
AcDbEntity
  8
0
  6
Continuous
 62
     7
370
    25
100
AcDbLine
 10
148.1453578416
 20
71.5946783743
 30
0.0
 11
148.1086609382
 21
71.5737077839
 31
0.0
  0
LINE
  5
ED
330
1F
100
AcDbEntity
  8
0
  6
Continuous
 62
     7
370
    25
100
AcDbLine
 10
147.235561857
 20
71.8785082422
 30
0.0
 11
146.1257336158
 21
74.9815379235
 31
0.0
  0
ELLIPSE
  5
EE
330
1F
100
AcDbEntity
  8
0
  6
Continuous
 62
     7
370
    25
100
AcDbEllipse
 10
145.6050446529
 20
74.7504343176
 30
0.0
 11
0.5743721957241235
 21
1.250555214937776E-12
 31
0.0
210
0.0
220
0.0
230
1.0
 40
0.9531667975
 41
0.4357918987530024
 42
2.705800754832506
  0
LINE
  5
EF
330
1F
100
AcDbEntity
  8
0
  6
Continuous
 62
     7
370
    25
100
AcDbLine
 10
145.0843557212
 20
74.9815379235
 30
0.0
 11
143.9747863877
 21
71.8792314142
 31
0.0
  0
ELLIPSE
  5
F0
330
1F
100
AcDbEntity
  8
0
  6
Continuous
 62
     7
370
    25
100
AcDbEllipse
 10
147.3769719619
 20
70.2891227598
 30
0.0
 11
0.07471508237063063
 21
2.842170943040401E-14
 31
0.0
210
0.0
220
0.0
230
1.0
 40
0.9531667976
 41
3.962594650565323
 42
5.819537698169127
  0
ELLIPSE
  5
F1
330
1F
100
AcDbEntity
  8
0
  6
Continuous
 62
     7
370
    25
100
AcDbEllipse
 10
145.6050446529
 20
68.4754201753
 30
0.0
 11
2.525369784127122
 21
-1.705302565824240E-13
 31
0.0
210
0.0
220
0.0
230
1.0
 40
0.9531667975
 41
0.8210019969639452
 42
2.320590656625486
  0
ELLIPSE
  5
F2
330
1F
100
AcDbEntity
  8
0
  6
Continuous
 62
     7
370
    25
100
AcDbEllipse
 10
143.8331173439
 20
70.2891227598
 30
0.0
 11
0.07471508237068747
 21
0.0
 31
0.0
210
0.0
220
0.0
230
1.0
 40
0.9531667975
 41
3.605240262592134
 42
5.462183310213519
  0
ELLIPSE
  5
F3
330
1F
100
AcDbEntity
  8
0
  6
Continuous
 62
     7
370
    25
100
AcDbEllipse
 10
147.801310318
 20
72.0623443911
 30
0.0
 11
-0.5977206589647892
 21
-1.563194018672221E-13
 31
0.0
210
0.0
220
0.0
230
1.0
 40
0.9531667975
 41
0.3285531705514319
 42
2.11087652694728
  0
LINE
  5
F4
330
1F
100
AcDbEntity
  8
0
  6
Continuous
 62
     7
370
    25
100
AcDbLine
 10
147.4437990654
 20
70.2572740115
 30
0.0
 11
148.1453578416
 21
71.5946783743
 31
0.0
  0
ELLIPSE
  5
F5
330
1F
100
AcDbEntity
  8
0
  6
Continuous
 62
     7
370
    25
100
AcDbEllipse
 10
143.4090376184
 20
72.0630675108
 30
0.0
 11
-0.5977206589639081
 21
5.684341886080801E-14
 31
0.0
210
0.0
220
0.0
230
1.0
 40
0.9531667975
 41
1.047197551195651
 42
2.813039483037407
  0
LINE
  5
F6
330
1F
100
AcDbEntity
  8
0
  6
Continuous
 62
     7
370
    25
100
AcDbLine
 10
143.0647319611
 20
71.5946783743
 30
0.0
 11
143.7662902716
 21
70.2572740115
 31
0.0
  0
LINE
  5
F7
330
1F
100
AcDbEntity
  8
0
  6
Continuous
 62
     7
370
    25
100
AcDbLine
 10
143.1101772431
 20
71.5696691036
 30
0.0
 11
143.0647319611
 21
71.5946783743
 31
0.0
  0
SPLINE
  5
F8
330
1F
100
AcDbEntity
  8
0
  6
Continuous
 62
     7
370
    25
100
AcDbSpline
210
0.0
220
0.0
230
1.0
 70
     8
 71
     3
 72
     8
 73
     4
 74
     0
 42
0.000000001
 43
0.00000001
 40
0.0
 40
0.0
 40
0.0
 40
0.0
 40
1.0
 40
1.0
 40
1.0
 40
1.0
 10
143.9895949505749
 20
89.46805317919078
 30
0.0
 10
143.5213705268013
 20
89.46805317919078
 30
0.0
 10
143.0503900424317
 20
89.43739614920722
 30
0.0
 10
142.5778984529024
 20
89.39431034716873
 30
0.0
  0
LINE
  5
F9
330
1F
100
AcDbEntity
  8
0
  6
Continuous
 62
     7
370
    25
100
AcDbLine
 10
143.9895948823
 20
89.4680531196
 30
0.0
 11
148.7991788853
 21
89.4680531196
 31
0.0
  0
ELLIPSE
  5
FA
330
1F
100
AcDbEntity
  8
0
  6
Continuous
 62
     7
370
    25
100
AcDbEllipse
 10
145.33749031
 20
71.9507578419
 30
0.0
 11
-0.07471508237068747
 21
0.0
 31
0.0
210
0.0
220
0.0
230
1.0
 40
0.9531667975
 41
5.94016136489802
 42
7.853981633974483
  0
ELLIPSE
  5
FB
330
1F
100
AcDbEntity
  8
0
  6
Continuous
 62
     7
370
    25
100
AcDbEllipse
 10
145.8725989962
 20
71.9507578419
 30
0.0
 11
0.0747150823706022
 21
2.842170943040401E-14
 31
0.0
210
0.0
220
0.0
230
1.0
 40
0.9531667975
 41
4.712388980384341
 42
6.626209245754747
  0
LINE
  5
FC
330
1F
100
AcDbEntity
  8
0
  6
Continuous
 62
     7
370
    25
100
AcDbLine
 10
145.3374901283
 20
71.8795420102
 30
0.0
 11
145.8725992087
 21
71.8795420102
 31
0.0
  0
ELLIPSE
  5
FD
330
1F
100
AcDbEntity
  8
0
  6
Continuous
 62
     7
370
    25
100
AcDbEllipse
 10
145.6050446547
 20
72.6648248077
 30
0.0
 11
0.07471508237068747
 21
0.0
 31
0.0
210
0.0
220
0.0
230
1.0
 40
0.9531667975
 41
0.3430239404210493
 42
2.798568713168428
  0
LINE
  5
FE
330
1F
100
AcDbEntity
  8
0
  6
Continuous
 62
     7
370
    25
100
AcDbLine
 10
145.9429610949
 20
71.9747101388
 30
0.0
 11
145.6754070204
 21
72.6887775085
 31
0.0
  0
LINE
  5
FF
330
1F
100
AcDbEntity
  8
0
  6
Continuous
 62
     7
370
    25
100
AcDbLine
 10
145.5346823167
 20
72.6887775085
 30
0.0
 11
145.2671277765
 21
71.9747101388
 31
0.0
  0
SPLINE
  5
100
330
1F
100
AcDbEntity
  8
0
  6
Continuous
 62
     7
370
    25
100
AcDbSpline
210
0.0
220
0.0
230
1.0
 70
     8
 71
     3
 72
     8
 73
     4
 74
     0
 42
0.000000001
 43
0.00000001
 40
0.0
 40
0.0
 40
0.0
 40
0.0
 40
1.0
 40
1.0
 40
1.0
 40
1.0
 10
128.2991791907514
 20
83.15846893901421
 30
0.0
 10
128.2991791907514
 20
82.69024451524066
 30
0.0
 10
128.329836220735
 20
82.21926403087106
 30
0.0
 10
128.3729220227735
 20
81.74677244134179
 30
0.0
  0
LINE
  5
101
330
1F
100
AcDbEntity
  8
0
  6
Continuous
 62
     7
370
    25
100
AcDbLine
 10
128.2991792504
 20
83.1584688708
 30
0.0
 11
128.2991792504
 21
87.9680528737
 31
0.0
  0
ARC
  5
102
330
1F
100
AcDbEntity
  8
0
  6
Continuous
 62
     7
370
    25
100
AcDbCircle
 10
128.7991791908
 20
88.9680531792
 30
0.0
 40
1.0
100
AcDbArc
 50
270.0
 51
0.0
  0
SPLINE
  5
103
330
1F
100
AcDbEntity
  8
0
  6
Continuous
 62
     7
370
    25
100
AcDbSpline
210
0.0
220
0.0
230
1.0
 70
     8
 71
     3
 72
     8
 73
     4
 74
     0
 42
0.000000001
 43
0.00000001
 40
0.0
 40
0.0
 40
0.0
 40
0.0
 40
1.0
 40
1.0
 40
1.0
 40
1.0
 10
134.8126945509204
 20
89.96805317919078
 30
0.0
 10
135.2564768488318
 20
89.96805317919078
 30
0.0
 10
135.7057170450657
 20
89.90775869470518
 30
0.0
 10
136.1630129399984
 20
89.82056751514666
 30
0.0
  0
LINE
  5
104
330
1F
100
AcDbEntity
  8
0
  6
Continuous
 62
     7
370
    25
100
AcDbLine
 10
129.7339617703
 20
89.9680532015
 30
0.0
 11
134.8126947377
 21
89.9680532015
 31
0.0
  0
LINE
  5
105
330
1F
100
AcDbEntity
  8
0
  6
Continuous
 62
     7
370
    25
100
AcDbLine
 10
129.7339617703
 20
88.9680530376
 30
0.0
 11
129.7339617703
 21
89.9680532015
 31
0.0
  0
SPLINE
  5
106
330
1F
100
AcDbEntity
  8
0
  6
Continuous
 62
     7
370
    25
100
AcDbSpline
210
0.0
220
0.0
230
1.0
 70
     8
 71
     3
 72
    10
 73
     6
 74
     0
 42
0.000000001
 43
0.00000001
 40
0.0
 40
0.0
 40
0.0
 40
0.0
 40
0.5
 40
0.5
 40
1.0
 40
1.0
 40
1.0
 40
1.0
 10
129.5938824339276
 20
88.61449978859751
 30
0.0
 10
129.6278893173848
 20
88.6500524394846
 30
0.0
 10
129.6607514553343
 20
88.69446321131164
 30
0.0
 10
129.7139546582819
 20
88.81104834935267
 30
0.0
 10
129.7339617994471
 20
88.88681635846235
 30
0.0
 10
129.7339617994471
 20
88.96805317919079
 30
0.0
  0
SPLINE
  5
107
330
1F
100
AcDbEntity
  8
0
  6
Continuous
 62
     7
370
    25
100
AcDbSpline
210
0.0
220
0.0
230
1.0
 70
     8
 71
     3
 72
    10
 73
     6
 74
     0
 42
0.000000001
 43
0.00000001
 40
0.0
 40
0.0
 40
0.0
 40
0.0
 40
0.5
 40
0.5
 40
1.0
 40
1.0
 40
1.0
 40
1.0
 10
148.8643965820558
 20
88.96805317919078
 30
0.0
 10
148.8643965820558
 20
88.88681635846235
 30
0.0
 10
148.884403723221
 20
88.81104834935266
 30
0.0
 10
148.9376069261686
 20
88.69446321131163
 30
0.0
 10
148.9704690641181
 20
88.65005243948458
 30
0.0
 10
149.0044759475753
 20
88.61449978859751
 30
0.0
  0
LINE
  5
108
330
1F
100
AcDbEntity
  8
0
  6
Continuous
 62
     7
370
    25
100
AcDbLine
 10
148.8643966112
 20
89.9680532015
 30
0.0
 11
148.8643966112
 21
88.9680530376
 31
0.0
  0
LINE
  5
109
330
1F
100
AcDbEntity
  8
0
  6
Continuous
 62
     7
370
    25
100
AcDbLine
 10
143.7856636438
 20
89.9680532015
 30
0.0
 11
148.8643966112
 21
89.9680532015
 31
0.0
  0
SPLINE
  5
10A
330
1F
100
AcDbEntity
  8
0
  6
Continuous
 62
     7
370
    25
100
AcDbSpline
210
0.0
220
0.0
230
1.0
 70
     8
 71
     3
 72
     8
 73
     4
 74
     0
 42
0.000000001
 43
0.00000001
 40
0.0
 40
0.0
 40
0.0
 40
0.0
 40
1.0
 40
1.0
 40
1.0
 40
1.0
 10
142.4353454415046
 20
89.82056751514668
 30
0.0
 10
142.8926413364373
 20
89.90775869470518
 30
0.0
 10
143.3418815326712
 20
89.96805317919078
 30
0.0
 10
143.7856638305826
 20
89.96805317919078
 30
0.0
  0
LWPOLYLINE
  5
10B
330
1F
100
AcDbEntity
  8
0
  6
Continuous
 62
     7
370
    25
100
AcDbPolyline
 90
        9
 70
   128
 43
0.0
 10
150.2991791311
 20
83.1584688708
 10
150.3087866548
 20
83.1186841674
 10
150.3372394908
 20
83.0804277643
 10
150.3834442664
 20
83.0451706856
 10
150.4456258807
 20
83.0142680056
 10
150.5213936288
 20
82.9889062292
 10
150.6078371275
 20
82.9700613826
 10
150.7016343493
 20
82.958456172
 10
150.7991792131
 20
82.9545376323
  0
LWPOLYLINE
  5
10C
330
1F
100
AcDbEntity
  8
0
  6
Continuous
 62
     7
370
    25
100
AcDbPolyline
 90
        9
 70
   128
 43
0.0
 10
143.7856636438
 20
89.9680532015
 10
143.7895821836
 20
89.8705083377
 10
143.8011873942
 20
89.7767111159
 10
143.8200322408
 20
89.6902676172
 10
143.8453940172
 20
89.6144998692
 10
143.8762966972
 20
89.5523182548
 10
143.9115537759
 20
89.5061134792
 10
143.9498101789
 20
89.4776606433
 10
143.9895948823
 20
89.4680531196
  0
LWPOLYLINE
  5
10D
330
1F
100
AcDbEntity
  8
0
  6
Continuous
 62
     7
370
    25
100
AcDbPolyline
 90
        9
 70
   128
 43
0.0
 10
127.7991791684
 20
82.9545376323
 10
127.8967240322
 20
82.958456172
 10
127.990521254
 20
82.9700613826
 10
128.0769647527
 20
82.9889062292
 10
128.1527325008
 20
83.0142680056
 10
128.2149141151
 20
83.0451706856
 10
128.2611188907
 20
83.0804277643
 10
128.2895717267
 20
83.1186841674
 10
128.2991792504
 20
83.1584688708
  0
LWPOLYLINE
  5
10E
330
1F
100
AcDbEntity
  8
0
  6
Continuous
 62
     7
370
    25
100
AcDbPolyline
 90
        9
 70
   128
 43
0.0
 10
127.7991791684
 20
73.9815687261
 10
127.8967240322
 20
73.9776501864
 10
127.990521254
 20
73.9660449758
 10
128.0769647527
 20
73.9472001291
 10
128.1527325008
 20
73.9218383528
 10
128.2149141151
 20
73.8909356728
 10
128.2611188907
 20
73.8556785941
 10
128.2895717267
 20
73.817422191
 10
128.2991792504
 20
73.7776374876
  0
LWPOLYLINE
  5
10F
330
1F
100
AcDbEntity
  8
0
  6
Continuous
 62
     7
370
    25
100
AcDbPolyline
 90
        9
 70
   128
 43
0.0
 10
134.6087634992
 20
89.4680531196
 10
134.6485482026
 20
89.4776606433
 10
134.6868046056
 20
89.5061134792
 10
134.7220616843
 20
89.5523182548
 10
134.7529643643
 20
89.6144998692
 10
134.7783261407
 20
89.6902676172
 10
134.7971709873
 20
89.7767111159
 10
134.8087761979
 20
89.8705083377
 10
134.8126947377
 20
89.9680532015
  0
LWPOLYLINE
  5
110
330
1F
100
AcDbEntity
  8
0
  6
Continuous
 62
     7
370
    25
100
AcDbPolyline
 90
        9
 70
   128
 43
0.0
 10
150.7991792131
 20
73.9815687261
 10
150.7016343493
 20
73.9776501864
 10
150.6078371275
 20
73.9660449758
 10
150.5213936288
 20
73.9472001291
 10
150.4456258807
 20
73.9218383528
 10
150.3834442664
 20
73.8909356728
 10
150.3372394908
 20
73.8556785941
 10
150.3087866548
 20
73.817422191
 10
150.2991791311
 20
73.7776374876
  0
SPLINE
  5
111
330
1F
100
AcDbEntity
  8
0
  6
Continuous
 62
     7
370
    25
100
AcDbSpline
210
0.0
220
0.0
230
1.0
 70
     8
 71
     3
 72
     8
 73
     4
 74
     0
 42
0.000000001
 43
0.00000001
 40
0.0
 40
0.0
 40
0.0
 40
0.0
 40
1.0
 40
1.0
 40
1.0
 40
1.0
 10
148.7991791907515
 20
89.71635565523542
 30
0.0
 10
148.7991791907515
 20
89.79656643363397
 30
0.0
 10
148.8231098128601
 20
89.88256693035582
 30
0.0
 10
148.8643965820558
 20
89.96805317919078
 30
0.0
  0
SPLINE
  5
112
330
1F
100
AcDbEntity
  8
0
  6
Continuous
 62
     7
370
    25
100
AcDbSpline
210
0.0
220
0.0
230
1.0
 70
    24
 71
     3
 72
    10
 73
     6
 74
     0
 42
0.000000001
 43
0.00000001
 40
0.0
 40
0.0
 40
0.0
 40
0.0
 40
0.5
 40
0.5
 40
1.0
 40
1.0
 40
1.0
 40
1.0
 10
148.7991791907515
 20
89.71635565523542
 30
0.0
 10
148.7991791907515
 20
89.62087858630404
 30
0.0
 10
148.7991791907515
 20
89.56399978109546
 30
0.0
 10
148.7991791907515
 20
89.48690227256816
 30
0.0
 10
148.7991791907515
 20
89.4680531791909
 30
0.0
 10
148.7991791907515
 20
89.46805317919078
 30
0.0
  0
SPLINE
  5
113
330
1F
100
AcDbEntity
  8
0
  6
Continuous
 62
     7
370
    25
100
AcDbSpline
210
0.0
220
0.0
230
1.0
 70
     8
 71
     3
 72
     8
 73
     4
 74
     0
 42
0.000000001
 43
0.00000001
 40
0.0
 40
0.0
 40
0.0
 40
0.0
 40
1.0
 40
1.0
 40
1.0
 40
1.0
 10
150.5910845120424
 20
68.46805317919079
 30
0.0
 10
150.658674107144
 20
68.46805317919079
 30
0.0
 10
150.7289653906629
 20
68.45258301510063
 30
0.0
 10
150.7991791907515
 20
68.42457491832123
 30
0.0
  0
SPLINE
  5
114
330
1F
100
AcDbEntity
  8
0
  6
Continuous
 62
     7
370
    25
100
AcDbSpline
210
0.0
220
0.0
230
1.0
 70
    24
 71
     3
 72
    12
 73
     8
 74
     0
 42
0.000000001
 43
0.00000001
 40
0.0
 40
0.0
 40
0.0
 40
0.0
 40
0.2499999999999997
 40
0.2499999999999997
 40
0.4999999999999993
 40
0.4999999999999993
 40
1.0
 40
1.0
 40
1.0
 40
1.0
 10
150.5910845120424
 20
68.46805317919079
 30
0.0
 10
150.5306647655137
 20
68.46805317919079
 30
0.0
 10
150.4873185124505
 20
68.46805317919079
 30
0.0
 10
150.4144488943823
 20
68.46805317919079
 30
0.0
 10
150.3867968869179
 20
68.46805317919079
 30
0.0
 10
150.3207653179778
 20
68.46805317919079
 30
0.0
 10
150.2991791907514
 20
68.46805317919079
 30
0.0
 10
150.2991791907514
 20
68.46805317919079
 30
0.0
  0
SPLINE
  5
115
330
1F
100
AcDbEntity
  8
0
  6
Continuous
 62
     7
370
    25
100
AcDbSpline
210
0.0
220
0.0
230
1.0
 70
     8
 71
     3
 72
     8
 73
     4
 74
     0
 42
0.000000001
 43
0.00000001
 40
0.0
 40
0.0
 40
0.0
 40
0.0
 40
1.0
 40
1.0
 40
1.0
 40
1.0
 10
150.5474816667961
 20
87.96805317919078
 30
0.0
 10
150.6276924451946
 20
87.96805317919078
 30
0.0
 10
150.7136929419184
 20
87.99198380129847
 30
0.0
 10
150.7991791907515
 20
88.03327057049513
 30
0.0
  0
SPLINE
  5
116
330
1F
100
AcDbEntity
  8
0
  6
Continuous
 62
     7
370
    25
100
AcDbSpline
210
0.0
220
0.0
230
1.0
 70
    24
 71
     3
 72
    12
 73
     8
 74
     0
 42
0.000000001
 43
0.00000001
 40
0.0
 40
0.0
 40
0.0
 40
0.0
 40
0.5000000000000023
 40
0.5000000000000023
 40
0.7500000000000011
 40
0.7500000000000011
 40
1.0
 40
1.0
 40
1.0
 40
1.0
 10
150.2991791907515
 20
87.96805317919078
 30
0.0
 10
150.2991791907515
 20
87.96805317919078
 30
0.0
 10
150.3176639218888
 20
87.96805317919078
 30
0.0
 10
150.3758001057694
 20
87.96805317919078
 30
0.0
 10
150.4006448918114
 20
87.96805317919078
 30
0.0
 10
150.4625895518891
 20
87.96805317919078
 30
0.0
 10
150.4994251125062
 20
87.96805317919078
 30
0.0
 10
150.5474816667975
 20
87.96805317919078
 30
0.0
  0
SPLINE
  5
117
330
1F
100
AcDbEntity
  8
0
  6
Continuous
 62
     7
370
    25
100
AcDbSpline
210
0.0
220
0.0
230
1.0
 70
     8
 71
     3
 72
     8
 73
     4
 74
     0
 42
0.000000001
 43
0.00000001
 40
0.0
 40
0.0
 40
0.0
 40
0.0
 40
1.0
 40
1.0
 40
1.0
 40
1.0
 10
128.0072738694604
 20
68.46805317919079
 30
0.0
 10
127.9396842743589
 20
68.46805317919079
 30
0.0
 10
127.86939299084
 20
68.45258301510063
 30
0.0
 10
127.7991791907514
 20
68.42457491832123
 30
0.0
  0
SPLINE
  5
118
330
1F
100
AcDbEntity
  8
0
  6
Continuous
 62
     7
370
    25
100
AcDbSpline
210
0.0
220
0.0
230
1.0
 70
    24
 71
     3
 72
    12
 73
     8
 74
     0
 42
0.000000001
 43
0.00000001
 40
0.0
 40
0.0
 40
0.0
 40
0.0
 40
0.4999999999999989
 40
0.4999999999999989
 40
0.7499999999999994
 40
0.7499999999999994
 40
1.0
 40
1.0
 40
1.0
 40
1.0
 10
128.2991791907514
 20
68.46805317919079
 30
0.0
 10
128.2991791907514
 20
68.46805317919079
 30
0.0
 10
128.2779796427757
 20
68.46805317919079
 30
0.0
 10
128.2120523064455
 20
68.46805317919079
 30
0.0
 10
128.1838130595306
 20
68.46805317919079
 30
0.0
 10
128.111262683813
 20
68.46805317919079
 30
0.0
 10
128.068275851595
 20
68.46805317919079
 30
0.0
 10
128.0072738694604
 20
68.46805317919079
 30
0.0
  0
SPLINE
  5
119
330
1F
100
AcDbEntity
  8
0
  6
Continuous
 62
     7
370
    25
100
AcDbSpline
210
0.0
220
0.0
230
1.0
 70
     8
 71
     3
 72
     8
 73
     4
 74
     0
 42
0.000000001
 43
0.00000001
 40
0.0
 40
0.0
 40
0.0
 40
0.0
 40
1.0
 40
1.0
 40
1.0
 40
1.0
 10
128.0508767147068
 20
87.96805317919079
 30
0.0
 10
127.9706659363082
 20
87.96805317919079
 30
0.0
 10
127.8846654395856
 20
87.99198380129901
 30
0.0
 10
127.7991791907514
 20
88.03327057049513
 30
0.0
  0
SPLINE
  5
11A
330
1F
100
AcDbEntity
  8
0
  6
Continuous
 62
     7
370
    25
100
AcDbSpline
210
0.0
220
0.0
230
1.0
 70
    24
 71
     3
 72
    10
 73
     6
 74
     0
 42
0.000000001
 43
0.00000001
 40
0.0
 40
0.0
 40
0.0
 40
0.0
 40
0.5
 40
0.5
 40
1.0
 40
1.0
 40
1.0
 40
1.0
 10
128.0508767147068
 20
87.96805317919079
 30
0.0
 10
128.1463537836382
 20
87.96805317919079
 30
0.0
 10
128.2032325888468
 20
87.96805317919079
 30
0.0
 10
128.2803300973741
 20
87.96805317919079
 30
0.0
 10
128.2991791907513
 20
87.96805317919079
 30
0.0
 10
128.2991791907514
 20
87.96805317919079
 30
0.0
  0
SPLINE
  5
11B
330
1F
100
AcDbEntity
  8
0
  6
Continuous
 62
     7
370
    25
100
AcDbSpline
210
0.0
220
0.0
230
1.0
 70
     8
 71
     3
 72
     8
 73
     4
 74
     0
 42
0.000000001
 43
0.00000001
 40
0.0
 40
0.0
 40
0.0
 40
0.0
 40
1.0
 40
1.0
 40
1.0
 40
1.0
 10
129.7991791907514
 20
89.71635565523545
 30
0.0
 10
129.7991791907514
 20
89.79656643363401
 30
0.0
 10
129.7752485686442
 20
89.88256693035865
 30
0.0
 10
129.7339617994471
 20
89.96805317919078
 30
0.0
  0
SPLINE
  5
11C
330
1F
100
AcDbEntity
  8
0
  6
Continuous
 62
     7
370
    25
100
AcDbSpline
210
0.0
220
0.0
230
1.0
 70
    24
 71
     3
 72
    12
 73
     8
 74
     0
 42
0.000000001
 43
0.00000001
 40
0.0
 40
0.0
 40
0.0
 40
0.0
 40
0.5000000000000022
 40
0.5000000000000022
 40
0.7500000000000011
 40
0.7500000000000011
 40
1.0
 40
1.0
 40
1.0
 40
1.0
 10
129.7991791907514
 20
89.46805317919078
 30
0.0
 10
129.7991791907514
 20
89.46805317919078
 30
0.0
 10
129.7991791907514
 20
89.48653791032814
 30
0.0
 10
129.7991791907514
 20
89.54467409420876
 30
0.0
 10
129.7991791907514
 20
89.56951888025073
 30
0.0
 10
129.7991791907514
 20
89.63146354032847
 30
0.0
 10
129.7991791907514
 20
89.66829910094557
 30
0.0
 10
129.7991791907514
 20
89.71635565523687
 30
0.0
  0
ARC
  5
11D
330
1F
100
AcDbEntity
  8
0
  6
Continuous
 62
     7
370
    25
100
AcDbCircle
 10
149.3681350465
 20
88.5169718683
 30
0.0
 40
0.3765098242385523
100
AcDbArc
 50
164.9874081083
 51
222.8433971034
  0
LINE
  5
11E
330
1F
100
AcDbEntity
  8
0
  6
Continuous
 62
     7
370
    25
100
AcDbLine
 10
148.8643966112
 20
88.9680530376
 30
0.0
 11
148.7991788853
 21
88.9680530376
 31
0.0
  0
LINE
  5
11F
330
1F
100
AcDbEntity
  8
0
  6
Continuous
 62
     7
370
    25
100
AcDbLine
 10
149.7991790492
 20
88.0332705996
 30
0.0
 11
149.7991790492
 21
87.9680528737
 31
0.0
  0
ARC
  5
120
330
1F
100
AcDbEntity
  8
0
  6
Continuous
 62
     7
370
    25
100
AcDbCircle
 10
149.3480978799
 20
88.537009035
 30
0.0
 40
0.3765098242385487
100
AcDbArc
 50
227.1566028966
 51
285.0125918917
  0
ARC
  5
121
330
1F
100
AcDbEntity
  8
0
  6
Continuous
 62
     7
370
    25
100
AcDbCircle
 10
129.2502605016
 20
88.537009035
 30
0.0
 40
0.3765098242385561
100
AcDbArc
 50
254.9874081083
 51
312.8433971034
  0
LINE
  5
122
330
1F
100
AcDbEntity
  8
0
  6
Continuous
 62
     7
370
    25
100
AcDbLine
 10
128.7991793323
 20
88.0332705996
 30
0.0
 11
128.7991793323
 21
87.9680528737
 31
0.0
  0
ARC
  5
123
330
1F
100
AcDbEntity
  8
0
  6
Continuous
 62
     7
370
    25
100
AcDbCircle
 10
129.230223335
 20
88.5169718683
 30
0.0
 40
0.3765098242385523
100
AcDbArc
 50
317.1566028966
 51
15.0125918917
  0
LINE
  5
124
330
1F
100
AcDbEntity
  8
0
  6
Continuous
 62
     7
370
    25
100
AcDbLine
 10
129.7991794962
 20
88.9680530376
 30
0.0
 11
129.7339617703
 21
88.9680530376
 31
0.0
  0
ARC
  5
125
330
1F
100
AcDbEntity
  8
0
  6
Continuous
 62
     7
370
    25
100
AcDbCircle
 10
149.5857190332
 20
88.7545930217
 30
0.0
 40
0.5978877047882736
100
AcDbArc
 50
193.551174763
 51
256.448825237
  0
ARC
  5
126
330
1F
100
AcDbEntity
  8
0
  6
Continuous
 62
     7
370
    25
100
AcDbCircle
 10
129.0126393483
 20
88.7545930217
 30
0.0
 40
0.5978877047882736
100
AcDbArc
 50
283.551174763
 51
346.448825237
  0
CIRCLE
  5
127
330
1F
100
AcDbEntity
  8
0
  6
Continuous
 62
     7
370
    25
100
AcDbCircle
 10
127.2991791908
 20
78.4680531792
 30
0.0
 40
0.5417424305044136
  0
CIRCLE
  5
128
330
1F
100
AcDbEntity
  8
0
  6
Continuous
 62
     7
370
    25
100
AcDbCircle
 10
127.2991791908
 20
78.4680531792
 30
0.0
 40
1.0
  0
LINE
  5
129
330
1F
100
AcDbEntity
  8
0
  6
Continuous
 62
     8
370
    25
100
AcDbLine
 10
158.2991785798
 20
92.4680536113
 30
0.0
 11
158.2991785798
 21
64.4680527471
 31
0.0
  0
LINE
  5
12A
330
1F
100
AcDbEntity
  8
0
  6
Continuous
 62
     8
370
    25
100
AcDbLine
 10
125.2991787586
 20
97.4680525682
 30
0.0
 11
153.2991796229
 21
97.4680525682
 31
0.0
  0
LINE
  5
12B
330
1F
100
AcDbEntity
  8
0
  6
Continuous
 62
     8
370
    25
100
AcDbLine
 10
120.2991798017
 20
78.4680531792
 30
0.0
 11
120.2991798017
 21
92.4680536113
 31
0.0
  0
LINE
  5
12C
330
1F
100
AcDbEntity
  8
0
  6
Continuous
 62
     8
370
    25
100
AcDbLine
 10
120.2991798017
 20
64.4680527471
 30
0.0
 11
120.2991798017
 21
78.4680531792
 31
0.0
  0
LINE
  5
12D
330
1F
100
AcDbEntity
  8
0
  6
Continuous
 62
     8
370
    25
100
AcDbLine
 10
150.2991791311
 20
95.4680541031
 30
0.0
 11
128.2991792504
 21
95.4680541031
 31
0.0
  0
LINE
  5
12E
330
1F
100
AcDbEntity
  8
0
  6
Continuous
 62
     8
370
    25
100
AcDbLine
 10
122.2991782669
 20
78.4680531792
 30
0.0
 11
122.2991782669
 21
67.4680532388
 31
0.0
  0
LINE
  5
12F
330
1F
100
AcDbEntity
  8
0
  6
Continuous
 62
     8
370
    25
100
AcDbLine
 10
122.2991782669
 20
89.4680531196
 30
0.0
 11
122.2991782669
 21
78.4680531792
 31
0.0
  0
LINE
  5
130
330
1F
100
AcDbEntity
  8
0
  6
Continuous
 62
     8
370
    25
100
AcDbLine
 10
156.2991801146
 20
67.4680532388
 30
0.0
 11
156.2991801146
 21
89.4680531196
 31
0.0
  0
LWPOLYLINE
  5
131
330
1F
100
AcDbEntity
  8
0
  6
Continuous
 62
     8
370
    25
100
AcDbPolyline
 90
        9
 70
   128
 43
0.0
 10
129.1527326647
 20
88.1733498968
 10
128.8209434096
 20
88.4907138966
 10
128.5338762644
 20
88.7652994565
 10
128.2927577812
 20
88.9959349729
 10
128.0986152086
 20
89.1816360376
 10
127.9522792864
 20
89.321609164
 10
127.8543740008
 20
89.4152583055
 10
127.8053165842
 20
89.4621829934
 10
127.7991791684
 20
89.4680531196
  0
LWPOLYLINE
  5
132
330
1F
100
AcDbEntity
  8
0
  6
Continuous
 62
     8
370
    25
100
AcDbPolyline
 90
        9
 70
   128
 43
0.0
 10
150.7991792131
 20
89.4680531196
 10
150.7930417973
 20
89.4621829934
 10
150.7439843807
 20
89.4152583055
 10
150.6460790951
 20
89.321609164
 10
150.4997431729
 20
89.1816360376
 10
150.3056006003
 20
88.9959349729
 10
150.0644821171
 20
88.7652994565
 10
149.7774149719
 20
88.4907138966
 10
149.4456257168
 20
88.1733498968
  0
LWPOLYLINE
  5
133
330
1F
100
AcDbEntity
  8
0
  6
Continuous
 62
     8
370
    25
100
AcDbPolyline
 90
        9
 70
   128
 43
0.0
 10
128.2991792504
 20
89.9680532015
 10
128.3050493765
 20
89.9619157858
 10
128.3519740645
 20
89.9128583692
 10
128.445623206
 20
89.8149530835
 10
128.5855963323
 20
89.6686171613
 10
128.7712973971
 20
89.4744745887
 10
129.0019329134
 20
89.2333561055
 10
129.2765184734
 20
88.9462889604
 10
129.5938824732
 20
88.6144997052
  0
LWPOLYLINE
  5
134
330
1F
100
AcDbEntity
  8
0
  6
Continuous
 62
     8
370
    25
100
AcDbPolyline
 90
        9
 70
   128
 43
0.0
 10
149.0044759083
 20
88.6144997052
 10
149.3218399081
 20
88.9462889604
 10
149.5964254681
 20
89.2333561055
 10
149.8270609844
 20
89.4744745887
 10
150.0127620492
 20
89.6686171613
 10
150.1527351755
 20
89.8149530835
 10
150.246384317
 20
89.9128583692
 10
150.293309005
 20
89.9619157858
 10
150.2991791311
 20
89.9680532015
  0
LINE
  5
135
330
1F
100
AcDbEntity
  8
0
  6
CENTERX2
 62
     7
370
    18
100
AcDbLine
 10
139.2991791908
 20
64.9841039673
 30
0.0
 11
139.2991791908
 21
116.470352658
 31
0.0
  0
LINE
  5
136
330
1F
100
AcDbEntity
  8
0
  6
CENTERX2
 62
     7
370
    18
100
AcDbLine
 10
104.2991791908
 20
78.4680531792
 30
0.0
 11
174.2991791908
 21
78.4680531792
 31
0.0
  0
LINE
  5
137
330
1F
100
AcDbEntity
  8
0
  6
Continuous
 62
     7
370
    25
100
AcDbLine
 10
233.405966969
 20
111.4680530004
 30
0.0
 11
232.4059668051
 21
112.4680550269
 31
0.0
  0
LINE
  5
138
330
1F
100
AcDbEntity
  8
0
  6
Continuous
 62
     7
370
    25
100
AcDbLine
 10
206.4059662687
 20
112.4680550269
 30
0.0
 11
205.4059661048
 21
111.4680530004
 31
0.0
  0
LINE
  5
139
330
1F
100
AcDbEntity
  8
0
  6
Continuous
 62
     7
370
    25
100
AcDbLine
 10
205.4059661048
 20
111.4680530004
 30
0.0
 11
205.4059661048
 21
97.4680525682
 31
0.0
  0
LINE
  5
13A
330
1F
100
AcDbEntity
  8
0
  6
Continuous
 62
     7
370
    25
100
AcDbLine
 10
233.405966969
 20
97.4680525682
 30
0.0
 11
233.405966969
 21
111.4680530004
 31
0.0
  0
ARC
  5
13B
330
1F
100
AcDbEntity
  8
0
  6
Continuous
 62
     7
370
    25
100
AcDbCircle
 10
206.4059665369
 20
97.4680531792
 30
0.0
 40
1.0
100
AcDbArc
 50
180.0
 51
270.0
  0
ARC
  5
13C
330
1F
100
AcDbEntity
  8
0
  6
Continuous
 62
     7
370
    25
100
AcDbCircle
 10
232.4059665369
 20
97.4680531792
 30
0.0
 40
1.0
100
AcDbArc
 50
270.0
 51
0.0
  0
ARC
  5
13D
330
1F
100
AcDbEntity
  8
0
  6
Continuous
 62
     7
370
    25
100
AcDbCircle
 10
207.4059665369
 20
95.4680531792
 30
0.0
 40
1.0
100
AcDbArc
 50
0.0
 51
90.0
  0
ARC
  5
13E
330
1F
100
AcDbEntity
  8
0
  6
Continuous
 62
     7
370
    25
100
AcDbCircle
 10
231.4059665369
 20
95.4680531792
 30
0.0
 40
1.0
100
AcDbArc
 50
90.0
 51
180.0
  0
LINE
  5
13F
330
1F
100
AcDbEntity
  8
0
  6
Continuous
 62
     7
370
    25
100
AcDbLine
 10
230.4059664773
 20
89.4680531196
 30
0.0
 11
230.4059664773
 21
95.4680541031
 31
0.0
  0
LINE
  5
140
330
1F
100
AcDbEntity
  8
0
  6
Continuous
 62
     7
370
    25
100
AcDbLine
 10
208.4059665965
 20
95.4680541031
 30
0.0
 11
208.4059665965
 21
89.4680531196
 31
0.0
  0
CIRCLE
  5
141
330
1F
100
AcDbEntity
  8
0
  6
Continuous
 62
     7
370
    25
100
AcDbCircle
 10
219.4059665369
 20
78.4680531792
 30
0.0
 40
10.75
  0
CIRCLE
  5
142
330
1F
100
AcDbEntity
  8
0
  6
Continuous
 62
     7
370
    25
100
AcDbCircle
 10
219.4059665369
 20
78.4680531792
 30
0.0
 40
13.0
  0
CIRCLE
  5
143
330
1F
100
AcDbEntity
  8
0
  6
Continuous
 62
     7
370
    25
100
AcDbCircle
 10
219.4059665369
 20
78.4680531792
 30
0.0
 40
14.0
  0
CIRCLE
  5
144
330
1F
100
AcDbEntity
  8
0
  6
Continuous
 62
     7
370
    25
100
AcDbCircle
 10
219.4059665369
 20
78.4680531792
 30
0.0
 40
9.798213046580429
  0
CIRCLE
  5
145
330
1F
100
AcDbEntity
  8
0
  6
Continuous
 62
     7
370
    25
100
AcDbCircle
 10
219.4059665369
 20
78.4680531792
 30
0.0
 40
9.428250615618282
  0
CIRCLE
  5
146
330
1F
100
AcDbEntity
  8
0
  6
Continuous
 62
     7
370
    25
100
AcDbCircle
 10
219.4059665369
 20
78.4680531792
 30
0.0
 40
9.315500000000014
  0
CIRCLE
  5
147
330
1F
100
AcDbEntity
  8
0
  6
Continuous
 62
     7
370
    25
100
AcDbCircle
 10
219.4059665369
 20
78.4680531792
 30
0.0
 40
6.5
  0
LINE
  5
148
330
1F
100
AcDbEntity
  8
0
  6
Continuous
 62
     7
370
    25
100
AcDbLine
 10
233.405966969
 20
111.4680530004
 30
0.0
 11
205.4059661048
 21
111.4680530004
 31
0.0
  0
LINE
  5
149
330
1F
100
AcDbEntity
  8
0
  6
Continuous
 62
     7
370
    25
100
AcDbLine
 10
206.4059662687
 20
112.4680550269
 30
0.0
 11
232.4059668051
 21
112.4680550269
 31
0.0
  0
LINE
  5
14A
330
1F
100
AcDbEntity
  8
0
  6
Continuous
 62
     7
370
    25
100
AcDbLine
 10
232.4059668051
 20
96.4680524043
 30
0.0
 11
206.4059662687
 21
96.4680524043
 31
0.0
  0
SPLINE
  5
14B
330
1F
100
AcDbEntity
  8
0
  6
Continuous
 62
     7
370
    25
100
AcDbSpline
210
0.0
220
0.0
230
1.0
 70
     8
 71
     3
 72
    12
 73
     8
 74
     0
 42
0.000000001
 43
0.00000001
 40
0.0
 40
0.0
 40
0.0
 40
0.0
 40
0.25
 40
0.25
 40
0.5
 40
0.5
 40
1.0
 40
1.0
 40
1.0
 40
1.0
 10
229.9494223862586
 20
89.82056751514666
 30
0.0
 10
230.0243706638063
 20
89.77252554451042
 30
0.0
 10
230.0905541189165
 20
89.73583190186326
 30
0.0
 10
230.2045356243515
 20
89.66984122043218
 30
0.0
 10
230.252417061331
 20
89.64106773225268
 30
0.0
 10
230.367340527245
 20
89.56059202523464
 30
0.0
 10
230.4059665368875
 20
89.51446232203392
 30
0.0
 10
230.4059665368875
 20
89.46805317919078
 30
0.0
  0
SPLINE
  5
14C
330
1F
100
AcDbEntity
  8
0
  6
Continuous
 62
     7
370
    25
100
AcDbSpline
210
0.0
220
0.0
230
1.0
 70
     8
 71
     3
 72
     8
 73
     4
 74
     0
 42
0.000000001
 43
0.00000001
 40
0.0
 40
0.0
 40
0.0
 40
0.0
 40
1.0
 40
1.0
 40
1.0
 40
1.0
 10
229.449444797757
 20
89.96805317919078
 30
0.0
 10
229.6476851295717
 20
89.96805317919078
 30
0.0
 10
229.8133990583493
 20
89.90775869470518
 30
0.0
 10
229.9494223862586
 20
89.82056751514666
 30
0.0
  0
SPLINE
  5
14D
330
1F
100
AcDbEntity
  8
0
  6
Continuous
 62
     7
370
    25
100
AcDbSpline
210
0.0
220
0.0
230
1.0
 70
     8
 71
     3
 72
     8
 73
     4
 74
     0
 42
0.000000001
 43
0.00000001
 40
0.0
 40
0.0
 40
0.0
 40
0.0
 40
1.0
 40
1.0
 40
1.0
 40
1.0
 10
208.8625106875164
 20
89.82056751514668
 30
0.0
 10
208.9985340154256
 20
89.90775869470518
 30
0.0
 10
209.1642479442032
 20
89.96805317919078
 30
0.0
 10
209.3624882760179
 20
89.96805317919078
 30
0.0
  0
SPLINE
  5
14E
330
1F
100
AcDbEntity
  8
0
  6
Continuous
 62
     7
370
    25
100
AcDbSpline
210
0.0
220
0.0
230
1.0
 70
     8
 71
     3
 72
    12
 73
     8
 74
     0
 42
0.000000001
 43
0.00000001
 40
0.0
 40
0.0
 40
0.0
 40
0.0
 40
0.2499999999999999
 40
0.2499999999999999
 40
0.4999999999999998
 40
0.4999999999999998
 40
1.0
 40
1.0
 40
1.0
 40
1.0
 10
208.8625106875164
 20
89.82056751514668
 30
0.0
 10
208.7875885456162
 20
89.77254229750397
 30
0.0
 10
208.7214250902323
 20
89.73585802722909
 30
0.0
 10
208.6074705621821
 20
89.66988413429969
 30
0.0
 10
208.5596147567214
 20
89.64113250173142
 30
0.0
 10
208.444559461101
 20
89.56057760094146
 30
0.0
 10
208.4059665368875
 20
89.51444612432252
 30
0.0
 10
208.4059665368875
 20
89.46805317919078
 30
0.0
  0
ARC
  5
14F
330
1F
100
AcDbEntity
  8
0
  6
Continuous
 62
     7
370
    25
100
AcDbCircle
 10
229.9059665369
 20
87.4680531792
 30
0.0
 40
0.5
100
AcDbArc
 50
0.0
 51
90.0
  0
LINE
  5
150
330
1F
100
AcDbEntity
  8
0
  6
Continuous
 62
     7
370
    25
100
AcDbLine
 10
230.4059664773
 20
87.4680527918
 30
0.0
 11
230.4059664773
 21
87.1283072479
 31
0.0
  0
ARC
  5
151
330
1F
100
AcDbEntity
  8
0
  6
Continuous
 62
     7
370
    25
100
AcDbCircle
 10
229.9059665369
 20
68.9680531792
 30
0.0
 40
0.5
100
AcDbArc
 50
270.0
 51
0.0
  0
LINE
  5
152
330
1F
100
AcDbEntity
  8
0
  6
Continuous
 62
     7
370
    25
100
AcDbLine
 10
230.4059664773
 20
69.8077991105
 30
0.0
 11
230.4059664773
 21
68.9680534847
 31
0.0
  0
LINE
  5
153
330
1F
100
AcDbEntity
  8
0
  6
Continuous
 62
     7
370
    25
100
AcDbLine
 10
229.6894487979
 20
87.9680528737
 30
0.0
 11
229.9059663953
 21
87.9680528737
 31
0.0
  0
LINE
  5
154
330
1F
100
AcDbEntity
  8
0
  6
Continuous
 62
     7
370
    25
100
AcDbLine
 10
229.203925194
 20
68.4680534027
 30
0.0
 11
229.9059663953
 21
68.4680534027
 31
0.0
  0
LINE
  5
155
330
1F
100
AcDbEntity
  8
0
  6
Continuous
 62
     7
370
    25
100
AcDbLine
 10
208.9059666784
 20
68.4680534027
 30
0.0
 11
209.6080078797
 21
68.4680534027
 31
0.0
  0
LINE
  5
156
330
1F
100
AcDbEntity
  8
0
  6
Continuous
 62
     7
370
    25
100
AcDbLine
 10
208.9059666784
 20
87.9680528737
 30
0.0
 11
209.1224842759
 21
87.9680528737
 31
0.0
  0
ARC
  5
157
330
1F
100
AcDbEntity
  8
0
  6
Continuous
 62
     7
370
    25
100
AcDbCircle
 10
208.9059665369
 20
68.9680531792
 30
0.0
 40
0.5
100
AcDbArc
 50
180.0
 51
270.0
  0
LINE
  5
158
330
1F
100
AcDbEntity
  8
0
  6
Continuous
 62
     7
370
    25
100
AcDbLine
 10
208.4059665965
 20
68.9680534847
 30
0.0
 11
208.4059665965
 21
69.8077991105
 31
0.0
  0
ARC
  5
159
330
1F
100
AcDbEntity
  8
0
  6
Continuous
 62
     7
370
    25
100
AcDbCircle
 10
208.9059665369
 20
87.4680531792
 30
0.0
 40
0.5
100
AcDbArc
 50
90.0
 51
180.0
  0
LINE
  5
15A
330
1F
100
AcDbEntity
  8
0
  6
Continuous
 62
     7
370
    25
100
AcDbLine
 10
208.4059665965
 20
87.1283072479
 30
0.0
 11
208.4059665965
 21
87.4680527918
 31
0.0
  0
LINE
  5
15B
330
1F
100
AcDbEntity
  8
0
  6
Continuous
 62
     7
370
    25
100
AcDbLine
 10
229.9059663953
 20
87.9680528737
 30
0.0
 11
229.9059663953
 21
88.9680530376
 31
0.0
  0
LINE
  5
15C
330
1F
100
AcDbEntity
  8
0
  6
Continuous
 62
     7
370
    25
100
AcDbLine
 10
230.4059664773
 20
88.9680530376
 30
0.0
 11
229.9059663953
 21
88.9680530376
 31
0.0
  0
LINE
  5
15D
330
1F
100
AcDbEntity
  8
0
  6
Continuous
 62
     7
370
    25
100
AcDbLine
 10
230.4059664773
 20
88.9680530376
 30
0.0
 11
230.4059664773
 21
87.4680527918
 31
0.0
  0
LINE
  5
15E
330
1F
100
AcDbEntity
  8
0
  6
Continuous
 62
     7
370
    25
100
AcDbLine
 10
208.9059666784
 20
88.9680530376
 30
0.0
 11
208.9059666784
 21
87.9680528737
 31
0.0
  0
LINE
  5
15F
330
1F
100
AcDbEntity
  8
0
  6
Continuous
 62
     7
370
    25
100
AcDbLine
 10
208.4059665965
 20
88.9680530376
 30
0.0
 11
208.9059666784
 21
88.9680530376
 31
0.0
  0
LINE
  5
160
330
1F
100
AcDbEntity
  8
0
  6
Continuous
 62
     7
370
    25
100
AcDbLine
 10
208.4059665965
 20
87.4680527918
 30
0.0
 11
208.4059665965
 21
88.9680530376
 31
0.0
  0
ARC
  5
161
330
1F
100
AcDbEntity
  8
0
  6
Continuous
 62
     7
370
    25
100
AcDbCircle
 10
229.9287408068
 20
89.9472588163
 30
0.0
 40
0.4797465722737426
100
AcDbArc
 50
177.5157636109
 51
267.2790461907
  0
ARC
  5
162
330
1F
100
AcDbEntity
  8
0
  6
Continuous
 62
     7
370
    25
100
AcDbCircle
 10
208.8831922669
 20
89.9472588163
 30
0.0
 40
0.4797465722737278
100
AcDbArc
 50
272.7209538093
 51
2.4842363891
  0
LINE
  5
163
330
1F
100
AcDbEntity
  8
0
  6
Continuous
 62
     7
370
    25
100
AcDbLine
 10
229.9059663953
 20
88.9680530376
 30
0.0
 11
229.9059663953
 21
89.4680531196
 31
0.0
  0
ARC
  5
164
330
1F
100
AcDbEntity
  8
0
  6
Continuous
 62
     7
370
    25
100
AcDbCircle
 10
229.9059665369
 20
88.9680531792
 30
0.0
 40
0.5
100
AcDbArc
 50
0.0
 51
90.0
  0
LINE
  5
165
330
1F
100
AcDbEntity
  8
0
  6
Continuous
 62
     7
370
    25
100
AcDbLine
 10
228.0662206056
 20
89.4680531196
 30
0.0
 11
229.9059663953
 21
89.4680531196
 31
0.0
  0
LINE
  5
166
330
1F
100
AcDbEntity
  8
0
  6
Continuous
 62
     7
370
    25
100
AcDbLine
 10
208.9059666784
 20
89.4680531196
 30
0.0
 11
208.9059666784
 21
88.9680530376
 31
0.0
  0
LINE
  5
167
330
1F
100
AcDbEntity
  8
0
  6
Continuous
 62
     7
370
    25
100
AcDbLine
 10
208.9059666784
 20
89.4680531196
 30
0.0
 11
210.7457124682
 21
89.4680531196
 31
0.0
  0
ARC
  5
168
330
1F
100
AcDbEntity
  8
0
  6
Continuous
 62
     7
370
    25
100
AcDbCircle
 10
208.9059665369
 20
88.9680531792
 30
0.0
 40
0.5
100
AcDbArc
 50
90.0
 51
180.0
  0
ARC
  5
169
330
1F
100
AcDbEntity
  8
0
  6
Continuous
 62
     7
370
    25
100
AcDbCircle
 10
230.4166201344
 20
89.7905700539
 30
0.0
 40
0.46815930654128
100
AcDbArc
 50
176.3262887358
 51
237.8245327009
  0
ARC
  5
16A
330
1F
100
AcDbEntity
  8
0
  6
Continuous
 62
     7
370
    25
100
AcDbCircle
 10
208.3953129394
 20
89.7905700539
 30
0.0
 40
0.4681593065412888
100
AcDbArc
 50
302.1754672992
 51
3.6737112642
  0
SPLINE
  5
16B
330
1F
100
AcDbEntity
  8
0
  6
Continuous
 62
     7
370
    25
100
AcDbSpline
210
0.0
220
0.0
230
1.0
 70
     8
 71
     3
 72
    12
 73
     8
 74
     0
 42
0.000000001
 43
0.00000001
 40
0.0
 40
0.0
 40
0.0
 40
0.0
 40
0.25
 40
0.25
 40
0.5
 40
0.5
 40
1.0
 40
1.0
 40
1.0
 40
1.0
 10
230.1673184581496
 20
89.39431034716873
 30
0.0
 10
230.204361869231
 20
89.37159784545962
 30
0.0
 10
230.2385747705192
 20
89.36408532563043
 30
0.0
 10
230.2981069253802
 20
89.36252925093125
 30
0.0
 10
230.3235076564026
 20
89.36895609277329
 30
0.0
 10
230.3848662881316
 20
89.39918109307764
 30
0.0
 10
230.4059665368875
 20
89.4338766141962
 30
0.0
 10
230.4059665368875
 20
89.46805317919078
 30
0.0
  0
SPLINE
  5
16C
330
1F
100
AcDbEntity
  8
0
  6
Continuous
 62
     7
370
    25
100
AcDbSpline
210
0.0
220
0.0
230
1.0
 70
    24
 71
     3
 72
    12
 73
     8
 74
     0
 42
0.000000001
 43
0.00000001
 40
0.0
 40
0.0
 40
0.0
 40
0.0
 40
0.2500000000000001
 40
0.2500000000000001
 40
0.5000000000000001
 40
0.5000000000000001
 40
1.0
 40
1.0
 40
1.0
 40
1.0
 10
230.4059665368875
 20
88.96805317919078
 30
0.0
 10
230.4059665368875
 20
88.96805317919078
 30
0.0
 10
230.4059665368875
 20
88.98777612459871
 30
0.0
 10
230.4059665368874
 20
89.04841258935996
 30
0.0
 10
230.4059665368875
 20
89.08966913504831
 30
0.0
 10
230.4059665368875
 20
89.2314424447204
 30
0.0
 10
230.4059665368875
 20
89.35000948988075
 30
0.0
 10
230.4059665368875
 20
89.46805317919078
 30
0.0
  0
SPLINE
  5
16D
330
1F
100
AcDbEntity
  8
0
  6
Continuous
 62
     7
370
    25
100
AcDbSpline
210
0.0
220
0.0
230
1.0
 70
     8
 71
     3
 72
    12
 73
     8
 74
     0
 42
0.000000001
 43
0.00000001
 40
0.0
 40
0.0
 40
0.0
 40
0.0
 40
0.25
 40
0.25
 40
0.5
 40
0.5
 40
1.0
 40
1.0
 40
1.0
 40
1.0
 10
208.6446146156253
 20
89.39431034716873
 30
0.0
 10
208.6075712045439
 20
89.37159784545962
 30
0.0
 10
208.5733583032557
 20
89.36408532563043
 30
0.0
 10
208.5138261483947
 20
89.36252925093125
 30
0.0
 10
208.4884254173723
 20
89.36895609277329
 30
0.0
 10
208.4270667856433
 20
89.39918109307766
 30
0.0
 10
208.4059665368875
 20
89.4338766141963
 30
0.0
 10
208.4059665368875
 20
89.46805317919078
 30
0.0
  0
SPLINE
  5
16E
330
1F
100
AcDbEntity
  8
0
  6
Continuous
 62
     7
370
    25
100
AcDbSpline
210
0.0
220
0.0
230
1.0
 70
    24
 71
     3
 72
    12
 73
     8
 74
     0
 42
0.000000001
 43
0.00000001
 40
0.0
 40
0.0
 40
0.0
 40
0.0
 40
0.25
 40
0.25
 40
0.5
 40
0.5
 40
1.0
 40
1.0
 40
1.0
 40
1.0
 10
208.4059665368875
 20
88.96805317919078
 30
0.0
 10
208.4059665368875
 20
88.96805317919078
 30
0.0
 10
208.4059665368875
 20
88.98777612459871
 30
0.0
 10
208.4059665368875
 20
89.04841258935997
 30
0.0
 10
208.4059665368875
 20
89.08966913504831
 30
0.0
 10
208.4059665368875
 20
89.2314424447204
 30
0.0
 10
208.4059665368875
 20
89.35000948988073
 30
0.0
 10
208.4059665368875
 20
89.46805317919078
 30
0.0
  0
LINE
  5
16F
330
1F
100
AcDbEntity
  8
0
  6
Continuous
 62
     8
370
    25
100
AcDbLine
 10
205.4059661048
 20
97.4680525682
 30
0.0
 11
233.405966969
 21
97.4680525682
 31
0.0
  0
LINE
  5
170
330
1F
100
AcDbEntity
  8
0
  6
Continuous
 62
     8
370
    25
100
AcDbLine
 10
230.4059664773
 20
95.4680541031
 30
0.0
 11
208.4059665965
 21
95.4680541031
 31
0.0
  0
LINE
  5
171
330
1F
100
AcDbEntity
  8
0
  6
Continuous
 62
     8
370
    25
100
AcDbLine
 10
227.3903262855
 20
89.9680532015
 30
0.0
 11
229.4494451078
 21
89.9680532015
 31
0.0
  0
LINE
  5
172
330
1F
100
AcDbEntity
  8
0
  6
Continuous
 62
     8
370
    25
100
AcDbLine
 10
209.362487966
 20
89.9680532015
 30
0.0
 11
211.4216067882
 21
89.9680532015
 31
0.0
  0
LINE
  5
173
330
1F
100
AcDbEntity
  8
0
  6
Continuous
 62
     8
370
    25
100
AcDbLine
 10
229.9059663953
 20
87.7281823627
 30
0.0
 11
229.9059663953
 21
87.9680528737
 31
0.0
  0
LINE
  5
174
330
1F
100
AcDbEntity
  8
0
  6
Continuous
 62
     8
370
    25
100
AcDbLine
 10
229.9059663953
 20
68.4680534027
 30
0.0
 11
229.9059663953
 21
69.2079239957
 31
0.0
  0
LINE
  5
175
330
1F
100
AcDbEntity
  8
0
  6
Continuous
 62
     8
370
    25
100
AcDbLine
 10
208.9059666784
 20
69.2079239957
 30
0.0
 11
208.9059666784
 21
68.4680534027
 31
0.0
  0
LINE
  5
176
330
1F
100
AcDbEntity
  8
0
  6
Continuous
 62
     8
370
    25
100
AcDbLine
 10
208.9059666784
 20
87.9680528737
 30
0.0
 11
208.9059666784
 21
87.7281823627
 31
0.0
  0
LINE
  5
177
330
1F
100
AcDbEntity
  8
0
  6
Continuous
 62
     8
370
    25
100
AcDbLine
 10
228.6660957204
 20
88.9680530376
 30
0.0
 11
229.9059663953
 21
88.9680530376
 31
0.0
  0
LINE
  5
178
330
1F
100
AcDbEntity
  8
0
  6
Continuous
 62
     8
370
    25
100
AcDbLine
 10
208.9059666784
 20
88.9680530376
 30
0.0
 11
210.1458373534
 21
88.9680530376
 31
0.0
  0
INSERT
  5
184
330
1F
100
AcDbEntity
  8
0
  6
Continuous
 62
     7
370
    18
100
AcDbBlockReference
  2
SW_CENTERMARKSYMBOL_0
 10
219.4059665369
 20
78.4680531792
 30
0.0
  0
ARC
  5
185
330
1F
100
AcDbEntity
  8
0
  6
Continuous
 62
     7
370
    18
100
AcDbCircle
 10
219.4059665369
 20
78.4680531792
 30
0.0
 40
10.43039212103399
100
AcDbArc
 50
75.0
 51
345.0
  0
ARC
  5
186
330
1F
100
AcDbEntity
  8
0
  6
Continuous
 62
     7
370
    18
100
AcDbCircle
 10
219.4059665369
 20
78.4680531792
 30
0.0
 40
10.43039212103399
100
AcDbArc
 50
75.0
 51
345.0
  0
LINE
  5
187
330
1F
100
AcDbEntity
  8
0
  6
Continuous
 62
     7
370
    25
100
AcDbLine
 10
106.2991793696
 20
170.7874083492
 30
0.0
 11
105.299177343
 21
169.7874081852
 31
0.0
  0
LINE
  5
188
330
1F
100
AcDbEntity
  8
0
  6
Continuous
 62
     7
370
    25
100
AcDbLine
 10
105.299177343
 20
143.7874076488
 30
0.0
 11
106.2991793696
 21
142.7874074849
 31
0.0
  0
LINE
  5
189
330
1F
100
AcDbEntity
  8
0
  6
Continuous
 62
     7
370
    25
100
AcDbLine
 10
106.2991793696
 20
142.7874074849
 30
0.0
 11
120.2991798017
 21
142.7874074849
 31
0.0
  0
LINE
  5
18A
330
1F
100
AcDbEntity
  8
0
  6
Continuous
 62
     7
370
    25
100
AcDbLine
 10
120.2991798017
 20
170.7874083492
 30
0.0
 11
106.2991793696
 21
170.7874083492
 31
0.0
  0
LINE
  5
18B
330
1F
100
AcDbEntity
  8
0
  6
Continuous
 62
     7
370
    25
100
AcDbLine
 10
172.2991790119
 20
142.7874074849
 30
0.0
 11
173.2991810385
 21
143.7874076488
 31
0.0
  0
LINE
  5
18C
330
1F
100
AcDbEntity
  8
0
  6
Continuous
 62
     7
370
    25
100
AcDbLine
 10
173.2991810385
 20
169.7874081852
 30
0.0
 11
172.2991790119
 21
170.7874083492
 31
0.0
  0
LINE
  5
18D
330
1F
100
AcDbEntity
  8
0
  6
Continuous
 62
     7
370
    25
100
AcDbLine
 10
172.2991790119
 20
170.7874083492
 30
0.0
 11
158.2991785798
 21
170.7874083492
 31
0.0
  0
LINE
  5
18E
330
1F
100
AcDbEntity
  8
0
  6
Continuous
 62
     7
370
    25
100
AcDbLine
 10
158.2991785798
 20
142.7874074849
 30
0.0
 11
172.2991790119
 21
142.7874074849
 31
0.0
  0
ARC
  5
18F
330
1F
100
AcDbEntity
  8
0
  6
Continuous
 62
     7
370
    25
100
AcDbCircle
 10
120.2991791908
 20
143.787407917
 30
0.0
 40
1.0
100
AcDbArc
 50
270.0
 51
0.0
  0
ARC
  5
190
330
1F
100
AcDbEntity
  8
0
  6
Continuous
 62
     7
370
    25
100
AcDbCircle
 10
120.2991791908
 20
169.787407917
 30
0.0
 40
1.0
100
AcDbArc
 50
0.0
 51
90.0
  0
ARC
  5
191
330
1F
100
AcDbEntity
  8
0
  6
Continuous
 62
     7
370
    25
100
AcDbCircle
 10
158.2991791908
 20
169.787407917
 30
0.0
 40
1.0
100
AcDbArc
 50
90.0
 51
180.0
  0
ARC
  5
192
330
1F
100
AcDbEntity
  8
0
  6
Continuous
 62
     7
370
    25
100
AcDbCircle
 10
158.2991791908
 20
143.787407917
 30
0.0
 40
1.0
100
AcDbArc
 50
180.0
 51
270.0
  0
ARC
  5
193
330
1F
100
AcDbEntity
  8
0
  6
Continuous
 62
     7
370
    25
100
AcDbCircle
 10
122.2991791908
 20
144.787407917
 30
0.0
 40
1.0
100
AcDbArc
 50
90.0
 51
180.0
  0
ARC
  5
194
330
1F
100
AcDbEntity
  8
0
  6
Continuous
 62
     7
370
    25
100
AcDbCircle
 10
122.2991791908
 20
168.787407917
 30
0.0
 40
1.0
100
AcDbArc
 50
180.0
 51
270.0
  0
ARC
  5
195
330
1F
100
AcDbEntity
  8
0
  6
Continuous
 62
     7
370
    25
100
AcDbCircle
 10
156.2991791908
 20
168.787407917
 30
0.0
 40
1.0
100
AcDbArc
 50
270.0
 51
0.0
  0
ARC
  5
196
330
1F
100
AcDbEntity
  8
0
  6
Continuous
 62
     7
370
    25
100
AcDbCircle
 10
156.2991791908
 20
144.787407917
 30
0.0
 40
1.0
100
AcDbArc
 50
0.0
 51
90.0
  0
LINE
  5
197
330
1F
100
AcDbEntity
  8
0
  6
Continuous
 62
     7
370
    25
100
AcDbLine
 10
128.2991792504
 20
167.7874078574
 30
0.0
 11
122.2991782669
 21
167.7874078574
 31
0.0
  0
LINE
  5
198
330
1F
100
AcDbEntity
  8
0
  6
Continuous
 62
     7
370
    25
100
AcDbLine
 10
156.2991801146
 20
167.7874078574
 30
0.0
 11
150.2991791311
 21
167.7874078574
 31
0.0
  0
LINE
  5
199
330
1F
100
AcDbEntity
  8
0
  6
Continuous
 62
     7
370
    25
100
AcDbLine
 10
150.2991791311
 20
145.7874079766
 30
0.0
 11
156.2991801146
 21
145.7874079766
 31
0.0
  0
LINE
  5
19A
330
1F
100
AcDbEntity
  8
0
  6
Continuous
 62
     7
370
    25
100
AcDbLine
 10
122.2991782669
 20
145.7874079766
 30
0.0
 11
126.2991789225
 21
145.7874079766
 31
0.0
  0
ARC
  5
19B
330
1F
100
AcDbEntity
  8
0
  6
Continuous
 62
     7
370
    25
100
AcDbCircle
 10
126.7574367602
 20
145.987407917
 30
0.0
 40
0.5000000000000107
100
AcDbArc
 50
203.5781784782
 51
270.0
  0
ARC
  5
19C
330
1F
100
AcDbEntity
  8
0
  6
Continuous
 62
     7
370
    25
100
AcDbCircle
 10
127.8409216213
 20
145.987407917
 30
0.0
 40
0.5
100
AcDbArc
 50
270.0
 51
336.4218215218
  0
CIRCLE
  5
19D
330
1F
100
AcDbEntity
  8
0
  6
Continuous
 62
     7
370
    25
100
AcDbCircle
 10
139.2991791908
 20
156.787407917
 30
0.0
 40
14.0
  0
CIRCLE
  5
19E
330
1F
100
AcDbEntity
  8
0
  6
Continuous
 62
     7
370
    25
100
AcDbCircle
 10
139.2991791908
 20
156.787407917
 30
0.0
 40
12.99999999999997
  0
CIRCLE
  5
19F
330
1F
100
AcDbEntity
  8
0
  6
Continuous
 62
     7
370
    25
100
AcDbCircle
 10
139.2991791908
 20
156.787407917
 30
0.0
 40
10.75
  0
CIRCLE
  5
1A0
330
1F
100
AcDbEntity
  8
0
  6
Continuous
 62
     7
370
    25
100
AcDbCircle
 10
139.2991791908
 20
156.787407917
 30
0.0
 40
9.798213046580457
  0
CIRCLE
  5
1A1
330
1F
100
AcDbEntity
  8
0
  6
Continuous
 62
     7
370
    25
100
AcDbCircle
 10
139.2991791908
 20
156.787407917
 30
0.0
 40
9.428250615618282
  0
CIRCLE
  5
1A2
330
1F
100
AcDbEntity
  8
0
  6
Continuous
 62
     7
370
    25
100
AcDbCircle
 10
139.2991791908
 20
156.787407917
 30
0.0
 40
9.315499999999986
  0
CIRCLE
  5
1A3
330
1F
100
AcDbEntity
  8
0
  6
Continuous
 62
     7
370
    25
100
AcDbCircle
 10
139.2991791908
 20
156.787407917
 30
0.0
 40
6.5
  0
LINE
  5
1A4
330
1F
100
AcDbEntity
  8
0
  6
Continuous
 62
     7
370
    25
100
AcDbLine
 10
106.2991793696
 20
170.7874083492
 30
0.0
 11
106.2991793696
 21
142.7874074849
 31
0.0
  0
LINE
  5
1A5
330
1F
100
AcDbEntity
  8
0
  6
Continuous
 62
     7
370
    25
100
AcDbLine
 10
105.299177343
 20
143.7874076488
 30
0.0
 11
105.299177343
 21
169.7874081852
 31
0.0
  0
LINE
  5
1A6
330
1F
100
AcDbEntity
  8
0
  6
Continuous
 62
     7
370
    25
100
AcDbLine
 10
173.2991810385
 20
169.7874081852
 30
0.0
 11
173.2991810385
 21
143.7874076488
 31
0.0
  0
LINE
  5
1A7
330
1F
100
AcDbEntity
  8
0
  6
Continuous
 62
     7
370
    25
100
AcDbLine
 10
172.2991790119
 20
142.7874074849
 30
0.0
 11
172.2991790119
 21
170.7874083492
 31
0.0
  0
LINE
  5
1A8
330
1F
100
AcDbEntity
  8
0
  6
Continuous
 62
     7
370
    25
100
AcDbLine
 10
121.2991799656
 20
143.7874076488
 30
0.0
 11
121.2991799656
 21
169.7874081852
 31
0.0
  0
LINE
  5
1A9
330
1F
100
AcDbEntity
  8
0
  6
Continuous
 62
     7
370
    25
100
AcDbLine
 10
157.2991784159
 20
169.7874081852
 30
0.0
 11
157.2991784159
 21
143.7874076488
 31
0.0
  0
SPLINE
  5
1AA
330
1F
100
AcDbEntity
  8
0
  6
Continuous
 62
     7
370
    25
100
AcDbSpline
210
0.0
220
0.0
230
1.0
 70
     8
 71
     3
 72
    12
 73
     8
 74
     0
 42
0.000000001
 43
0.00000001
 40
0.0
 40
0.0
 40
0.0
 40
0.0
 40
0.2500000000000001
 40
0.2500000000000001
 40
0.5000000000000002
 40
0.5000000000000002
 40
1.0
 40
1.0
 40
1.0
 40
1.0
 10
127.9466648547956
 20
167.3308637663926
 30
0.0
 10
127.9947068254318
 20
167.4058120439403
 30
0.0
 10
128.0314004680789
 20
167.4719954990506
 30
0.0
 10
128.0973911495101
 20
167.5859770044856
 30
0.0
 10
128.1261646376896
 20
167.6338584414651
 30
0.0
 10
128.2066403447076
 20
167.7487819073791
 30
0.0
 10
128.2527700479082
 20
167.7874079170215
 30
0.0
 10
128.2991791907514
 20
167.7874079170215
 30
0.0
  0
SPLINE
  5
1AB
330
1F
100
AcDbEntity
  8
0
  6
Continuous
 62
     7
370
    25
100
AcDbSpline
210
0.0
220
0.0
230
1.0
 70
     8
 71
     3
 72
     8
 73
     4
 74
     0
 42
0.000000001
 43
0.00000001
 40
0.0
 40
0.0
 40
0.0
 40
0.0
 40
1.0
 40
1.0
 40
1.0
 40
1.0
 10
127.7991791907514
 20
166.8308861778911
 30
0.0
 10
127.7991791907514
 20
167.0291265097058
 30
0.0
 10
127.859473675237
 20
167.1948404384834
 30
0.0
 10
127.9466648547956
 20
167.3308637663926
 30
0.0
  0
SPLINE
  5
1AC
330
1F
100
AcDbEntity
  8
0
  6
Continuous
 62
     7
370
    25
100
AcDbSpline
210
0.0
220
0.0
230
1.0
 70
     8
 71
     3
 72
     8
 73
     4
 74
     0
 42
0.000000001
 43
0.00000001
 40
0.0
 40
0.0
 40
0.0
 40
0.0
 40
1.0
 40
1.0
 40
1.0
 40
1.0
 10
127.9466648547955
 20
146.2439520676505
 30
0.0
 10
127.859473675237
 20
146.3799753955597
 30
0.0
 10
127.7991791907514
 20
146.5456893243373
 30
0.0
 10
127.7991791907514
 20
146.7439296561519
 30
0.0
  0
SPLINE
  5
1AD
330
1F
100
AcDbEntity
  8
0
  6
Continuous
 62
     7
370
    25
100
AcDbSpline
210
0.0
220
0.0
230
1.0
 70
     8
 71
     3
 72
    12
 73
     8
 74
     0
 42
0.000000001
 43
0.00000001
 40
0.0
 40
0.0
 40
0.0
 40
0.0
 40
0.2499999999999999
 40
0.2499999999999999
 40
0.4999999999999998
 40
0.4999999999999998
 40
1.0
 40
1.0
 40
1.0
 40
1.0
 10
127.9466648547955
 20
146.2439520676505
 30
0.0
 10
127.9946900724382
 20
146.1690299257503
 30
0.0
 10
128.0313743427131
 20
146.1028664703664
 30
0.0
 10
128.0973482356425
 20
145.9889119423162
 30
0.0
 10
128.1260998682108
 20
145.9410561368555
 30
0.0
 10
128.2066547690008
 20
145.826000841235
 30
0.0
 10
128.2527862456197
 20
145.7874079170215
 30
0.0
 10
128.2991791907514
 20
145.7874079170215
 30
0.0
  0
SPLINE
  5
1AE
330
1F
100
AcDbEntity
  8
0
  6
Continuous
 62
     7
370
    25
100
AcDbSpline
210
0.0
220
0.0
230
1.0
 70
     8
 71
     3
 72
    12
 73
     8
 74
     0
 42
0.000000001
 43
0.00000001
 40
0.0
 40
0.0
 40
0.0
 40
0.0
 40
0.2499999999999999
 40
0.2499999999999999
 40
0.4999999999999998
 40
0.4999999999999998
 40
1.0
 40
1.0
 40
1.0
 40
1.0
 10
150.6516935267073
 20
146.2439520676504
 30
0.0
 10
150.6036515560774
 20
146.1690037901127
 30
0.0
 10
150.5669579134338
 20
146.1028203350099
 30
0.0
 10
150.5009672320091
 20
145.9888388295851
 30
0.0
 10
150.4721937438322
 20
145.9409573926084
 30
0.0
 10
150.3917180368214
 20
145.8260339266944
 30
0.0
 10
150.3455883335767
 20
145.7874079170215
 30
0.0
 10
150.2991791907515
 20
145.7874079170215
 30
0.0
  0
SPLINE
  5
1AF
330
1F
100
AcDbEntity
  8
0
  6
Continuous
 62
     7
370
    25
100
AcDbSpline
210
0.0
220
0.0
230
1.0
 70
     8
 71
     3
 72
     8
 73
     4
 74
     0
 42
0.000000001
 43
0.00000001
 40
0.0
 40
0.0
 40
0.0
 40
0.0
 40
1.0
 40
1.0
 40
1.0
 40
1.0
 10
150.7991791907515
 20
146.7439296561519
 30
0.0
 10
150.7991791907515
 20
146.5456893243373
 30
0.0
 10
150.7388847062658
 20
146.3799753955597
 30
0.0
 10
150.6516935267073
 20
146.2439520676504
 30
0.0
  0
SPLINE
  5
1B0
330
1F
100
AcDbEntity
  8
0
  6
Continuous
 62
     7
370
    25
100
AcDbSpline
210
0.0
220
0.0
230
1.0
 70
     8
 71
     3
 72
     8
 73
     4
 74
     0
 42
0.000000001
 43
0.00000001
 40
0.0
 40
0.0
 40
0.0
 40
0.0
 40
1.0
 40
1.0
 40
1.0
 40
1.0
 10
150.6516935267073
 20
167.3308637663926
 30
0.0
 10
150.7388847062658
 20
167.1948404384833
 30
0.0
 10
150.7991791907515
 20
167.0291265097058
 30
0.0
 10
150.7991791907515
 20
166.8308861778911
 30
0.0
  0
SPLINE
  5
1B1
330
1F
100
AcDbEntity
  8
0
  6
Continuous
 62
     7
370
    25
100
AcDbSpline
210
0.0
220
0.0
230
1.0
 70
     8
 71
     3
 72
    12
 73
     8
 74
     0
 42
0.000000001
 43
0.00000001
 40
0.0
 40
0.0
 40
0.0
 40
0.0
 40
0.2500000000000001
 40
0.2500000000000001
 40
0.5000000000000001
 40
0.5000000000000001
 40
1.0
 40
1.0
 40
1.0
 40
1.0
 10
150.6516935267073
 20
167.3308637663926
 30
0.0
 10
150.6036515560774
 20
167.4058120439304
 30
0.0
 10
150.5669579134338
 20
167.4719954990331
 30
0.0
 10
150.5009672320091
 20
167.5859770044579
 30
0.0
 10
150.4721937438322
 20
167.6338584414347
 30
0.0
 10
150.3917180368214
 20
167.7487819073487
 30
0.0
 10
150.3455883335769
 20
167.7874079170215
 30
0.0
 10
150.2991791907515
 20
167.7874079170215
 30
0.0
  0
ARC
  5
1B2
330
1F
100
AcDbEntity
  8
0
  6
Continuous
 62
     7
370
    25
100
AcDbCircle
 10
148.2991791908
 20
167.287407917
 30
0.0
 40
0.5
100
AcDbArc
 50
0.0
 51
90.0
  0
LINE
  5
1B3
330
1F
100
AcDbEntity
  8
0
  6
Continuous
 62
     7
370
    25
100
AcDbLine
 10
147.9594332594
 20
167.7874078574
 30
0.0
 11
148.2991788033
 21
167.7874078574
 31
0.0
  0
ARC
  5
1B4
330
1F
100
AcDbEntity
  8
0
  6
Continuous
 62
     7
370
    25
100
AcDbCircle
 10
130.2991791908
 20
167.287407917
 30
0.0
 40
0.5
100
AcDbArc
 50
90.0
 51
180.0
  0
LINE
  5
1B5
330
1F
100
AcDbEntity
  8
0
  6
Continuous
 62
     7
370
    25
100
AcDbLine
 10
130.2991795782
 20
167.7874078574
 30
0.0
 11
130.6389251221
 21
167.7874078574
 31
0.0
  0
LINE
  5
1B6
330
1F
100
AcDbEntity
  8
0
  6
Continuous
 62
     7
370
    25
100
AcDbLine
 10
129.7991794962
 20
167.070890178
 30
0.0
 11
129.7991794962
 21
167.2874077755
 31
0.0
  0
LINE
  5
1B7
330
1F
100
AcDbEntity
  8
0
  6
Continuous
 62
     7
370
    25
100
AcDbLine
 10
148.7991788853
 20
167.070890178
 30
0.0
 11
148.7991788853
 21
167.2874077755
 31
0.0
  0
LINE
  5
1B8
330
1F
100
AcDbEntity
  8
0
  6
Continuous
 62
     7
370
    25
100
AcDbLine
 10
148.7991788853
 20
146.2874080586
 30
0.0
 11
148.7991788853
 21
146.503925656
 31
0.0
  0
LINE
  5
1B9
330
1F
100
AcDbEntity
  8
0
  6
Continuous
 62
     7
370
    25
100
AcDbLine
 10
129.7991794962
 20
146.2874080586
 30
0.0
 11
129.7991794962
 21
146.503925656
 31
0.0
  0
ARC
  5
1BA
330
1F
100
AcDbEntity
  8
0
  6
Continuous
 62
     7
370
    25
100
AcDbCircle
 10
130.2991791908
 20
146.287407917
 30
0.0
 40
0.5
100
AcDbArc
 50
180.0
 51
270.0
  0
LINE
  5
1BB
330
1F
100
AcDbEntity
  8
0
  6
Continuous
 62
     7
370
    25
100
AcDbLine
 10
130.6389251221
 20
145.7874079766
 30
0.0
 11
130.2991795782
 21
145.7874079766
 31
0.0
  0
ARC
  5
1BC
330
1F
100
AcDbEntity
  8
0
  6
Continuous
 62
     7
370
    25
100
AcDbCircle
 10
148.2991791908
 20
146.287407917
 30
0.0
 40
0.5
100
AcDbArc
 50
270.0
 51
0.0
  0
LINE
  5
1BD
330
1F
100
AcDbEntity
  8
0
  6
Continuous
 62
     7
370
    25
100
AcDbLine
 10
148.2991788033
 20
145.7874079766
 30
0.0
 11
147.9594332594
 21
145.7874079766
 31
0.0
  0
LINE
  5
1BE
330
1F
100
AcDbEntity
  8
0
  6
Continuous
 62
     7
370
    25
100
AcDbLine
 10
129.7991794962
 20
167.2874077755
 30
0.0
 11
128.7991793323
 21
167.2874077755
 31
0.0
  0
LINE
  5
1BF
330
1F
100
AcDbEntity
  8
0
  6
Continuous
 62
     7
370
    25
100
AcDbLine
 10
128.7991793323
 20
167.7874078574
 30
0.0
 11
128.7991793323
 21
167.2874077755
 31
0.0
  0
LINE
  5
1C0
330
1F
100
AcDbEntity
  8
0
  6
Continuous
 62
     7
370
    25
100
AcDbLine
 10
128.7991793323
 20
167.7874078574
 30
0.0
 11
130.2991795782
 21
167.7874078574
 31
0.0
  0
LINE
  5
1C1
330
1F
100
AcDbEntity
  8
0
  6
Continuous
 62
     7
370
    25
100
AcDbLine
 10
149.7991790492
 20
167.7874078574
 30
0.0
 11
149.7991790492
 21
167.2874077755
 31
0.0
  0
LINE
  5
1C2
330
1F
100
AcDbEntity
  8
0
  6
Continuous
 62
     7
370
    25
100
AcDbLine
 10
149.7991790492
 20
167.2874077755
 30
0.0
 11
148.7991788853
 21
167.2874077755
 31
0.0
  0
LINE
  5
1C3
330
1F
100
AcDbEntity
  8
0
  6
Continuous
 62
     7
370
    25
100
AcDbLine
 10
148.2991788033
 20
167.7874078574
 30
0.0
 11
149.7991790492
 21
167.7874078574
 31
0.0
  0
LINE
  5
1C4
330
1F
100
AcDbEntity
  8
0
  6
Continuous
 62
     7
370
    25
100
AcDbLine
 10
128.7991793323
 20
146.2874080586
 30
0.0
 11
129.7991794962
 21
146.2874080586
 31
0.0
  0
LINE
  5
1C5
330
1F
100
AcDbEntity
  8
0
  6
Continuous
 62
     7
370
    25
100
AcDbLine
 10
148.7991788853
 20
146.2874080586
 30
0.0
 11
149.7991790492
 21
146.2874080586
 31
0.0
  0
LINE
  5
1C6
330
1F
100
AcDbEntity
  8
0
  6
Continuous
 62
     7
370
    25
100
AcDbLine
 10
128.7991793323
 20
145.7874079766
 30
0.0
 11
128.7991793323
 21
146.2874080586
 31
0.0
  0
LINE
  5
1C7
330
1F
100
AcDbEntity
  8
0
  6
Continuous
 62
     7
370
    25
100
AcDbLine
 10
130.2991795782
 20
145.7874079766
 30
0.0
 11
128.7991793323
 21
145.7874079766
 31
0.0
  0
LINE
  5
1C8
330
1F
100
AcDbEntity
  8
0
  6
Continuous
 62
     7
370
    25
100
AcDbLine
 10
149.7991790492
 20
145.7874079766
 30
0.0
 11
149.7991790492
 21
146.2874080586
 31
0.0
  0
LINE
  5
1C9
330
1F
100
AcDbEntity
  8
0
  6
Continuous
 62
     7
370
    25
100
AcDbLine
 10
149.7991790492
 20
145.7874079766
 30
0.0
 11
148.2991788033
 21
145.7874079766
 31
0.0
  0
ARC
  5
1CA
330
1F
100
AcDbEntity
  8
0
  6
Continuous
 62
     7
370
    25
100
AcDbCircle
 10
127.8199735536
 20
167.310182187
 30
0.0
 40
0.4797465722737297
100
AcDbArc
 50
267.5157636109
 51
357.2790461907
  0
ARC
  5
1CB
330
1F
100
AcDbEntity
  8
0
  6
Continuous
 62
     7
370
    25
100
AcDbCircle
 10
150.7783848279
 20
167.310182187
 30
0.0
 40
0.4797465722737297
100
AcDbArc
 50
182.7209538093
 51
272.4842363891
  0
ARC
  5
1CC
330
1F
100
AcDbEntity
  8
0
  6
Continuous
 62
     7
370
    25
100
AcDbCircle
 10
127.8199735536
 20
146.2646336471
 30
0.0
 40
0.4797465722737297
100
AcDbArc
 50
2.7209538093
 51
92.4842363891
  0
ARC
  5
1CD
330
1F
100
AcDbEntity
  8
0
  6
Continuous
 62
     7
370
    25
100
AcDbCircle
 10
150.7783848279
 20
146.2646336471
 30
0.0
 40
0.4797465722737297
100
AcDbArc
 50
87.5157636109
 51
177.2790461907
  0
LINE
  5
1CE
330
1F
100
AcDbEntity
  8
0
  6
Continuous
 62
     7
370
    25
100
AcDbLine
 10
128.7991793323
 20
167.2874077755
 30
0.0
 11
128.2991792504
 21
167.2874077755
 31
0.0
  0
ARC
  5
1CF
330
1F
100
AcDbEntity
  8
0
  6
Continuous
 62
     7
370
    25
100
AcDbCircle
 10
128.7991791908
 20
167.287407917
 30
0.0
 40
0.5
100
AcDbArc
 50
90.0
 51
180.0
  0
LINE
  5
1D0
330
1F
100
AcDbEntity
  8
0
  6
Continuous
 62
     7
370
    25
100
AcDbLine
 10
128.2991792504
 20
165.4476619857
 30
0.0
 11
128.2991792504
 21
167.2874077755
 31
0.0
  0
ARC
  5
1D1
330
1F
100
AcDbEntity
  8
0
  6
Continuous
 62
     7
370
    25
100
AcDbCircle
 10
149.7991791908
 20
167.287407917
 30
0.0
 40
0.5
100
AcDbArc
 50
0.0
 51
90.0
  0
LINE
  5
1D2
330
1F
100
AcDbEntity
  8
0
  6
Continuous
 62
     7
370
    25
100
AcDbLine
 10
150.2991791311
 20
167.2874077755
 30
0.0
 11
149.7991790492
 21
167.2874077755
 31
0.0
  0
LINE
  5
1D3
330
1F
100
AcDbEntity
  8
0
  6
Continuous
 62
     7
370
    25
100
AcDbLine
 10
150.2991791311
 20
165.4476619857
 30
0.0
 11
150.2991791311
 21
167.2874077755
 31
0.0
  0
LINE
  5
1D4
330
1F
100
AcDbEntity
  8
0
  6
Continuous
 62
     7
370
    25
100
AcDbLine
 10
128.2991792504
 20
146.2874080586
 30
0.0
 11
128.7991793323
 21
146.2874080586
 31
0.0
  0
LINE
  5
1D5
330
1F
100
AcDbEntity
  8
0
  6
Continuous
 62
     7
370
    25
100
AcDbLine
 10
128.2991792504
 20
146.2874080586
 30
0.0
 11
128.2991792504
 21
148.1271538483
 31
0.0
  0
LINE
  5
1D6
330
1F
100
AcDbEntity
  8
0
  6
Continuous
 62
     7
370
    25
100
AcDbLine
 10
150.2991791311
 20
146.2874080586
 30
0.0
 11
150.2991791311
 21
148.1271538483
 31
0.0
  0
LINE
  5
1D7
330
1F
100
AcDbEntity
  8
0
  6
Continuous
 62
     7
370
    25
100
AcDbLine
 10
149.7991790492
 20
146.2874080586
 30
0.0
 11
150.2991791311
 21
146.2874080586
 31
0.0
  0
ARC
  5
1D8
330
1F
100
AcDbEntity
  8
0
  6
Continuous
 62
     7
370
    25
100
AcDbCircle
 10
128.7991791908
 20
146.287407917
 30
0.0
 40
0.5
100
AcDbArc
 50
180.0
 51
270.0
  0
ARC
  5
1D9
330
1F
100
AcDbEntity
  8
0
  6
Continuous
 62
     7
370
    25
100
AcDbCircle
 10
149.7991791908
 20
146.287407917
 30
0.0
 40
0.5
100
AcDbArc
 50
270.0
 51
0.0
  0
ARC
  5
1DA
330
1F
100
AcDbEntity
  8
0
  6
Continuous
 62
     7
370
    25
100
AcDbCircle
 10
127.976662316
 20
167.7980615145
 30
0.0
 40
0.4681593065412952
100
AcDbArc
 50
266.3262887358
 51
327.8245327008
  0
ARC
  5
1DB
330
1F
100
AcDbEntity
  8
0
  6
Continuous
 62
     7
370
    25
100
AcDbCircle
 10
150.6216960655
 20
167.7980615145
 30
0.0
 40
0.4681593065412952
100
AcDbArc
 50
212.1754672992
 51
273.6737112642
  0
ARC
  5
1DC
330
1F
100
AcDbEntity
  8
0
  6
Continuous
 62
     7
370
    25
100
AcDbCircle
 10
150.6216960655
 20
145.7767543195
 30
0.0
 40
0.4681593065412952
100
AcDbArc
 50
86.3262887358
 51
147.8245327008
  0
ARC
  5
1DD
330
1F
100
AcDbEntity
  8
0
  6
Continuous
 62
     7
370
    25
100
AcDbCircle
 10
127.976662316
 20
145.7767543195
 30
0.0
 40
0.4681593065412952
100
AcDbArc
 50
32.1754672992
 51
93.6737112642
  0
SPLINE
  5
1DE
330
1F
100
AcDbEntity
  8
0
  6
Continuous
 62
     7
370
    25
100
AcDbSpline
210
0.0
220
0.0
230
1.0
 70
     8
 71
     3
 72
    12
 73
     8
 74
     0
 42
0.000000001
 43
0.00000001
 40
0.0
 40
0.0
 40
0.0
 40
0.0
 40
0.25
 40
0.25
 40
0.5
 40
0.5
 40
1.0
 40
1.0
 40
1.0
 40
1.0
 10
128.3729220227735
 20
167.5487598382837
 30
0.0
 10
128.3956345244826
 20
167.5858032493651
 30
0.0
 10
128.4031470443118
 20
167.6200161506533
 30
0.0
 10
128.404703119011
 20
167.6795483055143
 30
0.0
 10
128.3982762771689
 20
167.7049490365367
 30
0.0
 10
128.3680512768646
 20
167.7663076682657
 30
0.0
 10
128.333355755746
 20
167.7874079170215
 30
0.0
 10
128.2991791907514
 20
167.7874079170215
 30
0.0
  0
SPLINE
  5
1DF
330
1F
100
AcDbEntity
  8
0
  6
Continuous
 62
     7
370
    25
100
AcDbSpline
210
0.0
220
0.0
230
1.0
 70
    24
 71
     3
 72
    12
 73
     8
 74
     0
 42
0.000000001
 43
0.00000001
 40
0.0
 40
0.0
 40
0.0
 40
0.0
 40
0.2499999999999999
 40
0.2499999999999999
 40
0.4999999999999999
 40
0.4999999999999999
 40
1.0
 40
1.0
 40
1.0
 40
1.0
 10
128.7991791907514
 20
167.7874079170215
 30
0.0
 10
128.7991791907514
 20
167.7874079170215
 30
0.0
 10
128.7794562453435
 20
167.7874079170215
 30
0.0
 10
128.7188197805822
 20
167.7874079170215
 30
0.0
 10
128.6775632348939
 20
167.7874079170215
 30
0.0
 10
128.5357899252218
 20
167.7874079170215
 30
0.0
 10
128.4172228800615
 20
167.7874079170215
 30
0.0
 10
128.2991791907514
 20
167.7874079170215
 30
0.0
  0
SPLINE
  5
1E0
330
1F
100
AcDbEntity
  8
0
  6
Continuous
 62
     7
370
    25
100
AcDbSpline
210
0.0
220
0.0
230
1.0
 70
     8
 71
     3
 72
    12
 73
     8
 74
     0
 42
0.000000001
 43
0.00000001
 40
0.0
 40
0.0
 40
0.0
 40
0.0
 40
0.25
 40
0.25
 40
0.5
 40
0.5
 40
1.0
 40
1.0
 40
1.0
 40
1.0
 10
150.2254363587294
 20
167.5487598382837
 30
0.0
 10
150.2027238570213
 20
167.5858032493634
 30
0.0
 10
150.1952113371918
 20
167.6200161506502
 30
0.0
 10
150.1936552624913
 20
167.6795483055092
 30
0.0
 10
150.2000821043323
 20
167.704949036531
 30
0.0
 10
150.2303071046331
 20
167.7663076682599
 30
0.0
 10
150.2650026257471
 20
167.7874079170215
 30
0.0
 10
150.2991791907515
 20
167.7874079170215
 30
0.0
  0
SPLINE
  5
1E1
330
1F
100
AcDbEntity
  8
0
  6
Continuous
 62
     7
370
    25
100
AcDbSpline
210
0.0
220
0.0
230
1.0
 70
    24
 71
     3
 72
    12
 73
     8
 74
     0
 42
0.000000001
 43
0.00000001
 40
0.0
 40
0.0
 40
0.0
 40
0.0
 40
0.2499999999999999
 40
0.2499999999999999
 40
0.4999999999999999
 40
0.4999999999999999
 40
1.0
 40
1.0
 40
1.0
 40
1.0
 10
149.7991791907515
 20
167.7874079170215
 30
0.0
 10
149.7991791907515
 20
167.7874079170215
 30
0.0
 10
149.8189021361594
 20
167.7874079170215
 30
0.0
 10
149.8795386009206
 20
167.7874079170215
 30
0.0
 10
149.920795146609
 20
167.7874079170215
 30
0.0
 10
150.062568456281
 20
167.7874079170215
 30
0.0
 10
150.1811355014414
 20
167.7874079170215
 30
0.0
 10
150.2991791907515
 20
167.7874079170215
 30
0.0
  0
SPLINE
  5
1E2
330
1F
100
AcDbEntity
  8
0
  6
Continuous
 62
     7
370
    25
100
AcDbSpline
210
0.0
220
0.0
230
1.0
 70
     8
 71
     3
 72
    12
 73
     8
 74
     0
 42
0.000000001
 43
0.00000001
 40
0.0
 40
0.0
 40
0.0
 40
0.0
 40
0.2499999999999999
 40
0.2499999999999999
 40
0.4999999999999998
 40
0.4999999999999998
 40
1.0
 40
1.0
 40
1.0
 40
1.0
 10
128.3729220227735
 20
146.0260559957594
 30
0.0
 10
128.3956345244826
 20
145.989012584678
 30
0.0
 10
128.4031470443118
 20
145.9547996833898
 30
0.0
 10
128.404703119011
 20
145.8952675285288
 30
0.0
 10
128.3982762771689
 20
145.8698667975064
 30
0.0
 10
128.3680512768646
 20
145.8085081657774
 30
0.0
 10
128.3333557557464
 20
145.7874079170215
 30
0.0
 10
128.2991791907514
 20
145.7874079170215
 30
0.0
  0
SPLINE
  5
1E3
330
1F
100
AcDbEntity
  8
0
  6
Continuous
 62
     7
370
    25
100
AcDbSpline
210
0.0
220
0.0
230
1.0
 70
    24
 71
     3
 72
    12
 73
     8
 74
     0
 42
0.000000001
 43
0.00000001
 40
0.0
 40
0.0
 40
0.0
 40
0.0
 40
0.2499999999999999
 40
0.2499999999999999
 40
0.4999999999999999
 40
0.4999999999999999
 40
1.0
 40
1.0
 40
1.0
 40
1.0
 10
128.7991791907514
 20
145.7874079170215
 30
0.0
 10
128.7991791907514
 20
145.7874079170215
 30
0.0
 10
128.7794562453435
 20
145.7874079170215
 30
0.0
 10
128.7188197805822
 20
145.7874079170215
 30
0.0
 10
128.6775632348939
 20
145.7874079170215
 30
0.0
 10
128.5357899252218
 20
145.7874079170215
 30
0.0
 10
128.4172228800615
 20
145.7874079170215
 30
0.0
 10
128.2991791907514
 20
145.7874079170215
 30
0.0
  0
SPLINE
  5
1E4
330
1F
100
AcDbEntity
  8
0
  6
Continuous
 62
     7
370
    25
100
AcDbSpline
210
0.0
220
0.0
230
1.0
 70
     8
 71
     3
 72
    12
 73
     8
 74
     0
 42
0.000000001
 43
0.00000001
 40
0.0
 40
0.0
 40
0.0
 40
0.0
 40
0.2500000000000001
 40
0.2500000000000001
 40
0.5000000000000001
 40
0.5000000000000001
 40
1.0
 40
1.0
 40
1.0
 40
1.0
 10
150.2254363587294
 20
146.0260559957594
 30
0.0
 10
150.2027238570213
 20
145.9890125846798
 30
0.0
 10
150.1952113371919
 20
145.954799683393
 30
0.0
 10
150.1936552624913
 20
145.895267528534
 30
0.0
 10
150.2000821043323
 20
145.8698667975121
 30
0.0
 10
150.2303071046331
 20
145.8085081657832
 30
0.0
 10
150.2650026257468
 20
145.7874079170215
 30
0.0
 10
150.2991791907515
 20
145.7874079170215
 30
0.0
  0
SPLINE
  5
1E5
330
1F
100
AcDbEntity
  8
0
  6
Continuous
 62
     7
370
    25
100
AcDbSpline
210
0.0
220
0.0
230
1.0
 70
    24
 71
     3
 72
    12
 73
     8
 74
     0
 42
0.000000001
 43
0.00000001
 40
0.0
 40
0.0
 40
0.0
 40
0.0
 40
0.2499999999999999
 40
0.2499999999999999
 40
0.4999999999999999
 40
0.4999999999999999
 40
1.0
 40
1.0
 40
1.0
 40
1.0
 10
149.7991791907515
 20
145.7874079170215
 30
0.0
 10
149.7991791907515
 20
145.7874079170215
 30
0.0
 10
149.8189021361594
 20
145.7874079170215
 30
0.0
 10
149.8795386009206
 20
145.7874079170215
 30
0.0
 10
149.920795146609
 20
145.7874079170215
 30
0.0
 10
150.062568456281
 20
145.7874079170215
 30
0.0
 10
150.1811355014414
 20
145.7874079170215
 30
0.0
 10
150.2991791907515
 20
145.7874079170215
 30
0.0
  0
LINE
  5
1E6
330
1F
100
AcDbEntity
  8
0
  6
Continuous
 62
     7
370
    25
100
AcDbLine
 10
127.8409219775
 20
145.4874075549
 30
0.0
 11
126.7574371267
 21
145.4874075549
 31
0.0
  0
LINE
  5
1E7
330
1F
100
AcDbEntity
  8
0
  6
Continuous
 62
     7
370
    25
100
AcDbLine
 10
128.2991792504
 20
145.7874079766
 30
0.0
 11
126.2991789225
 21
145.7874079766
 31
0.0
  0
LINE
  5
1E8
330
1F
100
AcDbEntity
  8
0
  6
Continuous
 62
     8
370
    25
100
AcDbLine
 10
120.2991798017
 20
142.7874074849
 30
0.0
 11
120.2991798017
 21
170.7874083492
 31
0.0
  0
LINE
  5
1E9
330
1F
100
AcDbEntity
  8
0
  6
Continuous
 62
     8
370
    25
100
AcDbLine
 10
158.2991785798
 20
170.7874083492
 30
0.0
 11
158.2991785798
 21
142.7874074849
 31
0.0
  0
LINE
  5
1EA
330
1F
100
AcDbEntity
  8
0
  6
Continuous
 62
     8
370
    25
100
AcDbLine
 10
122.2991782669
 20
167.7874078574
 30
0.0
 11
122.2991782669
 21
145.7874079766
 31
0.0
  0
LINE
  5
1EB
330
1F
100
AcDbEntity
  8
0
  6
Continuous
 62
     8
370
    25
100
AcDbLine
 10
156.2991801146
 20
145.7874079766
 30
0.0
 11
156.2991801146
 21
167.7874078574
 31
0.0
  0
LINE
  5
1EC
330
1F
100
AcDbEntity
  8
0
  6
Continuous
 62
     8
370
    25
100
AcDbLine
 10
127.7991791684
 20
164.7717676657
 30
0.0
 11
127.7991791684
 21
166.8308864879
 31
0.0
  0
LINE
  5
1ED
330
1F
100
AcDbEntity
  8
0
  6
Continuous
 62
     8
370
    25
100
AcDbLine
 10
127.7991791684
 20
146.7439293461
 30
0.0
 11
127.7991791684
 21
148.8030481684
 31
0.0
  0
LINE
  5
1EE
330
1F
100
AcDbEntity
  8
0
  6
Continuous
 62
     8
370
    25
100
AcDbLine
 10
150.7991792131
 20
148.8030481684
 30
0.0
 11
150.7991792131
 21
146.7439293461
 31
0.0
  0
LINE
  5
1EF
330
1F
100
AcDbEntity
  8
0
  6
Continuous
 62
     8
370
    25
100
AcDbLine
 10
150.7991792131
 20
166.8308864879
 30
0.0
 11
150.7991792131
 21
164.7717676657
 31
0.0
  0
LINE
  5
1F0
330
1F
100
AcDbEntity
  8
0
  6
Continuous
 62
     8
370
    25
100
AcDbLine
 10
148.7991788853
 20
167.2874077755
 30
0.0
 11
148.5593083743
 21
167.2874077755
 31
0.0
  0
LINE
  5
1F1
330
1F
100
AcDbEntity
  8
0
  6
Continuous
 62
     8
370
    25
100
AcDbLine
 10
130.0390500072
 20
167.2874077755
 30
0.0
 11
129.7991794962
 21
167.2874077755
 31
0.0
  0
LINE
  5
1F2
330
1F
100
AcDbEntity
  8
0
  6
Continuous
 62
     8
370
    25
100
AcDbLine
 10
148.5593083743
 20
146.2874080586
 30
0.0
 11
148.7991788853
 21
146.2874080586
 31
0.0
  0
LINE
  5
1F3
330
1F
100
AcDbEntity
  8
0
  6
Continuous
 62
     8
370
    25
100
AcDbLine
 10
129.7991794962
 20
146.2874080586
 30
0.0
 11
130.0390500072
 21
146.2874080586
 31
0.0
  0
LINE
  5
1F4
330
1F
100
AcDbEntity
  8
0
  6
Continuous
 62
     8
370
    25
100
AcDbLine
 10
128.7991793323
 20
166.0475371006
 30
0.0
 11
128.7991793323
 21
167.2874077755
 31
0.0
  0
LINE
  5
1F5
330
1F
100
AcDbEntity
  8
0
  6
Continuous
 62
     8
370
    25
100
AcDbLine
 10
149.7991790492
 20
166.0475371006
 30
0.0
 11
149.7991790492
 21
167.2874077755
 31
0.0
  0
LINE
  5
1F6
330
1F
100
AcDbEntity
  8
0
  6
Continuous
 62
     8
370
    25
100
AcDbLine
 10
128.7991793323
 20
146.2874080586
 30
0.0
 11
128.7991793323
 21
147.5272787335
 31
0.0
  0
LINE
  5
1F7
330
1F
100
AcDbEntity
  8
0
  6
Continuous
 62
     8
370
    25
100
AcDbLine
 10
149.7991790492
 20
146.2874080586
 30
0.0
 11
149.7991790492
 21
147.5272787335
 31
0.0
  0
INSERT
  5
203
330
1F
100
AcDbEntity
  8
0
  6
Continuous
 62
     7
370
    18
100
AcDbBlockReference
  2
SW_CENTERMARKSYMBOL_1
 10
139.2991791908
 20
156.787407917
 30
0.0
  0
ARC
  5
204
330
1F
100
AcDbEntity
  8
0
  6
Continuous
 62
     7
370
    18
100
AcDbCircle
 10
139.2991791908
 20
156.787407917
 30
0.0
 40
10.43039212103399
100
AcDbArc
 50
75.0
 51
345.0
  0
ENDSEC
  0
SECTION
  2
OBJECTS
  0
DICTIONARY
  5
C
330
0
100
AcDbDictionary
281
     1
  3
ACAD_GROUP
350
D
  3
ACAD_LAYOUT
350
1A
  3
ACAD_MLINESTYLE
350
17
  3
ACAD_PLOTSETTINGS
350
19
  3
ACAD_PLOTSTYLENAME
350
E
  3
ACAD_SCALELIST
350
47
  0
DICTIONARY
  5
D
102
{ACAD_REACTORS
330
C
102
}
330
C
100
AcDbDictionary
281
     1
  0
DICTIONARY
  5
1A
102
{ACAD_REACTORS
330
C
102
}
330
C
100
AcDbDictionary
281
     1
  3
Layout1
350
1E
  3
Layout2
350
26
  3
Model
350
22
  0
DICTIONARY
  5
17
102
{ACAD_REACTORS
330
C
102
}
330
C
100
AcDbDictionary
281
     1
  3
Standard
350
18
  0
DICTIONARY
  5
19
102
{ACAD_REACTORS
330
C
102
}
330
C
100
AcDbDictionary
281
     1
  0
ACDBDICTIONARYWDFLT
  5
E
102
{ACAD_REACTORS
330
C
102
}
330
C
100
AcDbDictionary
281
     1
  3
Normal
350
F
100
AcDbDictionaryWithDefault
340
F
  0
DICTIONARY
  5
47
102
{ACAD_REACTORS
330
C
102
}
330
C
100
AcDbDictionary
281
     1
  3
A0
350
48
  3
A1
350
49
  3
A2
350
4A
  3
A3
350
4B
  3
A4
350
4C
  3
A5
350
4D
  3
A6
350
4E
  3
A7
350
4F
  3
A8
350
50
  3
A9
350
51
  3
B0
350
52
  3
B1
350
53
  3
B2
350
54
  3
B3
350
55
  3
B4
350
56
  3
B5
350
57
  3
B6
350
58
  3
B7
350
59
  3
B8
350
5A
  3
B9
350
5B
  3
C0
350
5C
  3
C1
350
5D
  3
C2
350
5E
  3
C3
350
5F
  3
C4
350
60
  3
C5
350
61
  3
C6
350
62
  3
C7
350
63
  3
C8
350
64
  3
C9
350
65
  3
D0
350
66
  3
D1
350
67
  3
D2
350
68
  0
LAYOUT
  5
1E
102
{ACAD_REACTORS
330
1A
102
}
330
1A
100
AcDbPlotSettings
  1

  2
none_device
  4

  6

 40
0.0
 41
0.0
 42
0.0
 43
0.0
 44
0.0
 45
0.0
 46
0.0
 47
0.0
 48
0.0
 49
0.0
140
0.0
141
0.0
142
1.0
143
1.0
 70
   688
 72
     1
 73
     0
 74
     5
  7

 75
    16
147
1.0
148
0.0
149
0.0
100
AcDbLayout
  1
Layout1
 70
     1
 71
     1
 10
0.0
 20
0.0
 11
420.0
 21
297.0
 12
0.0
 22
0.0
 32
0.0
 14
1.0000000000E+20
 24
1.0000000000E+20
 34
1.0000000000E+20
 15
-1.0000000000E+20
 25
-1.0000000000E+20
 35
-1.0000000000E+20
146
0.0
 13
0.0
 23
0.0
 33
0.0
 16
1.0
 26
0.0
 36
0.0
 17
0.0
 27
1.0
 37
0.0
 76
     0
330
1B
  0
LAYOUT
  5
26
102
{ACAD_REACTORS
330
1A
102
}
330
1A
100
AcDbPlotSettings
  1

  2
none_device
  4

  6

 40
0.0
 41
0.0
 42
0.0
 43
0.0
 44
0.0
 45
0.0
 46
0.0
 47
0.0
 48
0.0
 49
0.0
140
0.0
141
0.0
142
1.0
143
1.0
 70
   688
 72
     1
 73
     0
 74
     5
  7

 75
    16
147
1.0
148
0.0
149
0.0
100
AcDbLayout
  1
Layout2
 70
     1
 71
     2
 10
0.0
 20
0.0
 11
0.0
 21
0.0
 12
0.0
 22
0.0
 32
0.0
 14
0.0
 24
0.0
 34
0.0
 15
0.0
 25
0.0
 35
0.0
146
0.0
 13
0.0
 23
0.0
 33
0.0
 16
1.0
 26
0.0
 36
0.0
 17
0.0
 27
1.0
 37
0.0
 76
     0
330
23
  0
LAYOUT
  5
22
102
{ACAD_REACTORS
330
1A
102
}
330
1A
100
AcDbPlotSettings
  1

  2
none_device
  4
Letter_(8.50_x_11.00_Inches)
  6

 40
6.35
 41
6.35
 42
6.35000508
 43
6.35000508
 44
215.9
 45
279.4
 46
0.0
 47
0.0
 48
0.0
 49
0.0
140
0.0
141
0.0
142
1.0
143
1.0
 70
  1712
 72
     1
 73
     0
 74
     0
  7

 75
     0
147
1.0
148
0.0
149
0.0
100
AcDbLayout
  1
Model
 70
     1
 71
     0
 10
0.0
 20
0.0
 11
431.8
 21
279.4
 12
0.0
 22
0.0
 32
0.0
 14
0.0
 24
0.0
 34
0.0
 15
431.8
 25
279.4
 35
0.0
146
0.0
 13
0.0
 23
0.0
 33
0.0
 16
1.0
 26
0.0
 36
0.0
 17
0.0
 27
1.0
 37
0.0
 76
     0
330
1F
331
29
  0
MLINESTYLE
  5
18
102
{ACAD_REACTORS
330
17
102
}
330
17
100
AcDbMlineStyle
  2
Standard
 70
     0
  3

 62
   256
 51
90.0
 52
90.0
 71
     2
 49
0.5
 62
   256
  6
BYLAYER
 49
-0.5
 62
   256
  6
BYLAYER
  0
ACDBPLACEHOLDER
  5
F
102
{ACAD_REACTORS
330
E
102
}
330
E
  0
SCALE
  5
48
102
{ACAD_REACTORS
330
47
102
}
330
47
100
AcDbScale
 70
     0
300
1:1
140
1.0
141
1.0
290
     1
  0
SCALE
  5
49
102
{ACAD_REACTORS
330
47
102
}
330
47
100
AcDbScale
 70
     0
300
1:2
140
1.0
141
2.0
290
     0
  0
SCALE
  5
4A
102
{ACAD_REACTORS
330
47
102
}
330
47
100
AcDbScale
 70
     0
300
1:4
140
1.0
141
4.0
290
     0
  0
SCALE
  5
4B
102
{ACAD_REACTORS
330
47
102
}
330
47
100
AcDbScale
 70
     0
300
1:5
140
1.0
141
5.0
290
     0
  0
SCALE
  5
4C
102
{ACAD_REACTORS
330
47
102
}
330
47
100
AcDbScale
 70
     0
300
1:8
140
1.0
141
8.0
290
     0
  0
SCALE
  5
4D
102
{ACAD_REACTORS
330
47
102
}
330
47
100
AcDbScale
 70
     0
300
1:10
140
1.0
141
10.0
290
     0
  0
SCALE
  5
4E
102
{ACAD_REACTORS
330
47
102
}
330
47
100
AcDbScale
 70
     0
300
1:16
140
1.0
141
16.0
290
     0
  0
SCALE
  5
4F
102
{ACAD_REACTORS
330
47
102
}
330
47
100
AcDbScale
 70
     0
300
1:20
140
1.0
141
20.0
290
     0
  0
SCALE
  5
50
102
{ACAD_REACTORS
330
47
102
}
330
47
100
AcDbScale
 70
     0
300
1:30
140
1.0
141
30.0
290
     0
  0
SCALE
  5
51
102
{ACAD_REACTORS
330
47
102
}
330
47
100
AcDbScale
 70
     0
300
1:40
140
1.0
141
40.0
290
     0
  0
SCALE
  5
52
102
{ACAD_REACTORS
330
47
102
}
330
47
100
AcDbScale
 70
     0
300
1:50
140
1.0
141
50.0
290
     0
  0
SCALE
  5
53
102
{ACAD_REACTORS
330
47
102
}
330
47
100
AcDbScale
 70
     0
300
1:100
140
1.0
141
100.0
290
     0
  0
SCALE
  5
54
102
{ACAD_REACTORS
330
47
102
}
330
47
100
AcDbScale
 70
     0
300
2:1
140
2.0
141
1.0
290
     0
  0
SCALE
  5
55
102
{ACAD_REACTORS
330
47
102
}
330
47
100
AcDbScale
 70
     0
300
4:1
140
4.0
141
1.0
290
     0
  0
SCALE
  5
56
102
{ACAD_REACTORS
330
47
102
}
330
47
100
AcDbScale
 70
     0
300
8:1
140
8.0
141
1.0
290
     0
  0
SCALE
  5
57
102
{ACAD_REACTORS
330
47
102
}
330
47
100
AcDbScale
 70
     0
300
10:1
140
10.0
141
1.0
290
     0
  0
SCALE
  5
58
102
{ACAD_REACTORS
330
47
102
}
330
47
100
AcDbScale
 70
     0
300
100:1
140
100.0
141
1.0
290
     0
  0
SCALE
  5
59
102
{ACAD_REACTORS
330
47
102
}
330
47
100
AcDbScale
 70
     0
300
1/128" = 1'-0"
140
0.0078125
141
12.0
290
     0
  0
SCALE
  5
5A
102
{ACAD_REACTORS
330
47
102
}
330
47
100
AcDbScale
 70
     0
300
1/64" = 1'-0"
140
0.015625
141
12.0
290
     0
  0
SCALE
  5
5B
102
{ACAD_REACTORS
330
47
102
}
330
47
100
AcDbScale
 70
     0
300
1/32" = 1'-0"
140
0.03125
141
12.0
290
     0
  0
SCALE
  5
5C
102
{ACAD_REACTORS
330
47
102
}
330
47
100
AcDbScale
 70
     0
300
1/16" = 1'-0"
140
0.0625
141
12.0
290
     0
  0
SCALE
  5
5D
102
{ACAD_REACTORS
330
47
102
}
330
47
100
AcDbScale
 70
     0
300
3/32" = 1'-0"
140
0.09375
141
12.0
290
     0
  0
SCALE
  5
5E
102
{ACAD_REACTORS
330
47
102
}
330
47
100
AcDbScale
 70
     0
300
1/8" = 1'-0"
140
0.125
141
12.0
290
     0
  0
SCALE
  5
5F
102
{ACAD_REACTORS
330
47
102
}
330
47
100
AcDbScale
 70
     0
300
3/16" = 1'-0"
140
0.1875
141
12.0
290
     0
  0
SCALE
  5
60
102
{ACAD_REACTORS
330
47
102
}
330
47
100
AcDbScale
 70
     0
300
1/4" = 1'-0"
140
0.25
141
12.0
290
     0
  0
SCALE
  5
61
102
{ACAD_REACTORS
330
47
102
}
330
47
100
AcDbScale
 70
     0
300
3/8" = 1'-0"
140
0.375
141
12.0
290
     0
  0
SCALE
  5
62
102
{ACAD_REACTORS
330
47
102
}
330
47
100
AcDbScale
 70
     0
300
1/2" = 1'-0"
140
0.5
141
12.0
290
     0
  0
SCALE
  5
63
102
{ACAD_REACTORS
330
47
102
}
330
47
100
AcDbScale
 70
     0
300
3/4" = 1'-0"
140
0.75
141
12.0
290
     0
  0
SCALE
  5
64
102
{ACAD_REACTORS
330
47
102
}
330
47
100
AcDbScale
 70
     0
300
1" = 1'-0"
140
1.0
141
12.0
290
     0
  0
SCALE
  5
65
102
{ACAD_REACTORS
330
47
102
}
330
47
100
AcDbScale
 70
     0
300
1-1/2" = 1'-0"
140
1.5
141
12.0
290
     0
  0
SCALE
  5
66
102
{ACAD_REACTORS
330
47
102
}
330
47
100
AcDbScale
 70
     0
300
3" = 1'-0"
140
3.0
141
12.0
290
     0
  0
SCALE
  5
67
102
{ACAD_REACTORS
330
47
102
}
330
47
100
AcDbScale
 70
     0
300
6" = 1'-0"
140
6.0
141
12.0
290
     0
  0
SCALE
  5
68
102
{ACAD_REACTORS
330
47
102
}
330
47
100
AcDbScale
 70
     0
300
1'-0" = 1'-0"
140
12.0
141
12.0
290
     0
  0
ENDSEC
  0
EOF
