  0
SECTION
  2
HEADER
  9
$ACADVER
  1
AC1015
  9
$ACADMAINTVER
 70
     6
  9
$DWGCODEPAGE
  3
DOS932
  9
$INSBASE
 10
0.0
 20
0.0
 30
0.0
  9
$EXTMIN
 10
0.0
 20
0.0
 30
0.0
  9
$EXTMAX
 10
431.8
 20
279.4
 30
0.0
  9
$LIMMIN
 10
0.0
 20
0.0
  9
$LIMMAX
 10
431.8
 20
279.4
  9
$ORTHOMODE
 70
     0
  9
$REGENMODE
 70
     1
  9
$FILLMODE
 70
     1
  9
$QTEXTMODE
 70
     0
  9
$MIRRTEXT
 70
     1
  9
$LTSCALE
 40
1.0
  9
$ATTMODE
 70
     1
  9
$TEXTSIZE
 40
3.5
  9
$TRACEWID
 40
1.0
  9
$TEXTSTYLE
  7
Standard
  9
$CLAYER
  8
0
  9
$CELTYPE
  6
ByLayer
  9
$CECOLOR
 62
   256
  9
$CELTSCALE
 40
1.0
  9
$DISPSILH
 70
     0
  9
$DIMSCALE
 40
1.0
  9
$DIMASZ
 40
3.302
  9
$DIMEXO
 40
1.0
  9
$DIMDLI
 40
3.75
  9
$DIMRND
 40
0.0
  9
$DIMDLE
 40
0.0
  9
$DIMEXE
 40
1.0
  9
$DIMTP
 40
0.0
  9
$DIMTM
 40
0.0
  9
$DIMTXT
 40
3.5
  9
$DIMCEN
 40
2.5
  9
$DIMTSZ
 40
0.0
  9
$DIMTOL
 70
     0
  9
$DIMLIM
 70
     0
  9
$DIMTIH
 70
     1
  9
$DIMTOH
 70
     1
  9
$DIMSE1
 70
     0
  9
$DIMSE2
 70
     0
  9
$DIMTAD
 70
     1
  9
$DIMZIN
 70
     1
  9
$DIMBLK
  1

  9
$DIMASO
 70
     1
  9
$DIMSHO
 70
     1
  9
$DIMPOST
  1

  9
$DIMAPOST
  1

  9
$DIMALT
 70
     0
  9
$DIMALTD
 70
     3
  9
$DIMALTF
 40
0.0393700787
  9
$DIMLFAC
 40
1.0
  9
$DIMTOFL
 70
     1
  9
$DIMTVP
 40
0.0
  9
$DIMTIX
 70
     0
  9
$DIMSOXD
 70
     0
  9
$DIMSAH
 70
     0
  9
$DIMBLK1
  1

  9
$DIMBLK2
  1

  9
$DIMSTYLE
  2
ISO-25
  9
$DIMCLRD
 70
     0
  9
$DIMCLRE
 70
     0
  9
$DIMCLRT
 70
     0
  9
$DIMTFAC
 40
1.0
  9
$DIMGAP
 40
1.524
  9
$DIMJUST
 70
     0
  9
$DIMSD1
 70
     0
  9
$DIMSD2
 70
     0
  9
$DIMTOLJ
 70
     0
  9
$DIMTZIN
 70
     1
  9
$DIMALTZ
 70
     0
  9
$DIMALTTZ
 70
     0
  9
$DIMUPT
 70
     0
  9
$DIMDEC
 70
     2
  9
$DIMTDEC
 70
     2
  9
$DIMALTU
 70
     2
  9
$DIMALTTD
 70
     3
  9
$DIMTXSTY
  7
Standard
  9
$DIMAUNIT
 70
     0
  9
$DIMADEC
 70
     2
  9
$DIMALTRND
 40
0.0
  9
$DIMAZIN
 70
     0
  9
$DIMDSEP
 70
    44
  9
$DIMATFIT
 70
     3
  9
$DIMFRAC
 70
     0
  9
$DIMLDRBLK
  1

  9
$DIMLUNIT
 70
     2
  9
$DIMLWD
 70
    -2
  9
$DIMLWE
 70
    -2
  9
$DIMTMOVE
 70
     0
  9
$LUNITS
 70
     2
  9
$LUPREC
 70
     2
  9
$SKETCHINC
 40
1.0
  9
$FILLETRAD
 40
10.0
  9
$AUNITS
 70
     0
  9
$AUPREC
 70
     2
  9
$MENU
  1
.
  9
$ELEVATION
 40
0.0
  9
$PELEVATION
 40
0.0
  9
$THICKNESS
 40
0.0
  9
$LIMCHECK
 70
     0
  9
$CHAMFERA
 40
0.0
  9
$CHAMFERB
 40
0.0
  9
$CHAMFERC
 40
0.0
  9
$CHAMFERD
 40
0.0
  9
$SKPOLY
 70
     0
  9
$TDCREATE
 40
2459229.386419294
  9
$TDUCREATE
 40
2459229.011419294
  9
$TDUPDATE
 40
2459229.386419838
  9
$TDUUPDATE
 40
2459229.011419838
  9
$TDINDWG
 40
0.0000000116
  9
$TDUSRTIMER
 40
0.0000000116
  9
$USRTIMER
 70
     1
  9
$ANGBASE
 50
0.0
  9
$ANGDIR
 70
     0
  9
$PDMODE
 70
     0
  9
$PDSIZE
 40
-1.0
  9
$PLINEWID
 40
0.0
  9
$SPLFRAME
 70
     0
  9
$SPLINETYPE
 70
     6
  9
$SPLINESEGS
 70
     8
  9
$HANDSEED
  5
1E1
  9
$SURFTAB1
 70
     6
  9
$SURFTAB2
 70
     6
  9
$SURFTYPE
 70
     6
  9
$SURFU
 70
     6
  9
$SURFV
 70
     6
  9
$UCSBASE
  2

  9
$UCSNAME
  2

  9
$UCSORG
 10
0.0
 20
0.0
 30
0.0
  9
$UCSXDIR
 10
1.0
 20
0.0
 30
0.0
  9
$UCSYDIR
 10
0.0
 20
1.0
 30
0.0
  9
$UCSORTHOREF
  2

  9
$UCSORTHOVIEW
 70
     0
  9
$UCSORGTOP
 10
0.0
 20
0.0
 30
0.0
  9
$UCSORGBOTTOM
 10
0.0
 20
0.0
 30
0.0
  9
$UCSORGLEFT
 10
0.0
 20
0.0
 30
0.0
  9
$UCSORGRIGHT
 10
0.0
 20
0.0
 30
0.0
  9
$UCSORGFRONT
 10
0.0
 20
0.0
 30
0.0
  9
$UCSORGBACK
 10
0.0
 20
0.0
 30
0.0
  9
$PUCSBASE
  2

  9
$PUCSNAME
  2

  9
$PUCSORG
 10
0.0
 20
0.0
 30
0.0
  9
$PUCSXDIR
 10
1.0
 20
0.0
 30
0.0
  9
$PUCSYDIR
 10
0.0
 20
1.0
 30
0.0
  9
$PUCSORTHOREF
  2

  9
$PUCSORTHOVIEW
 70
     0
  9
$PUCSORGTOP
 10
0.0
 20
0.0
 30
0.0
  9
$PUCSORGBOTTOM
 10
0.0
 20
0.0
 30
0.0
  9
$PUCSORGLEFT
 10
0.0
 20
0.0
 30
0.0
  9
$PUCSORGRIGHT
 10
0.0
 20
0.0
 30
0.0
  9
$PUCSORGFRONT
 10
0.0
 20
0.0
 30
0.0
  9
$PUCSORGBACK
 10
0.0
 20
0.0
 30
0.0
  9
$USERI1
 70
     0
  9
$USERI2
 70
     0
  9
$USERI3
 70
     0
  9
$USERI4
 70
     0
  9
$USERI5
 70
     0
  9
$USERR1
 40
0.0
  9
$USERR2
 40
0.0
  9
$USERR3
 40
0.0
  9
$USERR4
 40
0.0
  9
$USERR5
 40
0.0
  9
$WORLDVIEW
 70
     1
  9
$SHADEDGE
 70
     3
  9
$SHADEDIF
 70
    70
  9
$TILEMODE
 70
     1
  9
$MAXACTVP
 70
    64
  9
$PINSBASE
 10
0.0
 20
0.0
 30
0.0
  9
$PLIMCHECK
 70
     0
  9
$PEXTMIN
 10
1.0000000000E+20
 20
1.0000000000E+20
 30
1.0000000000E+20
  9
$PEXTMAX
 10
-1.0000000000E+20
 20
-1.0000000000E+20
 30
-1.0000000000E+20
  9
$PLIMMIN
 10
0.0
 20
0.0
  9
$PLIMMAX
 10
420.0
 20
297.0
  9
$UNITMODE
 70
     0
  9
$VISRETAIN
 70
     1
  9
$PLINEGEN
 70
     0
  9
$PSLTSCALE
 70
     1
  9
$TREEDEPTH
 70
  3020
  9
$CMLSTYLE
  2
Standard
  9
$CMLJUST
 70
     0
  9
$CMLSCALE
 40
20.0
  9
$PROXYGRAPHICS
 70
     1
  9
$MEASUREMENT
 70
     1
  9
$CELWEIGHT
370
    -1
  9
$ENDCAPS
280
     0
  9
$JOINSTYLE
280
     0
  9
$LWDISPLAY
290
     1
  9
$INSUNITS
 70
     4
  9
$HYPERLINKBASE
  1

  9
$STYLESHEET
  1

  9
$XEDIT
290
     1
  9
$CEPSNTYPE
380
     0
  9
$PSTYLEMODE
290
     1
  9
$FINGERPRINTGUID
  2
{E23D6546-3348-47E5-86CA-F5216B1408C7}
  9
$VERSIONGUID
  2
{FAEB1C32-E019-11D5-929B-00C0DF256EC4}
  9
$EXTNAMES
290
     1
  9
$PSVPSCALE
 40
0.0
  9
$OLESTARTUP
290
     0
  0
ENDSEC
  0
SECTION
  2
CLASSES
  0
CLASS
  1
ACDBDICTIONARYWDFLT
  2
AcDbDictionaryWithDefault
  3
ObjectDBX Classes
 90
        0
280
     0
281
     0
  0
CLASS
  1
VISUALSTYLE
  2
AcDbVisualStyle
  3
ObjectDBX Classes
 90
     4095
280
     0
281
     0
  0
CLASS
  1
MATERIAL
  2
AcDbMaterial
  3
ObjectDBX Classes
 90
     1153
280
     0
281
     0
  0
CLASS
  1
SCALE
  2
AcDbScale
  3
ObjectDBX Classes
 90
     1153
280
     0
281
     0
  0
CLASS
  1
TABLESTYLE
  2
AcDbTableStyle
  3
ObjectDBX Classes
 90
     4095
280
     0
281
     0
  0
CLASS
  1
MLEADERSTYLE
  2
AcDbMLeaderStyle
  3
ACDB_MLEADERSTYLE_CLASS
 90
     4095
280
     0
281
     0
  0
CLASS
  1
SUN
  2
AcDbSun
  3
SCENEOE
 90
     1153
280
     0
281
     0
  0
CLASS
  1
ACDBPLACEHOLDER
  2
AcDbPlaceHolder
  3
ObjectDBX Classes
 90
        0
280
     0
281
     0
  0
CLASS
  1
LAYOUT
  2
AcDbLayout
  3
ObjectDBX Classes
 90
        0
280
     0
281
     0
  0
ENDSEC
  0
SECTION
  2
TABLES
  0
TABLE
  2
VPORT
  5
8
330
0
100
AcDbSymbolTable
 70
     1
  0
VPORT
  5
29
330
8
100
AcDbSymbolTableRecord
100
AcDbViewportTableRecord
  2
*Active
 70
     0
 10
0.0
 20
0.0
 11
1.0
 21
1.0
 12
215.9
 22
139.7
 13
0.0
 23
0.0
 14
10.0
 24
10.0
 15
10.0
 25
10.0
 16
0.0
 26
0.0
 36
1.0
 17
0.0
 27
0.0
 37
0.0
 40
279.4
 41
1.5454545455
 42
50.0
 43
0.0
 44
0.0
 50
0.0
 51
0.0
 71
     0
 72
  2000
 73
     1
 74
     3
 75
     0
 76
     0
 77
     0
 78
     0
281
     0
 65
     1
110
0.0
120
0.0
130
0.0
111
1.0
121
0.0
131
0.0
112
0.0
122
1.0
132
0.0
 79
     0
146
0.0
  0
ENDTAB
  0
TABLE
  2
LTYPE
  5
5
330
0
100
AcDbSymbolTable
 70
     6
  0
LTYPE
  5
14
330
5
100
AcDbSymbolTableRecord
100
AcDbLinetypeTableRecord
  2
ByBlock
 70
     0
  3

 72
    65
 73
     0
 40
0.0
  0
LTYPE
  5
15
330
5
100
AcDbSymbolTableRecord
100
AcDbLinetypeTableRecord
  2
ByLayer
 70
     0
  3

 72
    65
 73
     0
 40
0.0
  0
LTYPE
  5
16
330
5
100
AcDbSymbolTableRecord
100
AcDbLinetypeTableRecord
  2
Continuous
 70
     0
  3
Solid line
 72
    65
 73
     0
 40
0.0
  0
LTYPE
  5
6E
330
5
100
AcDbSymbolTableRecord
100
AcDbLinetypeTableRecord
  2
HIDDEN
 70
     0
  3
Hidden __ __ __ __ __ __ __ __ __ __ __ __ __ __
 72
    65
 73
     2
 40
1.905
 49
1.27
 74
     0
 49
-0.635
 74
     0
  0
LTYPE
  5
6F
330
5
100
AcDbSymbolTableRecord
100
AcDbLinetypeTableRecord
  2
PHANTOM
 70
     0
  3
Phantom ______  __  __  ______  __  __  ______
 72
    65
 73
     6
 40
12.7
 49
6.35
 74
     0
 49
-1.27
 74
     0
 49
1.27
 74
     0
 49
-1.27
 74
     0
 49
1.27
 74
     0
 49
-1.27
 74
     0
  0
LTYPE
  5
70
330
5
100
AcDbSymbolTableRecord
100
AcDbLinetypeTableRecord
  2
CENTER
 70
     0
  3
Center ____ _ ____ _ ____ _ ____ _ ____ _ ____
 72
    65
 73
     4
 40
10.16
 49
6.35
 74
     0
 49
-1.27
 74
     0
 49
1.27
 74
     0
 49
-1.27
 74
     0
  0
LTYPE
  5
71
330
5
100
AcDbSymbolTableRecord
100
AcDbLinetypeTableRecord
  2
CENTERX2
 70
     0
  3
Center (2x) ________  __  ________  __  _____
 72
    65
 73
     4
 40
20.32
 49
12.7
 74
     0
 49
-2.54
 74
     0
 49
2.54
 74
     0
 49
-2.54
 74
     0
  0
LTYPE
  5
72
330
5
100
AcDbSymbolTableRecord
100
AcDbLinetypeTableRecord
  2
DOT2
 70
     0
  3
Dot (.5x) ........................................
 72
    65
 73
     2
 40
0.635
 49
0.0
 74
     0
 49
-0.635
 74
     0
  0
ENDTAB
  0
TABLE
  2
LAYER
  5
2
330
0
100
AcDbSymbolTable
 70
     1
  0
LAYER
  5
10
330
2
100
AcDbSymbolTableRecord
100
AcDbLayerTableRecord
  2
0
 70
     0
 62
     7
  6
Continuous
370
    -3
390
F
  0
ENDTAB
  0
TABLE
  2
STYLE
  5
3
330
0
100
AcDbSymbolTable
 70
     2
  0
STYLE
  5
11
330
3
100
AcDbSymbolTableRecord
100
AcDbTextStyleTableRecord
  2
Standard
 70
     0
 40
0.0
 41
1.0
 50
0.0
 71
     0
 42
3.5
  3
txt
  4
bigfont
  0
STYLE
  5
73
330
3
100
AcDbSymbolTableRecord
100
AcDbTextStyleTableRecord
  2
SLDTEXTSTYLE0
 70
     0
 40
0.0
 41
0.7
 50
0.0
 71
     0
 42
3.5
  3
TXT
  4
bigfont
  0
ENDTAB
  0
TABLE
  2
VIEW
  5
6
330
0
100
AcDbSymbolTable
 70
     0
  0
ENDTAB
  0
TABLE
  2
UCS
  5
7
330
0
100
AcDbSymbolTable
 70
     0
  0
ENDTAB
  0
TABLE
  2
APPID
  5
9
330
0
100
AcDbSymbolTable
 70
     1
  0
APPID
  5
12
330
9
100
AcDbSymbolTableRecord
100
AcDbRegAppTableRecord
  2
ACAD
 70
     0
  0
ENDTAB
  0
TABLE
  2
DIMSTYLE
  5
A
330
0
100
AcDbSymbolTable
 70
     1
100
AcDbDimStyleTable
  0
DIMSTYLE
105
27
330
A
100
AcDbSymbolTableRecord
100
AcDbDimStyleTableRecord
  2
ISO-25
 70
     0
 41
2.5
 42
0.625
 43
3.75
 44
1.25
 73
     0
 74
     0
 77
     1
 78
     8
140
2.5
141
2.5
143
0.0393700787
147
0.625
171
     3
172
     1
178
     0
271
     2
272
     2
274
     3
278
    44
283
     0
284
     8
340
11
  0
ENDTAB
  0
TABLE
  2
BLOCK_RECORD
  5
1
330
0
100
AcDbSymbolTable
 70
     3
  0
BLOCK_RECORD
  5
1F
330
1
100
AcDbSymbolTableRecord
100
AcDbBlockTableRecord
  2
*Model_Space
340
22
  0
BLOCK_RECORD
  5
1B
330
1
100
AcDbSymbolTableRecord
100
AcDbBlockTableRecord
  2
*Paper_Space
340
1E
  0
BLOCK_RECORD
  5
23
330
1
100
AcDbSymbolTableRecord
100
AcDbBlockTableRecord
  2
*Paper_Space0
340
26
  0
BLOCK_RECORD
  5
164
330
1
100
AcDbSymbolTableRecord
100
AcDbBlockTableRecord
  2
SW_CENTERMARKSYMBOL_0
340
0
102
{BLKREFS
331
16F
102
}
  0
BLOCK_RECORD
  5
1D4
330
1
100
AcDbSymbolTableRecord
100
AcDbBlockTableRecord
  2
SW_CENTERMARKSYMBOL_1
340
0
102
{BLKREFS
331
1DF
102
}
  0
ENDTAB
  0
ENDSEC
  0
SECTION
  2
BLOCKS
  0
BLOCK
  5
20
330
1F
100
AcDbEntity
  8
0
100
AcDbBlockBegin
  2
*Model_Space
 70
     0
 10
0.0
 20
0.0
 30
0.0
  3
*Model_Space
  1

  0
ENDBLK
  5
21
330
1F
100
AcDbEntity
  8
0
100
AcDbBlockEnd
  0
BLOCK
  5
1C
330
1B
100
AcDbEntity
 67
     1
  8
0
100
AcDbBlockBegin
  2
*Paper_Space
 70
     0
 10
0.0
 20
0.0
 30
0.0
  3
*Paper_Space
  1

  0
ENDBLK
  5
1D
330
1B
100
AcDbEntity
 67
     1
  8
0
100
AcDbBlockEnd
  0
BLOCK
  5
24
330
23
100
AcDbEntity
  8
0
100
AcDbBlockBegin
  2
*Paper_Space0
 70
     0
 10
0.0
 20
0.0
 30
0.0
  3
*Paper_Space0
  1

  0
ENDBLK
  5
25
330
23
100
AcDbEntity
  8
0
100
AcDbBlockEnd
  0
BLOCK
  5
165
330
164
100
AcDbEntity
  8
0
100
AcDbBlockBegin
  2
SW_CENTERMARKSYMBOL_0
 70
     0
 10
0.0
 20
0.0
 30
0.0
  3
SW_CENTERMARKSYMBOL_0
  1

  0
LINE
  5
167
330
164
100
AcDbEntity
  8
0
  6
Continuous
 62
     0
370
    18
100
AcDbLine
 10
0.0
 20
0.0
 30
0.0
 11
0.0
 21
2.5
 31
0.0
  0
LINE
  5
168
330
164
100
AcDbEntity
  8
0
  6
Continuous
 62
     0
370
    18
100
AcDbLine
 10
0.0
 20
0.0
 30
0.0
 11
-2.5
 21
0.0
 31
0.0
  0
LINE
  5
169
330
164
100
AcDbEntity
  8
0
  6
Continuous
 62
     0
370
    18
100
AcDbLine
 10
0.0
 20
0.0
 30
0.0
 11
0.0
 21
-2.5
 31
0.0
  0
LINE
  5
16A
330
164
100
AcDbEntity
  8
0
  6
Continuous
 62
     0
370
    18
100
AcDbLine
 10
0.0
 20
0.0
 30
0.0
 11
2.5
 21
0.0
 31
0.0
  0
LINE
  5
16B
330
164
100
AcDbEntity
  8
0
  6
Continuous
 62
     0
370
    18
100
AcDbLine
 10
0.0
 20
5.0
 30
0.0
 11
0.0
 21
30.4388965981
 31
0.0
  0
LINE
  5
16C
330
164
100
AcDbEntity
  8
0
  6
Continuous
 62
     0
370
    18
100
AcDbLine
 10
-5.0
 20
0.0
 30
0.0
 11
-13.75
 21
0.0
 31
0.0
  0
LINE
  5
16D
330
164
100
AcDbEntity
  8
0
  6
Continuous
 62
     0
370
    18
100
AcDbLine
 10
0.0
 20
-5.0
 30
0.0
 11
0.0
 21
-13.75
 31
0.0
  0
LINE
  5
16E
330
164
100
AcDbEntity
  8
0
  6
Continuous
 62
     0
370
    18
100
AcDbLine
 10
5.0
 20
0.0
 30
0.0
 11
13.75
 21
0.0
 31
0.0
  0
ENDBLK
  5
166
330
164
100
AcDbEntity
  8
0
100
AcDbBlockEnd
  0
BLOCK
  5
1D5
330
1D4
100
AcDbEntity
  8
0
100
AcDbBlockBegin
  2
SW_CENTERMARKSYMBOL_1
 70
     0
 10
0.0
 20
0.0
 30
0.0
  3
SW_CENTERMARKSYMBOL_1
  1

  0
LINE
  5
1D7
330
1D4
100
AcDbEntity
  8
0
  6
Continuous
 62
     0
370
    18
100
AcDbLine
 10
0.0
 20
0.0
 30
0.0
 11
0.0
 21
2.5
 31
0.0
  0
LINE
  5
1D8
330
1D4
100
AcDbEntity
  8
0
  6
Continuous
 62
     0
370
    18
100
AcDbLine
 10
0.0
 20
0.0
 30
0.0
 11
-2.5
 21
0.0
 31
0.0
  0
LINE
  5
1D9
330
1D4
100
AcDbEntity
  8
0
  6
Continuous
 62
     0
370
    18
100
AcDbLine
 10
0.0
 20
0.0
 30
0.0
 11
0.0
 21
-2.5
 31
0.0
  0
LINE
  5
1DA
330
1D4
100
AcDbEntity
  8
0
  6
Continuous
 62
     0
370
    18
100
AcDbLine
 10
0.0
 20
0.0
 30
0.0
 11
2.5
 21
0.0
 31
0.0
  0
LINE
  5
1DB
330
1D4
100
AcDbEntity
  8
0
  6
Continuous
 62
     0
370
    18
100
AcDbLine
 10
0.0
 20
5.0
 30
0.0
 11
0.0
 21
13.75
 31
0.0
  0
LINE
  5
1DC
330
1D4
100
AcDbEntity
  8
0
  6
Continuous
 62
     0
370
    18
100
AcDbLine
 10
-5.0
 20
0.0
 30
0.0
 11
-30.779473483
 21
0.0
 31
0.0
  0
LINE
  5
1DD
330
1D4
100
AcDbEntity
  8
0
  6
Continuous
 62
     0
370
    18
100
AcDbLine
 10
0.0
 20
-5.0
 30
0.0
 11
0.0
 21
-13.75
 31
0.0
  0
LINE
  5
1DE
330
1D4
100
AcDbEntity
  8
0
  6
Continuous
 62
     0
370
    18
100
AcDbLine
 10
5.0
 20
0.0
 30
0.0
 11
30.4754318968
 21
0.0
 31
0.0
  0
ENDBLK
  5
1D6
330
1D4
100
AcDbEntity
  8
0
100
AcDbBlockEnd
  0
ENDSEC
  0
SECTION
  2
ENTITIES
  0
MTEXT
  5
74
330
1F
100
AcDbEntity
  8
0
  6
Continuous
 62
     7
370
     0
100
AcDbMText
 10
157.4510607108
 20
124.5826017488
 30
0.0
 40
5.2916666667
 41
0.0
 71
     1
 72
     1
  1
5R-TF1333
  7
SLDTEXTSTYLE0
 73
     1
 44
1.0
  0
LINE
  5
75
330
1F
100
AcDbEntity
  8
0
  6
Continuous
 62
     7
370
    25
100
AcDbLine
 10
97.6557064337
 20
87.5446809434
 30
0.0
 11
97.1557072831
 21
87.0446808614
 31
0.0
  0
LINE
  5
76
330
1F
100
AcDbEntity
  8
0
  6
Continuous
 62
     7
370
    25
100
AcDbLine
 10
97.1557072831
 20
65.5446801313
 30
0.0
 11
97.6557064337
 21
65.0446800493
 31
0.0
  0
LINE
  5
77
330
1F
100
AcDbEntity
  8
0
  6
Continuous
 62
     7
370
    25
100
AcDbLine
 10
154.6557064635
 20
87.5446809434
 30
0.0
 11
142.1557072086
 21
87.5446809434
 31
0.0
  0
LINE
  5
78
330
1F
100
AcDbEntity
  8
0
  6
Continuous
 62
     7
370
    25
100
AcDbLine
 10
142.1557072086
 20
65.0446800493
 30
0.0
 11
154.6557064635
 21
65.0446800493
 31
0.0
  0
ARC
  5
79
330
1F
100
AcDbEntity
  8
0
  6
Continuous
 62
     7
370
    25
100
AcDbCircle
 10
115.9057064486
 20
92.2946804963
 30
0.0
 40
1.0
100
AcDbArc
 50
180.0
 51
270.0
  0
ARC
  5
7A
330
1F
100
AcDbEntity
  8
0
  6
Continuous
 62
     7
370
    25
100
AcDbCircle
 10
136.4057064486
 20
92.2946804963
 30
0.0
 40
1.0
100
AcDbArc
 50
270.0
 51
0.0
  0
LINE
  5
7B
330
1F
100
AcDbEntity
  8
0
  6
Continuous
 62
     7
370
    25
100
AcDbLine
 10
114.9057060016
 20
104.7946805112
 30
0.0
 11
114.9057060016
 21
92.2946812563
 31
0.0
  0
LINE
  5
7C
330
1F
100
AcDbEntity
  8
0
  6
Continuous
 62
     7
370
    25
100
AcDbLine
 10
137.4057068957
 20
92.2946812563
 30
0.0
 11
137.4057068957
 21
104.7946805112
 31
0.0
  0
ARC
  5
7D
330
1F
100
AcDbEntity
  8
0
  6
Continuous
 62
     7
370
    25
100
AcDbCircle
 10
142.1557064486
 20
86.5446804963
 30
0.0
 40
1.0
100
AcDbArc
 50
90.0
 51
180.0
  0
ARC
  5
7E
330
1F
100
AcDbEntity
  8
0
  6
Continuous
 62
     7
370
    25
100
AcDbCircle
 10
142.1557064486
 20
66.0446804963
 30
0.0
 40
1.0
100
AcDbArc
 50
180.0
 51
270.0
  0
LINE
  5
7F
330
1F
100
AcDbEntity
  8
0
  6
Continuous
 62
     7
370
    25
100
AcDbLine
 10
154.6557064635
 20
65.0446800493
 30
0.0
 11
155.1557056142
 21
65.5446801313
 31
0.0
  0
LINE
  5
80
330
1F
100
AcDbEntity
  8
0
  6
Continuous
 62
     7
370
    25
100
AcDbLine
 10
155.1557056142
 20
87.0446808614
 30
0.0
 11
154.6557064635
 21
87.5446809434
 31
0.0
  0
ARC
  5
81
330
1F
100
AcDbEntity
  8
0
  6
Continuous
 62
     7
370
    25
100
AcDbCircle
 10
110.1557064486
 20
66.0446804963
 30
0.0
 40
1.0
100
AcDbArc
 50
270.0
 51
0.0
  0
ARC
  5
82
330
1F
100
AcDbEntity
  8
0
  6
Continuous
 62
     7
370
    25
100
AcDbCircle
 10
110.1557064486
 20
86.5446804963
 30
0.0
 40
1.0
100
AcDbArc
 50
0.0
 51
90.0
  0
LINE
  5
83
330
1F
100
AcDbEntity
  8
0
  6
Continuous
 62
     7
370
    25
100
AcDbLine
 10
97.6557064337
 20
65.0446800493
 30
0.0
 11
110.1557056887
 21
65.0446800493
 31
0.0
  0
LINE
  5
84
330
1F
100
AcDbEntity
  8
0
  6
Continuous
 62
     7
370
    25
100
AcDbLine
 10
110.1557056887
 20
87.5446809434
 30
0.0
 11
97.6557064337
 21
87.5446809434
 31
0.0
  0
LINE
  5
85
330
1F
100
AcDbEntity
  8
0
  6
Continuous
 62
     7
370
    25
100
AcDbLine
 10
137.4057068957
 20
104.7946805112
 30
0.0
 11
136.9057068137
 21
105.2946796619
 31
0.0
  0
LINE
  5
86
330
1F
100
AcDbEntity
  8
0
  6
Continuous
 62
     7
370
    25
100
AcDbLine
 10
115.4057060836
 20
105.2946796619
 30
0.0
 11
114.9057060016
 21
104.7946805112
 31
0.0
  0
ARC
  5
87
330
1F
100
AcDbEntity
  8
0
  6
Continuous
 62
     7
370
    25
100
AcDbCircle
 10
116.6557064486
 20
90.2946804963
 30
0.0
 40
1.0
100
AcDbArc
 50
0.0
 51
90.0
  0
ARC
  5
88
330
1F
100
AcDbEntity
  8
0
  6
Continuous
 62
     7
370
    25
100
AcDbCircle
 10
135.6557064486
 20
90.2946804963
 30
0.0
 40
1.0
100
AcDbArc
 50
90.0
 51
180.0
  0
ARC
  5
89
330
1F
100
AcDbEntity
  8
0
  6
Continuous
 62
     7
370
    25
100
AcDbCircle
 10
140.1557064486
 20
85.7946804963
 30
0.0
 40
1.0
100
AcDbArc
 50
270.0
 51
0.0
  0
ARC
  5
8A
330
1F
100
AcDbEntity
  8
0
  6
Continuous
 62
     7
370
    25
100
AcDbCircle
 10
140.1557064486
 20
66.7946804963
 30
0.0
 40
1.0
100
AcDbArc
 50
0.0
 51
90.0
  0
ARC
  5
8B
330
1F
100
AcDbEntity
  8
0
  6
Continuous
 62
     7
370
    25
100
AcDbCircle
 10
112.1557064486
 20
66.7946804963
 30
0.0
 40
1.0
100
AcDbArc
 50
90.0
 51
180.0
  0
ARC
  5
8C
330
1F
100
AcDbEntity
  8
0
  6
Continuous
 62
     7
370
    25
100
AcDbCircle
 10
112.1557064486
 20
85.7946804963
 30
0.0
 40
1.0
100
AcDbArc
 50
180.0
 51
270.0
  0
LINE
  5
8D
330
1F
100
AcDbEntity
  8
0
  6
Continuous
 62
     7
370
    25
100
AcDbLine
 10
134.6557069106
 20
85.2946801089
 30
0.0
 11
134.6557069106
 21
90.2946809285
 31
0.0
  0
LINE
  5
8E
330
1F
100
AcDbEntity
  8
0
  6
Continuous
 62
     7
370
    25
100
AcDbLine
 10
117.6557059867
 20
90.2946809285
 30
0.0
 11
117.6557059867
 21
85.2946801089
 31
0.0
  0
LINE
  5
8F
330
1F
100
AcDbEntity
  8
0
  6
Continuous
 62
     7
370
    25
100
AcDbLine
 10
117.1557068361
 20
84.7946809583
 30
0.0
 11
112.1557060165
 21
84.7946809583
 31
0.0
  0
LINE
  5
90
330
1F
100
AcDbEntity
  8
0
  6
Continuous
 62
     7
370
    25
100
AcDbLine
 10
140.1557068808
 20
84.7946809583
 30
0.0
 11
135.1557060612
 21
84.7946809583
 31
0.0
  0
LINE
  5
91
330
1F
100
AcDbEntity
  8
0
  6
Continuous
 62
     7
370
    25
100
AcDbLine
 10
112.1557060165
 20
67.7946800344
 30
0.0
 11
140.1557068808
 21
67.7946800344
 31
0.0
  0
ARC
  5
92
330
1F
100
AcDbEntity
  8
0
  6
Continuous
 62
     7
370
    25
100
AcDbCircle
 10
135.1557064486
 20
85.2946804963
 30
0.0
 40
0.5000000000000022
100
AcDbArc
 50
181.6119871608
 51
268.2801185035
  0
ARC
  5
93
330
1F
100
AcDbEntity
  8
0
  6
Continuous
 62
     7
370
    25
100
AcDbCircle
 10
117.1557064486
 20
85.2946804963
 30
0.0
 40
0.5000000000000014
100
AcDbArc
 50
271.6119871608
 51
358.2801185035
  0
LINE
  5
94
330
1F
100
AcDbEntity
  8
0
  6
Continuous
 62
     7
370
    25
100
AcDbLine
 10
97.6557064337
 20
76.2946804963
 30
0.0
 11
97.6557064337
 21
65.0446800493
 31
0.0
  0
LINE
  5
95
330
1F
100
AcDbEntity
  8
0
  6
Continuous
 62
     7
370
    25
100
AcDbLine
 10
97.6557064337
 20
87.5446809434
 30
0.0
 11
97.6557064337
 21
76.2946804963
 31
0.0
  0
LINE
  5
96
330
1F
100
AcDbEntity
  8
0
  6
Continuous
 62
     7
370
    25
100
AcDbLine
 10
97.1557072831
 20
76.2946804963
 30
0.0
 11
97.1557072831
 21
87.0446808614
 31
0.0
  0
LINE
  5
97
330
1F
100
AcDbEntity
  8
0
  6
Continuous
 62
     7
370
    25
100
AcDbLine
 10
97.1557072831
 20
65.5446801313
 30
0.0
 11
97.1557072831
 21
76.2946804963
 31
0.0
  0
LINE
  5
98
330
1F
100
AcDbEntity
  8
0
  6
Continuous
 62
     7
370
    25
100
AcDbLine
 10
154.6557064635
 20
65.0446800493
 30
0.0
 11
154.6557064635
 21
87.5446809434
 31
0.0
  0
LINE
  5
99
330
1F
100
AcDbEntity
  8
0
  6
Continuous
 62
     7
370
    25
100
AcDbLine
 10
136.4057067318
 20
91.2946801611
 30
0.0
 11
115.9057061655
 21
91.2946801611
 31
0.0
  0
LINE
  5
9A
330
1F
100
AcDbEntity
  8
0
  6
Continuous
 62
     7
370
    25
100
AcDbLine
 10
137.4057068957
 20
104.7946805112
 30
0.0
 11
114.9057060016
 21
104.7946805112
 31
0.0
  0
LINE
  5
9B
330
1F
100
AcDbEntity
  8
0
  6
Continuous
 62
     7
370
    25
100
AcDbLine
 10
141.1557061134
 20
66.0446802132
 30
0.0
 11
141.1557061134
 21
86.5446807795
 31
0.0
  0
LINE
  5
9C
330
1F
100
AcDbEntity
  8
0
  6
Continuous
 62
     7
370
    25
100
AcDbLine
 10
155.1557056142
 20
87.0446808614
 30
0.0
 11
155.1557056142
 21
65.5446801313
 31
0.0
  0
LINE
  5
9D
330
1F
100
AcDbEntity
  8
0
  6
Continuous
 62
     7
370
    25
100
AcDbLine
 10
111.1557067839
 20
76.2946804963
 30
0.0
 11
111.1557067839
 21
66.0446802132
 31
0.0
  0
LINE
  5
9E
330
1F
100
AcDbEntity
  8
0
  6
Continuous
 62
     7
370
    25
100
AcDbLine
 10
111.1557067839
 20
86.5446807795
 30
0.0
 11
111.1557067839
 21
76.2946804963
 31
0.0
  0
LINE
  5
9F
330
1F
100
AcDbEntity
  8
0
  6
Continuous
 62
     7
370
    25
100
AcDbLine
 10
115.4057060836
 20
105.2946796619
 30
0.0
 11
136.9057068137
 21
105.2946796619
 31
0.0
  0
SPLINE
  5
A0
330
1F
100
AcDbEntity
  8
0
  6
Continuous
 62
     7
370
    25
100
AcDbSpline
210
0.0
220
0.0
230
1.0
 70
     8
 71
     3
 72
    16
 73
    12
 74
     0
 42
0.000000001
 43
0.00000001
 40
0.0
 40
0.0
 40
0.0
 40
0.0
 40
0.2500000000000001
 40
0.2500000000000001
 40
0.5000000000000001
 40
0.5000000000000001
 40
0.7500000000000002
 40
0.7500000000000002
 40
0.8750000000000001
 40
0.8750000000000001
 40
1.0
 40
1.0
 40
1.0
 40
1.0
 10
134.1557064486393
 20
73.42239917306716
 30
0.0
 10
134.1557064486393
 20
73.66869450533096
 30
0.0
 10
134.1756382343265
 20
73.91221444010495
 30
0.0
 10
134.23624478093
 20
74.39490041348022
 30
0.0
 10
134.2773552883752
 20
74.6343408822549
 30
0.0
 10
134.3717317447744
 20
75.11108196191799
 30
0.0
 10
134.4250971066307
 20
75.3483650720449
 30
0.0
 10
134.5094042665653
 20
75.70353995735967
 30
0.0
 10
134.5382291434072
 20
75.82180439779371
 30
0.0
 10
134.5965882219727
 20
76.0582084082948
 30
0.0
 10
134.6258393431908
 20
76.17521087985124
 30
0.0
 10
134.6557064486393
 20
76.29468049633617
 30
0.0
  0
SPLINE
  5
A1
330
1F
100
AcDbEntity
  8
0
  6
Continuous
 62
     7
370
    25
100
AcDbSpline
210
0.0
220
0.0
230
1.0
 70
     8
 71
     3
 72
    12
 73
     8
 74
     0
 42
0.000000001
 43
0.00000001
 40
0.0
 40
0.0
 40
0.0
 40
0.0
 40
0.2500000000000002
 40
0.2500000000000002
 40
0.5000000000000001
 40
0.5000000000000001
 40
1.0
 40
1.0
 40
1.0
 40
1.0
 10
134.5799047730867
 20
73.42239917306723
 30
0.0
 10
134.5576379309327
 20
73.65981173118753
 30
0.0
 10
134.5505998982783
 20
73.89792174535413
 30
0.0
 10
134.5497247767939
 20
74.37561987261617
 30
0.0
 10
134.556388770743
 20
74.61524272923278
 30
0.0
 10
134.5870411201613
 20
75.33395848336878
 30
0.0
 10
134.621649803012
 20
75.81477544800768
 30
0.0
 10
134.6557064486393
 20
76.29468049633617
 30
0.0
  0
LINE
  5
A2
330
1F
100
AcDbEntity
  8
0
  6
Continuous
 62
     7
370
    25
100
AcDbLine
 10
134.5799047036
 20
73.4223992542
 30
0.0
 11
134.1557068286
 21
73.4223992542
 31
0.0
  0
ARC
  5
A3
330
1F
100
AcDbEntity
  8
0
  6
Continuous
 62
     7
370
    25
100
AcDbCircle
 10
135.1723963688
 20
72.4909624957
 30
0.0
 40
1.103911594455069
100
AcDbArc
 50
98.7690151238
 51
122.4606473444
  0
SPLINE
  5
A4
330
1F
100
AcDbEntity
  8
0
  6
Continuous
 62
     7
370
    25
100
AcDbSpline
210
0.0
220
0.0
230
1.0
 70
     8
 71
     3
 72
    12
 73
     8
 74
     0
 42
0.000000001
 43
0.00000001
 40
0.0
 40
0.0
 40
0.0
 40
0.0
 40
0.2499999999999999
 40
0.2499999999999999
 40
0.5
 40
0.5
 40
1.0
 40
1.0
 40
1.0
 40
1.0
 10
135.0041030975341
 20
73.58197035769331
 30
0.0
 10
134.9559949888897
 20
73.79820794223153
 30
0.0
 10
134.9197819314255
 20
74.01797353762518
 30
0.0
 10
134.8546777217726
 20
74.46241652374188
 30
0.0
 10
134.8264375414843
 20
74.68717654771811
 30
0.0
 10
134.7471727102113
 20
75.36814045281629
 30
0.0
 10
134.7013073270136
 20
75.83452337991058
 30
0.0
 10
134.6557064486393
 20
76.29468049633617
 30
0.0
  0
SPLINE
  5
A5
330
1F
100
AcDbEntity
  8
0
  6
Continuous
 62
     7
370
    25
100
AcDbSpline
210
0.0
220
0.0
230
1.0
 70
     8
 71
     3
 72
    16
 73
    12
 74
     0
 42
0.000000001
 43
0.00000001
 40
0.0
 40
0.0
 40
0.0
 40
0.0
 40
0.2499999999999999
 40
0.2499999999999999
 40
0.5
 40
0.5
 40
0.7500000000000001
 40
0.7500000000000001
 40
0.875
 40
0.875
 40
1.0
 40
1.0
 40
1.0
 40
1.0
 10
118.1557064486393
 20
79.16696181960518
 30
0.0
 10
118.1557064486393
 20
78.92066648734142
 30
0.0
 10
118.1357746629522
 20
78.67714655256738
 30
0.0
 10
118.0751681163486
 20
78.19446057919212
 30
0.0
 10
118.0340576089034
 20
77.95502011041742
 30
0.0
 10
117.9396811525042
 20
77.47827903075434
 30
0.0
 10
117.8863157906479
 20
77.24099592062743
 30
0.0
 10
117.8020086307133
 20
76.88582103531267
 30
0.0
 10
117.7731837538715
 20
76.76755659487863
 30
0.0
 10
117.714824675306
 20
76.53115258437754
 30
0.0
 10
117.6855735540879
 20
76.41415011282108
 30
0.0
 10
117.6557064486393
 20
76.29468049633617
 30
0.0
  0
SPLINE
  5
A6
330
1F
100
AcDbEntity
  8
0
  6
Continuous
 62
     7
370
    25
100
AcDbSpline
210
0.0
220
0.0
230
1.0
 70
     8
 71
     3
 72
    12
 73
     8
 74
     0
 42
0.000000001
 43
0.00000001
 40
0.0
 40
0.0
 40
0.0
 40
0.0
 40
0.2500000000000002
 40
0.2500000000000002
 40
0.5000000000000001
 40
0.5000000000000001
 40
1.0
 40
1.0
 40
1.0
 40
1.0
 10
117.731508124192
 20
79.1669618196051
 30
0.0
 10
117.7537749663459
 20
78.9295492614849
 30
0.0
 10
117.7608129990003
 20
78.69143924731836
 30
0.0
 10
117.7616881204847
 20
78.21374112005647
 30
0.0
 10
117.7550241265357
 20
77.97411826343993
 30
0.0
 10
117.7243717771174
 20
77.25540250930418
 30
0.0
 10
117.6897630939929
 20
76.77458554468396
 30
0.0
 10
117.6557064486393
 20
76.29468049633617
 30
0.0
  0
LINE
  5
A7
330
1F
100
AcDbEntity
  8
0
  6
Continuous
 62
     7
370
    25
100
AcDbLine
 10
117.7315081937
 20
79.1669617385
 30
0.0
 11
118.1557060687
 21
79.1669617385
 31
0.0
  0
ARC
  5
A8
330
1F
100
AcDbEntity
  8
0
  6
Continuous
 62
     7
370
    25
100
AcDbCircle
 10
117.1390165284
 20
80.0983984969
 30
0.0
 40
1.103911594455069
100
AcDbArc
 50
278.7690151238
 51
302.4606473444
  0
SPLINE
  5
A9
330
1F
100
AcDbEntity
  8
0
  6
Continuous
 62
     7
370
    25
100
AcDbSpline
210
0.0
220
0.0
230
1.0
 70
     8
 71
     3
 72
    12
 73
     8
 74
     0
 42
0.000000001
 43
0.00000001
 40
0.0
 40
0.0
 40
0.0
 40
0.0
 40
0.2499999999999998
 40
0.2499999999999998
 40
0.4999999999999999
 40
0.4999999999999999
 40
1.0
 40
1.0
 40
1.0
 40
1.0
 10
117.3073097997446
 20
79.00739063497902
 30
0.0
 10
117.3553073715836
 20
78.79164989416381
 30
0.0
 10
117.3915459454827
 20
78.57194407388846
 30
0.0
 10
117.456750900709
 20
78.12686087797267
 30
0.0
 10
117.4851179579691
 20
77.90105952928447
 30
0.0
 10
117.5645747334585
 20
77.21814491780545
 30
0.0
 10
117.610020713309
 20
76.75569392511566
 30
0.0
 10
117.6557064486393
 20
76.29468049633617
 30
0.0
  0
SPLINE
  5
AA
330
1F
100
AcDbEntity
  8
0
  6
Continuous
 62
     7
370
    25
100
AcDbSpline
210
0.0
220
0.0
230
1.0
 70
     8
 71
     3
 72
    16
 73
    12
 74
     0
 42
0.000000001
 43
0.00000001
 40
0.0
 40
0.0
 40
0.0
 40
0.0
 40
0.2500000000000002
 40
0.2500000000000002
 40
0.5000000000000002
 40
0.5000000000000002
 40
0.7500000000000002
 40
0.7500000000000002
 40
0.8750000000000001
 40
0.8750000000000001
 40
1.0
 40
1.0
 40
1.0
 40
1.0
 10
129.0279877719084
 20
83.79468049633617
 30
0.0
 10
128.7816924396446
 20
83.79468049633617
 30
0.0
 10
128.5381725048705
 20
83.81461228202333
 30
0.0
 10
128.0554865314953
 20
83.8752188286269
 30
0.0
 10
127.8160460627206
 20
83.91632933607207
 30
0.0
 10
127.3393049830575
 20
84.01070579247127
 30
0.0
 10
127.1020218729306
 20
84.06407115432756
 30
0.0
 10
126.7468469876158
 20
84.14837831426217
 30
0.0
 10
126.6285825471818
 20
84.17720319110401
 30
0.0
 10
126.3921785366807
 20
84.23556226966953
 30
0.0
 10
126.2751760651242
 20
84.2648133908876
 30
0.0
 10
126.1557064486393
 20
84.29468049633618
 30
0.0
  0
SPLINE
  5
AB
330
1F
100
AcDbEntity
  8
0
  6
Continuous
 62
     7
370
    25
100
AcDbSpline
210
0.0
220
0.0
230
1.0
 70
     8
 71
     3
 72
    12
 73
     8
 74
     0
 42
0.000000001
 43
0.00000001
 40
0.0
 40
0.0
 40
0.0
 40
0.0
 40
0.2500000000000002
 40
0.2500000000000002
 40
0.5000000000000001
 40
0.5000000000000001
 40
1.0
 40
1.0
 40
1.0
 40
1.0
 10
129.0279877719084
 20
84.21887882078353
 30
0.0
 10
128.7905752137881
 20
84.19661197862963
 30
0.0
 10
128.5524651996216
 20
84.1895739459752
 30
0.0
 10
128.0747670723597
 20
84.18869882449076
 30
0.0
 10
127.8351442157432
 20
84.19536281843983
 30
0.0
 10
127.1164284616074
 20
84.22601516785807
 30
0.0
 10
126.6356114969871
 20
84.26062385098247
 30
0.0
 10
126.1557064486393
 20
84.29468049633618
 30
0.0
  0
LINE
  5
AC
330
1F
100
AcDbEntity
  8
0
  6
Continuous
 62
     7
370
    25
100
AcDbLine
 10
129.0279876908
 20
83.7946803287
 30
0.0
 11
129.0279876908
 21
84.2188786693
 31
0.0
  0
ARC
  5
AD
330
1F
100
AcDbEntity
  8
0
  6
Continuous
 62
     7
370
    25
100
AcDbCircle
 10
129.9594354725
 20
84.8113744812
 30
0.0
 40
1.10392312104735
100
AcDbArc
 50
188.7691406047
 51
212.4605218635
  0
SPLINE
  5
AE
330
1F
100
AcDbEntity
  8
0
  6
Continuous
 62
     7
370
    25
100
AcDbSpline
210
0.0
220
0.0
230
1.0
 70
     8
 71
     3
 72
    12
 73
     8
 74
     0
 42
0.000000001
 43
0.00000001
 40
0.0
 40
0.0
 40
0.0
 40
0.0
 40
0.2500000000000002
 40
0.2500000000000002
 40
0.5000000000000001
 40
0.5000000000000001
 40
1.0
 40
1.0
 40
1.0
 40
1.0
 10
128.8684165872823
 20
84.64307714523092
 30
0.0
 10
128.652675846467
 20
84.59507957339193
 30
0.0
 10
128.4329700261917
 20
84.55884099949284
 30
0.0
 10
127.9878868302759
 20
84.49363604426654
 30
0.0
 10
127.7620854815877
 20
84.46526898700638
 30
0.0
 10
127.0791708701086
 20
84.38581221151699
 30
0.0
 10
126.6167198774188
 20
84.34036623166668
 30
0.0
 10
126.1557064486393
 20
84.29468049633618
 30
0.0
  0
ARC
  5
AF
330
1F
100
AcDbEntity
  8
0
  6
Continuous
 62
     7
370
    25
100
AcDbCircle
 10
122.3519774248
 20
84.8113744812
 30
0.0
 40
1.103923121047338
100
AcDbArc
 50
327.5394781365
 51
351.2308593953
  0
SPLINE
  5
B0
330
1F
100
AcDbEntity
  8
0
  6
Continuous
 62
     7
370
    25
100
AcDbSpline
210
0.0
220
0.0
230
1.0
 70
     8
 71
     3
 72
    12
 73
     8
 74
     0
 42
0.000000001
 43
0.00000001
 40
0.0
 40
0.0
 40
0.0
 40
0.0
 40
0.2499999999999999
 40
0.2499999999999999
 40
0.4999999999999998
 40
0.4999999999999998
 40
1.0
 40
1.0
 40
1.0
 40
1.0
 10
123.4429963099965
 20
84.6430771452309
 30
0.0
 10
123.6592338944614
 20
84.5949690366028
 30
0.0
 10
123.8789994897795
 20
84.55875597914742
 30
0.0
 10
124.3234424757421
 20
84.49365176951048
 30
0.0
 10
124.5482024996398
 20
84.46541158922857
 30
0.0
 10
125.229166404498
 20
84.3861467579744
 30
0.0
 10
125.6955493323752
 20
84.34028137468266
 30
0.0
 10
126.1557064486393
 20
84.29468049633618
 30
0.0
  0
SPLINE
  5
B1
330
1F
100
AcDbEntity
  8
0
  6
Continuous
 62
     7
370
    25
100
AcDbSpline
210
0.0
220
0.0
230
1.0
 70
     8
 71
     3
 72
    12
 73
     8
 74
     0
 42
0.000000001
 43
0.00000001
 40
0.0
 40
0.0
 40
0.0
 40
0.0
 40
0.2500000000000001
 40
0.2500000000000001
 40
0.5000000000000002
 40
0.5000000000000002
 40
1.0
 40
1.0
 40
1.0
 40
1.0
 10
123.2834251253703
 20
84.21887882078353
 30
0.0
 10
123.5208376834728
 20
84.1966119786313
 30
0.0
 10
123.7589476976214
 20
84.18957394597636
 30
0.0
 10
124.2366458248473
 20
84.18869882448979
 30
0.0
 10
124.4762686814458
 20
84.19536281843712
 30
0.0
 10
125.1949844355276
 20
84.2260151678497
 30
0.0
 10
125.6758014003308
 20
84.26062385096142
 30
0.0
 10
126.1557064486393
 20
84.29468049633618
 30
0.0
  0
LINE
  5
B2
330
1F
100
AcDbEntity
  8
0
  6
Continuous
 62
     7
370
    25
100
AcDbLine
 10
123.2834252065
 20
83.7946803287
 30
0.0
 11
123.2834252065
 21
84.2188786693
 31
0.0
  0
SPLINE
  5
B3
330
1F
100
AcDbEntity
  8
0
  6
Continuous
 62
     7
370
    25
100
AcDbSpline
210
0.0
220
0.0
230
1.0
 70
     8
 71
     3
 72
    16
 73
    12
 74
     0
 42
0.000000001
 43
0.00000001
 40
0.0
 40
0.0
 40
0.0
 40
0.0
 40
0.2500000000000003
 40
0.2500000000000003
 40
0.5000000000000006
 40
0.5000000000000006
 40
0.7500000000000006
 40
0.7500000000000006
 40
0.8750000000000003
 40
0.8750000000000003
 40
1.0
 40
1.0
 40
1.0
 40
1.0
 10
123.2834251253703
 20
83.79468049633617
 30
0.0
 10
123.5297204576341
 20
83.79468049633617
 30
0.0
 10
123.7732403924081
 20
83.81461228202333
 30
0.0
 10
124.2559263657834
 20
83.87521882862688
 30
0.0
 10
124.4953668345581
 20
83.91632933607207
 30
0.0
 10
124.9721079142211
 20
84.01070579247127
 30
0.0
 10
125.2093910243481
 20
84.06407115432756
 30
0.0
 10
125.5645659096628
 20
84.14837831426217
 30
0.0
 10
125.6828303500969
 20
84.17720319110401
 30
0.0
 10
125.919234360598
 20
84.23556226966953
 30
0.0
 10
126.0362368321544
 20
84.26481339088761
 30
0.0
 10
126.1557064486393
 20
84.29468049633618
 30
0.0
  0
ARC
  5
B4
330
1F
100
AcDbEntity
  8
0
  6
Continuous
 62
     7
370
    25
100
AcDbCircle
 10
135.1723963688
 20
80.0983984969
 30
0.0
 40
1.103911594455069
100
AcDbArc
 50
237.5393526556
 51
261.2309848762
  0
SPLINE
  5
B5
330
1F
100
AcDbEntity
  8
0
  6
Continuous
 62
     7
370
    25
100
AcDbSpline
210
0.0
220
0.0
230
1.0
 70
     8
 71
     3
 72
    12
 73
     8
 74
     0
 42
0.000000001
 43
0.00000001
 40
0.0
 40
0.0
 40
0.0
 40
0.0
 40
0.2499999999999999
 40
0.2499999999999999
 40
0.5
 40
0.5
 40
1.0
 40
1.0
 40
1.0
 40
1.0
 10
135.0041030975341
 20
79.00739063497909
 30
0.0
 10
134.9561449418622
 20
78.7918270629826
 30
0.0
 10
134.919862526768
 20
78.57195705136084
 30
0.0
 10
134.8545406497319
 20
78.12598930974656
 30
0.0
 10
134.8261801337773
 20
77.90009608387264
 30
0.0
 10
134.7469237272152
 20
77.21883368505718
 30
0.0
 10
134.7014529500883
 20
76.75630711438666
 30
0.0
 10
134.6557064486393
 20
76.29468049633617
 30
0.0
  0
SPLINE
  5
B6
330
1F
100
AcDbEntity
  8
0
  6
Continuous
 62
     7
370
    25
100
AcDbSpline
210
0.0
220
0.0
230
1.0
 70
     8
 71
     3
 72
    12
 73
     8
 74
     0
 42
0.000000001
 43
0.00000001
 40
0.0
 40
0.0
 40
0.0
 40
0.0
 40
0.25
 40
0.25
 40
0.5
 40
0.5
 40
1.0
 40
1.0
 40
1.0
 40
1.0
 10
134.5799047730867
 20
79.16696181960516
 30
0.0
 10
134.5576379309344
 20
78.92954926150276
 30
0.0
 10
134.5505998982795
 20
78.69143924735414
 30
0.0
 10
134.5497247767929
 20
78.2137411201283
 30
0.0
 10
134.5563887707403
 20
77.97411826352995
 30
0.0
 10
134.5870411201528
 20
77.25540250944877
 30
0.0
 10
134.621649803003
 20
76.77458554462609
 30
0.0
 10
134.6557064486393
 20
76.29468049633617
 30
0.0
  0
LINE
  5
B7
330
1F
100
AcDbEntity
  8
0
  6
Continuous
 62
     7
370
    25
100
AcDbLine
 10
118.1557060687
 20
73.4223992542
 30
0.0
 11
117.7315081937
 21
73.4223992542
 31
0.0
  0
SPLINE
  5
B8
330
1F
100
AcDbEntity
  8
0
  6
Continuous
 62
     7
370
    25
100
AcDbSpline
210
0.0
220
0.0
230
1.0
 70
     8
 71
     3
 72
    12
 73
     8
 74
     0
 42
0.000000001
 43
0.00000001
 40
0.0
 40
0.0
 40
0.0
 40
0.0
 40
0.2500000000000001
 40
0.2500000000000001
 40
0.5000000000000001
 40
0.5000000000000001
 40
1.0
 40
1.0
 40
1.0
 40
1.0
 10
117.731508124192
 20
73.42239917306719
 30
0.0
 10
117.7537749663442
 20
73.65981173116961
 30
0.0
 10
117.7608129989991
 20
73.89792174531824
 30
0.0
 10
117.7616881204857
 20
74.37561987254412
 30
0.0
 10
117.7550241265384
 20
74.61524272914265
 30
0.0
 10
117.7243717771258
 20
75.3339584832244
 30
0.0
 10
117.6897630940141
 20
75.81477544802765
 30
0.0
 10
117.6557064486393
 20
76.29468049633617
 30
0.0
  0
SPLINE
  5
B9
330
1F
100
AcDbEntity
  8
0
  6
Continuous
 62
     7
370
    25
100
AcDbSpline
210
0.0
220
0.0
230
1.0
 70
     8
 71
     3
 72
    16
 73
    12
 74
     0
 42
0.000000001
 43
0.00000001
 40
0.0
 40
0.0
 40
0.0
 40
0.0
 40
0.2500000000000001
 40
0.2500000000000001
 40
0.5000000000000001
 40
0.5000000000000001
 40
0.7500000000000002
 40
0.7500000000000002
 40
0.8750000000000001
 40
0.8750000000000001
 40
1.0
 40
1.0
 40
1.0
 40
1.0
 10
118.1557064486393
 20
73.42239917306716
 30
0.0
 10
118.1557064486393
 20
73.66869450533096
 30
0.0
 10
118.1357746629522
 20
73.91221444010495
 30
0.0
 10
118.0751681163486
 20
74.39490041348022
 30
0.0
 10
118.0340576089034
 20
74.6343408822549
 30
0.0
 10
117.9396811525042
 20
75.11108196191799
 30
0.0
 10
117.8863157906479
 20
75.3483650720449
 30
0.0
 10
117.8020086307133
 20
75.70353995735967
 30
0.0
 10
117.7731837538715
 20
75.82180439779371
 30
0.0
 10
117.714824675306
 20
76.0582084082948
 30
0.0
 10
117.6855735540879
 20
76.17521087985124
 30
0.0
 10
117.6557064486393
 20
76.29468049633617
 30
0.0
  0
ARC
  5
BA
330
1F
100
AcDbEntity
  8
0
  6
Continuous
 62
     7
370
    25
100
AcDbCircle
 10
117.1390165284
 20
72.4909624957
 30
0.0
 40
1.103911594455069
100
AcDbArc
 50
57.5393526556
 51
81.2309848762
  0
SPLINE
  5
BB
330
1F
100
AcDbEntity
  8
0
  6
Continuous
 62
     7
370
    25
100
AcDbSpline
210
0.0
220
0.0
230
1.0
 70
     8
 71
     3
 72
    12
 73
     8
 74
     0
 42
0.000000001
 43
0.00000001
 40
0.0
 40
0.0
 40
0.0
 40
0.0
 40
0.2499999999999999
 40
0.2499999999999999
 40
0.4999999999999998
 40
0.4999999999999998
 40
1.0
 40
1.0
 40
1.0
 40
1.0
 10
117.3073097997446
 20
73.58197035769332
 30
0.0
 10
117.3554179083727
 20
73.79820794215827
 30
0.0
 10
117.3916309658281
 20
74.01797353747632
 30
0.0
 10
117.456735175465
 20
74.46241652343895
 30
0.0
 10
117.4849753557469
 20
74.6871765473366
 30
0.0
 10
117.5642401870011
 20
75.36814045219488
 30
0.0
 10
117.6101055702928
 20
75.83452338007204
 30
0.0
 10
117.6557064486393
 20
76.29468049633617
 30
0.0
  0
LINE
  5
BC
330
1F
100
AcDbEntity
  8
0
  6
Continuous
 62
     7
370
    25
100
AcDbLine
 10
134.1557068286
 20
79.1669617385
 30
0.0
 11
134.5799047036
 21
79.1669617385
 31
0.0
  0
SPLINE
  5
BD
330
1F
100
AcDbEntity
  8
0
  6
Continuous
 62
     7
370
    25
100
AcDbSpline
210
0.0
220
0.0
230
1.0
 70
     8
 71
     3
 72
    16
 73
    12
 74
     0
 42
0.000000001
 43
0.00000001
 40
0.0
 40
0.0
 40
0.0
 40
0.0
 40
0.2500000000000002
 40
0.2500000000000002
 40
0.5000000000000002
 40
0.5000000000000002
 40
0.7500000000000002
 40
0.7500000000000002
 40
0.8750000000000001
 40
0.8750000000000001
 40
1.0
 40
1.0
 40
1.0
 40
1.0
 10
134.1557064486393
 20
79.16696181960518
 30
0.0
 10
134.1557064486393
 20
78.92066648734142
 30
0.0
 10
134.1756382343265
 20
78.6771465525674
 30
0.0
 10
134.23624478093
 20
78.19446057919212
 30
0.0
 10
134.2773552883752
 20
77.95502011041742
 30
0.0
 10
134.3717317447744
 20
77.47827903075434
 30
0.0
 10
134.4250971066307
 20
77.24099592062744
 30
0.0
 10
134.5094042665653
 20
76.88582103531267
 30
0.0
 10
134.5382291434072
 20
76.76755659487863
 30
0.0
 10
134.5965882219727
 20
76.53115258437754
 30
0.0
 10
134.6258393431908
 20
76.41415011282108
 30
0.0
 10
134.6557064486393
 20
76.29468049633617
 30
0.0
  0
LWPOLYLINE
  5
BE
330
1F
100
AcDbEntity
  8
0
  6
Continuous
 62
     7
370
    25
100
AcDbPolyline
 90
        9
 70
   128
 43
0.0
 10
134.1557068286
 20
69.7946803622
 10
134.2532516924
 20
69.6971354984
 10
134.3470479829
 20
69.6033387423
 10
134.4334914816
 20
69.5168952436
 10
134.509260161
 20
69.4411270298
 10
134.571440844
 20
69.3789458812
 10
134.6176465509
 20
69.3327406399
 10
134.6460993869
 20
69.3042878039
 10
134.6557069106
 20
69.2946802803
  0
LINE
  5
BF
330
1F
100
AcDbEntity
  8
0
  6
Continuous
 62
     7
370
    25
100
AcDbLine
 10
134.1557068286
 20
69.7946803622
 30
0.0
 11
134.1557068286
 21
73.4223992542
 31
0.0
  0
SPLINE
  5
C0
330
1F
100
AcDbEntity
  8
0
  6
Continuous
 62
     7
370
    25
100
AcDbSpline
210
0.0
220
0.0
230
1.0
 70
     8
 71
     3
 72
     8
 73
     4
 74
     0
 42
0.000000001
 43
0.00000001
 40
0.0
 40
0.0
 40
0.0
 40
0.0
 40
1.0
 40
1.0
 40
1.0
 40
1.0
 10
134.6557064486393
 20
72.17157487071852
 30
0.0
 10
134.6557064486393
 20
72.58576380320092
 30
0.0
 10
134.6239586863549
 20
73.00307396599402
 30
0.0
 10
134.5799047730974
 20
73.42239917306777
 30
0.0
  0
LINE
  5
C1
330
1F
100
AcDbEntity
  8
0
  6
Continuous
 62
     7
370
    25
100
AcDbLine
 10
134.6557069106
 20
72.1715748288
 30
0.0
 11
134.6557069106
 21
69.2946802803
 31
0.0
  0
ARC
  5
C2
330
1F
100
AcDbEntity
  8
0
  6
Continuous
 62
     7
370
    25
100
AcDbCircle
 10
118.1557064486
 20
83.7946804963
 30
0.0
 40
1.5
100
AcDbArc
 50
270.0
 51
0.0
  0
LINE
  5
C3
330
1F
100
AcDbEntity
  8
0
  6
Continuous
 62
     7
370
    25
100
AcDbLine
 10
118.1557060687
 20
82.2946805485
 30
0.0
 11
118.1557060687
 21
82.7946806304
 31
0.0
  0
ARC
  5
C4
330
1F
100
AcDbEntity
  8
0
  6
Continuous
 62
     7
370
    25
100
AcDbCircle
 10
118.1557064486
 20
83.7946804963
 30
0.0
 40
1.0
100
AcDbArc
 50
270.0
 51
0.0
  0
LINE
  5
C5
330
1F
100
AcDbEntity
  8
0
  6
Continuous
 62
     7
370
    25
100
AcDbLine
 10
119.6557063145
 20
83.7946803287
 30
0.0
 11
119.1557062326
 21
83.7946803287
 31
0.0
  0
LWPOLYLINE
  5
C6
330
1F
100
AcDbEntity
  8
0
  6
Continuous
 62
     7
370
    25
100
AcDbPolyline
 90
        9
 70
   128
 43
0.0
 10
117.6557059867
 20
82.7946806304
 10
117.6653135104
 20
82.7850731068
 10
117.6937663464
 20
82.7566202708
 10
117.7399720533
 20
82.7104154952
 10
117.8021527363
 20
82.6482338809
 10
117.8779214157
 20
82.5724656672
 10
117.9643649144
 20
82.4860221684
 10
118.0581612048
 20
82.392225878
 10
118.1557060687
 20
82.2946805485
  0
LINE
  5
C7
330
1F
100
AcDbEntity
  8
0
  6
Continuous
 62
     7
370
    25
100
AcDbLine
 10
117.6557059867
 20
82.7946806304
 30
0.0
 11
118.1557060687
 21
82.7946806304
 31
0.0
  0
LINE
  5
C8
330
1F
100
AcDbEntity
  8
0
  6
Continuous
 62
     7
370
    25
100
AcDbLine
 10
118.1557060687
 20
82.2946805485
 30
0.0
 11
118.1557060687
 21
79.1669617385
 31
0.0
  0
SPLINE
  5
C9
330
1F
100
AcDbEntity
  8
0
  6
Continuous
 62
     7
370
    25
100
AcDbSpline
210
0.0
220
0.0
230
1.0
 70
     8
 71
     3
 72
     8
 73
     4
 74
     0
 42
0.000000001
 43
0.00000001
 40
0.0
 40
0.0
 40
0.0
 40
0.0
 40
1.0
 40
1.0
 40
1.0
 40
1.0
 10
117.6557064486393
 20
80.41778612195384
 30
0.0
 10
117.6557064486393
 20
80.00359718947142
 30
0.0
 10
117.6874542109238
 20
79.58628702667833
 30
0.0
 10
117.7315081241813
 20
79.16696181960458
 30
0.0
  0
LINE
  5
CA
330
1F
100
AcDbEntity
  8
0
  6
Continuous
 62
     7
370
    25
100
AcDbLine
 10
117.6557059867
 20
80.4177861639
 30
0.0
 11
117.6557059867
 21
82.7946806304
 31
0.0
  0
ARC
  5
CB
330
1F
100
AcDbEntity
  8
0
  6
Continuous
 62
     7
370
    25
100
AcDbCircle
 10
134.1557064486
 20
83.7946804963
 30
0.0
 40
1.5
100
AcDbArc
 50
180.0
 51
270.0
  0
LINE
  5
CC
330
1F
100
AcDbEntity
  8
0
  6
Continuous
 62
     7
370
    25
100
AcDbLine
 10
132.6557065827
 20
83.7946803287
 30
0.0
 11
133.1557066647
 21
83.7946803287
 31
0.0
  0
ARC
  5
CD
330
1F
100
AcDbEntity
  8
0
  6
Continuous
 62
     7
370
    25
100
AcDbCircle
 10
134.1557064486
 20
83.7946804963
 30
0.0
 40
1.0
100
AcDbArc
 50
180.0
 51
270.0
  0
LINE
  5
CE
330
1F
100
AcDbEntity
  8
0
  6
Continuous
 62
     7
370
    25
100
AcDbLine
 10
134.1557068286
 20
82.2946805485
 30
0.0
 11
134.1557068286
 21
82.7946806304
 31
0.0
  0
LINE
  5
CF
330
1F
100
AcDbEntity
  8
0
  6
Continuous
 62
     7
370
    25
100
AcDbLine
 10
119.1557062326
 20
83.7946803287
 30
0.0
 11
119.1557062326
 21
84.2946808763
 31
0.0
  0
LWPOLYLINE
  5
D0
330
1F
100
AcDbEntity
  8
0
  6
Continuous
 62
     7
370
    25
100
AcDbPolyline
 90
        9
 70
   128
 43
0.0
 10
119.6557063145
 20
83.7946803287
 10
119.5581614507
 20
83.8922256582
 10
119.4643646946
 20
83.9860224143
 10
119.3779211959
 20
84.0724654474
 10
119.3021529821
 20
84.1482341267
 10
119.2399718335
 20
84.2104157411
 10
119.1937665922
 20
84.2566205167
 10
119.1653137563
 20
84.2850733526
 10
119.1557062326
 20
84.2946808763
  0
LWPOLYLINE
  5
D1
330
1F
100
AcDbEntity
  8
0
  6
Continuous
 62
     7
370
    25
100
AcDbPolyline
 90
        9
 70
   128
 43
0.0
 10
132.6557065827
 20
83.7946803287
 10
132.7532514466
 20
83.8922256582
 10
132.8470482027
 20
83.9860224143
 10
132.9334917014
 20
84.0724654474
 10
133.0092599151
 20
84.1482341267
 10
133.0714410638
 20
84.2104157411
 10
133.117646305
 20
84.2566205167
 10
133.146099141
 20
84.2850733526
 10
133.1557066647
 20
84.2946808763
  0
LINE
  5
D2
330
1F
100
AcDbEntity
  8
0
  6
Continuous
 62
     7
370
    25
100
AcDbLine
 10
132.6557065827
 20
83.7946803287
 30
0.0
 11
129.0279876908
 21
83.7946803287
 31
0.0
  0
SPLINE
  5
D3
330
1F
100
AcDbEntity
  8
0
  6
Continuous
 62
     7
370
    25
100
AcDbSpline
210
0.0
220
0.0
230
1.0
 70
     8
 71
     3
 72
     8
 73
     4
 74
     0
 42
0.000000001
 43
0.00000001
 40
0.0
 40
0.0
 40
0.0
 40
0.0
 40
1.0
 40
1.0
 40
1.0
 40
1.0
 10
130.278812074257
 20
84.29468049633618
 30
0.0
 10
129.8646231417746
 20
84.29468049633618
 30
0.0
 10
129.4473129789816
 20
84.2629327340517
 30
0.0
 10
129.0279877719078
 20
84.21887882079422
 30
0.0
  0
LINE
  5
D4
330
1F
100
AcDbEntity
  8
0
  6
Continuous
 62
     7
370
    25
100
AcDbLine
 10
130.2788121162
 20
84.2946808763
 30
0.0
 11
133.1557066647
 21
84.2946808763
 31
0.0
  0
LINE
  5
D5
330
1F
100
AcDbEntity
  8
0
  6
Continuous
 62
     7
370
    25
100
AcDbLine
 10
134.1557068286
 20
82.7946806304
 30
0.0
 11
134.6557069106
 21
82.7946806304
 31
0.0
  0
LWPOLYLINE
  5
D6
330
1F
100
AcDbEntity
  8
0
  6
Continuous
 62
     7
370
    25
100
AcDbPolyline
 90
        9
 70
   128
 43
0.0
 10
134.1557068286
 20
82.2946805485
 10
134.2532516924
 20
82.392225878
 10
134.3470479829
 20
82.4860221684
 10
134.4334914816
 20
82.5724656672
 10
134.509260161
 20
82.6482338809
 10
134.571440844
 20
82.7104154952
 10
134.6176465509
 20
82.7566202708
 10
134.6460993869
 20
82.7850731068
 10
134.6557069106
 20
82.7946806304
  0
LINE
  5
D7
330
1F
100
AcDbEntity
  8
0
  6
Continuous
 62
     7
370
    25
100
AcDbLine
 10
118.1557060687
 20
69.7946803622
 30
0.0
 11
134.1557068286
 21
69.7946803622
 31
0.0
  0
LINE
  5
D8
330
1F
100
AcDbEntity
  8
0
  6
Continuous
 62
     7
370
    25
100
AcDbLine
 10
134.6557069106
 20
69.2946802803
 30
0.0
 11
117.6557059867
 21
69.2946802803
 31
0.0
  0
LWPOLYLINE
  5
D9
330
1F
100
AcDbEntity
  8
0
  6
Continuous
 62
     7
370
    25
100
AcDbPolyline
 90
        9
 70
   128
 43
0.0
 10
118.1557060687
 20
69.7946803622
 10
118.0581612048
 20
69.6971354984
 10
117.9643649144
 20
69.6033387423
 10
117.8779214157
 20
69.5168952436
 10
117.8021527363
 20
69.4411270298
 10
117.7399720533
 20
69.3789458812
 10
117.6937663464
 20
69.3327406399
 10
117.6653135104
 20
69.3042878039
 10
117.6557059867
 20
69.2946802803
  0
LINE
  5
DA
330
1F
100
AcDbEntity
  8
0
  6
Continuous
 62
     7
370
    25
100
AcDbLine
 10
133.1557066647
 20
84.2946808763
 30
0.0
 11
133.1557066647
 21
83.7946803287
 31
0.0
  0
LINE
  5
DB
330
1F
100
AcDbEntity
  8
0
  6
Continuous
 62
     7
370
    25
100
AcDbLine
 10
134.1557068286
 20
79.1669617385
 30
0.0
 11
134.1557068286
 21
82.2946805485
 31
0.0
  0
LINE
  5
DC
330
1F
100
AcDbEntity
  8
0
  6
Continuous
 62
     7
370
    25
100
AcDbLine
 10
134.6557069106
 20
82.7946806304
 30
0.0
 11
134.6557069106
 21
80.4177861639
 31
0.0
  0
SPLINE
  5
DD
330
1F
100
AcDbEntity
  8
0
  6
Continuous
 62
     7
370
    25
100
AcDbSpline
210
0.0
220
0.0
230
1.0
 70
     8
 71
     3
 72
     8
 73
     4
 74
     0
 42
0.000000001
 43
0.00000001
 40
0.0
 40
0.0
 40
0.0
 40
0.0
 40
1.0
 40
1.0
 40
1.0
 40
1.0
 10
134.5799047730867
 20
79.16696181960516
 30
0.0
 10
134.6239509258758
 20
79.5862131589995
 30
0.0
 10
134.6557064486393
 20
80.00373612276057
 30
0.0
 10
134.6557064486393
 20
80.41778612195384
 30
0.0
  0
LINE
  5
DE
330
1F
100
AcDbEntity
  8
0
  6
Continuous
 62
     7
370
    25
100
AcDbLine
 10
118.1557060687
 20
73.4223992542
 30
0.0
 11
118.1557060687
 21
69.7946803622
 31
0.0
  0
LINE
  5
DF
330
1F
100
AcDbEntity
  8
0
  6
Continuous
 62
     7
370
    25
100
AcDbLine
 10
117.6557059867
 20
69.2946802803
 30
0.0
 11
117.6557059867
 21
72.1715748288
 31
0.0
  0
SPLINE
  5
E0
330
1F
100
AcDbEntity
  8
0
  6
Continuous
 62
     7
370
    25
100
AcDbSpline
210
0.0
220
0.0
230
1.0
 70
     8
 71
     3
 72
     8
 73
     4
 74
     0
 42
0.000000001
 43
0.00000001
 40
0.0
 40
0.0
 40
0.0
 40
0.0
 40
1.0
 40
1.0
 40
1.0
 40
1.0
 10
117.7315081241919
 20
73.42239917306719
 30
0.0
 10
117.6874619714029
 20
73.00314783367284
 30
0.0
 10
117.6557064486393
 20
72.58562486991177
 30
0.0
 10
117.6557064486393
 20
72.17157487071852
 30
0.0
  0
LINE
  5
E1
330
1F
100
AcDbEntity
  8
0
  6
Continuous
 62
     7
370
    25
100
AcDbLine
 10
123.2834252065
 20
83.7946803287
 30
0.0
 11
119.6557063145
 21
83.7946803287
 31
0.0
  0
LINE
  5
E2
330
1F
100
AcDbEntity
  8
0
  6
Continuous
 62
     7
370
    25
100
AcDbLine
 10
119.1557062326
 20
84.2946808763
 30
0.0
 11
122.0326007811
 21
84.2946808763
 31
0.0
  0
SPLINE
  5
E3
330
1F
100
AcDbEntity
  8
0
  6
Continuous
 62
     7
370
    25
100
AcDbSpline
210
0.0
220
0.0
230
1.0
 70
     8
 71
     3
 72
     8
 73
     4
 74
     0
 42
0.000000001
 43
0.00000001
 40
0.0
 40
0.0
 40
0.0
 40
0.0
 40
1.0
 40
1.0
 40
1.0
 40
1.0
 10
123.2834251253703
 20
84.21887882078354
 30
0.0
 10
122.864173785976
 20
84.26292497357261
 30
0.0
 10
122.4466508222149
 20
84.29468049633618
 30
0.0
 10
122.0326008230217
 20
84.29468049633618
 30
0.0
  0
SPLINE
  5
E4
330
1F
100
AcDbEntity
  8
0
  6
Continuous
 62
     7
370
    25
100
AcDbSpline
210
0.0
220
0.0
230
1.0
 70
     8
 71
     3
 72
     8
 73
     4
 74
     0
 42
0.000000001
 43
0.00000001
 40
0.0
 40
0.0
 40
0.0
 40
0.0
 40
1.0
 40
1.0
 40
1.0
 40
1.0
 10
122.2616622466671
 20
84.79468049633618
 30
0.0
 10
122.6481532862682
 20
84.79468049633618
 30
0.0
 10
123.040977427689
 20
84.7325175082855
 30
0.0
 10
123.4429963099965
 20
84.6430771452309
 30
0.0
  0
LINE
  5
E5
330
1F
100
AcDbEntity
  8
0
  6
Continuous
 62
     7
370
    25
100
AcDbLine
 10
119.0723728856
 20
84.7946809583
 30
0.0
 11
122.2616623623
 21
84.7946809583
 31
0.0
  0
LINE
  5
E6
330
1F
100
AcDbEntity
  8
0
  6
Continuous
 62
     7
370
    25
100
AcDbLine
 10
119.0723728856
 20
83.7946803287
 30
0.0
 11
119.0723728856
 21
84.7946809583
 31
0.0
  0
LINE
  5
E7
330
1F
100
AcDbEntity
  8
0
  6
Continuous
 62
     7
370
    25
100
AcDbLine
 10
133.2390400117
 20
84.7946809583
 30
0.0
 11
133.2390400117
 21
83.7946803287
 31
0.0
  0
LINE
  5
E8
330
1F
100
AcDbEntity
  8
0
  6
Continuous
 62
     7
370
    25
100
AcDbLine
 10
130.049750535
 20
84.7946809583
 30
0.0
 11
133.2390400117
 21
84.7946809583
 31
0.0
  0
SPLINE
  5
E9
330
1F
100
AcDbEntity
  8
0
  6
Continuous
 62
     7
370
    25
100
AcDbSpline
210
0.0
220
0.0
230
1.0
 70
     8
 71
     3
 72
     8
 73
     4
 74
     0
 42
0.000000001
 43
0.00000001
 40
0.0
 40
0.0
 40
0.0
 40
0.0
 40
1.0
 40
1.0
 40
1.0
 40
1.0
 10
128.8684165872823
 20
84.64307714523092
 30
0.0
 10
129.2704354695897
 20
84.73251750828551
 30
0.0
 10
129.6632596110105
 20
84.79468049633618
 30
0.0
 10
130.0497506506115
 20
84.79468049633618
 30
0.0
  0
LINE
  5
EA
330
1F
100
AcDbEntity
  8
0
  6
Continuous
 62
     7
370
    25
100
AcDbLine
 10
130.306180427
 20
73.0511473004
 30
0.0
 11
130.0386263525
 21
73.7652142044
 31
0.0
  0
ELLIPSE
  5
EB
330
1F
100
AcDbEntity
  8
0
  6
Continuous
 62
     7
370
    25
100
AcDbEllipse
 10
130.2358183027
 20
73.0271947033
 30
0.0
 11
0.0747150823706022
 21
2.842170943040401E-14
 31
0.0
210
0.0
220
0.0
230
1.0
 40
0.9531667975
 41
4.712388980384341
 42
6.626209245754559
  0
ELLIPSE
  5
EC
330
1F
100
AcDbEntity
  8
0
  6
Continuous
 62
     7
370
    25
100
AcDbEllipse
 10
129.9682639612
 20
73.7412616691
 30
0.0
 11
0.07471508237068747
 21
0.0
 31
0.0
210
0.0
220
0.0
230
1.0
 40
0.9531667975
 41
0.3430239404208581
 42
2.798568713168619
  0
LINE
  5
ED
330
1F
100
AcDbEntity
  8
0
  6
Continuous
 62
     7
370
    25
100
AcDbLine
 10
129.8979016488
 20
73.7652142044
 30
0.0
 11
129.6303473415
 21
73.0511473004
 31
0.0
  0
ELLIPSE
  5
EE
330
1F
100
AcDbEntity
  8
0
  6
Continuous
 62
     7
370
    25
100
AcDbEllipse
 10
129.7007096166
 20
73.0271947033
 30
0.0
 11
-0.07471508237068747
 21
0.0
 31
0.0
210
0.0
220
0.0
230
1.0
 40
0.9531667975
 41
5.94016136489802
 42
7.853981633974483
  0
LINE
  5
EF
330
1F
100
AcDbEntity
  8
0
  6
Continuous
 62
     7
370
    25
100
AcDbLine
 10
129.7007096933
 20
72.9559787061
 30
0.0
 11
130.2358180752
 21
72.9559787061
 31
0.0
  0
LINE
  5
F0
330
1F
100
AcDbEntity
  8
0
  6
Continuous
 62
     7
370
    25
100
AcDbLine
 10
127.4733965752
 20
72.6461057995
 30
0.0
 11
127.4279511768
 21
72.6711150702
 31
0.0
  0
LINE
  5
F1
330
1F
100
AcDbEntity
  8
0
  6
Continuous
 62
     7
370
    25
100
AcDbLine
 10
129.4475748205
 20
76.0579748814
 30
0.0
 11
128.3380057199
 21
72.9556681101
 31
0.0
  0
ELLIPSE
  5
F2
330
1F
100
AcDbEntity
  8
0
  6
Continuous
 62
     7
370
    25
100
AcDbEllipse
 10
127.7722569249
 20
73.1395043722
 30
0.0
 11
-0.5977206589639081
 21
5.684341886080801E-14
 31
0.0
210
0.0
220
0.0
230
1.0
 40
0.9531667975
 41
1.047197551195608
 42
2.813039483037407
  0
ELLIPSE
  5
F3
330
1F
100
AcDbEntity
  8
0
  6
Continuous
 62
     7
370
    25
100
AcDbEllipse
 10
129.9682639594
 20
75.8268711791
 30
0.0
 11
0.5743721957241235
 21
1.250555214937776E-12
 31
0.0
210
0.0
220
0.0
230
1.0
 40
0.9531667975
 41
0.4357918987530124
 42
2.705800754832496
  0
ELLIPSE
  5
F4
330
1F
100
AcDbEntity
  8
0
  6
Continuous
 62
     7
370
    25
100
AcDbEllipse
 10
128.1963366504
 20
71.3655596213
 30
0.0
 11
0.07471508237068747
 21
0.0
 31
0.0
210
0.0
220
0.0
230
1.0
 40
0.9531667975
 41
3.605240262592214
 42
5.46218331021342
  0
LINE
  5
F5
330
1F
100
AcDbEntity
  8
0
  6
Continuous
 62
     7
370
    25
100
AcDbLine
 10
132.5085767081
 20
72.6711150702
 30
0.0
 11
132.4718802703
 21
72.6501444798
 31
0.0
  0
LINE
  5
F6
330
1F
100
AcDbEntity
  8
0
  6
Continuous
 62
     7
370
    25
100
AcDbLine
 10
131.8070183975
 20
71.3337109402
 30
0.0
 11
132.5085767081
 21
72.6711150702
 31
0.0
  0
LINE
  5
F7
330
1F
100
AcDbEntity
  8
0
  6
Continuous
 62
     7
370
    25
100
AcDbLine
 10
127.4279511768
 20
72.6711150702
 30
0.0
 11
128.1295093709
 21
71.3337109402
 31
0.0
  0
ELLIPSE
  5
F8
330
1F
100
AcDbEntity
  8
0
  6
Continuous
 62
     7
370
    25
100
AcDbEllipse
 10
132.1645296245
 20
73.1387812526
 30
0.0
 11
-0.5977206589648176
 21
-1.705302565824240E-13
 31
0.0
210
0.0
220
0.0
230
1.0
 40
0.9531667975
 41
0.3285531705514217
 42
2.110876526947222
  0
LINE
  5
F9
330
1F
100
AcDbEntity
  8
0
  6
Continuous
 62
     7
370
    25
100
AcDbLine
 10
131.5987807234
 20
72.9549449381
 30
0.0
 11
130.4889529479
 21
76.0579748814
 31
0.0
  0
ELLIPSE
  5
FA
330
1F
100
AcDbEntity
  8
0
  6
Continuous
 62
     7
370
    25
100
AcDbEllipse
 10
129.9682639594
 20
69.5518570367
 30
0.0
 11
2.525369784127122
 21
-1.563194018672220E-13
 31
0.0
210
0.0
220
0.0
230
1.0
 40
0.9531667975
 41
0.8210019969639314
 42
2.32059065662548
  0
ELLIPSE
  5
FB
330
1F
100
AcDbEntity
  8
0
  6
Continuous
 62
     7
370
    25
100
AcDbEllipse
 10
131.7401912684
 20
71.3655596213
 30
0.0
 11
0.07471508237063063
 21
2.842170943040401E-14
 31
0.0
210
0.0
220
0.0
230
1.0
 40
0.9531667976
 41
3.962594650565601
 42
5.819537698169127
  0
SPLINE
  5
FC
330
1F
100
AcDbEntity
  8
0
  6
Continuous
 62
     7
370
    25
100
AcDbSpline
210
0.0
220
0.0
230
1.0
 70
     8
 71
     3
 72
     8
 73
     4
 74
     0
 42
0.000000001
 43
0.00000001
 40
0.0
 40
0.0
 40
0.0
 40
0.0
 40
1.0
 40
1.0
 40
1.0
 40
1.0
 10
135.1557064486393
 20
80.18872469830842
 30
0.0
 10
135.1557064486393
 20
79.80223365870737
 30
0.0
 10
135.0935434605886
 20
79.4094095172865
 30
0.0
 10
135.0041030975341
 20
79.00739063497909
 30
0.0
  0
LINE
  5
FD
330
1F
100
AcDbEntity
  8
0
  6
Continuous
 62
     7
370
    25
100
AcDbLine
 10
135.1557060612
 20
82.9057916045
 30
0.0
 11
135.1557060612
 21
80.1887245827
 31
0.0
  0
LINE
  5
FE
330
1F
100
AcDbEntity
  8
0
  6
Continuous
 62
     7
370
    25
100
AcDbLine
 10
134.1557068286
 20
82.9057916045
 30
0.0
 11
135.1557060612
 21
82.9057916045
 31
0.0
  0
SPLINE
  5
FF
330
1F
100
AcDbEntity
  8
0
  6
Continuous
 62
     7
370
    25
100
AcDbSpline
210
0.0
220
0.0
230
1.0
 70
     8
 71
     3
 72
    14
 73
    10
 74
     0
 42
0.000000001
 43
0.00000001
 40
0.0
 40
0.0
 40
0.0
 40
0.0
 40
0.2499999999999995
 40
0.2499999999999995
 40
0.499999999999999
 40
0.499999999999999
 40
0.7499999999999984
 40
0.7499999999999984
 40
1.0
 40
1.0
 40
1.0
 40
1.0
 10
133.6557064486393
 20
83.3780138296695
 30
0.0
 10
133.6557064486393
 20
83.33006248714244
 30
0.0
 10
133.6632373386373
 20
83.28154866556939
 30
0.0
 10
133.6967178662696
 20
83.18379829503345
 30
0.0
 10
133.7228270691947
 20
83.13450512466605
 30
0.0
 10
133.7991180568367
 20
83.04183007568366
 30
0.0
 10
133.8500551376293
 20
82.99739726181924
 30
0.0
 10
133.9843437346531
 20
82.92856225334494
 30
0.0
 10
134.0679106623127
 20
82.90579160744728
 30
0.0
 10
134.1557064486393
 20
82.9057916074473
 30
0.0
  0
SPLINE
  5
100
330
1F
100
AcDbEntity
  8
0
  6
Continuous
 62
     7
370
    25
100
AcDbSpline
210
0.0
220
0.0
230
1.0
 70
     8
 71
     3
 72
    14
 73
    10
 74
     0
 42
0.000000001
 43
0.00000001
 40
0.0
 40
0.0
 40
0.0
 40
0.0
 40
0.25
 40
0.25
 40
0.5
 40
0.5
 40
0.75
 40
0.75
 40
1.0
 40
1.0
 40
1.0
 40
1.0
 10
118.1557064486393
 20
82.90579160744728
 30
0.0
 10
118.243502234966
 20
82.90579160744728
 30
0.0
 10
118.3270691626256
 20
82.92856225334494
 30
0.0
 10
118.4613577596494
 20
82.99739726181924
 30
0.0
 10
118.512294840442
 20
83.04183007568366
 30
0.0
 10
118.588585828084
 20
83.13450512466605
 30
0.0
 10
118.6146950310091
 20
83.18379829503345
 30
0.0
 10
118.6481755586413
 20
83.28154866556939
 30
0.0
 10
118.6557064486393
 20
83.33006248714244
 30
0.0
 10
118.6557064486393
 20
83.37801382966951
 30
0.0
  0
LINE
  5
101
330
1F
100
AcDbEntity
  8
0
  6
Continuous
 62
     7
370
    25
100
AcDbLine
 10
117.1557068361
 20
82.9057916045
 30
0.0
 11
118.1557060687
 21
82.9057916045
 31
0.0
  0
LINE
  5
102
330
1F
100
AcDbEntity
  8
0
  6
Continuous
 62
     7
370
    25
100
AcDbLine
 10
117.1557068361
 20
80.1887245827
 30
0.0
 11
117.1557068361
 21
82.9057916045
 31
0.0
  0
SPLINE
  5
103
330
1F
100
AcDbEntity
  8
0
  6
Continuous
 62
     7
370
    25
100
AcDbSpline
210
0.0
220
0.0
230
1.0
 70
     8
 71
     3
 72
     8
 73
     4
 74
     0
 42
0.000000001
 43
0.00000001
 40
0.0
 40
0.0
 40
0.0
 40
0.0
 40
1.0
 40
1.0
 40
1.0
 40
1.0
 10
117.3073097997446
 20
79.00739063497902
 30
0.0
 10
117.21786943669
 20
79.40940951728645
 30
0.0
 10
117.1557064486393
 20
79.80223365870735
 30
0.0
 10
117.1557064486393
 20
80.18872469830842
 30
0.0
  0
SPLINE
  5
104
330
1F
100
AcDbEntity
  8
0
  6
Continuous
 62
     7
370
    25
100
AcDbSpline
210
0.0
220
0.0
230
1.0
 70
     8
 71
     3
 72
     8
 73
     4
 74
     0
 42
0.000000001
 43
0.00000001
 40
0.0
 40
0.0
 40
0.0
 40
0.0
 40
1.0
 40
1.0
 40
1.0
 40
1.0
 10
117.1557064486393
 20
72.40063629436393
 30
0.0
 10
117.1557064486393
 20
72.787127333965
 30
0.0
 10
117.21786943669
 20
73.17995147538589
 30
0.0
 10
117.3073097997446
 20
73.58197035769332
 30
0.0
  0
LINE
  5
105
330
1F
100
AcDbEntity
  8
0
  6
Continuous
 62
     7
370
    25
100
AcDbLine
 10
117.1557068361
 20
69.2113469333
 30
0.0
 11
117.1557068361
 21
72.40063641
 31
0.0
  0
LINE
  5
106
330
1F
100
AcDbEntity
  8
0
  6
Continuous
 62
     7
370
    25
100
AcDbLine
 10
135.1557060612
 20
69.2113469333
 30
0.0
 11
117.1557068361
 21
69.2113469333
 31
0.0
  0
LINE
  5
107
330
1F
100
AcDbEntity
  8
0
  6
Continuous
 62
     7
370
    25
100
AcDbLine
 10
135.1557060612
 20
72.40063641
 30
0.0
 11
135.1557060612
 21
69.2113469333
 31
0.0
  0
SPLINE
  5
108
330
1F
100
AcDbEntity
  8
0
  6
Continuous
 62
     7
370
    25
100
AcDbSpline
210
0.0
220
0.0
230
1.0
 70
     8
 71
     3
 72
     8
 73
     4
 74
     0
 42
0.000000001
 43
0.00000001
 40
0.0
 40
0.0
 40
0.0
 40
0.0
 40
1.0
 40
1.0
 40
1.0
 40
1.0
 10
135.0041030975341
 20
73.58197035769331
 30
0.0
 10
135.0935434605886
 20
73.17995147538588
 30
0.0
 10
135.1557064486393
 20
72.78712733396499
 30
0.0
 10
135.1557064486393
 20
72.40063629436393
 30
0.0
  0
LWPOLYLINE
  5
109
330
1F
100
AcDbEntity
  8
0
  6
Continuous
 62
     7
370
    25
100
AcDbPolyline
 90
        9
 70
   128
 43
0.0
 10
117.1557068361
 20
80.1887245827
 10
117.2532516999
 20
80.1931260132
 10
117.3470479903
 20
80.2061608039
 10
117.4334914891
 20
80.2273283691
 10
117.5092601685
 20
80.2558151983
 10
117.5714408515
 20
80.290526522
 10
117.6176465584
 20
80.3301282205
 10
117.6460993943
 20
80.3730985128
 10
117.6557059867
 20
80.4177861639
  0
LWPOLYLINE
  5
10A
330
1F
100
AcDbEntity
  8
0
  6
Continuous
 62
     7
370
    25
100
AcDbPolyline
 90
        9
 70
   128
 43
0.0
 10
135.1557060612
 20
72.40063641
 10
135.0581611974
 20
72.3962349795
 10
134.9643649069
 20
72.3832001888
 10
134.8779214082
 20
72.3620326236
 10
134.8021527288
 20
72.3335457944
 10
134.7399720458
 20
72.2988344707
 10
134.6937663389
 20
72.2592327722
 10
134.6653135029
 20
72.2162624799
 10
134.6557069106
 20
72.1715748288
  0
LWPOLYLINE
  5
10B
330
1F
100
AcDbEntity
  8
0
  6
Continuous
 62
     7
370
    25
100
AcDbPolyline
 90
        9
 70
   128
 43
0.0
 10
130.049750535
 20
84.7946809583
 10
130.0541519655
 20
84.6971351631
 10
130.0671867562
 20
84.6033388727
 10
130.0883543214
 20
84.5168953739
 10
130.1168411506
 20
84.4411266946
 10
130.1515524743
 20
84.3789460115
 10
130.1911541728
 20
84.3327403047
 10
130.2341244651
 20
84.3042874687
 10
130.2788121162
 20
84.2946808763
  0
LWPOLYLINE
  5
10C
330
1F
100
AcDbEntity
  8
0
  6
Continuous
 62
     7
370
    25
100
AcDbPolyline
 90
        9
 70
   128
 43
0.0
 10
134.6557069106
 20
80.4177861639
 10
134.6653135029
 20
80.3730985128
 10
134.6937663389
 20
80.3301282205
 10
134.7399720458
 20
80.290526522
 10
134.8021527288
 20
80.2558151983
 10
134.8779214082
 20
80.2273283691
 10
134.9643649069
 20
80.2061608039
 10
135.0581611974
 20
80.1931260132
 10
135.1557060612
 20
80.1887245827
  0
LWPOLYLINE
  5
10D
330
1F
100
AcDbEntity
  8
0
  6
Continuous
 62
     7
370
    25
100
AcDbPolyline
 90
        9
 70
   128
 43
0.0
 10
122.0326007811
 20
84.2946808763
 10
122.0772884322
 20
84.3042874687
 10
122.1202587245
 20
84.3327403047
 10
122.159860423
 20
84.3789460115
 10
122.1945717467
 20
84.4411266946
 10
122.2230585759
 20
84.5168953739
 10
122.2442261411
 20
84.6033388727
 10
122.2572609318
 20
84.6971351631
 10
122.2616623623
 20
84.7946809583
  0
LWPOLYLINE
  5
10E
330
1F
100
AcDbEntity
  8
0
  6
Continuous
 62
     7
370
    25
100
AcDbPolyline
 90
        9
 70
   128
 43
0.0
 10
117.1557068361
 20
72.40063641
 10
117.2532516999
 20
72.3962349795
 10
117.3470479903
 20
72.3832001888
 10
117.4334914891
 20
72.3620326236
 10
117.5092601685
 20
72.3335457944
 10
117.5714408515
 20
72.2988344707
 10
117.6176465584
 20
72.2592327722
 10
117.6460993943
 20
72.2162624799
 10
117.6557059867
 20
72.1715748288
  0
SPLINE
  5
10F
330
1F
100
AcDbEntity
  8
0
  6
Continuous
 62
     7
370
    25
100
AcDbSpline
210
0.0
220
0.0
230
1.0
 70
    24
 71
     3
 72
    10
 73
     6
 74
     0
 42
0.000000001
 43
0.00000001
 40
0.0
 40
0.0
 40
0.0
 40
0.0
 40
0.5
 40
0.5
 40
1.0
 40
1.0
 40
1.0
 40
1.0
 10
119.1557064486392
 20
84.29468049633618
 30
0.0
 10
119.1557064486392
 20
84.29468049633618
 30
0.0
 10
119.1557064486393
 20
84.3115255118901
 30
0.0
 10
119.1557064486393
 20
84.38088522951769
 30
0.0
 10
119.1557064486393
 20
84.43208471557077
 30
0.0
 10
119.1557064486393
 20
84.51170287202768
 30
0.0
  0
SPLINE
  5
110
330
1F
100
AcDbEntity
  8
0
  6
Continuous
 62
     7
370
    25
100
AcDbSpline
210
0.0
220
0.0
230
1.0
 70
     8
 71
     3
 72
     8
 73
     4
 74
     0
 42
0.000000001
 43
0.00000001
 40
0.0
 40
0.0
 40
0.0
 40
0.0
 40
1.0
 40
1.0
 40
1.0
 40
1.0
 10
119.1557064486393
 20
84.5117028720278
 30
0.0
 10
119.1557064486393
 20
84.59982672948648
 30
0.0
 10
119.1244362550355
 20
84.69776420218547
 30
0.0
 10
119.072373115306
 20
84.79468049633618
 30
0.0
  0
SPLINE
  5
111
330
1F
100
AcDbEntity
  8
0
  6
Continuous
 62
     7
370
    25
100
AcDbSpline
210
0.0
220
0.0
230
1.0
 70
     8
 71
     3
 72
     8
 73
     4
 74
     0
 42
0.000000001
 43
0.00000001
 40
0.0
 40
0.0
 40
0.0
 40
0.0
 40
1.0
 40
1.0
 40
1.0
 40
1.0
 10
117.476940719113
 20
82.79468049633617
 30
0.0
 10
117.3800169826205
 20
82.79468049633617
 30
0.0
 10
117.2670114945306
 20
82.83780305473178
 30
0.0
 10
117.1557064486393
 20
82.90579160744728
 30
0.0
  0
SPLINE
  5
112
330
1F
100
AcDbEntity
  8
0
  6
Continuous
 62
     7
370
    25
100
AcDbSpline
210
0.0
220
0.0
230
1.0
 70
    24
 71
     3
 72
    10
 73
     6
 74
     0
 42
0.000000001
 43
0.00000001
 40
0.0
 40
0.0
 40
0.0
 40
0.0
 40
0.5
 40
0.5
 40
1.0
 40
1.0
 40
1.0
 40
1.0
 10
117.476940719113
 20
82.79468049633617
 30
0.0
 10
117.5399907416482
 20
82.79468049633617
 30
0.0
 10
117.583297965954
 20
82.79468049633617
 30
0.0
 10
117.6414891416163
 20
82.79468049633617
 30
0.0
 10
117.6557064486393
 20
82.79468049633617
 30
0.0
 10
117.6557064486393
 20
82.79468049633617
 30
0.0
  0
SPLINE
  5
113
330
1F
100
AcDbEntity
  8
0
  6
Continuous
 62
     7
370
    25
100
AcDbSpline
210
0.0
220
0.0
230
1.0
 70
     8
 71
     3
 72
     8
 73
     4
 74
     0
 42
0.000000001
 43
0.00000001
 40
0.0
 40
0.0
 40
0.0
 40
0.0
 40
1.0
 40
1.0
 40
1.0
 40
1.0
 10
117.4386840729477
 20
69.29468049633618
 30
0.0
 10
117.350560215489
 20
69.29468049633618
 30
0.0
 10
117.252622742787
 20
69.26341030273412
 30
0.0
 10
117.1557064486393
 20
69.21134716300284
 30
0.0
  0
SPLINE
  5
114
330
1F
100
AcDbEntity
  8
0
  6
Continuous
 62
     7
370
    25
100
AcDbSpline
210
0.0
220
0.0
230
1.0
 70
    24
 71
     3
 72
    10
 73
     6
 74
     0
 42
0.000000001
 43
0.00000001
 40
0.0
 40
0.0
 40
0.0
 40
0.0
 40
0.5
 40
0.5
 40
1.0
 40
1.0
 40
1.0
 40
1.0
 10
117.6557064486393
 20
69.29468049633606
 30
0.0
 10
117.6557064486393
 20
69.29468049633606
 30
0.0
 10
117.6388614330854
 20
69.29468049633617
 30
0.0
 10
117.5695017154578
 20
69.29468049633618
 30
0.0
 10
117.5183022294047
 20
69.29468049633618
 30
0.0
 10
117.4386840729478
 20
69.29468049633618
 30
0.0
  0
SPLINE
  5
115
330
1F
100
AcDbEntity
  8
0
  6
Continuous
 62
     7
370
    25
100
AcDbSpline
210
0.0
220
0.0
230
1.0
 70
     8
 71
     3
 72
     8
 73
     4
 74
     0
 42
0.000000001
 43
0.00000001
 40
0.0
 40
0.0
 40
0.0
 40
0.0
 40
1.0
 40
1.0
 40
1.0
 40
1.0
 10
134.8727288243309
 20
69.29468049633618
 30
0.0
 10
134.9608526817896
 20
69.29468049633618
 30
0.0
 10
135.0587901544916
 20
69.26341030273412
 30
0.0
 10
135.1557064486393
 20
69.21134716300284
 30
0.0
  0
SPLINE
  5
116
330
1F
100
AcDbEntity
  8
0
  6
Continuous
 62
     7
370
    25
100
AcDbSpline
210
0.0
220
0.0
230
1.0
 70
    24
 71
     3
 72
    10
 73
     6
 74
     0
 42
0.000000001
 43
0.00000001
 40
0.0
 40
0.0
 40
0.0
 40
0.0
 40
0.5
 40
0.5
 40
1.0
 40
1.0
 40
1.0
 40
1.0
 10
134.8727288243309
 20
69.29468049633618
 30
0.0
 10
134.7933916619094
 20
69.29468049633618
 30
0.0
 10
134.7418963533984
 20
69.29468049633617
 30
0.0
 10
134.6727940121129
 20
69.29468049633618
 30
0.0
 10
134.6557064486394
 20
69.29468049633618
 30
0.0
 10
134.6557064486393
 20
69.29468049633618
 30
0.0
  0
SPLINE
  5
117
330
1F
100
AcDbEntity
  8
0
  6
Continuous
 62
     7
370
    25
100
AcDbSpline
210
0.0
220
0.0
230
1.0
 70
     8
 71
     3
 72
     8
 73
     4
 74
     0
 42
0.000000001
 43
0.00000001
 40
0.0
 40
0.0
 40
0.0
 40
0.0
 40
1.0
 40
1.0
 40
1.0
 40
1.0
 10
133.1557064486393
 20
84.51170287202777
 30
0.0
 10
133.1557064486393
 20
84.59982672948645
 30
0.0
 10
133.1869766422429
 20
84.69776420218585
 30
0.0
 10
133.2390397819727
 20
84.79468049633618
 30
0.0
  0
SPLINE
  5
118
330
1F
100
AcDbEntity
  8
0
  6
Continuous
 62
     7
370
    25
100
AcDbSpline
210
0.0
220
0.0
230
1.0
 70
    24
 71
     3
 72
    10
 73
     6
 74
     0
 42
0.000000001
 43
0.00000001
 40
0.0
 40
0.0
 40
0.0
 40
0.0
 40
0.5
 40
0.5
 40
1.0
 40
1.0
 40
1.0
 40
1.0
 10
133.1557064486393
 20
84.51170287202777
 30
0.0
 10
133.1557064486393
 20
84.43236570960622
 30
0.0
 10
133.1557064486393
 20
84.38087040109525
 30
0.0
 10
133.1557064486393
 20
84.31176805980972
 30
0.0
 10
133.1557064486393
 20
84.29468049633621
 30
0.0
 10
133.1557064486393
 20
84.29468049633618
 30
0.0
  0
SPLINE
  5
119
330
1F
100
AcDbEntity
  8
0
  6
Continuous
 62
     7
370
    25
100
AcDbSpline
210
0.0
220
0.0
230
1.0
 70
     8
 71
     3
 72
     8
 73
     4
 74
     0
 42
0.000000001
 43
0.00000001
 40
0.0
 40
0.0
 40
0.0
 40
0.0
 40
1.0
 40
1.0
 40
1.0
 40
1.0
 10
134.8344721781656
 20
82.79468049633617
 30
0.0
 10
134.9313959146581
 20
82.79468049633617
 30
0.0
 10
135.044401402748
 20
82.83780305473178
 30
0.0
 10
135.1557064486393
 20
82.90579160744728
 30
0.0
  0
SPLINE
  5
11A
330
1F
100
AcDbEntity
  8
0
  6
Continuous
 62
     7
370
    25
100
AcDbSpline
210
0.0
220
0.0
230
1.0
 70
    24
 71
     3
 72
    10
 73
     6
 74
     0
 42
0.000000001
 43
0.00000001
 40
0.0
 40
0.0
 40
0.0
 40
0.0
 40
0.5
 40
0.5
 40
1.0
 40
1.0
 40
1.0
 40
1.0
 10
134.6557064486393
 20
82.79468049633736
 30
0.0
 10
134.6557064486393
 20
82.79468049633736
 30
0.0
 10
134.6699244183551
 20
82.79468049633617
 30
0.0
 10
134.728100933146
 20
82.79468049633617
 30
0.0
 10
134.7714222904847
 20
82.79468049633617
 30
0.0
 10
134.8344721781656
 20
82.79468049633617
 30
0.0
  0
ARC
  5
11B
330
1F
100
AcDbEntity
  8
0
  6
Continuous
 62
     7
370
    25
100
AcDbCircle
 10
118.693901677
 20
83.8405129383
 30
0.0
 40
0.4640733516230685
100
AcDbArc
 50
265.2789919347
 51
354.3321397526
  0
LINE
  5
11C
330
1F
100
AcDbEntity
  8
0
  6
Continuous
 62
     7
370
    25
100
AcDbLine
 10
118.1557060687
 20
82.9057916045
 30
0.0
 11
118.1557060687
 21
82.7946806304
 31
0.0
  0
ARC
  5
11D
330
1F
100
AcDbEntity
  8
0
  6
Continuous
 62
     7
370
    25
100
AcDbCircle
 10
133.6175112203
 20
83.8405129383
 30
0.0
 40
0.4640733516230673
100
AcDbArc
 50
185.6678602474
 51
274.7210080653
  0
LINE
  5
11E
330
1F
100
AcDbEntity
  8
0
  6
Continuous
 62
     7
370
    25
100
AcDbLine
 10
134.1557068286
 20
82.7946806304
 30
0.0
 11
134.1557068286
 21
82.9057916045
 31
0.0
  0
ARC
  5
11F
330
1F
100
AcDbEntity
  8
0
  6
Continuous
 62
     7
370
    25
100
AcDbCircle
 10
133.8571038643
 20
83.996077912
 30
0.0
 40
0.650049161519632
100
AcDbArc
 50
198.0483231264
 51
251.9516768736
  0
LINE
  5
120
330
1F
100
AcDbEntity
  8
0
  6
Continuous
 62
     7
370
    25
100
AcDbLine
 10
133.2390400117
 20
83.7946803287
 30
0.0
 11
133.1557066647
 21
83.7946803287
 31
0.0
  0
ARC
  5
121
330
1F
100
AcDbEntity
  8
0
  6
Continuous
 62
     7
370
    25
100
AcDbCircle
 10
118.454309033
 20
83.996077912
 30
0.0
 40
0.650049161519632
100
AcDbArc
 50
288.0483231264
 51
341.9516768736
  0
LINE
  5
122
330
1F
100
AcDbEntity
  8
0
  6
Continuous
 62
     7
370
    25
100
AcDbLine
 10
119.1557062326
 20
83.7946803287
 30
0.0
 11
119.0723728856
 21
83.7946803287
 31
0.0
  0
LINE
  5
123
330
1F
100
AcDbEntity
  8
0
  6
Continuous
 62
     8
370
    25
100
AcDbLine
 10
142.1557072086
 20
87.5446809434
 30
0.0
 11
142.1557072086
 21
65.0446800493
 31
0.0
  0
LINE
  5
124
330
1F
100
AcDbEntity
  8
0
  6
Continuous
 62
     8
370
    25
100
AcDbLine
 10
114.9057060016
 20
92.2946812563
 30
0.0
 11
137.4057068957
 21
92.2946812563
 31
0.0
  0
LINE
  5
125
330
1F
100
AcDbEntity
  8
0
  6
Continuous
 62
     8
370
    25
100
AcDbLine
 10
110.1557056887
 20
76.2946804963
 30
0.0
 11
110.1557056887
 21
87.5446809434
 31
0.0
  0
LINE
  5
126
330
1F
100
AcDbEntity
  8
0
  6
Continuous
 62
     8
370
    25
100
AcDbLine
 10
110.1557056887
 20
65.0446800493
 30
0.0
 11
110.1557056887
 21
76.2946804963
 31
0.0
  0
LINE
  5
127
330
1F
100
AcDbEntity
  8
0
  6
Continuous
 62
     8
370
    25
100
AcDbLine
 10
134.6557069106
 20
90.2946809285
 30
0.0
 11
117.6557059867
 21
90.2946809285
 31
0.0
  0
LINE
  5
128
330
1F
100
AcDbEntity
  8
0
  6
Continuous
 62
     8
370
    25
100
AcDbLine
 10
140.1557068808
 20
67.7946800344
 30
0.0
 11
140.1557068808
 21
84.7946809583
 31
0.0
  0
LINE
  5
129
330
1F
100
AcDbEntity
  8
0
  6
Continuous
 62
     8
370
    25
100
AcDbLine
 10
112.1557060165
 20
76.2946804963
 30
0.0
 11
112.1557060165
 21
67.7946800344
 31
0.0
  0
LINE
  5
12A
330
1F
100
AcDbEntity
  8
0
  6
Continuous
 62
     8
370
    25
100
AcDbLine
 10
112.1557060165
 20
84.7946809583
 30
0.0
 11
112.1557060165
 21
76.2946804963
 31
0.0
  0
LWPOLYLINE
  5
12B
330
1F
100
AcDbEntity
  8
0
  6
Continuous
 62
     8
370
    25
100
AcDbPolyline
 90
       10
 70
   128
 43
0.0
 10
117.6557059867
 20
85.2946801089
 10
117.6736982075
 20
85.2756299056
 10
117.7275985015
 20
85.2185593896
 10
117.8171777634
 20
85.1237107046
 10
117.9420578761
 20
84.9914852508
 10
118.1017098484
 20
84.8224418216
 10
118.2954575402
 20
84.6172975354
 10
118.5224804563
 20
84.3769194536
 10
118.7818184031
 20
84.1023264431
 10
119.0723728856
 20
83.7946803287
  0
LWPOLYLINE
  5
12C
330
1F
100
AcDbEntity
  8
0
  6
Continuous
 62
     8
370
    25
100
AcDbPolyline
 90
       10
 70
   128
 43
0.0
 10
133.2390400117
 20
83.7946803287
 10
133.5295944942
 20
84.1023264431
 10
133.788932441
 20
84.3769194536
 10
134.015955357
 20
84.6172975354
 10
134.2097030489
 20
84.8224418216
 10
134.3693550212
 20
84.9914852508
 10
134.4942351339
 20
85.1237107046
 10
134.5838143958
 20
85.2185593896
 10
134.6377146898
 20
85.2756299056
 10
134.6557069106
 20
85.2946801089
  0
LWPOLYLINE
  5
12D
330
1F
100
AcDbEntity
  8
0
  6
Continuous
 62
     8
370
    25
100
AcDbPolyline
 90
       10
 70
   128
 43
0.0
 10
135.1557060612
 20
84.7946809583
 10
135.1366558579
 20
84.7766887375
 10
135.0795853419
 20
84.7227884434
 10
134.9847366569
 20
84.6332091816
 10
134.8525112031
 20
84.5083290689
 10
134.6834677739
 20
84.3486770965
 10
134.4783234877
 20
84.1549294047
 10
134.2379454059
 20
83.9279064887
 10
133.9633523954
 20
83.6685685419
 10
133.655706281
 20
83.3780140594
  0
LWPOLYLINE
  5
12E
330
1F
100
AcDbEntity
  8
0
  6
Continuous
 62
     8
370
    25
100
AcDbPolyline
 90
       10
 70
   128
 43
0.0
 10
118.6557066163
 20
83.3780140594
 10
118.3480605019
 20
83.6685685419
 10
118.0734674914
 20
83.9279064887
 10
117.8330894096
 20
84.1549294047
 10
117.6279451234
 20
84.3486770965
 10
117.4589016942
 20
84.5083290689
 10
117.3266762403
 20
84.6332091816
 10
117.2318275554
 20
84.7227884434
 10
117.1747570393
 20
84.7766887375
 10
117.1557068361
 20
84.7946809583
  0
LINE
  5
12F
330
1F
100
AcDbEntity
  8
0
  6
CENTERX2
 62
     7
370
    18
100
AcDbLine
 10
126.1557064486
 20
65.8581554437
 30
0.0
 11
126.1557064486
 21
106.7946804963
 31
0.0
  0
LINE
  5
130
330
1F
100
AcDbEntity
  8
0
  6
CENTERX2
 62
     7
370
    18
100
AcDbLine
 10
95.6557064486
 20
76.2946804963
 30
0.0
 11
156.6557064486
 21
76.2946804963
 31
0.0
  0
LINE
  5
131
330
1F
100
AcDbEntity
  8
0
  6
Continuous
 62
     7
370
    25
100
AcDbLine
 10
208.2271080954
 20
104.7946805112
 30
0.0
 11
207.7271080135
 21
105.2946796619
 31
0.0
  0
LINE
  5
132
330
1F
100
AcDbEntity
  8
0
  6
Continuous
 62
     7
370
    25
100
AcDbLine
 10
186.2271072833
 20
105.2946796619
 30
0.0
 11
185.7271072014
 21
104.7946805112
 31
0.0
  0
LINE
  5
133
330
1F
100
AcDbEntity
  8
0
  6
Continuous
 62
     7
370
    25
100
AcDbLine
 10
185.7271072014
 20
104.7946805112
 30
0.0
 11
185.7271072014
 21
92.2946812563
 31
0.0
  0
LINE
  5
134
330
1F
100
AcDbEntity
  8
0
  6
Continuous
 62
     7
370
    25
100
AcDbLine
 10
208.2271080954
 20
92.2946812563
 30
0.0
 11
208.2271080954
 21
104.7946805112
 31
0.0
  0
ARC
  5
135
330
1F
100
AcDbEntity
  8
0
  6
Continuous
 62
     7
370
    25
100
AcDbCircle
 10
186.7271076484
 20
92.2946804963
 30
0.0
 40
1.0
100
AcDbArc
 50
180.0
 51
270.0
  0
ARC
  5
136
330
1F
100
AcDbEntity
  8
0
  6
Continuous
 62
     7
370
    25
100
AcDbCircle
 10
207.2271076484
 20
92.2946804963
 30
0.0
 40
1.0
100
AcDbArc
 50
270.0
 51
0.0
  0
ARC
  5
137
330
1F
100
AcDbEntity
  8
0
  6
Continuous
 62
     7
370
    25
100
AcDbCircle
 10
187.4771076484
 20
90.2946804963
 30
0.0
 40
1.0
100
AcDbArc
 50
0.0
 51
90.0
  0
ARC
  5
138
330
1F
100
AcDbEntity
  8
0
  6
Continuous
 62
     7
370
    25
100
AcDbCircle
 10
206.4771076484
 20
90.2946804963
 30
0.0
 40
1.0
100
AcDbArc
 50
90.0
 51
180.0
  0
LINE
  5
139
330
1F
100
AcDbEntity
  8
0
  6
Continuous
 62
     7
370
    25
100
AcDbLine
 10
205.4771081104
 20
84.2946808763
 30
0.0
 11
205.4771081104
 21
90.2946809285
 31
0.0
  0
LINE
  5
13A
330
1F
100
AcDbEntity
  8
0
  6
Continuous
 62
     7
370
    25
100
AcDbLine
 10
188.4771071865
 20
90.2946809285
 30
0.0
 11
188.4771071865
 21
84.2946808763
 31
0.0
  0
CIRCLE
  5
13B
330
1F
100
AcDbEntity
  8
0
  6
Continuous
 62
     7
370
    25
100
AcDbCircle
 10
196.9771076484
 20
76.2946804963
 30
0.0
 40
9.775000000000006
  0
CIRCLE
  5
13C
330
1F
100
AcDbEntity
  8
0
  6
Continuous
 62
     7
370
    25
100
AcDbCircle
 10
196.9771076484
 20
76.2946804963
 30
0.0
 40
10.75000000000003
  0
CIRCLE
  5
13D
330
1F
100
AcDbEntity
  8
0
  6
Continuous
 62
     7
370
    25
100
AcDbCircle
 10
196.9771076484
 20
76.2946804963
 30
0.0
 40
11.25000000000003
  0
CIRCLE
  5
13E
330
1F
100
AcDbEntity
  8
0
  6
Continuous
 62
     7
370
    25
100
AcDbCircle
 10
196.9771076484
 20
76.2946804963
 30
0.0
 40
9.649999999999991
  0
CIRCLE
  5
13F
330
1F
100
AcDbEntity
  8
0
  6
Continuous
 62
     7
370
    25
100
AcDbCircle
 10
196.9771076484
 20
76.2946804963
 30
0.0
 40
9.525000000000006
  0
CIRCLE
  5
140
330
1F
100
AcDbEntity
  8
0
  6
Continuous
 62
     7
370
    25
100
AcDbCircle
 10
196.9771076484
 20
76.2946804963
 30
0.0
 40
8.5
  0
CIRCLE
  5
141
330
1F
100
AcDbEntity
  8
0
  6
Continuous
 62
     7
370
    25
100
AcDbCircle
 10
196.9771076484
 20
76.2946804963
 30
0.0
 40
7.872175816270385
  0
CIRCLE
  5
142
330
1F
100
AcDbEntity
  8
0
  6
Continuous
 62
     7
370
    25
100
AcDbCircle
 10
196.9771076484
 20
76.2946804963
 30
0.0
 40
7.547130357748898
  0
CIRCLE
  5
143
330
1F
100
AcDbEntity
  8
0
  6
Continuous
 62
     7
370
    25
100
AcDbCircle
 10
196.9771076484
 20
76.2946804963
 30
0.0
 40
7.475000000000023
  0
CIRCLE
  5
144
330
1F
100
AcDbEntity
  8
0
  6
Continuous
 62
     7
370
    25
100
AcDbCircle
 10
196.9771076484
 20
76.2946804963
 30
0.0
 40
5.0
  0
LINE
  5
145
330
1F
100
AcDbEntity
  8
0
  6
Continuous
 62
     7
370
    25
100
AcDbLine
 10
208.2271080954
 20
104.7946805112
 30
0.0
 11
185.7271072014
 21
104.7946805112
 31
0.0
  0
LINE
  5
146
330
1F
100
AcDbEntity
  8
0
  6
Continuous
 62
     7
370
    25
100
AcDbLine
 10
186.2271072833
 20
105.2946796619
 30
0.0
 11
207.7271080135
 21
105.2946796619
 31
0.0
  0
LINE
  5
147
330
1F
100
AcDbEntity
  8
0
  6
Continuous
 62
     7
370
    25
100
AcDbLine
 10
207.2271079315
 20
91.2946801611
 30
0.0
 11
186.7271073653
 21
91.2946801611
 31
0.0
  0
SPLINE
  5
148
330
1F
100
AcDbEntity
  8
0
  6
Continuous
 62
     7
370
    25
100
AcDbSpline
210
0.0
220
0.0
230
1.0
 70
     8
 71
     3
 72
    12
 73
     8
 74
     0
 42
0.000000001
 43
0.00000001
 40
0.0
 40
0.0
 40
0.0
 40
0.0
 40
0.2499999999999999
 40
0.2499999999999999
 40
0.4999999999999999
 40
0.4999999999999999
 40
1.0
 40
1.0
 40
1.0
 40
1.0
 10
205.0326153111075
 20
84.6430771452309
 30
0.0
 10
205.1054337990904
 20
84.59496903658652
 30
0.0
 10
205.1697294375489
 20
84.5587559791223
 30
0.0
 10
205.2804356011317
 20
84.49365176946941
 30
0.0
 10
205.3268891133732
 20
84.46541158918112
 30
0.0
 10
205.4389751359917
 20
84.38614675790814
 30
0.0
 10
205.4771076484146
 20
84.34028137471249
 30
0.0
 10
205.4771076484146
 20
84.29468049633618
 30
0.0
  0
SPLINE
  5
149
330
1F
100
AcDbEntity
  8
0
  6
Continuous
 62
     7
370
    25
100
AcDbSpline
210
0.0
220
0.0
230
1.0
 70
     8
 71
     3
 72
     8
 73
     4
 74
     0
 42
0.000000001
 43
0.00000001
 40
0.0
 40
0.0
 40
0.0
 40
0.0
 40
1.0
 40
1.0
 40
1.0
 40
1.0
 10
204.5326632039701
 20
84.79468049633618
 30
0.0
 10
204.7318561264238
 20
84.79468049633618
 30
0.0
 10
204.897234557513
 20
84.7325175082855
 30
0.0
 10
205.0326153111075
 20
84.6430771452309
 30
0.0
  0
SPLINE
  5
14A
330
1F
100
AcDbEntity
  8
0
  6
Continuous
 62
     7
370
    25
100
AcDbSpline
210
0.0
220
0.0
230
1.0
 70
     8
 71
     3
 72
     8
 73
     4
 74
     0
 42
0.000000001
 43
0.00000001
 40
0.0
 40
0.0
 40
0.0
 40
0.0
 40
1.0
 40
1.0
 40
1.0
 40
1.0
 10
188.9215999857217
 20
84.64307714523092
 30
0.0
 10
189.0569807393161
 20
84.73251750828551
 30
0.0
 10
189.2223591704053
 20
84.79468049633618
 30
0.0
 10
189.421552092859
 20
84.79468049633618
 30
0.0
  0
SPLINE
  5
14B
330
1F
100
AcDbEntity
  8
0
  6
Continuous
 62
     7
370
    25
100
AcDbSpline
210
0.0
220
0.0
230
1.0
 70
     8
 71
     3
 72
    12
 73
     8
 74
     0
 42
0.000000001
 43
0.00000001
 40
0.0
 40
0.0
 40
0.0
 40
0.0
 40
0.2500000000000002
 40
0.2500000000000002
 40
0.5000000000000001
 40
0.5000000000000001
 40
1.0
 40
1.0
 40
1.0
 40
1.0
 10
188.9215999857217
 20
84.64307714523092
 30
0.0
 10
188.8489488109685
 20
84.59507957339193
 30
0.0
 10
188.7846312883773
 20
84.55884099949284
 30
0.0
 10
188.6737521001701
 20
84.49363604426654
 30
0.0
 10
188.6270917336219
 20
84.46526898700638
 30
0.0
 10
188.5148330746709
 20
84.38581221151699
 30
0.0
 10
188.4771076484145
 20
84.34036623166668
 30
0.0
 10
188.4771076484145
 20
84.29468049633618
 30
0.0
  0
LINE
  5
14C
330
1F
100
AcDbEntity
  8
0
  6
Continuous
 62
     7
370
    25
100
AcDbLine
 10
205.4771081104
 20
83.7946803287
 30
0.0
 11
205.4771081104
 21
83.6643817813
 31
0.0
  0
LINE
  5
14D
330
1F
100
AcDbEntity
  8
0
  6
Continuous
 62
     7
370
    25
100
AcDbLine
 10
188.4771071865
 20
83.6643817813
 30
0.0
 11
188.4771071865
 21
83.7946803287
 31
0.0
  0
ARC
  5
14E
330
1F
100
AcDbEntity
  8
0
  6
Continuous
 62
     7
370
    25
100
AcDbCircle
 10
204.9771076484
 20
83.7946804963
 30
0.0
 40
0.5000000000000142
100
AcDbArc
 50
0.0
 51
90.0
  0
LINE
  5
14F
330
1F
100
AcDbEntity
  8
0
  6
Continuous
 62
     7
370
    25
100
AcDbLine
 10
204.8867539062
 20
84.2946808763
 30
0.0
 11
204.9771080284
 21
84.2946808763
 31
0.0
  0
LINE
  5
150
330
1F
100
AcDbEntity
  8
0
  6
Continuous
 62
     7
370
    25
100
AcDbLine
 10
188.9771072684
 20
84.2946808763
 30
0.0
 11
189.0674613907
 21
84.2946808763
 31
0.0
  0
ARC
  5
151
330
1F
100
AcDbEntity
  8
0
  6
Continuous
 62
     7
370
    25
100
AcDbCircle
 10
188.9771076484
 20
83.7946804963
 30
0.0
 40
0.5000000000000142
100
AcDbArc
 50
90.0
 51
180.0
  0
ARC
  5
152
330
1F
100
AcDbEntity
  8
0
  6
Continuous
 62
     7
370
    25
100
AcDbCircle
 10
205.4911284828
 20
84.6055001244
 30
0.0
 40
0.4600508724523106
100
AcDbArc
 50
175.314811797
 51
237.181165302
  0
ARC
  5
153
330
1F
100
AcDbEntity
  8
0
  6
Continuous
 62
     7
370
    25
100
AcDbCircle
 10
188.463086814
 20
84.6055001244
 30
0.0
 40
0.4600508724523261
100
AcDbArc
 50
302.818834698
 51
4.685188203
  0
SPLINE
  5
154
330
1F
100
AcDbEntity
  8
0
  6
Continuous
 62
     7
370
    25
100
AcDbSpline
210
0.0
220
0.0
230
1.0
 70
     8
 71
     3
 72
    12
 73
     8
 74
     0
 42
0.000000001
 43
0.00000001
 40
0.0
 40
0.0
 40
0.0
 40
0.0
 40
0.2500000000000002
 40
0.2500000000000002
 40
0.5000000000000001
 40
0.5000000000000001
 40
1.0
 40
1.0
 40
1.0
 40
1.0
 10
205.2417881757226
 20
84.21887882078353
 30
0.0
 10
205.2774748098263
 20
84.19661197862962
 30
0.0
 10
205.3110336861257
 20
84.18957394597518
 30
0.0
 10
205.3696774311809
 20
84.18869882449076
 30
0.0
 10
205.3949043471427
 20
84.19536281843983
 30
0.0
 10
205.4559381606432
 20
84.2260151678581
 30
0.0
 10
205.4771076484146
 20
84.26062385098261
 30
0.0
 10
205.4771076484146
 20
84.29468049633618
 30
0.0
  0
SPLINE
  5
155
330
1F
100
AcDbEntity
  8
0
  6
Continuous
 62
     7
370
    25
100
AcDbSpline
210
0.0
220
0.0
230
1.0
 70
    24
 71
     3
 72
    16
 73
    12
 74
     0
 42
0.000000001
 43
0.00000001
 40
0.0
 40
0.0
 40
0.0
 40
0.0
 40
0.2500000000000002
 40
0.2500000000000002
 40
0.5000000000000003
 40
0.5000000000000003
 40
0.7500000000000004
 40
0.7500000000000004
 40
0.8750000000000002
 40
0.8750000000000002
 40
1.0
 40
1.0
 40
1.0
 40
1.0
 10
205.4771076484146
 20
83.79468049633617
 30
0.0
 10
205.4771076484146
 20
83.79468049633617
 30
0.0
 10
205.4771076484146
 20
83.81461228202332
 30
0.0
 10
205.4771076484146
 20
83.87521882862688
 30
0.0
 10
205.4771076484146
 20
83.91632933607207
 30
0.0
 10
205.4771076484146
 20
84.01070579247127
 30
0.0
 10
205.4771076484146
 20
84.06407115432756
 30
0.0
 10
205.4771076484146
 20
84.14837831426217
 30
0.0
 10
205.4771076484146
 20
84.17720319110401
 30
0.0
 10
205.4771076484146
 20
84.23556226966953
 30
0.0
 10
205.4771076484146
 20
84.26481339088761
 30
0.0
 10
205.4771076484146
 20
84.29468049633618
 30
0.0
  0
SPLINE
  5
156
330
1F
100
AcDbEntity
  8
0
  6
Continuous
 62
     7
370
    25
100
AcDbSpline
210
0.0
220
0.0
230
1.0
 70
     8
 71
     3
 72
    12
 73
     8
 74
     0
 42
0.000000001
 43
0.00000001
 40
0.0
 40
0.0
 40
0.0
 40
0.0
 40
0.2500000000000002
 40
0.2500000000000002
 40
0.5000000000000001
 40
0.5000000000000001
 40
1.0
 40
1.0
 40
1.0
 40
1.0
 10
188.7124271211065
 20
84.21887882078353
 30
0.0
 10
188.6767404870028
 20
84.19661197862963
 30
0.0
 10
188.6431816107034
 20
84.1895739459752
 30
0.0
 10
188.5845378656482
 20
84.18869882449076
 30
0.0
 10
188.5593109496864
 20
84.19536281843983
 30
0.0
 10
188.4982771361859
 20
84.22601516785807
 30
0.0
 10
188.4771076484145
 20
84.26062385098247
 30
0.0
 10
188.4771076484145
 20
84.29468049633618
 30
0.0
  0
SPLINE
  5
157
330
1F
100
AcDbEntity
  8
0
  6
Continuous
 62
     7
370
    25
100
AcDbSpline
210
0.0
220
0.0
230
1.0
 70
    24
 71
     3
 72
    16
 73
    12
 74
     0
 42
0.000000001
 43
0.00000001
 40
0.0
 40
0.0
 40
0.0
 40
0.0
 40
0.2500000000000002
 40
0.2500000000000002
 40
0.5000000000000002
 40
0.5000000000000002
 40
0.7500000000000002
 40
0.7500000000000002
 40
0.8750000000000001
 40
0.8750000000000001
 40
1.0
 40
1.0
 40
1.0
 40
1.0
 10
188.4771076484145
 20
83.79468049633617
 30
0.0
 10
188.4771076484145
 20
83.79468049633617
 30
0.0
 10
188.4771076484145
 20
83.81461228202333
 30
0.0
 10
188.4771076484145
 20
83.8752188286269
 30
0.0
 10
188.4771076484145
 20
83.91632933607207
 30
0.0
 10
188.4771076484145
 20
84.01070579247127
 30
0.0
 10
188.4771076484145
 20
84.06407115432756
 30
0.0
 10
188.4771076484145
 20
84.14837831426217
 30
0.0
 10
188.4771076484145
 20
84.17720319110401
 30
0.0
 10
188.4771076484145
 20
84.23556226966953
 30
0.0
 10
188.4771076484145
 20
84.2648133908876
 30
0.0
 10
188.4771076484145
 20
84.29468049633618
 30
0.0
  0
LINE
  5
158
330
1F
100
AcDbEntity
  8
0
  6
Continuous
 62
     8
370
    25
100
AcDbLine
 10
185.7271072014
 20
92.2946812563
 30
0.0
 11
208.2271080954
 21
92.2946812563
 31
0.0
  0
LINE
  5
159
330
1F
100
AcDbEntity
  8
0
  6
Continuous
 62
     8
370
    25
100
AcDbLine
 10
205.4771081104
 20
90.2946809285
 30
0.0
 11
188.4771071865
 21
90.2946809285
 31
0.0
  0
LINE
  5
15A
330
1F
100
AcDbEntity
  8
0
  6
Continuous
 62
     8
370
    25
100
AcDbLine
 10
204.3468089333
 20
84.7946809583
 30
0.0
 11
204.5326632007
 21
84.7946809583
 31
0.0
  0
LINE
  5
15B
330
1F
100
AcDbEntity
  8
0
  6
Continuous
 62
     8
370
    25
100
AcDbLine
 10
189.4215520962
 20
84.7946809583
 30
0.0
 11
189.6074063635
 21
84.7946809583
 31
0.0
  0
LINE
  5
15C
330
1F
100
AcDbEntity
  8
0
  6
Continuous
 62
     8
370
    25
100
AcDbLine
 10
205.4771081104
 20
83.7946803287
 30
0.0
 11
205.3623626499
 21
83.7946803287
 31
0.0
  0
LINE
  5
15D
330
1F
100
AcDbEntity
  8
0
  6
Continuous
 62
     8
370
    25
100
AcDbLine
 10
188.4771071865
 20
83.7946803287
 30
0.0
 11
188.5918526469
 21
83.7946803287
 31
0.0
  0
LWPOLYLINE
  5
15E
330
1F
100
AcDbEntity
  8
0
  6
Continuous
 62
     8
370
    25
100
AcDbPolyline
 90
        3
 70
   128
 43
0.0
 10
204.9771080284
 20
84.2946808763
 10
204.8904009654
 20
84.3042874687
 10
204.8725288852
 20
84.3087196328
  0
ARC
  5
15F
330
1F
100
AcDbEntity
  8
0
  6
Continuous
 62
     8
370
    25
100
AcDbCircle
 10
205.0842775941
 20
84.7935675162
 30
0.0
 40
0.5516155171801564
100
AcDbArc
 50
179.884347748
 51
200.8856234909
  0
ARC
  5
160
330
1F
100
AcDbEntity
  8
0
  6
Continuous
 62
     8
370
    25
100
AcDbCircle
 10
188.8699377027
 20
84.7935675162
 30
0.0
 40
0.5516155171801564
100
AcDbArc
 50
339.1143765091
 51
0.115652252
  0
LWPOLYLINE
  5
161
330
1F
100
AcDbEntity
  8
0
  6
Continuous
 62
     8
370
    25
100
AcDbPolyline
 90
        3
 70
   128
 43
0.0
 10
189.0816864117
 20
84.3087196328
 10
189.0638143315
 20
84.3042874687
 10
188.9771072684
 20
84.2946808763
  0
LINE
  5
162
330
1F
100
AcDbEntity
  8
0
  6
Continuous
 62
     8
370
    25
100
AcDbLine
 10
204.9771080284
 20
84.2043267541
 30
0.0
 11
204.9771080284
 21
84.2946808763
 31
0.0
  0
LINE
  5
163
330
1F
100
AcDbEntity
  8
0
  6
Continuous
 62
     8
370
    25
100
AcDbLine
 10
188.9771072684
 20
84.2946808763
 30
0.0
 11
188.9771072684
 21
84.2043267541
 31
0.0
  0
INSERT
  5
16F
330
1F
100
AcDbEntity
  8
0
  6
Continuous
 62
     7
370
    18
100
AcDbBlockReference
  2
SW_CENTERMARKSYMBOL_0
 10
196.9771076484
 20
76.2946804963
 30
0.0
  0
ARC
  5
170
330
1F
100
AcDbEntity
  8
0
  6
Continuous
 62
     7
370
    18
100
AcDbCircle
 10
196.9771076484
 20
76.2946804963
 30
0.0
 40
8.334121500000002
100
AcDbArc
 50
75.0
 51
345.0
  0
ARC
  5
171
330
1F
100
AcDbEntity
  8
0
  6
Continuous
 62
     7
370
    18
100
AcDbCircle
 10
196.9771076484
 20
76.2946804963
 30
0.0
 40
8.334121500000013
100
AcDbArc
 50
75.0
 51
345.0
  0
ARC
  5
172
330
1F
100
AcDbEntity
  8
0
  6
Continuous
 62
     7
370
    25
100
AcDbCircle
 10
110.1557064486
 20
139.1034707145
 30
0.0
 40
1.0
100
AcDbArc
 50
270.0
 51
0.0
  0
ARC
  5
173
330
1F
100
AcDbEntity
  8
0
  6
Continuous
 62
     7
370
    25
100
AcDbCircle
 10
110.1557064486
 20
159.6034707145
 30
0.0
 40
1.0
100
AcDbArc
 50
0.0
 51
90.0
  0
LINE
  5
174
330
1F
100
AcDbEntity
  8
0
  6
Continuous
 62
     7
370
    25
100
AcDbLine
 10
154.6557064635
 20
160.6034711615
 30
0.0
 11
142.1557072086
 21
160.6034711615
 31
0.0
  0
LINE
  5
175
330
1F
100
AcDbEntity
  8
0
  6
Continuous
 62
     7
370
    25
100
AcDbLine
 10
142.1557072086
 20
138.1034702674
 30
0.0
 11
154.6557064635
 21
138.1034702674
 31
0.0
  0
ARC
  5
176
330
1F
100
AcDbEntity
  8
0
  6
Continuous
 62
     7
370
    25
100
AcDbCircle
 10
142.1557064486
 20
159.6034707145
 30
0.0
 40
1.0
100
AcDbArc
 50
90.0
 51
180.0
  0
ARC
  5
177
330
1F
100
AcDbEntity
  8
0
  6
Continuous
 62
     7
370
    25
100
AcDbCircle
 10
142.1557064486
 20
139.1034707145
 30
0.0
 40
1.0
100
AcDbArc
 50
180.0
 51
270.0
  0
LINE
  5
178
330
1F
100
AcDbEntity
  8
0
  6
Continuous
 62
     7
370
    25
100
AcDbLine
 10
97.6557064337
 20
160.6034711615
 30
0.0
 11
97.1557072831
 21
160.1034710796
 31
0.0
  0
LINE
  5
179
330
1F
100
AcDbEntity
  8
0
  6
Continuous
 62
     7
370
    25
100
AcDbLine
 10
97.1557072831
 20
138.6034703494
 30
0.0
 11
97.6557064337
 21
138.1034702674
 31
0.0
  0
LINE
  5
17A
330
1F
100
AcDbEntity
  8
0
  6
Continuous
 62
     7
370
    25
100
AcDbLine
 10
154.6557064635
 20
138.1034702674
 30
0.0
 11
155.1557056142
 21
138.6034703494
 31
0.0
  0
LINE
  5
17B
330
1F
100
AcDbEntity
  8
0
  6
Continuous
 62
     7
370
    25
100
AcDbLine
 10
155.1557056142
 20
160.1034710796
 30
0.0
 11
154.6557064635
 21
160.6034711615
 31
0.0
  0
LINE
  5
17C
330
1F
100
AcDbEntity
  8
0
  6
Continuous
 62
     7
370
    25
100
AcDbLine
 10
97.6557064337
 20
138.1034702674
 30
0.0
 11
110.1557056887
 21
138.1034702674
 31
0.0
  0
LINE
  5
17D
330
1F
100
AcDbEntity
  8
0
  6
Continuous
 62
     7
370
    25
100
AcDbLine
 10
110.1557056887
 20
160.6034711615
 30
0.0
 11
97.6557064337
 21
160.6034711615
 31
0.0
  0
ARC
  5
17E
330
1F
100
AcDbEntity
  8
0
  6
Continuous
 62
     7
370
    25
100
AcDbCircle
 10
112.1557064486
 20
139.8534707145
 30
0.0
 40
1.0
100
AcDbArc
 50
90.0
 51
180.0
  0
ARC
  5
17F
330
1F
100
AcDbEntity
  8
0
  6
Continuous
 62
     7
370
    25
100
AcDbCircle
 10
112.1557064486
 20
158.8534707145
 30
0.0
 40
1.0
100
AcDbArc
 50
180.0
 51
270.0
  0
ARC
  5
180
330
1F
100
AcDbEntity
  8
0
  6
Continuous
 62
     7
370
    25
100
AcDbCircle
 10
140.1557064486
 20
158.8534707145
 30
0.0
 40
1.0
100
AcDbArc
 50
270.0
 51
0.0
  0
ARC
  5
181
330
1F
100
AcDbEntity
  8
0
  6
Continuous
 62
     7
370
    25
100
AcDbCircle
 10
140.1557064486
 20
139.8534707145
 30
0.0
 40
1.0
100
AcDbArc
 50
0.0
 51
90.0
  0
LINE
  5
182
330
1F
100
AcDbEntity
  8
0
  6
Continuous
 62
     7
370
    25
100
AcDbLine
 10
117.6557059867
 20
157.8534711764
 30
0.0
 11
112.1557060165
 21
157.8534711764
 31
0.0
  0
LINE
  5
183
330
1F
100
AcDbEntity
  8
0
  6
Continuous
 62
     7
370
    25
100
AcDbLine
 10
140.1557068808
 20
157.8534711764
 30
0.0
 11
134.6557069106
 21
157.8534711764
 31
0.0
  0
LINE
  5
184
330
1F
100
AcDbEntity
  8
0
  6
Continuous
 62
     7
370
    25
100
AcDbLine
 10
134.6557069106
 20
140.8534702525
 30
0.0
 11
140.1557068808
 21
140.8534702525
 31
0.0
  0
LINE
  5
185
330
1F
100
AcDbEntity
  8
0
  6
Continuous
 62
     7
370
    25
100
AcDbLine
 10
112.1557060165
 20
140.8534702525
 30
0.0
 11
117.6557059867
 21
140.8534702525
 31
0.0
  0
CIRCLE
  5
186
330
1F
100
AcDbEntity
  8
0
  6
Continuous
 62
     7
370
    25
100
AcDbCircle
 10
126.1557064486
 20
149.3534707145
 30
0.0
 40
9.77500000000002
  0
CIRCLE
  5
187
330
1F
100
AcDbEntity
  8
0
  6
Continuous
 62
     7
370
    25
100
AcDbCircle
 10
126.1557064486
 20
149.3534707145
 30
0.0
 40
10.75
  0
CIRCLE
  5
188
330
1F
100
AcDbEntity
  8
0
  6
Continuous
 62
     7
370
    25
100
AcDbCircle
 10
126.1557064486
 20
149.3534707145
 30
0.0
 40
11.24999999999997
  0
CIRCLE
  5
189
330
1F
100
AcDbEntity
  8
0
  6
Continuous
 62
     7
370
    25
100
AcDbCircle
 10
126.1557064486
 20
149.3534707145
 30
0.0
 40
9.65000000000002
  0
CIRCLE
  5
18A
330
1F
100
AcDbEntity
  8
0
  6
Continuous
 62
     7
370
    25
100
AcDbCircle
 10
126.1557064486
 20
149.3534707145
 30
0.0
 40
9.52500000000002
  0
CIRCLE
  5
18B
330
1F
100
AcDbEntity
  8
0
  6
Continuous
 62
     7
370
    25
100
AcDbCircle
 10
126.1557064486
 20
149.3534707145
 30
0.0
 40
8.5
  0
CIRCLE
  5
18C
330
1F
100
AcDbEntity
  8
0
  6
Continuous
 62
     7
370
    25
100
AcDbCircle
 10
126.1557064486
 20
149.3534707145
 30
0.0
 40
7.872175816270357
  0
CIRCLE
  5
18D
330
1F
100
AcDbEntity
  8
0
  6
Continuous
 62
     7
370
    25
100
AcDbCircle
 10
126.1557064486
 20
149.3534707145
 30
0.0
 40
7.547130357748884
  0
CIRCLE
  5
18E
330
1F
100
AcDbEntity
  8
0
  6
Continuous
 62
     7
370
    25
100
AcDbCircle
 10
126.1557064486
 20
149.3534707145
 30
0.0
 40
7.474999999999994
  0
CIRCLE
  5
18F
330
1F
100
AcDbEntity
  8
0
  6
Continuous
 62
     7
370
    25
100
AcDbCircle
 10
126.1557064486
 20
149.3534707145
 30
0.0
 40
5.000000000000014
  0
LINE
  5
190
330
1F
100
AcDbEntity
  8
0
  6
Continuous
 62
     7
370
    25
100
AcDbLine
 10
111.1557067839
 20
159.6034709976
 30
0.0
 11
111.1557067839
 21
139.1034704314
 31
0.0
  0
LINE
  5
191
330
1F
100
AcDbEntity
  8
0
  6
Continuous
 62
     7
370
    25
100
AcDbLine
 10
154.6557064635
 20
138.1034702674
 30
0.0
 11
154.6557064635
 21
160.6034711615
 31
0.0
  0
LINE
  5
192
330
1F
100
AcDbEntity
  8
0
  6
Continuous
 62
     7
370
    25
100
AcDbLine
 10
141.1557061134
 20
139.1034704314
 30
0.0
 11
141.1557061134
 21
159.6034709976
 31
0.0
  0
LINE
  5
193
330
1F
100
AcDbEntity
  8
0
  6
Continuous
 62
     7
370
    25
100
AcDbLine
 10
97.6557064337
 20
160.6034711615
 30
0.0
 11
97.6557064337
 21
138.1034702674
 31
0.0
  0
LINE
  5
194
330
1F
100
AcDbEntity
  8
0
  6
Continuous
 62
     7
370
    25
100
AcDbLine
 10
97.1557072831
 20
138.6034703494
 30
0.0
 11
97.1557072831
 21
160.1034710796
 31
0.0
  0
LINE
  5
195
330
1F
100
AcDbEntity
  8
0
  6
Continuous
 62
     7
370
    25
100
AcDbLine
 10
155.1557056142
 20
160.1034710796
 30
0.0
 11
155.1557056142
 21
138.6034703494
 31
0.0
  0
SPLINE
  5
196
330
1F
100
AcDbEntity
  8
0
  6
Continuous
 62
     7
370
    25
100
AcDbSpline
210
0.0
220
0.0
230
1.0
 70
     8
 71
     3
 72
    12
 73
     8
 74
     0
 42
0.000000001
 43
0.00000001
 40
0.0
 40
0.0
 40
0.0
 40
0.0
 40
0.2499999999999999
 40
0.2499999999999999
 40
0.5
 40
0.5
 40
1.0
 40
1.0
 40
1.0
 40
1.0
 10
135.0041030975341
 20
141.2979630517883
 30
0.0
 10
134.9561449418622
 20
141.2253715390293
 30
0.0
 10
134.919862526768
 20
141.1609852731392
 30
0.0
 10
134.8545406497319
 20
141.0499103790232
 30
0.0
 10
134.8261801337773
 20
141.0032849615846
 30
0.0
 10
134.7469237272152
 20
140.8913323233826
 30
0.0
 10
134.7014529500883
 20
140.8534707144812
 30
0.0
 10
134.6557064486393
 20
140.8534707144812
 30
0.0
  0
SPLINE
  5
197
330
1F
100
AcDbEntity
  8
0
  6
Continuous
 62
     7
370
    25
100
AcDbSpline
210
0.0
220
0.0
230
1.0
 70
     8
 71
     3
 72
     8
 73
     4
 74
     0
 42
0.000000001
 43
0.00000001
 40
0.0
 40
0.0
 40
0.0
 40
0.0
 40
1.0
 40
1.0
 40
1.0
 40
1.0
 10
135.1557064486393
 20
141.7979151589256
 30
0.0
 10
135.1557064486393
 20
141.5987222364719
 30
0.0
 10
135.0935434605886
 20
141.4333438053828
 30
0.0
 10
135.0041030975341
 20
141.2979630517883
 30
0.0
  0
SPLINE
  5
198
330
1F
100
AcDbEntity
  8
0
  6
Continuous
 62
     7
370
    25
100
AcDbSpline
210
0.0
220
0.0
230
1.0
 70
     8
 71
     3
 72
     8
 73
     4
 74
     0
 42
0.000000001
 43
0.00000001
 40
0.0
 40
0.0
 40
0.0
 40
0.0
 40
1.0
 40
1.0
 40
1.0
 40
1.0
 10
135.0041030975341
 20
157.4089783771741
 30
0.0
 10
135.0935434605886
 20
157.2735976235797
 30
0.0
 10
135.1557064486393
 20
157.1082191924905
 30
0.0
 10
135.1557064486393
 20
156.9090262700368
 30
0.0
  0
SPLINE
  5
199
330
1F
100
AcDbEntity
  8
0
  6
Continuous
 62
     7
370
    25
100
AcDbSpline
210
0.0
220
0.0
230
1.0
 70
     8
 71
     3
 72
    12
 73
     8
 74
     0
 42
0.000000001
 43
0.00000001
 40
0.0
 40
0.0
 40
0.0
 40
0.0
 40
0.2499999999999999
 40
0.2499999999999999
 40
0.4999999999999998
 40
0.4999999999999998
 40
1.0
 40
1.0
 40
1.0
 40
1.0
 10
135.0041030975341
 20
157.4089783771741
 30
0.0
 10
134.955994988906
 20
157.4817968651324
 30
0.0
 10
134.9197819314506
 20
157.5460925035719
 30
0.0
 10
134.8546777218136
 20
157.6567986671294
 30
0.0
 10
134.8264375415317
 20
157.7032521793643
 30
0.0
 10
134.7471727102776
 20
157.8153382019817
 30
0.0
 10
134.7013073269873
 20
157.8534707144812
 30
0.0
 10
134.6557064486393
 20
157.8534707144812
 30
0.0
  0
SPLINE
  5
19A
330
1F
100
AcDbEntity
  8
0
  6
Continuous
 62
     7
370
    25
100
AcDbSpline
210
0.0
220
0.0
230
1.0
 70
     8
 71
     3
 72
    12
 73
     8
 74
     0
 42
0.000000001
 43
0.00000001
 40
0.0
 40
0.0
 40
0.0
 40
0.0
 40
0.25
 40
0.25
 40
0.4999999999999998
 40
0.4999999999999998
 40
1.0
 40
1.0
 40
1.0
 40
1.0
 10
117.3073097997446
 20
157.4089783771741
 30
0.0
 10
117.355417908389
 20
157.4817968651571
 30
0.0
 10
117.3916309658532
 20
157.5460925036155
 30
0.0
 10
117.4567351755061
 20
157.6567986671984
 30
0.0
 10
117.4849753557944
 20
157.7032521794399
 30
0.0
 10
117.5642401870674
 20
157.8153382020584
 30
0.0
 10
117.6101055702631
 20
157.8534707144812
 30
0.0
 10
117.6557064486393
 20
157.8534707144812
 30
0.0
  0
SPLINE
  5
19B
330
1F
100
AcDbEntity
  8
0
  6
Continuous
 62
     7
370
    25
100
AcDbSpline
210
0.0
220
0.0
230
1.0
 70
     8
 71
     3
 72
     8
 73
     4
 74
     0
 42
0.000000001
 43
0.00000001
 40
0.0
 40
0.0
 40
0.0
 40
0.0
 40
1.0
 40
1.0
 40
1.0
 40
1.0
 10
117.1557064486393
 20
156.9090262700368
 30
0.0
 10
117.1557064486393
 20
157.1082191924905
 30
0.0
 10
117.21786943669
 20
157.2735976235797
 30
0.0
 10
117.3073097997446
 20
157.4089783771741
 30
0.0
  0
SPLINE
  5
19C
330
1F
100
AcDbEntity
  8
0
  6
Continuous
 62
     7
370
    25
100
AcDbSpline
210
0.0
220
0.0
230
1.0
 70
     8
 71
     3
 72
     8
 73
     4
 74
     0
 42
0.000000001
 43
0.00000001
 40
0.0
 40
0.0
 40
0.0
 40
0.0
 40
1.0
 40
1.0
 40
1.0
 40
1.0
 10
117.3073097997446
 20
141.2979630517883
 30
0.0
 10
117.21786943669
 20
141.4333438053827
 30
0.0
 10
117.1557064486393
 20
141.5987222364719
 30
0.0
 10
117.1557064486393
 20
141.7979151589256
 30
0.0
  0
SPLINE
  5
19D
330
1F
100
AcDbEntity
  8
0
  6
Continuous
 62
     7
370
    25
100
AcDbSpline
210
0.0
220
0.0
230
1.0
 70
     8
 71
     3
 72
    12
 73
     8
 74
     0
 42
0.000000001
 43
0.00000001
 40
0.0
 40
0.0
 40
0.0
 40
0.0
 40
0.2499999999999998
 40
0.2499999999999998
 40
0.4999999999999999
 40
0.4999999999999999
 40
1.0
 40
1.0
 40
1.0
 40
1.0
 10
117.3073097997446
 20
141.2979630517883
 30
0.0
 10
117.3553073715836
 20
141.2253118770351
 30
0.0
 10
117.3915459454827
 20
141.1609943544439
 30
0.0
 10
117.456750900709
 20
141.0501151662367
 30
0.0
 10
117.4851179579691
 20
141.0034547996885
 30
0.0
 10
117.5645747334585
 20
140.8911961407376
 30
0.0
 10
117.610020713309
 20
140.8534707144812
 30
0.0
 10
117.6557064486393
 20
140.8534707144812
 30
0.0
  0
LINE
  5
19E
330
1F
100
AcDbEntity
  8
0
  6
Continuous
 62
     7
370
    25
100
AcDbLine
 10
118.1557060687
 20
157.8534711764
 30
0.0
 11
118.1557060687
 21
157.3534710945
 31
0.0
  0
LINE
  5
19F
330
1F
100
AcDbEntity
  8
0
  6
Continuous
 62
     7
370
    25
100
AcDbLine
 10
118.1557060687
 20
157.8534711764
 30
0.0
 11
118.7860051637
 21
157.8534711764
 31
0.0
  0
LINE
  5
1A0
330
1F
100
AcDbEntity
  8
0
  6
Continuous
 62
     7
370
    25
100
AcDbLine
 10
134.1557068286
 20
157.8534711764
 30
0.0
 11
134.1557068286
 21
157.3534710945
 31
0.0
  0
LINE
  5
1A1
330
1F
100
AcDbEntity
  8
0
  6
Continuous
 62
     7
370
    25
100
AcDbLine
 10
133.5254077336
 20
157.8534711764
 30
0.0
 11
134.1557068286
 21
157.8534711764
 31
0.0
  0
LINE
  5
1A2
330
1F
100
AcDbEntity
  8
0
  6
Continuous
 62
     7
370
    25
100
AcDbLine
 10
118.1557060687
 20
140.8534702525
 30
0.0
 11
118.1557060687
 21
141.3534703345
 31
0.0
  0
LINE
  5
1A3
330
1F
100
AcDbEntity
  8
0
  6
Continuous
 62
     7
370
    25
100
AcDbLine
 10
118.7860051637
 20
140.8534702525
 30
0.0
 11
118.1557060687
 21
140.8534702525
 31
0.0
  0
LINE
  5
1A4
330
1F
100
AcDbEntity
  8
0
  6
Continuous
 62
     7
370
    25
100
AcDbLine
 10
134.1557068286
 20
140.8534702525
 30
0.0
 11
134.1557068286
 21
141.3534703345
 31
0.0
  0
LINE
  5
1A5
330
1F
100
AcDbEntity
  8
0
  6
Continuous
 62
     7
370
    25
100
AcDbLine
 10
134.1557068286
 20
140.8534702525
 30
0.0
 11
133.5254077336
 21
140.8534702525
 31
0.0
  0
ARC
  5
1A6
330
1F
100
AcDbEntity
  8
0
  6
Continuous
 62
     7
370
    25
100
AcDbCircle
 10
135.129470868
 20
157.3829829657
 30
0.0
 40
0.4746822493593837
100
AcDbArc
 50
183.5644831647
 51
273.1682924318
  0
ARC
  5
1A7
330
1F
100
AcDbEntity
  8
0
  6
Continuous
 62
     7
370
    25
100
AcDbCircle
 10
117.1819420293
 20
157.3829829657
 30
0.0
 40
0.4746822493593837
100
AcDbArc
 50
266.8317075682
 51
356.4355168353
  0
ARC
  5
1A8
330
1F
100
AcDbEntity
  8
0
  6
Continuous
 62
     7
370
    25
100
AcDbCircle
 10
135.129470868
 20
141.3239584633
 30
0.0
 40
0.4746822493593837
100
AcDbArc
 50
86.8317075682
 51
176.4355168353
  0
ARC
  5
1A9
330
1F
100
AcDbEntity
  8
0
  6
Continuous
 62
     7
370
    25
100
AcDbCircle
 10
117.1819420293
 20
141.3239584633
 30
0.0
 40
0.4746822493593837
100
AcDbArc
 50
3.5644831647
 51
93.1682924318
  0
LINE
  5
1AA
330
1F
100
AcDbEntity
  8
0
  6
Continuous
 62
     7
370
    25
100
AcDbLine
 10
118.1557060687
 20
157.3534710945
 30
0.0
 11
117.6557059867
 21
157.3534710945
 31
0.0
  0
ARC
  5
1AB
330
1F
100
AcDbEntity
  8
0
  6
Continuous
 62
     7
370
    25
100
AcDbCircle
 10
118.1557064486
 20
157.3534707145
 30
0.0
 40
0.5
100
AcDbArc
 50
90.0
 51
180.0
  0
LINE
  5
1AC
330
1F
100
AcDbEntity
  8
0
  6
Continuous
 62
     7
370
    25
100
AcDbLine
 10
134.6557069106
 20
157.3534710945
 30
0.0
 11
134.1557068286
 21
157.3534710945
 31
0.0
  0
ARC
  5
1AD
330
1F
100
AcDbEntity
  8
0
  6
Continuous
 62
     7
370
    25
100
AcDbCircle
 10
134.1557064486
 20
157.3534707145
 30
0.0
 40
0.5
100
AcDbArc
 50
0.0
 51
90.0
  0
LINE
  5
1AE
330
1F
100
AcDbEntity
  8
0
  6
Continuous
 62
     7
370
    25
100
AcDbLine
 10
134.6557069106
 20
156.7231719994
 30
0.0
 11
134.6557069106
 21
157.3534710945
 31
0.0
  0
LINE
  5
1AF
330
1F
100
AcDbEntity
  8
0
  6
Continuous
 62
     7
370
    25
100
AcDbLine
 10
117.6557059867
 20
156.7231719994
 30
0.0
 11
117.6557059867
 21
157.3534710945
 31
0.0
  0
LINE
  5
1B0
330
1F
100
AcDbEntity
  8
0
  6
Continuous
 62
     7
370
    25
100
AcDbLine
 10
134.6557069106
 20
141.3534703345
 30
0.0
 11
134.6557069106
 21
141.9837694296
 31
0.0
  0
LINE
  5
1B1
330
1F
100
AcDbEntity
  8
0
  6
Continuous
 62
     7
370
    25
100
AcDbLine
 10
134.1557068286
 20
141.3534703345
 30
0.0
 11
134.6557069106
 21
141.3534703345
 31
0.0
  0
LINE
  5
1B2
330
1F
100
AcDbEntity
  8
0
  6
Continuous
 62
     7
370
    25
100
AcDbLine
 10
117.6557059867
 20
141.3534703345
 30
0.0
 11
118.1557060687
 21
141.3534703345
 31
0.0
  0
LINE
  5
1B3
330
1F
100
AcDbEntity
  8
0
  6
Continuous
 62
     7
370
    25
100
AcDbLine
 10
117.6557059867
 20
141.3534703345
 30
0.0
 11
117.6557059867
 21
141.9837694296
 31
0.0
  0
ARC
  5
1B4
330
1F
100
AcDbEntity
  8
0
  6
Continuous
 62
     7
370
    25
100
AcDbCircle
 10
134.1557064486
 20
141.3534707145
 30
0.0
 40
0.5
100
AcDbArc
 50
270.0
 51
0.0
  0
ARC
  5
1B5
330
1F
100
AcDbEntity
  8
0
  6
Continuous
 62
     7
370
    25
100
AcDbCircle
 10
118.1557064486
 20
141.3534707145
 30
0.0
 40
0.5
100
AcDbArc
 50
180.0
 51
270.0
  0
SPLINE
  5
1B6
330
1F
100
AcDbEntity
  8
0
  6
Continuous
 62
     7
370
    25
100
AcDbSpline
210
0.0
220
0.0
230
1.0
 70
     8
 71
     3
 72
    10
 73
     6
 74
     0
 42
0.000000001
 43
0.00000001
 40
0.0
 40
0.0
 40
0.0
 40
0.0
 40
0.5
 40
0.5
 40
1.0
 40
1.0
 40
1.0
 40
1.0
 10
127.1557064486393
 20
154.2524502000476
 30
0.0
 10
126.8271714798576
 20
154.2432904842297
 30
0.0
 10
126.4961766241367
 20
154.2378089589037
 30
0.0
 10
125.8283783919571
 20
154.2376728405969
 30
0.0
 10
125.4894004176148
 20
154.2431466487779
 30
0.0
 10
125.1557064486394
 20
154.2524502000476
 30
0.0
  0
SPLINE
  5
1B7
330
1F
100
AcDbEntity
  8
0
  6
Continuous
 62
     7
370
    25
100
AcDbSpline
210
0.0
220
0.0
230
1.0
 70
     8
 71
     3
 72
    10
 73
     6
 74
     0
 42
0.000000001
 43
0.00000001
 40
0.0
 40
0.0
 40
0.0
 40
0.0
 40
0.5
 40
0.5
 40
1.0
 40
1.0
 40
1.0
 40
1.0
 10
125.1557064486394
 20
144.4544912289149
 30
0.0
 10
125.484241417421
 20
144.4636509447327
 30
0.0
 10
125.8152362731419
 20
144.4691324700587
 30
0.0
 10
126.4830345053216
 20
144.4692685883656
 30
0.0
 10
126.8220124796639
 20
144.4637947801846
 30
0.0
 10
127.1557064486393
 20
144.4544912289149
 30
0.0
  0
ARC
  5
1B8
330
1F
100
AcDbEntity
  8
0
  6
Continuous
 62
     7
370
    25
100
AcDbCircle
 10
117.3448874332
 20
157.8674901402
 30
0.0
 40
0.4600495252436775
100
AcDbArc
 50
265.3147112477
 51
327.1812658513
  0
ARC
  5
1B9
330
1F
100
AcDbEntity
  8
0
  6
Continuous
 62
     7
370
    25
100
AcDbCircle
 10
134.9665254641
 20
157.8674901402
 30
0.0
 40
0.4600495252436775
100
AcDbArc
 50
212.8187341487
 51
274.6852887523
  0
ARC
  5
1BA
330
1F
100
AcDbEntity
  8
0
  6
Continuous
 62
     7
370
    25
100
AcDbCircle
 10
134.9665254641
 20
140.8394512888
 30
0.0
 40
0.4600495252436775
100
AcDbArc
 50
85.3147112477
 51
147.1812658513
  0
ARC
  5
1BB
330
1F
100
AcDbEntity
  8
0
  6
Continuous
 62
     7
370
    25
100
AcDbCircle
 10
117.3448874332
 20
140.8394512888
 30
0.0
 40
0.4600495252436697
100
AcDbArc
 50
32.8187341487
 51
94.6852887523
  0
SPLINE
  5
1BC
330
1F
100
AcDbEntity
  8
0
  6
Continuous
 62
     7
370
    25
100
AcDbSpline
210
0.0
220
0.0
230
1.0
 70
     8
 71
     3
 72
    12
 73
     8
 74
     0
 42
0.000000001
 43
0.00000001
 40
0.0
 40
0.0
 40
0.0
 40
0.0
 40
0.2499999999999998
 40
0.2499999999999998
 40
0.4999999999999998
 40
0.4999999999999998
 40
1.0
 40
1.0
 40
1.0
 40
1.0
 10
117.731508124192
 20
157.6181512417892
 30
0.0
 10
117.7537749663459
 20
157.6538378758929
 30
0.0
 10
117.7608129990003
 20
157.6873967521924
 30
0.0
 10
117.7616881204847
 20
157.7460404972476
 30
0.0
 10
117.7550241265357
 20
157.7712674132094
 30
0.0
 10
117.7243717771174
 20
157.8323012267099
 30
0.0
 10
117.6897630939931
 20
157.8534707144812
 30
0.0
 10
117.6557064486393
 20
157.8534707144812
 30
0.0
  0
SPLINE
  5
1BD
330
1F
100
AcDbEntity
  8
0
  6
Continuous
 62
     7
370
    25
100
AcDbSpline
210
0.0
220
0.0
230
1.0
 70
    24
 71
     3
 72
    16
 73
    12
 74
     0
 42
0.000000001
 43
0.00000001
 40
0.0
 40
0.0
 40
0.0
 40
0.0
 40
0.2500000000000002
 40
0.2500000000000002
 40
0.5000000000000004
 40
0.5000000000000004
 40
0.7500000000000004
 40
0.7500000000000004
 40
0.8750000000000002
 40
0.8750000000000002
 40
1.0
 40
1.0
 40
1.0
 40
1.0
 10
118.1557064486393
 20
157.8534707144812
 30
0.0
 10
118.1557064486393
 20
157.8534707144812
 30
0.0
 10
118.1357746629522
 20
157.8534707144812
 30
0.0
 10
118.0751681163486
 20
157.8534707144812
 30
0.0
 10
118.0340576089034
 20
157.8534707144812
 30
0.0
 10
117.9396811525042
 20
157.8534707144812
 30
0.0
 10
117.8863157906479
 20
157.8534707144812
 30
0.0
 10
117.8020086307133
 20
157.8534707144812
 30
0.0
 10
117.7731837538715
 20
157.8534707144812
 30
0.0
 10
117.714824675306
 20
157.8534707144812
 30
0.0
 10
117.6855735540879
 20
157.8534707144812
 30
0.0
 10
117.6557064486393
 20
157.8534707144812
 30
0.0
  0
SPLINE
  5
1BE
330
1F
100
AcDbEntity
  8
0
  6
Continuous
 62
     7
370
    25
100
AcDbSpline
210
0.0
220
0.0
230
1.0
 70
     8
 71
     3
 72
    12
 73
     8
 74
     0
 42
0.000000001
 43
0.00000001
 40
0.0
 40
0.0
 40
0.0
 40
0.0
 40
0.2500000000000001
 40
0.2500000000000001
 40
0.5
 40
0.5
 40
1.0
 40
1.0
 40
1.0
 40
1.0
 10
134.5799047730867
 20
157.6181512417892
 30
0.0
 10
134.5576379309344
 20
157.6538378758903
 30
0.0
 10
134.5505998982795
 20
157.6873967521873
 30
0.0
 10
134.5497247767929
 20
157.7460404972394
 30
0.0
 10
134.5563887707403
 20
157.7712674132002
 30
0.0
 10
134.5870411201529
 20
157.8323012267005
 30
0.0
 10
134.6216498030031
 20
157.8534707144812
 30
0.0
 10
134.6557064486393
 20
157.8534707144812
 30
0.0
  0
SPLINE
  5
1BF
330
1F
100
AcDbEntity
  8
0
  6
Continuous
 62
     7
370
    25
100
AcDbSpline
210
0.0
220
0.0
230
1.0
 70
    24
 71
     3
 72
    16
 73
    12
 74
     0
 42
0.000000001
 43
0.00000001
 40
0.0
 40
0.0
 40
0.0
 40
0.0
 40
0.2500000000000002
 40
0.2500000000000002
 40
0.5000000000000004
 40
0.5000000000000004
 40
0.7500000000000004
 40
0.7500000000000004
 40
0.8750000000000002
 40
0.8750000000000002
 40
1.0
 40
1.0
 40
1.0
 40
1.0
 10
134.1557064486393
 20
157.8534707144812
 30
0.0
 10
134.1557064486393
 20
157.8534707144812
 30
0.0
 10
134.1756382343265
 20
157.8534707144812
 30
0.0
 10
134.23624478093
 20
157.8534707144812
 30
0.0
 10
134.2773552883752
 20
157.8534707144812
 30
0.0
 10
134.3717317447744
 20
157.8534707144812
 30
0.0
 10
134.4250971066307
 20
157.8534707144812
 30
0.0
 10
134.5094042665653
 20
157.8534707144812
 30
0.0
 10
134.5382291434072
 20
157.8534707144812
 30
0.0
 10
134.5965882219727
 20
157.8534707144812
 30
0.0
 10
134.6258393431908
 20
157.8534707144812
 30
0.0
 10
134.6557064486393
 20
157.8534707144812
 30
0.0
  0
SPLINE
  5
1C0
330
1F
100
AcDbEntity
  8
0
  6
Continuous
 62
     7
370
    25
100
AcDbSpline
210
0.0
220
0.0
230
1.0
 70
     8
 71
     3
 72
    12
 73
     8
 74
     0
 42
0.000000001
 43
0.00000001
 40
0.0
 40
0.0
 40
0.0
 40
0.0
 40
0.25
 40
0.25
 40
0.5
 40
0.5
 40
1.0
 40
1.0
 40
1.0
 40
1.0
 10
134.5799047730867
 20
141.0887901871732
 30
0.0
 10
134.5576379309344
 20
141.0531035530722
 30
0.0
 10
134.5505998982795
 20
141.0195446767751
 30
0.0
 10
134.5497247767929
 20
140.960900931723
 30
0.0
 10
134.5563887707403
 20
140.9356740157622
 30
0.0
 10
134.5870411201528
 20
140.874640202262
 30
0.0
 10
134.621649803003
 20
140.8534707144812
 30
0.0
 10
134.6557064486393
 20
140.8534707144812
 30
0.0
  0
SPLINE
  5
1C1
330
1F
100
AcDbEntity
  8
0
  6
Continuous
 62
     7
370
    25
100
AcDbSpline
210
0.0
220
0.0
230
1.0
 70
    24
 71
     3
 72
    16
 73
    12
 74
     0
 42
0.000000001
 43
0.00000001
 40
0.0
 40
0.0
 40
0.0
 40
0.0
 40
0.2500000000000002
 40
0.2500000000000002
 40
0.5000000000000002
 40
0.5000000000000002
 40
0.7500000000000002
 40
0.7500000000000002
 40
0.8750000000000001
 40
0.8750000000000001
 40
1.0
 40
1.0
 40
1.0
 40
1.0
 10
134.1557064486393
 20
140.8534707144812
 30
0.0
 10
134.1557064486393
 20
140.8534707144812
 30
0.0
 10
134.1756382343265
 20
140.8534707144812
 30
0.0
 10
134.23624478093
 20
140.8534707144812
 30
0.0
 10
134.2773552883752
 20
140.8534707144812
 30
0.0
 10
134.3717317447744
 20
140.8534707144812
 30
0.0
 10
134.4250971066307
 20
140.8534707144812
 30
0.0
 10
134.5094042665653
 20
140.8534707144812
 30
0.0
 10
134.5382291434072
 20
140.8534707144812
 30
0.0
 10
134.5965882219727
 20
140.8534707144812
 30
0.0
 10
134.6258393431908
 20
140.8534707144812
 30
0.0
 10
134.6557064486393
 20
140.8534707144812
 30
0.0
  0
SPLINE
  5
1C2
330
1F
100
AcDbEntity
  8
0
  6
Continuous
 62
     7
370
    25
100
AcDbSpline
210
0.0
220
0.0
230
1.0
 70
     8
 71
     3
 72
    12
 73
     8
 74
     0
 42
0.000000001
 43
0.00000001
 40
0.0
 40
0.0
 40
0.0
 40
0.0
 40
0.2500000000000002
 40
0.2500000000000002
 40
0.5000000000000001
 40
0.5000000000000001
 40
1.0
 40
1.0
 40
1.0
 40
1.0
 10
117.731508124192
 20
141.0887901871732
 30
0.0
 10
117.7537749663459
 20
141.0531035530695
 30
0.0
 10
117.7608129990003
 20
141.0195446767701
 30
0.0
 10
117.7616881204847
 20
140.9609009317148
 30
0.0
 10
117.7550241265357
 20
140.9356740157531
 30
0.0
 10
117.7243717771174
 20
140.8746402022526
 30
0.0
 10
117.6897630939929
 20
140.8534707144812
 30
0.0
 10
117.6557064486393
 20
140.8534707144812
 30
0.0
  0
SPLINE
  5
1C3
330
1F
100
AcDbEntity
  8
0
  6
Continuous
 62
     7
370
    25
100
AcDbSpline
210
0.0
220
0.0
230
1.0
 70
    24
 71
     3
 72
    16
 73
    12
 74
     0
 42
0.000000001
 43
0.00000001
 40
0.0
 40
0.0
 40
0.0
 40
0.0
 40
0.2499999999999999
 40
0.2499999999999999
 40
0.5
 40
0.5
 40
0.7500000000000001
 40
0.7500000000000001
 40
0.875
 40
0.875
 40
1.0
 40
1.0
 40
1.0
 40
1.0
 10
118.1557064486393
 20
140.8534707144812
 30
0.0
 10
118.1557064486393
 20
140.8534707144812
 30
0.0
 10
118.1357746629522
 20
140.8534707144812
 30
0.0
 10
118.0751681163486
 20
140.8534707144812
 30
0.0
 10
118.0340576089034
 20
140.8534707144812
 30
0.0
 10
117.9396811525042
 20
140.8534707144812
 30
0.0
 10
117.8863157906479
 20
140.8534707144812
 30
0.0
 10
117.8020086307133
 20
140.8534707144812
 30
0.0
 10
117.7731837538715
 20
140.8534707144812
 30
0.0
 10
117.714824675306
 20
140.8534707144812
 30
0.0
 10
117.6855735540879
 20
140.8534707144812
 30
0.0
 10
117.6557064486393
 20
140.8534707144812
 30
0.0
  0
LINE
  5
1C4
330
1F
100
AcDbEntity
  8
0
  6
Continuous
 62
     8
370
    25
100
AcDbLine
 10
110.1557056887
 20
138.1034702674
 30
0.0
 11
110.1557056887
 21
160.6034711615
 31
0.0
  0
LINE
  5
1C5
330
1F
100
AcDbEntity
  8
0
  6
Continuous
 62
     8
370
    25
100
AcDbLine
 10
142.1557072086
 20
160.6034711615
 30
0.0
 11
142.1557072086
 21
138.1034702674
 31
0.0
  0
LINE
  5
1C6
330
1F
100
AcDbEntity
  8
0
  6
Continuous
 62
     8
370
    25
100
AcDbLine
 10
112.1557060165
 20
157.8534711764
 30
0.0
 11
112.1557060165
 21
140.8534702525
 31
0.0
  0
LINE
  5
1C7
330
1F
100
AcDbEntity
  8
0
  6
Continuous
 62
     8
370
    25
100
AcDbLine
 10
140.1557068808
 20
140.8534702525
 30
0.0
 11
140.1557068808
 21
157.8534711764
 31
0.0
  0
LINE
  5
1C8
330
1F
100
AcDbEntity
  8
0
  6
Continuous
 62
     8
370
    25
100
AcDbLine
 10
135.1557060612
 20
142.6034705394
 30
0.0
 11
135.1557060612
 21
141.7979151622
 31
0.0
  0
LINE
  5
1C9
330
1F
100
AcDbEntity
  8
0
  6
Continuous
 62
     8
370
    25
100
AcDbLine
 10
135.1557060612
 20
156.9090262667
 30
0.0
 11
135.1557060612
 21
156.1034708896
 31
0.0
  0
LINE
  5
1CA
330
1F
100
AcDbEntity
  8
0
  6
Continuous
 62
     8
370
    25
100
AcDbLine
 10
117.1557068361
 20
156.1034708896
 30
0.0
 11
117.1557068361
 21
156.9090262667
 31
0.0
  0
LINE
  5
1CB
330
1F
100
AcDbEntity
  8
0
  6
Continuous
 62
     8
370
    25
100
AcDbLine
 10
117.1557068361
 20
141.7979151622
 30
0.0
 11
117.1557068361
 21
142.6034705394
 31
0.0
  0
LINE
  5
1CC
330
1F
100
AcDbEntity
  8
0
  6
Continuous
 62
     8
370
    25
100
AcDbLine
 10
134.1557068286
 20
157.3534710945
 30
0.0
 11
134.0653527064
 21
157.3534710945
 31
0.0
  0
LINE
  5
1CD
330
1F
100
AcDbEntity
  8
0
  6
Continuous
 62
     8
370
    25
100
AcDbLine
 10
134.1557068286
 20
157.2631169722
 30
0.0
 11
134.1557068286
 21
157.3534710945
 31
0.0
  0
LINE
  5
1CE
330
1F
100
AcDbEntity
  8
0
  6
Continuous
 62
     8
370
    25
100
AcDbLine
 10
118.1557060687
 20
141.3534703345
 30
0.0
 11
118.2460601909
 21
141.3534703345
 31
0.0
  0
LINE
  5
1CF
330
1F
100
AcDbEntity
  8
0
  6
Continuous
 62
     8
370
    25
100
AcDbLine
 10
118.1557060687
 20
141.3534703345
 30
0.0
 11
118.1557060687
 21
141.4438244567
 31
0.0
  0
LINE
  5
1D0
330
1F
100
AcDbEntity
  8
0
  6
Continuous
 62
     8
370
    25
100
AcDbLine
 10
118.2460601909
 20
157.3534710945
 30
0.0
 11
118.1557060687
 21
157.3534710945
 31
0.0
  0
LINE
  5
1D1
330
1F
100
AcDbEntity
  8
0
  6
Continuous
 62
     8
370
    25
100
AcDbLine
 10
118.1557060687
 20
157.2631169722
 30
0.0
 11
118.1557060687
 21
157.3534710945
 31
0.0
  0
LINE
  5
1D2
330
1F
100
AcDbEntity
  8
0
  6
Continuous
 62
     8
370
    25
100
AcDbLine
 10
134.0653527064
 20
141.3534703345
 30
0.0
 11
134.1557068286
 21
141.3534703345
 31
0.0
  0
LINE
  5
1D3
330
1F
100
AcDbEntity
  8
0
  6
Continuous
 62
     8
370
    25
100
AcDbLine
 10
134.1557068286
 20
141.3534703345
 30
0.0
 11
134.1557068286
 21
141.4438244567
 31
0.0
  0
INSERT
  5
1DF
330
1F
100
AcDbEntity
  8
0
  6
Continuous
 62
     7
370
    18
100
AcDbBlockReference
  2
SW_CENTERMARKSYMBOL_1
 10
126.1557064486
 20
149.3534707145
 30
0.0
  0
ARC
  5
1E0
330
1F
100
AcDbEntity
  8
0
  6
Continuous
 62
     7
370
    18
100
AcDbCircle
 10
126.1557064486
 20
149.3534707145
 30
0.0
 40
8.334121500000021
100
AcDbArc
 50
75.0
 51
345.0
  0
ENDSEC
  0
SECTION
  2
OBJECTS
  0
DICTIONARY
  5
C
330
0
100
AcDbDictionary
281
     1
  3
ACAD_GROUP
350
D
  3
ACAD_LAYOUT
350
1A
  3
ACAD_MLINESTYLE
350
17
  3
ACAD_PLOTSETTINGS
350
19
  3
ACAD_PLOTSTYLENAME
350
E
  3
ACAD_SCALELIST
350
47
  0
DICTIONARY
  5
D
102
{ACAD_REACTORS
330
C
102
}
330
C
100
AcDbDictionary
281
     1
  0
DICTIONARY
  5
1A
102
{ACAD_REACTORS
330
C
102
}
330
C
100
AcDbDictionary
281
     1
  3
Layout1
350
1E
  3
Layout2
350
26
  3
Model
350
22
  0
DICTIONARY
  5
17
102
{ACAD_REACTORS
330
C
102
}
330
C
100
AcDbDictionary
281
     1
  3
Standard
350
18
  0
DICTIONARY
  5
19
102
{ACAD_REACTORS
330
C
102
}
330
C
100
AcDbDictionary
281
     1
  0
ACDBDICTIONARYWDFLT
  5
E
102
{ACAD_REACTORS
330
C
102
}
330
C
100
AcDbDictionary
281
     1
  3
Normal
350
F
100
AcDbDictionaryWithDefault
340
F
  0
DICTIONARY
  5
47
102
{ACAD_REACTORS
330
C
102
}
330
C
100
AcDbDictionary
281
     1
  3
A0
350
48
  3
A1
350
49
  3
A2
350
4A
  3
A3
350
4B
  3
A4
350
4C
  3
A5
350
4D
  3
A6
350
4E
  3
A7
350
4F
  3
A8
350
50
  3
A9
350
51
  3
B0
350
52
  3
B1
350
53
  3
B2
350
54
  3
B3
350
55
  3
B4
350
56
  3
B5
350
57
  3
B6
350
58
  3
B7
350
59
  3
B8
350
5A
  3
B9
350
5B
  3
C0
350
5C
  3
C1
350
5D
  3
C2
350
5E
  3
C3
350
5F
  3
C4
350
60
  3
C5
350
61
  3
C6
350
62
  3
C7
350
63
  3
C8
350
64
  3
C9
350
65
  3
D0
350
66
  3
D1
350
67
  3
D2
350
68
  0
LAYOUT
  5
1E
102
{ACAD_REACTORS
330
1A
102
}
330
1A
100
AcDbPlotSettings
  1

  2
none_device
  4

  6

 40
0.0
 41
0.0
 42
0.0
 43
0.0
 44
0.0
 45
0.0
 46
0.0
 47
0.0
 48
0.0
 49
0.0
140
0.0
141
0.0
142
1.0
143
1.0
 70
   688
 72
     1
 73
     0
 74
     5
  7

 75
    16
147
1.0
148
0.0
149
0.0
100
AcDbLayout
  1
Layout1
 70
     1
 71
     1
 10
0.0
 20
0.0
 11
420.0
 21
297.0
 12
0.0
 22
0.0
 32
0.0
 14
1.0000000000E+20
 24
1.0000000000E+20
 34
1.0000000000E+20
 15
-1.0000000000E+20
 25
-1.0000000000E+20
 35
-1.0000000000E+20
146
0.0
 13
0.0
 23
0.0
 33
0.0
 16
1.0
 26
0.0
 36
0.0
 17
0.0
 27
1.0
 37
0.0
 76
     0
330
1B
  0
LAYOUT
  5
26
102
{ACAD_REACTORS
330
1A
102
}
330
1A
100
AcDbPlotSettings
  1

  2
none_device
  4

  6

 40
0.0
 41
0.0
 42
0.0
 43
0.0
 44
0.0
 45
0.0
 46
0.0
 47
0.0
 48
0.0
 49
0.0
140
0.0
141
0.0
142
1.0
143
1.0
 70
   688
 72
     1
 73
     0
 74
     5
  7

 75
    16
147
1.0
148
0.0
149
0.0
100
AcDbLayout
  1
Layout2
 70
     1
 71
     2
 10
0.0
 20
0.0
 11
0.0
 21
0.0
 12
0.0
 22
0.0
 32
0.0
 14
0.0
 24
0.0
 34
0.0
 15
0.0
 25
0.0
 35
0.0
146
0.0
 13
0.0
 23
0.0
 33
0.0
 16
1.0
 26
0.0
 36
0.0
 17
0.0
 27
1.0
 37
0.0
 76
     0
330
23
  0
LAYOUT
  5
22
102
{ACAD_REACTORS
330
1A
102
}
330
1A
100
AcDbPlotSettings
  1

  2
none_device
  4
Letter_(8.50_x_11.00_Inches)
  6

 40
6.35
 41
6.35
 42
6.35000508
 43
6.35000508
 44
215.9
 45
279.4
 46
0.0
 47
0.0
 48
0.0
 49
0.0
140
0.0
141
0.0
142
1.0
143
1.0
 70
  1712
 72
     1
 73
     0
 74
     0
  7

 75
     0
147
1.0
148
0.0
149
0.0
100
AcDbLayout
  1
Model
 70
     1
 71
     0
 10
0.0
 20
0.0
 11
431.8
 21
279.4
 12
0.0
 22
0.0
 32
0.0
 14
0.0
 24
0.0
 34
0.0
 15
431.8
 25
279.4
 35
0.0
146
0.0
 13
0.0
 23
0.0
 33
0.0
 16
1.0
 26
0.0
 36
0.0
 17
0.0
 27
1.0
 37
0.0
 76
     0
330
1F
331
29
  0
MLINESTYLE
  5
18
102
{ACAD_REACTORS
330
17
102
}
330
17
100
AcDbMlineStyle
  2
Standard
 70
     0
  3

 62
   256
 51
90.0
 52
90.0
 71
     2
 49
0.5
 62
   256
  6
BYLAYER
 49
-0.5
 62
   256
  6
BYLAYER
  0
ACDBPLACEHOLDER
  5
F
102
{ACAD_REACTORS
330
E
102
}
330
E
  0
SCALE
  5
48
102
{ACAD_REACTORS
330
47
102
}
330
47
100
AcDbScale
 70
     0
300
1:1
140
1.0
141
1.0
290
     1
  0
SCALE
  5
49
102
{ACAD_REACTORS
330
47
102
}
330
47
100
AcDbScale
 70
     0
300
1:2
140
1.0
141
2.0
290
     0
  0
SCALE
  5
4A
102
{ACAD_REACTORS
330
47
102
}
330
47
100
AcDbScale
 70
     0
300
1:4
140
1.0
141
4.0
290
     0
  0
SCALE
  5
4B
102
{ACAD_REACTORS
330
47
102
}
330
47
100
AcDbScale
 70
     0
300
1:5
140
1.0
141
5.0
290
     0
  0
SCALE
  5
4C
102
{ACAD_REACTORS
330
47
102
}
330
47
100
AcDbScale
 70
     0
300
1:8
140
1.0
141
8.0
290
     0
  0
SCALE
  5
4D
102
{ACAD_REACTORS
330
47
102
}
330
47
100
AcDbScale
 70
     0
300
1:10
140
1.0
141
10.0
290
     0
  0
SCALE
  5
4E
102
{ACAD_REACTORS
330
47
102
}
330
47
100
AcDbScale
 70
     0
300
1:16
140
1.0
141
16.0
290
     0
  0
SCALE
  5
4F
102
{ACAD_REACTORS
330
47
102
}
330
47
100
AcDbScale
 70
     0
300
1:20
140
1.0
141
20.0
290
     0
  0
SCALE
  5
50
102
{ACAD_REACTORS
330
47
102
}
330
47
100
AcDbScale
 70
     0
300
1:30
140
1.0
141
30.0
290
     0
  0
SCALE
  5
51
102
{ACAD_REACTORS
330
47
102
}
330
47
100
AcDbScale
 70
     0
300
1:40
140
1.0
141
40.0
290
     0
  0
SCALE
  5
52
102
{ACAD_REACTORS
330
47
102
}
330
47
100
AcDbScale
 70
     0
300
1:50
140
1.0
141
50.0
290
     0
  0
SCALE
  5
53
102
{ACAD_REACTORS
330
47
102
}
330
47
100
AcDbScale
 70
     0
300
1:100
140
1.0
141
100.0
290
     0
  0
SCALE
  5
54
102
{ACAD_REACTORS
330
47
102
}
330
47
100
AcDbScale
 70
     0
300
2:1
140
2.0
141
1.0
290
     0
  0
SCALE
  5
55
102
{ACAD_REACTORS
330
47
102
}
330
47
100
AcDbScale
 70
     0
300
4:1
140
4.0
141
1.0
290
     0
  0
SCALE
  5
56
102
{ACAD_REACTORS
330
47
102
}
330
47
100
AcDbScale
 70
     0
300
8:1
140
8.0
141
1.0
290
     0
  0
SCALE
  5
57
102
{ACAD_REACTORS
330
47
102
}
330
47
100
AcDbScale
 70
     0
300
10:1
140
10.0
141
1.0
290
     0
  0
SCALE
  5
58
102
{ACAD_REACTORS
330
47
102
}
330
47
100
AcDbScale
 70
     0
300
100:1
140
100.0
141
1.0
290
     0
  0
SCALE
  5
59
102
{ACAD_REACTORS
330
47
102
}
330
47
100
AcDbScale
 70
     0
300
1/128" = 1'-0"
140
0.0078125
141
12.0
290
     0
  0
SCALE
  5
5A
102
{ACAD_REACTORS
330
47
102
}
330
47
100
AcDbScale
 70
     0
300
1/64" = 1'-0"
140
0.015625
141
12.0
290
     0
  0
SCALE
  5
5B
102
{ACAD_REACTORS
330
47
102
}
330
47
100
AcDbScale
 70
     0
300
1/32" = 1'-0"
140
0.03125
141
12.0
290
     0
  0
SCALE
  5
5C
102
{ACAD_REACTORS
330
47
102
}
330
47
100
AcDbScale
 70
     0
300
1/16" = 1'-0"
140
0.0625
141
12.0
290
     0
  0
SCALE
  5
5D
102
{ACAD_REACTORS
330
47
102
}
330
47
100
AcDbScale
 70
     0
300
3/32" = 1'-0"
140
0.09375
141
12.0
290
     0
  0
SCALE
  5
5E
102
{ACAD_REACTORS
330
47
102
}
330
47
100
AcDbScale
 70
     0
300
1/8" = 1'-0"
140
0.125
141
12.0
290
     0
  0
SCALE
  5
5F
102
{ACAD_REACTORS
330
47
102
}
330
47
100
AcDbScale
 70
     0
300
3/16" = 1'-0"
140
0.1875
141
12.0
290
     0
  0
SCALE
  5
60
102
{ACAD_REACTORS
330
47
102
}
330
47
100
AcDbScale
 70
     0
300
1/4" = 1'-0"
140
0.25
141
12.0
290
     0
  0
SCALE
  5
61
102
{ACAD_REACTORS
330
47
102
}
330
47
100
AcDbScale
 70
     0
300
3/8" = 1'-0"
140
0.375
141
12.0
290
     0
  0
SCALE
  5
62
102
{ACAD_REACTORS
330
47
102
}
330
47
100
AcDbScale
 70
     0
300
1/2" = 1'-0"
140
0.5
141
12.0
290
     0
  0
SCALE
  5
63
102
{ACAD_REACTORS
330
47
102
}
330
47
100
AcDbScale
 70
     0
300
3/4" = 1'-0"
140
0.75
141
12.0
290
     0
  0
SCALE
  5
64
102
{ACAD_REACTORS
330
47
102
}
330
47
100
AcDbScale
 70
     0
300
1" = 1'-0"
140
1.0
141
12.0
290
     0
  0
SCALE
  5
65
102
{ACAD_REACTORS
330
47
102
}
330
47
100
AcDbScale
 70
     0
300
1-1/2" = 1'-0"
140
1.5
141
12.0
290
     0
  0
SCALE
  5
66
102
{ACAD_REACTORS
330
47
102
}
330
47
100
AcDbScale
 70
     0
300
3" = 1'-0"
140
3.0
141
12.0
290
     0
  0
SCALE
  5
67
102
{ACAD_REACTORS
330
47
102
}
330
47
100
AcDbScale
 70
     0
300
6" = 1'-0"
140
6.0
141
12.0
290
     0
  0
SCALE
  5
68
102
{ACAD_REACTORS
330
47
102
}
330
47
100
AcDbScale
 70
     0
300
1'-0" = 1'-0"
140
12.0
141
12.0
290
     0
  0
ENDSEC
  0
EOF
