  0
SECTION
  2
HEADER
  9
$ACADVER
  1
AC1015
  9
$ACADMAINTVER
 70
     6
  9
$DWGCODEPAGE
  3
DOS932
  9
$INSBASE
 10
0.0
 20
0.0
 30
0.0
  9
$EXTMIN
 10
0.0
 20
0.0
 30
0.0
  9
$EXTMAX
 10
431.8
 20
279.4
 30
0.0
  9
$LIMMIN
 10
0.0
 20
0.0
  9
$LIMMAX
 10
431.8
 20
279.4
  9
$ORTHOMODE
 70
     0
  9
$REGENMODE
 70
     1
  9
$FILLMODE
 70
     1
  9
$QTEXTMODE
 70
     0
  9
$MIRRTEXT
 70
     1
  9
$LTSCALE
 40
1.0
  9
$ATTMODE
 70
     1
  9
$TEXTSIZE
 40
3.5
  9
$TRACEWID
 40
1.0
  9
$TEXTSTYLE
  7
Standard
  9
$CLAYER
  8
0
  9
$CELTYPE
  6
ByLayer
  9
$CECOLOR
 62
   256
  9
$CELTSCALE
 40
1.0
  9
$DISPSILH
 70
     0
  9
$DIMSCALE
 40
1.0
  9
$DIMASZ
 40
3.302
  9
$DIMEXO
 40
1.0
  9
$DIMDLI
 40
3.75
  9
$DIMRND
 40
0.0
  9
$DIMDLE
 40
0.0
  9
$DIMEXE
 40
1.0
  9
$DIMTP
 40
0.0
  9
$DIMTM
 40
0.0
  9
$DIMTXT
 40
3.5
  9
$DIMCEN
 40
2.5
  9
$DIMTSZ
 40
0.0
  9
$DIMTOL
 70
     0
  9
$DIMLIM
 70
     0
  9
$DIMTIH
 70
     1
  9
$DIMTOH
 70
     1
  9
$DIMSE1
 70
     0
  9
$DIMSE2
 70
     0
  9
$DIMTAD
 70
     1
  9
$DIMZIN
 70
     1
  9
$DIMBLK
  1

  9
$DIMASO
 70
     1
  9
$DIMSHO
 70
     1
  9
$DIMPOST
  1

  9
$DIMAPOST
  1

  9
$DIMALT
 70
     0
  9
$DIMALTD
 70
     3
  9
$DIMALTF
 40
0.0393700787
  9
$DIMLFAC
 40
1.0
  9
$DIMTOFL
 70
     1
  9
$DIMTVP
 40
0.0
  9
$DIMTIX
 70
     0
  9
$DIMSOXD
 70
     0
  9
$DIMSAH
 70
     0
  9
$DIMBLK1
  1

  9
$DIMBLK2
  1

  9
$DIMSTYLE
  2
ISO-25
  9
$DIMCLRD
 70
     0
  9
$DIMCLRE
 70
     0
  9
$DIMCLRT
 70
     0
  9
$DIMTFAC
 40
1.0
  9
$DIMGAP
 40
1.524
  9
$DIMJUST
 70
     0
  9
$DIMSD1
 70
     0
  9
$DIMSD2
 70
     0
  9
$DIMTOLJ
 70
     0
  9
$DIMTZIN
 70
     1
  9
$DIMALTZ
 70
     0
  9
$DIMALTTZ
 70
     0
  9
$DIMUPT
 70
     0
  9
$DIMDEC
 70
     2
  9
$DIMTDEC
 70
     2
  9
$DIMALTU
 70
     2
  9
$DIMALTTD
 70
     3
  9
$DIMTXSTY
  7
Standard
  9
$DIMAUNIT
 70
     0
  9
$DIMADEC
 70
     2
  9
$DIMALTRND
 40
0.0
  9
$DIMAZIN
 70
     0
  9
$DIMDSEP
 70
    44
  9
$DIMATFIT
 70
     3
  9
$DIMFRAC
 70
     0
  9
$DIMLDRBLK
  1

  9
$DIMLUNIT
 70
     2
  9
$DIMLWD
 70
    -2
  9
$DIMLWE
 70
    -2
  9
$DIMTMOVE
 70
     0
  9
$LUNITS
 70
     2
  9
$LUPREC
 70
     2
  9
$SKETCHINC
 40
1.0
  9
$FILLETRAD
 40
10.0
  9
$AUNITS
 70
     0
  9
$AUPREC
 70
     2
  9
$MENU
  1
.
  9
$ELEVATION
 40
0.0
  9
$PELEVATION
 40
0.0
  9
$THICKNESS
 40
0.0
  9
$LIMCHECK
 70
     0
  9
$CHAMFERA
 40
0.0
  9
$CHAMFERB
 40
0.0
  9
$CHAMFERC
 40
0.0
  9
$CHAMFERD
 40
0.0
  9
$SKPOLY
 70
     0
  9
$TDCREATE
 40
2459229.38364059
  9
$TDUCREATE
 40
2459229.00864059
  9
$TDUPDATE
 40
2459229.383641331
  9
$TDUUPDATE
 40
2459229.008641331
  9
$TDINDWG
 40
0.0000000116
  9
$TDUSRTIMER
 40
0.0000000116
  9
$USRTIMER
 70
     1
  9
$ANGBASE
 50
0.0
  9
$ANGDIR
 70
     0
  9
$PDMODE
 70
     0
  9
$PDSIZE
 40
-1.0
  9
$PLINEWID
 40
0.0
  9
$SPLFRAME
 70
     0
  9
$SPLINETYPE
 70
     6
  9
$SPLINESEGS
 70
     8
  9
$HANDSEED
  5
1E1
  9
$SURFTAB1
 70
     6
  9
$SURFTAB2
 70
     6
  9
$SURFTYPE
 70
     6
  9
$SURFU
 70
     6
  9
$SURFV
 70
     6
  9
$UCSBASE
  2

  9
$UCSNAME
  2

  9
$UCSORG
 10
0.0
 20
0.0
 30
0.0
  9
$UCSXDIR
 10
1.0
 20
0.0
 30
0.0
  9
$UCSYDIR
 10
0.0
 20
1.0
 30
0.0
  9
$UCSORTHOREF
  2

  9
$UCSORTHOVIEW
 70
     0
  9
$UCSORGTOP
 10
0.0
 20
0.0
 30
0.0
  9
$UCSORGBOTTOM
 10
0.0
 20
0.0
 30
0.0
  9
$UCSORGLEFT
 10
0.0
 20
0.0
 30
0.0
  9
$UCSORGRIGHT
 10
0.0
 20
0.0
 30
0.0
  9
$UCSORGFRONT
 10
0.0
 20
0.0
 30
0.0
  9
$UCSORGBACK
 10
0.0
 20
0.0
 30
0.0
  9
$PUCSBASE
  2

  9
$PUCSNAME
  2

  9
$PUCSORG
 10
0.0
 20
0.0
 30
0.0
  9
$PUCSXDIR
 10
1.0
 20
0.0
 30
0.0
  9
$PUCSYDIR
 10
0.0
 20
1.0
 30
0.0
  9
$PUCSORTHOREF
  2

  9
$PUCSORTHOVIEW
 70
     0
  9
$PUCSORGTOP
 10
0.0
 20
0.0
 30
0.0
  9
$PUCSORGBOTTOM
 10
0.0
 20
0.0
 30
0.0
  9
$PUCSORGLEFT
 10
0.0
 20
0.0
 30
0.0
  9
$PUCSORGRIGHT
 10
0.0
 20
0.0
 30
0.0
  9
$PUCSORGFRONT
 10
0.0
 20
0.0
 30
0.0
  9
$PUCSORGBACK
 10
0.0
 20
0.0
 30
0.0
  9
$USERI1
 70
     0
  9
$USERI2
 70
     0
  9
$USERI3
 70
     0
  9
$USERI4
 70
     0
  9
$USERI5
 70
     0
  9
$USERR1
 40
0.0
  9
$USERR2
 40
0.0
  9
$USERR3
 40
0.0
  9
$USERR4
 40
0.0
  9
$USERR5
 40
0.0
  9
$WORLDVIEW
 70
     1
  9
$SHADEDGE
 70
     3
  9
$SHADEDIF
 70
    70
  9
$TILEMODE
 70
     1
  9
$MAXACTVP
 70
    64
  9
$PINSBASE
 10
0.0
 20
0.0
 30
0.0
  9
$PLIMCHECK
 70
     0
  9
$PEXTMIN
 10
1.0000000000E+20
 20
1.0000000000E+20
 30
1.0000000000E+20
  9
$PEXTMAX
 10
-1.0000000000E+20
 20
-1.0000000000E+20
 30
-1.0000000000E+20
  9
$PLIMMIN
 10
0.0
 20
0.0
  9
$PLIMMAX
 10
420.0
 20
297.0
  9
$UNITMODE
 70
     0
  9
$VISRETAIN
 70
     1
  9
$PLINEGEN
 70
     0
  9
$PSLTSCALE
 70
     1
  9
$TREEDEPTH
 70
  3020
  9
$CMLSTYLE
  2
Standard
  9
$CMLJUST
 70
     0
  9
$CMLSCALE
 40
20.0
  9
$PROXYGRAPHICS
 70
     1
  9
$MEASUREMENT
 70
     1
  9
$CELWEIGHT
370
    -1
  9
$ENDCAPS
280
     0
  9
$JOINSTYLE
280
     0
  9
$LWDISPLAY
290
     1
  9
$INSUNITS
 70
     4
  9
$HYPERLINKBASE
  1

  9
$STYLESHEET
  1

  9
$XEDIT
290
     1
  9
$CEPSNTYPE
380
     0
  9
$PSTYLEMODE
290
     1
  9
$FINGERPRINTGUID
  2
{C9B377BA-3A07-400A-9D46-079A4E50A473}
  9
$VERSIONGUID
  2
{FAEB1C32-E019-11D5-929B-00C0DF256EC4}
  9
$EXTNAMES
290
     1
  9
$PSVPSCALE
 40
0.0
  9
$OLESTARTUP
290
     0
  0
ENDSEC
  0
SECTION
  2
CLASSES
  0
CLASS
  1
ACDBDICTIONARYWDFLT
  2
AcDbDictionaryWithDefault
  3
ObjectDBX Classes
 90
        0
280
     0
281
     0
  0
CLASS
  1
VISUALSTYLE
  2
AcDbVisualStyle
  3
ObjectDBX Classes
 90
     4095
280
     0
281
     0
  0
CLASS
  1
MATERIAL
  2
AcDbMaterial
  3
ObjectDBX Classes
 90
     1153
280
     0
281
     0
  0
CLASS
  1
SCALE
  2
AcDbScale
  3
ObjectDBX Classes
 90
     1153
280
     0
281
     0
  0
CLASS
  1
TABLESTYLE
  2
AcDbTableStyle
  3
ObjectDBX Classes
 90
     4095
280
     0
281
     0
  0
CLASS
  1
MLEADERSTYLE
  2
AcDbMLeaderStyle
  3
ACDB_MLEADERSTYLE_CLASS
 90
     4095
280
     0
281
     0
  0
CLASS
  1
SUN
  2
AcDbSun
  3
SCENEOE
 90
     1153
280
     0
281
     0
  0
CLASS
  1
ACDBPLACEHOLDER
  2
AcDbPlaceHolder
  3
ObjectDBX Classes
 90
        0
280
     0
281
     0
  0
CLASS
  1
LAYOUT
  2
AcDbLayout
  3
ObjectDBX Classes
 90
        0
280
     0
281
     0
  0
ENDSEC
  0
SECTION
  2
TABLES
  0
TABLE
  2
VPORT
  5
8
330
0
100
AcDbSymbolTable
 70
     1
  0
VPORT
  5
29
330
8
100
AcDbSymbolTableRecord
100
AcDbViewportTableRecord
  2
*Active
 70
     0
 10
0.0
 20
0.0
 11
1.0
 21
1.0
 12
215.9
 22
139.7
 13
0.0
 23
0.0
 14
10.0
 24
10.0
 15
10.0
 25
10.0
 16
0.0
 26
0.0
 36
1.0
 17
0.0
 27
0.0
 37
0.0
 40
279.4
 41
1.5454545455
 42
50.0
 43
0.0
 44
0.0
 50
0.0
 51
0.0
 71
     0
 72
  2000
 73
     1
 74
     3
 75
     0
 76
     0
 77
     0
 78
     0
281
     0
 65
     1
110
0.0
120
0.0
130
0.0
111
1.0
121
0.0
131
0.0
112
0.0
122
1.0
132
0.0
 79
     0
146
0.0
  0
ENDTAB
  0
TABLE
  2
LTYPE
  5
5
330
0
100
AcDbSymbolTable
 70
     6
  0
LTYPE
  5
14
330
5
100
AcDbSymbolTableRecord
100
AcDbLinetypeTableRecord
  2
ByBlock
 70
     0
  3

 72
    65
 73
     0
 40
0.0
  0
LTYPE
  5
15
330
5
100
AcDbSymbolTableRecord
100
AcDbLinetypeTableRecord
  2
ByLayer
 70
     0
  3

 72
    65
 73
     0
 40
0.0
  0
LTYPE
  5
16
330
5
100
AcDbSymbolTableRecord
100
AcDbLinetypeTableRecord
  2
Continuous
 70
     0
  3
Solid line
 72
    65
 73
     0
 40
0.0
  0
LTYPE
  5
6E
330
5
100
AcDbSymbolTableRecord
100
AcDbLinetypeTableRecord
  2
HIDDEN
 70
     0
  3
Hidden __ __ __ __ __ __ __ __ __ __ __ __ __ __
 72
    65
 73
     2
 40
1.905
 49
1.27
 74
     0
 49
-0.635
 74
     0
  0
LTYPE
  5
6F
330
5
100
AcDbSymbolTableRecord
100
AcDbLinetypeTableRecord
  2
PHANTOM
 70
     0
  3
Phantom ______  __  __  ______  __  __  ______
 72
    65
 73
     6
 40
12.7
 49
6.35
 74
     0
 49
-1.27
 74
     0
 49
1.27
 74
     0
 49
-1.27
 74
     0
 49
1.27
 74
     0
 49
-1.27
 74
     0
  0
LTYPE
  5
70
330
5
100
AcDbSymbolTableRecord
100
AcDbLinetypeTableRecord
  2
CENTER
 70
     0
  3
Center ____ _ ____ _ ____ _ ____ _ ____ _ ____
 72
    65
 73
     4
 40
10.16
 49
6.35
 74
     0
 49
-1.27
 74
     0
 49
1.27
 74
     0
 49
-1.27
 74
     0
  0
LTYPE
  5
71
330
5
100
AcDbSymbolTableRecord
100
AcDbLinetypeTableRecord
  2
CENTERX2
 70
     0
  3
Center (2x) ________  __  ________  __  _____
 72
    65
 73
     4
 40
20.32
 49
12.7
 74
     0
 49
-2.54
 74
     0
 49
2.54
 74
     0
 49
-2.54
 74
     0
  0
LTYPE
  5
72
330
5
100
AcDbSymbolTableRecord
100
AcDbLinetypeTableRecord
  2
DOT2
 70
     0
  3
Dot (.5x) ........................................
 72
    65
 73
     2
 40
0.635
 49
0.0
 74
     0
 49
-0.635
 74
     0
  0
ENDTAB
  0
TABLE
  2
LAYER
  5
2
330
0
100
AcDbSymbolTable
 70
     1
  0
LAYER
  5
10
330
2
100
AcDbSymbolTableRecord
100
AcDbLayerTableRecord
  2
0
 70
     0
 62
     7
  6
Continuous
370
    -3
390
F
  0
ENDTAB
  0
TABLE
  2
STYLE
  5
3
330
0
100
AcDbSymbolTable
 70
     2
  0
STYLE
  5
11
330
3
100
AcDbSymbolTableRecord
100
AcDbTextStyleTableRecord
  2
Standard
 70
     0
 40
0.0
 41
1.0
 50
0.0
 71
     0
 42
3.5
  3
txt
  4
bigfont
  0
STYLE
  5
73
330
3
100
AcDbSymbolTableRecord
100
AcDbTextStyleTableRecord
  2
SLDTEXTSTYLE0
 70
     0
 40
0.0
 41
0.7
 50
0.0
 71
     0
 42
3.5
  3
TXT
  4
bigfont
  0
ENDTAB
  0
TABLE
  2
VIEW
  5
6
330
0
100
AcDbSymbolTable
 70
     0
  0
ENDTAB
  0
TABLE
  2
UCS
  5
7
330
0
100
AcDbSymbolTable
 70
     0
  0
ENDTAB
  0
TABLE
  2
APPID
  5
9
330
0
100
AcDbSymbolTable
 70
     1
  0
APPID
  5
12
330
9
100
AcDbSymbolTableRecord
100
AcDbRegAppTableRecord
  2
ACAD
 70
     0
  0
ENDTAB
  0
TABLE
  2
DIMSTYLE
  5
A
330
0
100
AcDbSymbolTable
 70
     1
100
AcDbDimStyleTable
  0
DIMSTYLE
105
27
330
A
100
AcDbSymbolTableRecord
100
AcDbDimStyleTableRecord
  2
ISO-25
 70
     0
 41
2.5
 42
0.625
 43
3.75
 44
1.25
 73
     0
 74
     0
 77
     1
 78
     8
140
2.5
141
2.5
143
0.0393700787
147
0.625
171
     3
172
     1
178
     0
271
     2
272
     2
274
     3
278
    44
283
     0
284
     8
340
11
  0
ENDTAB
  0
TABLE
  2
BLOCK_RECORD
  5
1
330
0
100
AcDbSymbolTable
 70
     3
  0
BLOCK_RECORD
  5
1F
330
1
100
AcDbSymbolTableRecord
100
AcDbBlockTableRecord
  2
*Model_Space
340
22
  0
BLOCK_RECORD
  5
1B
330
1
100
AcDbSymbolTableRecord
100
AcDbBlockTableRecord
  2
*Paper_Space
340
1E
  0
BLOCK_RECORD
  5
23
330
1
100
AcDbSymbolTableRecord
100
AcDbBlockTableRecord
  2
*Paper_Space0
340
26
  0
BLOCK_RECORD
  5
161
330
1
100
AcDbSymbolTableRecord
100
AcDbBlockTableRecord
  2
SW_CENTERMARKSYMBOL_0
340
0
102
{BLKREFS
331
16C
102
}
  0
BLOCK_RECORD
  5
1D4
330
1
100
AcDbSymbolTableRecord
100
AcDbBlockTableRecord
  2
SW_CENTERMARKSYMBOL_1
340
0
102
{BLKREFS
331
1DF
102
}
  0
ENDTAB
  0
ENDSEC
  0
SECTION
  2
BLOCKS
  0
BLOCK
  5
20
330
1F
100
AcDbEntity
  8
0
100
AcDbBlockBegin
  2
*Model_Space
 70
     0
 10
0.0
 20
0.0
 30
0.0
  3
*Model_Space
  1

  0
ENDBLK
  5
21
330
1F
100
AcDbEntity
  8
0
100
AcDbBlockEnd
  0
BLOCK
  5
1C
330
1B
100
AcDbEntity
 67
     1
  8
0
100
AcDbBlockBegin
  2
*Paper_Space
 70
     0
 10
0.0
 20
0.0
 30
0.0
  3
*Paper_Space
  1

  0
ENDBLK
  5
1D
330
1B
100
AcDbEntity
 67
     1
  8
0
100
AcDbBlockEnd
  0
BLOCK
  5
24
330
23
100
AcDbEntity
  8
0
100
AcDbBlockBegin
  2
*Paper_Space0
 70
     0
 10
0.0
 20
0.0
 30
0.0
  3
*Paper_Space0
  1

  0
ENDBLK
  5
25
330
23
100
AcDbEntity
  8
0
100
AcDbBlockEnd
  0
BLOCK
  5
162
330
161
100
AcDbEntity
  8
0
100
AcDbBlockBegin
  2
SW_CENTERMARKSYMBOL_0
 70
     0
 10
0.0
 20
0.0
 30
0.0
  3
SW_CENTERMARKSYMBOL_0
  1

  0
LINE
  5
164
330
161
100
AcDbEntity
  8
0
  6
Continuous
 62
     0
370
    18
100
AcDbLine
 10
0.0
 20
0.0
 30
0.0
 11
0.0
 21
2.5
 31
0.0
  0
LINE
  5
165
330
161
100
AcDbEntity
  8
0
  6
Continuous
 62
     0
370
    18
100
AcDbLine
 10
0.0
 20
0.0
 30
0.0
 11
-2.5
 21
0.0
 31
0.0
  0
LINE
  5
166
330
161
100
AcDbEntity
  8
0
  6
Continuous
 62
     0
370
    18
100
AcDbLine
 10
0.0
 20
0.0
 30
0.0
 11
0.0
 21
-2.5
 31
0.0
  0
LINE
  5
167
330
161
100
AcDbEntity
  8
0
  6
Continuous
 62
     0
370
    18
100
AcDbLine
 10
0.0
 20
0.0
 30
0.0
 11
2.5
 21
0.0
 31
0.0
  0
LINE
  5
168
330
161
100
AcDbEntity
  8
0
  6
Continuous
 62
     0
370
    18
100
AcDbLine
 10
0.0
 20
5.0
 30
0.0
 11
0.0
 21
31.0993407827
 31
0.0
  0
LINE
  5
169
330
161
100
AcDbEntity
  8
0
  6
Continuous
 62
     0
370
    18
100
AcDbLine
 10
-5.0
 20
0.0
 30
0.0
 11
-13.75
 21
0.0
 31
0.0
  0
LINE
  5
16A
330
161
100
AcDbEntity
  8
0
  6
Continuous
 62
     0
370
    18
100
AcDbLine
 10
0.0
 20
-5.0
 30
0.0
 11
0.0
 21
-13.75
 31
0.0
  0
LINE
  5
16B
330
161
100
AcDbEntity
  8
0
  6
Continuous
 62
     0
370
    18
100
AcDbLine
 10
5.0
 20
0.0
 30
0.0
 11
13.75
 21
0.0
 31
0.0
  0
ENDBLK
  5
163
330
161
100
AcDbEntity
  8
0
100
AcDbBlockEnd
  0
BLOCK
  5
1D5
330
1D4
100
AcDbEntity
  8
0
100
AcDbBlockBegin
  2
SW_CENTERMARKSYMBOL_1
 70
     0
 10
0.0
 20
0.0
 30
0.0
  3
SW_CENTERMARKSYMBOL_1
  1

  0
LINE
  5
1D7
330
1D4
100
AcDbEntity
  8
0
  6
Continuous
 62
     0
370
    18
100
AcDbLine
 10
0.0
 20
0.0
 30
0.0
 11
0.0
 21
2.5
 31
0.0
  0
LINE
  5
1D8
330
1D4
100
AcDbEntity
  8
0
  6
Continuous
 62
     0
370
    18
100
AcDbLine
 10
0.0
 20
0.0
 30
0.0
 11
-2.5
 21
0.0
 31
0.0
  0
LINE
  5
1D9
330
1D4
100
AcDbEntity
  8
0
  6
Continuous
 62
     0
370
    18
100
AcDbLine
 10
0.0
 20
0.0
 30
0.0
 11
0.0
 21
-2.5
 31
0.0
  0
LINE
  5
1DA
330
1D4
100
AcDbEntity
  8
0
  6
Continuous
 62
     0
370
    18
100
AcDbLine
 10
0.0
 20
0.0
 30
0.0
 11
2.5
 21
0.0
 31
0.0
  0
LINE
  5
1DB
330
1D4
100
AcDbEntity
  8
0
  6
Continuous
 62
     0
370
    18
100
AcDbLine
 10
0.0
 20
5.0
 30
0.0
 11
0.0
 21
13.75
 31
0.0
  0
LINE
  5
1DC
330
1D4
100
AcDbEntity
  8
0
  6
Continuous
 62
     0
370
    18
100
AcDbLine
 10
-5.0
 20
0.0
 30
0.0
 11
-30.8238623147
 21
0.0
 31
0.0
  0
LINE
  5
1DD
330
1D4
100
AcDbEntity
  8
0
  6
Continuous
 62
     0
370
    18
100
AcDbLine
 10
0.0
 20
-5.0
 30
0.0
 11
0.0
 21
-13.75
 31
0.0
  0
LINE
  5
1DE
330
1D4
100
AcDbEntity
  8
0
  6
Continuous
 62
     0
370
    18
100
AcDbLine
 10
5.0
 20
0.0
 30
0.0
 11
30.7719356245
 21
0.0
 31
0.0
  0
ENDBLK
  5
1D6
330
1D4
100
AcDbEntity
  8
0
100
AcDbBlockEnd
  0
ENDSEC
  0
SECTION
  2
ENTITIES
  0
MTEXT
  5
74
330
1F
100
AcDbEntity
  8
0
  6
Continuous
 62
     7
370
     0
100
AcDbMText
 10
157.4510607108
 20
124.5826017488
 30
0.0
 40
5.2916666667
 41
0.0
 71
     1
 72
     1
  1
5R-TF1223
  7
SLDTEXTSTYLE0
 73
     1
 44
1.0
  0
LINE
  5
75
330
1F
100
AcDbEntity
  8
0
  6
Continuous
 62
     7
370
    25
100
AcDbLine
 10
152.9732138877
 20
86.8894628748
 30
0.0
 11
140.4732146328
 21
86.8894628748
 31
0.0
  0
LINE
  5
76
330
1F
100
AcDbEntity
  8
0
  6
Continuous
 62
     7
370
    25
100
AcDbLine
 10
140.4732146328
 20
64.3894619807
 30
0.0
 11
152.9732138877
 21
64.3894619807
 31
0.0
  0
LINE
  5
77
330
1F
100
AcDbEntity
  8
0
  6
Continuous
 62
     7
370
    25
100
AcDbLine
 10
113.2232134258
 20
104.1394624426
 30
0.0
 11
113.2232134258
 21
91.6394631877
 31
0.0
  0
LINE
  5
78
330
1F
100
AcDbEntity
  8
0
  6
Continuous
 62
     7
370
    25
100
AcDbLine
 10
135.7232143199
 20
91.6394631877
 30
0.0
 11
135.7232143199
 21
104.1394624426
 31
0.0
  0
LINE
  5
79
330
1F
100
AcDbEntity
  8
0
  6
Continuous
 62
     7
370
    25
100
AcDbLine
 10
95.9732138579
 20
64.3894619807
 30
0.0
 11
108.4732131129
 21
64.3894619807
 31
0.0
  0
LINE
  5
7A
330
1F
100
AcDbEntity
  8
0
  6
Continuous
 62
     7
370
    25
100
AcDbLine
 10
108.4732131129
 20
86.8894628748
 30
0.0
 11
95.9732138579
 21
86.8894628748
 31
0.0
  0
ARC
  5
7B
330
1F
100
AcDbEntity
  8
0
  6
Continuous
 62
     7
370
    25
100
AcDbCircle
 10
114.2232138728
 20
91.6394624277
 30
0.0
 40
1.000000000000014
100
AcDbArc
 50
180.0
 51
270.0
  0
ARC
  5
7C
330
1F
100
AcDbEntity
  8
0
  6
Continuous
 62
     7
370
    25
100
AcDbCircle
 10
134.7232138728
 20
91.6394624277
 30
0.0
 40
1.000000000000014
100
AcDbArc
 50
270.0
 51
0.0
  0
LINE
  5
7D
330
1F
100
AcDbEntity
  8
0
  6
Continuous
 62
     7
370
    25
100
AcDbLine
 10
135.7232143199
 20
104.1394624426
 30
0.0
 11
135.2232142379
 21
104.6394615933
 31
0.0
  0
LINE
  5
7E
330
1F
100
AcDbEntity
  8
0
  6
Continuous
 62
     7
370
    25
100
AcDbLine
 10
113.7232135078
 20
104.6394615933
 30
0.0
 11
113.2232134258
 21
104.1394624426
 31
0.0
  0
ARC
  5
7F
330
1F
100
AcDbEntity
  8
0
  6
Continuous
 62
     7
370
    25
100
AcDbCircle
 10
140.4732138728
 20
85.8894624277
 30
0.0
 40
1.0
100
AcDbArc
 50
90.0
 51
180.0
  0
ARC
  5
80
330
1F
100
AcDbEntity
  8
0
  6
Continuous
 62
     7
370
    25
100
AcDbCircle
 10
140.4732138728
 20
65.3894624277
 30
0.0
 40
1.0
100
AcDbArc
 50
180.0
 51
270.0
  0
LINE
  5
81
330
1F
100
AcDbEntity
  8
0
  6
Continuous
 62
     7
370
    25
100
AcDbLine
 10
152.9732138877
 20
64.3894619807
 30
0.0
 11
153.4732130384
 21
64.8894620627
 31
0.0
  0
LINE
  5
82
330
1F
100
AcDbEntity
  8
0
  6
Continuous
 62
     7
370
    25
100
AcDbLine
 10
153.4732130384
 20
86.3894627928
 30
0.0
 11
152.9732138877
 21
86.8894628748
 31
0.0
  0
ARC
  5
83
330
1F
100
AcDbEntity
  8
0
  6
Continuous
 62
     7
370
    25
100
AcDbCircle
 10
108.4732138728
 20
65.3894624277
 30
0.0
 40
1.0
100
AcDbArc
 50
270.0
 51
0.0
  0
ARC
  5
84
330
1F
100
AcDbEntity
  8
0
  6
Continuous
 62
     7
370
    25
100
AcDbCircle
 10
108.4732138728
 20
85.8894624277
 30
0.0
 40
1.0
100
AcDbArc
 50
0.0
 51
90.0
  0
LINE
  5
85
330
1F
100
AcDbEntity
  8
0
  6
Continuous
 62
     7
370
    25
100
AcDbLine
 10
95.9732138579
 20
86.8894628748
 30
0.0
 11
95.4732147073
 21
86.3894627928
 31
0.0
  0
LINE
  5
86
330
1F
100
AcDbEntity
  8
0
  6
Continuous
 62
     7
370
    25
100
AcDbLine
 10
95.4732147073
 20
64.8894620627
 30
0.0
 11
95.9732138579
 21
64.3894619807
 31
0.0
  0
ARC
  5
87
330
1F
100
AcDbEntity
  8
0
  6
Continuous
 62
     7
370
    25
100
AcDbCircle
 10
114.9732138728
 20
89.6394624277
 30
0.0
 40
1.000000000000014
100
AcDbArc
 50
0.0
 51
90.0
  0
ARC
  5
88
330
1F
100
AcDbEntity
  8
0
  6
Continuous
 62
     7
370
    25
100
AcDbCircle
 10
133.9732138728
 20
89.6394624277
 30
0.0
 40
1.0
100
AcDbArc
 50
90.0
 51
180.0
  0
ARC
  5
89
330
1F
100
AcDbEntity
  8
0
  6
Continuous
 62
     7
370
    25
100
AcDbCircle
 10
110.4732138728
 20
66.1394624277
 30
0.0
 40
1.0
100
AcDbArc
 50
90.0
 51
180.0
  0
ARC
  5
8A
330
1F
100
AcDbEntity
  8
0
  6
Continuous
 62
     7
370
    25
100
AcDbCircle
 10
110.4732138728
 20
85.1394624277
 30
0.0
 40
1.0
100
AcDbArc
 50
180.0
 51
270.0
  0
ARC
  5
8B
330
1F
100
AcDbEntity
  8
0
  6
Continuous
 62
     7
370
    25
100
AcDbCircle
 10
138.4732138728
 20
85.1394624277
 30
0.0
 40
1.000000000000028
100
AcDbArc
 50
270.0
 51
0.0
  0
ARC
  5
8C
330
1F
100
AcDbEntity
  8
0
  6
Continuous
 62
     7
370
    25
100
AcDbCircle
 10
138.4732138728
 20
66.1394624277
 30
0.0
 40
1.000000000000028
100
AcDbArc
 50
0.0
 51
90.0
  0
LINE
  5
8D
330
1F
100
AcDbEntity
  8
0
  6
Continuous
 62
     7
370
    25
100
AcDbLine
 10
115.4732142603
 20
84.1394628897
 30
0.0
 11
110.4732134407
 21
84.1394628897
 31
0.0
  0
LINE
  5
8E
330
1F
100
AcDbEntity
  8
0
  6
Continuous
 62
     7
370
    25
100
AcDbLine
 10
138.473214305
 20
84.1394628897
 30
0.0
 11
133.4732134854
 21
84.1394628897
 31
0.0
  0
LINE
  5
8F
330
1F
100
AcDbEntity
  8
0
  6
Continuous
 62
     7
370
    25
100
AcDbLine
 10
110.4732134407
 20
67.1394619658
 30
0.0
 11
138.473214305
 21
67.1394619658
 31
0.0
  0
LINE
  5
90
330
1F
100
AcDbEntity
  8
0
  6
Continuous
 62
     7
370
    25
100
AcDbLine
 10
132.9732143348
 20
84.6394620403
 30
0.0
 11
132.9732143348
 21
89.6394628599
 31
0.0
  0
LINE
  5
91
330
1F
100
AcDbEntity
  8
0
  6
Continuous
 62
     7
370
    25
100
AcDbLine
 10
115.9732134109
 20
89.6394628599
 30
0.0
 11
115.9732134109
 21
84.6394620403
 31
0.0
  0
ARC
  5
92
330
1F
100
AcDbEntity
  8
0
  6
Continuous
 62
     7
370
    25
100
AcDbCircle
 10
133.4732138728
 20
84.6394624277
 30
0.0
 40
0.5000000000000099
100
AcDbArc
 50
181.6119871608
 51
268.2801185035
  0
ARC
  5
93
330
1F
100
AcDbEntity
  8
0
  6
Continuous
 62
     7
370
    25
100
AcDbCircle
 10
115.4732138728
 20
84.6394624277
 30
0.0
 40
0.5000000000000157
100
AcDbArc
 50
271.6119871608
 51
358.2801185035
  0
LINE
  5
94
330
1F
100
AcDbEntity
  8
0
  6
Continuous
 62
     7
370
    25
100
AcDbLine
 10
152.9732138877
 20
64.3894619807
 30
0.0
 11
152.9732138877
 21
86.8894628748
 31
0.0
  0
LINE
  5
95
330
1F
100
AcDbEntity
  8
0
  6
Continuous
 62
     7
370
    25
100
AcDbLine
 10
135.7232143199
 20
104.1394624426
 30
0.0
 11
113.2232134258
 21
104.1394624426
 31
0.0
  0
LINE
  5
96
330
1F
100
AcDbEntity
  8
0
  6
Continuous
 62
     7
370
    25
100
AcDbLine
 10
95.9732138579
 20
75.6394624277
 30
0.0
 11
95.9732138579
 21
64.3894619807
 31
0.0
  0
LINE
  5
97
330
1F
100
AcDbEntity
  8
0
  6
Continuous
 62
     7
370
    25
100
AcDbLine
 10
95.9732138579
 20
86.8894628748
 30
0.0
 11
95.9732138579
 21
75.6394624277
 31
0.0
  0
LINE
  5
98
330
1F
100
AcDbEntity
  8
0
  6
Continuous
 62
     7
370
    25
100
AcDbLine
 10
134.723214156
 20
90.6394620925
 30
0.0
 11
114.2232135897
 21
90.6394620925
 31
0.0
  0
LINE
  5
99
330
1F
100
AcDbEntity
  8
0
  6
Continuous
 62
     7
370
    25
100
AcDbLine
 10
113.7232135078
 20
104.6394615933
 30
0.0
 11
135.2232142379
 21
104.6394615933
 31
0.0
  0
LINE
  5
9A
330
1F
100
AcDbEntity
  8
0
  6
Continuous
 62
     7
370
    25
100
AcDbLine
 10
139.4732135376
 20
65.3894621446
 30
0.0
 11
139.4732135376
 21
85.8894627109
 31
0.0
  0
LINE
  5
9B
330
1F
100
AcDbEntity
  8
0
  6
Continuous
 62
     7
370
    25
100
AcDbLine
 10
153.4732130384
 20
86.3894627928
 30
0.0
 11
153.4732130384
 21
64.8894620627
 31
0.0
  0
LINE
  5
9C
330
1F
100
AcDbEntity
  8
0
  6
Continuous
 62
     7
370
    25
100
AcDbLine
 10
109.4732142081
 20
75.6394624277
 30
0.0
 11
109.4732142081
 21
65.3894621446
 31
0.0
  0
LINE
  5
9D
330
1F
100
AcDbEntity
  8
0
  6
Continuous
 62
     7
370
    25
100
AcDbLine
 10
109.4732142081
 20
85.8894627109
 30
0.0
 11
109.4732142081
 21
75.6394624277
 31
0.0
  0
LINE
  5
9E
330
1F
100
AcDbEntity
  8
0
  6
Continuous
 62
     7
370
    25
100
AcDbLine
 10
95.4732147073
 20
75.6394624277
 30
0.0
 11
95.4732147073
 21
86.3894627928
 31
0.0
  0
LINE
  5
9F
330
1F
100
AcDbEntity
  8
0
  6
Continuous
 62
     7
370
    25
100
AcDbLine
 10
95.4732147073
 20
64.8894620627
 30
0.0
 11
95.4732147073
 21
75.6394624277
 31
0.0
  0
SPLINE
  5
A0
330
1F
100
AcDbEntity
  8
0
  6
Continuous
 62
     7
370
    25
100
AcDbSpline
210
0.0
220
0.0
230
1.0
 70
     8
 71
     3
 72
    16
 73
    12
 74
     0
 42
0.000000001
 43
0.00000001
 40
0.0
 40
0.0
 40
0.0
 40
0.0
 40
0.2500000000000001
 40
0.2500000000000001
 40
0.5000000000000001
 40
0.5000000000000001
 40
0.7500000000000002
 40
0.7500000000000002
 40
0.8750000000000001
 40
0.8750000000000001
 40
1.0
 40
1.0
 40
1.0
 40
1.0
 10
132.4732138728323
 20
72.76718110447663
 30
0.0
 10
132.4732138728323
 20
73.01347643674045
 30
0.0
 10
132.4931456585195
 20
73.25699637151442
 30
0.0
 10
132.5537522051231
 20
73.73968234488969
 30
0.0
 10
132.5948627125682
 20
73.97912281366436
 30
0.0
 10
132.6892391689674
 20
74.45586389332746
 30
0.0
 10
132.7426045308237
 20
74.69314700345437
 30
0.0
 10
132.8269116907583
 20
75.04832188876914
 30
0.0
 10
132.8557365676002
 20
75.16658632920318
 30
0.0
 10
132.9140956461657
 20
75.40299033970429
 30
0.0
 10
132.9433467673838
 20
75.51999281126074
 30
0.0
 10
132.9732138728323
 20
75.63946242774566
 30
0.0
  0
SPLINE
  5
A1
330
1F
100
AcDbEntity
  8
0
  6
Continuous
 62
     7
370
    25
100
AcDbSpline
210
0.0
220
0.0
230
1.0
 70
     8
 71
     3
 72
    12
 73
     8
 74
     0
 42
0.000000001
 43
0.00000001
 40
0.0
 40
0.0
 40
0.0
 40
0.0
 40
0.2500000000000002
 40
0.2500000000000002
 40
0.5000000000000001
 40
0.5000000000000001
 40
1.0
 40
1.0
 40
1.0
 40
1.0
 10
132.8974121972797
 20
72.76718110447672
 30
0.0
 10
132.8751453551258
 20
73.00459366259702
 30
0.0
 10
132.8681073224713
 20
73.24270367676361
 30
0.0
 10
132.8672322009869
 20
73.72040180402564
 30
0.0
 10
132.873896194936
 20
73.96002466064225
 30
0.0
 10
132.9045485443543
 20
74.67874041477823
 30
0.0
 10
132.9391572272051
 20
75.15955737941715
 30
0.0
 10
132.9732138728323
 20
75.63946242774566
 30
0.0
  0
LINE
  5
A2
330
1F
100
AcDbEntity
  8
0
  6
Continuous
 62
     7
370
    25
100
AcDbLine
 10
132.8974121278
 20
72.7671811856
 30
0.0
 11
132.4732142528
 21
72.7671811856
 31
0.0
  0
ARC
  5
A3
330
1F
100
AcDbEntity
  8
0
  6
Continuous
 62
     7
370
    25
100
AcDbCircle
 10
133.489903793
 20
71.8357444271
 30
0.0
 40
1.103911594455069
100
AcDbArc
 50
98.7690151238
 51
122.4606473444
  0
SPLINE
  5
A4
330
1F
100
AcDbEntity
  8
0
  6
Continuous
 62
     7
370
    25
100
AcDbSpline
210
0.0
220
0.0
230
1.0
 70
     8
 71
     3
 72
    12
 73
     8
 74
     0
 42
0.000000001
 43
0.00000001
 40
0.0
 40
0.0
 40
0.0
 40
0.0
 40
0.2499999999999999
 40
0.2499999999999999
 40
0.5
 40
0.5
 40
1.0
 40
1.0
 40
1.0
 40
1.0
 10
133.3216105217271
 20
72.92675228910278
 30
0.0
 10
133.2735024130827
 20
73.14298987364101
 30
0.0
 10
133.2372893556185
 20
73.36275546903465
 30
0.0
 10
133.1721851459656
 20
73.80719845515135
 30
0.0
 10
133.1439449656773
 20
74.0319584791276
 30
0.0
 10
133.0646801344043
 20
74.71292238422578
 30
0.0
 10
133.0188147512066
 20
75.17930531132005
 30
0.0
 10
132.9732138728323
 20
75.63946242774566
 30
0.0
  0
SPLINE
  5
A5
330
1F
100
AcDbEntity
  8
0
  6
Continuous
 62
     7
370
    25
100
AcDbSpline
210
0.0
220
0.0
230
1.0
 70
     8
 71
     3
 72
    16
 73
    12
 74
     0
 42
0.000000001
 43
0.00000001
 40
0.0
 40
0.0
 40
0.0
 40
0.0
 40
0.2499999999999999
 40
0.2499999999999999
 40
0.5
 40
0.5
 40
0.7500000000000001
 40
0.7500000000000001
 40
0.875
 40
0.875
 40
1.0
 40
1.0
 40
1.0
 40
1.0
 10
116.4732138728323
 20
78.51174375101466
 30
0.0
 10
116.4732138728323
 20
78.26544841875089
 30
0.0
 10
116.4532820871452
 20
78.02192848397686
 30
0.0
 10
116.3926755405416
 20
77.5392425106016
 30
0.0
 10
116.3515650330964
 20
77.29980204182691
 30
0.0
 10
116.2571885766972
 20
76.82306096216382
 30
0.0
 10
116.2038232148409
 20
76.58577785203691
 30
0.0
 10
116.1195160549064
 20
76.23060296672216
 30
0.0
 10
116.0906911780645
 20
76.11233852628811
 30
0.0
 10
116.032332099499
 20
75.87593451578702
 30
0.0
 10
116.0030809782809
 20
75.75893204423056
 30
0.0
 10
115.9732138728323
 20
75.63946242774566
 30
0.0
  0
SPLINE
  5
A6
330
1F
100
AcDbEntity
  8
0
  6
Continuous
 62
     7
370
    25
100
AcDbSpline
210
0.0
220
0.0
230
1.0
 70
     8
 71
     3
 72
    12
 73
     8
 74
     0
 42
0.000000001
 43
0.00000001
 40
0.0
 40
0.0
 40
0.0
 40
0.0
 40
0.2500000000000002
 40
0.2500000000000002
 40
0.5000000000000001
 40
0.5000000000000001
 40
1.0
 40
1.0
 40
1.0
 40
1.0
 10
116.049015548385
 20
78.51174375101458
 30
0.0
 10
116.0712823905389
 20
78.27433119289437
 30
0.0
 10
116.0783204231933
 20
78.03622117872784
 30
0.0
 10
116.0791955446778
 20
77.55852305146594
 30
0.0
 10
116.0725315507287
 20
77.3189001948494
 30
0.0
 10
116.0418792013104
 20
76.60018444071365
 30
0.0
 10
116.0072705181859
 20
76.11936747609343
 30
0.0
 10
115.9732138728323
 20
75.63946242774566
 30
0.0
  0
LINE
  5
A7
330
1F
100
AcDbEntity
  8
0
  6
Continuous
 62
     7
370
    25
100
AcDbLine
 10
116.0490156179
 20
78.5117436699
 30
0.0
 11
116.4732134929
 21
78.5117436699
 31
0.0
  0
ARC
  5
A8
330
1F
100
AcDbEntity
  8
0
  6
Continuous
 62
     7
370
    25
100
AcDbCircle
 10
115.4565239526
 20
79.4431804283
 30
0.0
 40
1.103911594455067
100
AcDbArc
 50
278.7690151238
 51
302.4606473444
  0
SPLINE
  5
A9
330
1F
100
AcDbEntity
  8
0
  6
Continuous
 62
     7
370
    25
100
AcDbSpline
210
0.0
220
0.0
230
1.0
 70
     8
 71
     3
 72
    12
 73
     8
 74
     0
 42
0.000000001
 43
0.00000001
 40
0.0
 40
0.0
 40
0.0
 40
0.0
 40
0.2499999999999998
 40
0.2499999999999998
 40
0.4999999999999999
 40
0.4999999999999999
 40
1.0
 40
1.0
 40
1.0
 40
1.0
 10
115.6248172239376
 20
78.3521725663885
 30
0.0
 10
115.6728147957766
 20
78.1364318255733
 30
0.0
 10
115.7090533696757
 20
77.91672600529793
 30
0.0
 10
115.774258324902
 20
77.47164280938215
 30
0.0
 10
115.8026253821621
 20
77.24584146069395
 30
0.0
 10
115.8820821576515
 20
76.56292684921492
 30
0.0
 10
115.927528137502
 20
76.10047585652514
 30
0.0
 10
115.9732138728323
 20
75.63946242774566
 30
0.0
  0
SPLINE
  5
AA
330
1F
100
AcDbEntity
  8
0
  6
Continuous
 62
     7
370
    25
100
AcDbSpline
210
0.0
220
0.0
230
1.0
 70
     8
 71
     3
 72
    16
 73
    12
 74
     0
 42
0.000000001
 43
0.00000001
 40
0.0
 40
0.0
 40
0.0
 40
0.0
 40
0.2500000000000002
 40
0.2500000000000002
 40
0.5000000000000002
 40
0.5000000000000002
 40
0.7500000000000002
 40
0.7500000000000002
 40
0.8750000000000001
 40
0.8750000000000001
 40
1.0
 40
1.0
 40
1.0
 40
1.0
 10
127.3454951961014
 20
83.13946242774566
 30
0.0
 10
127.0991998638376
 20
83.13946242774566
 30
0.0
 10
126.8556799290635
 20
83.1593942134328
 30
0.0
 10
126.3729939556883
 20
83.22000076003638
 30
0.0
 10
126.1335534869136
 20
83.26111126748155
 30
0.0
 10
125.6568124072505
 20
83.35548772388076
 30
0.0
 10
125.4195292971236
 20
83.40885308573705
 30
0.0
 10
125.0643544118088
 20
83.49316024567165
 30
0.0
 10
124.9460899713748
 20
83.5219851225135
 30
0.0
 10
124.7096859608737
 20
83.580344201079
 30
0.0
 10
124.5926834893172
 20
83.60959532229707
 30
0.0
 10
124.4732138728323
 20
83.63946242774566
 30
0.0
  0
SPLINE
  5
AB
330
1F
100
AcDbEntity
  8
0
  6
Continuous
 62
     7
370
    25
100
AcDbSpline
210
0.0
220
0.0
230
1.0
 70
     8
 71
     3
 72
    12
 73
     8
 74
     0
 42
0.000000001
 43
0.00000001
 40
0.0
 40
0.0
 40
0.0
 40
0.0
 40
0.2500000000000002
 40
0.2500000000000002
 40
0.5000000000000001
 40
0.5000000000000001
 40
1.0
 40
1.0
 40
1.0
 40
1.0
 10
127.3454951961014
 20
83.56366075219302
 30
0.0
 10
127.1080826379811
 20
83.5413939100391
 30
0.0
 10
126.8699726238146
 20
83.53435587738467
 30
0.0
 10
126.3922744965527
 20
83.53348075590024
 30
0.0
 10
126.1526516399362
 20
83.5401447498493
 30
0.0
 10
125.4339358858004
 20
83.57079709926754
 30
0.0
 10
124.9531189211801
 20
83.60540578239195
 30
0.0
 10
124.4732138728323
 20
83.63946242774566
 30
0.0
  0
LINE
  5
AC
330
1F
100
AcDbEntity
  8
0
  6
Continuous
 62
     7
370
    25
100
AcDbLine
 10
127.345495115
 20
83.1394622601
 30
0.0
 11
127.345495115
 21
83.5636606007
 31
0.0
  0
ARC
  5
AD
330
1F
100
AcDbEntity
  8
0
  6
Continuous
 62
     7
370
    25
100
AcDbCircle
 10
128.2769428967
 20
84.1561564126
 30
0.0
 40
1.103923121047319
100
AcDbArc
 50
188.7691406047
 51
212.4605218635
  0
SPLINE
  5
AE
330
1F
100
AcDbEntity
  8
0
  6
Continuous
 62
     7
370
    25
100
AcDbSpline
210
0.0
220
0.0
230
1.0
 70
     8
 71
     3
 72
    12
 73
     8
 74
     0
 42
0.000000001
 43
0.00000001
 40
0.0
 40
0.0
 40
0.0
 40
0.0
 40
0.2500000000000002
 40
0.2500000000000002
 40
0.5000000000000001
 40
0.5000000000000001
 40
1.0
 40
1.0
 40
1.0
 40
1.0
 10
127.1859240114753
 20
83.9878590766404
 30
0.0
 10
126.9701832706601
 20
83.93986150480141
 30
0.0
 10
126.7504774503847
 20
83.90362293090233
 30
0.0
 10
126.3053942544689
 20
83.83841797567601
 30
0.0
 10
126.0795929057807
 20
83.81005091841587
 30
0.0
 10
125.3966782943017
 20
83.73059414292646
 30
0.0
 10
124.9342273016118
 20
83.68514816307615
 30
0.0
 10
124.4732138728323
 20
83.63946242774566
 30
0.0
  0
ARC
  5
AF
330
1F
100
AcDbEntity
  8
0
  6
Continuous
 62
     7
370
    25
100
AcDbCircle
 10
120.669484849
 20
84.1561564126
 30
0.0
 40
1.103923121047338
100
AcDbArc
 50
327.5394781365
 51
351.2308593953
  0
SPLINE
  5
B0
330
1F
100
AcDbEntity
  8
0
  6
Continuous
 62
     7
370
    25
100
AcDbSpline
210
0.0
220
0.0
230
1.0
 70
     8
 71
     3
 72
    12
 73
     8
 74
     0
 42
0.000000001
 43
0.00000001
 40
0.0
 40
0.0
 40
0.0
 40
0.0
 40
0.2499999999999999
 40
0.2499999999999999
 40
0.4999999999999998
 40
0.4999999999999998
 40
1.0
 40
1.0
 40
1.0
 40
1.0
 10
121.7605037341895
 20
83.98785907664039
 30
0.0
 10
121.9767413186544
 20
83.93975096801229
 30
0.0
 10
122.1965069139725
 20
83.90353791055689
 30
0.0
 10
122.6409498999351
 20
83.83843370091995
 30
0.0
 10
122.8657099238328
 20
83.81019352063804
 30
0.0
 10
123.546673828691
 20
83.73092868938386
 30
0.0
 10
124.0130567565682
 20
83.68506330609215
 30
0.0
 10
124.4732138728323
 20
83.63946242774566
 30
0.0
  0
SPLINE
  5
B1
330
1F
100
AcDbEntity
  8
0
  6
Continuous
 62
     7
370
    25
100
AcDbSpline
210
0.0
220
0.0
230
1.0
 70
     8
 71
     3
 72
    12
 73
     8
 74
     0
 42
0.000000001
 43
0.00000001
 40
0.0
 40
0.0
 40
0.0
 40
0.0
 40
0.2500000000000001
 40
0.2500000000000001
 40
0.5000000000000002
 40
0.5000000000000002
 40
1.0
 40
1.0
 40
1.0
 40
1.0
 10
121.6009325495634
 20
83.56366075219302
 30
0.0
 10
121.8383451076658
 20
83.54139391004077
 30
0.0
 10
122.0764551218144
 20
83.53435587738583
 30
0.0
 10
122.5541532490403
 20
83.53348075589926
 30
0.0
 10
122.7937761056388
 20
83.5401447498466
 30
0.0
 10
123.5124918597206
 20
83.57079709925917
 30
0.0
 10
123.9933088245238
 20
83.6054057823709
 30
0.0
 10
124.4732138728323
 20
83.63946242774566
 30
0.0
  0
LINE
  5
B2
330
1F
100
AcDbEntity
  8
0
  6
Continuous
 62
     7
370
    25
100
AcDbLine
 10
121.6009326307
 20
83.1394622601
 30
0.0
 11
121.6009326307
 21
83.5636606007
 31
0.0
  0
SPLINE
  5
B3
330
1F
100
AcDbEntity
  8
0
  6
Continuous
 62
     7
370
    25
100
AcDbSpline
210
0.0
220
0.0
230
1.0
 70
     8
 71
     3
 72
    16
 73
    12
 74
     0
 42
0.000000001
 43
0.00000001
 40
0.0
 40
0.0
 40
0.0
 40
0.0
 40
0.2500000000000003
 40
0.2500000000000003
 40
0.5000000000000006
 40
0.5000000000000006
 40
0.7500000000000006
 40
0.7500000000000006
 40
0.8750000000000003
 40
0.8750000000000003
 40
1.0
 40
1.0
 40
1.0
 40
1.0
 10
121.6009325495633
 20
83.13946242774566
 30
0.0
 10
121.8472278818271
 20
83.13946242774566
 30
0.0
 10
122.0907478166011
 20
83.1593942134328
 30
0.0
 10
122.5734337899764
 20
83.22000076003637
 30
0.0
 10
122.8128742587511
 20
83.26111126748155
 30
0.0
 10
123.2896153384142
 20
83.35548772388076
 30
0.0
 10
123.5268984485411
 20
83.40885308573705
 30
0.0
 10
123.8820733338558
 20
83.49316024567163
 30
0.0
 10
124.0003377742899
 20
83.5219851225135
 30
0.0
 10
124.236741784791
 20
83.580344201079
 30
0.0
 10
124.3537442563474
 20
83.60959532229708
 30
0.0
 10
124.4732138728323
 20
83.63946242774566
 30
0.0
  0
LINE
  5
B4
330
1F
100
AcDbEntity
  8
0
  6
Continuous
 62
     7
370
    25
100
AcDbLine
 10
132.4732142528
 20
78.5117436699
 30
0.0
 11
132.8974121278
 21
78.5117436699
 31
0.0
  0
SPLINE
  5
B5
330
1F
100
AcDbEntity
  8
0
  6
Continuous
 62
     7
370
    25
100
AcDbSpline
210
0.0
220
0.0
230
1.0
 70
     8
 71
     3
 72
    12
 73
     8
 74
     0
 42
0.000000001
 43
0.00000001
 40
0.0
 40
0.0
 40
0.0
 40
0.0
 40
0.25
 40
0.25
 40
0.5
 40
0.5
 40
1.0
 40
1.0
 40
1.0
 40
1.0
 10
132.8974121972797
 20
78.51174375101465
 30
0.0
 10
132.8751453551274
 20
78.27433119291223
 30
0.0
 10
132.8681073224725
 20
78.03622117876361
 30
0.0
 10
132.8672322009859
 20
77.55852305153778
 30
0.0
 10
132.8738961949333
 20
77.31890019493942
 30
0.0
 10
132.9045485443458
 20
76.60018444085826
 30
0.0
 10
132.939157227196
 20
76.11936747603556
 30
0.0
 10
132.9732138728323
 20
75.63946242774566
 30
0.0
  0
SPLINE
  5
B6
330
1F
100
AcDbEntity
  8
0
  6
Continuous
 62
     7
370
    25
100
AcDbSpline
210
0.0
220
0.0
230
1.0
 70
     8
 71
     3
 72
    16
 73
    12
 74
     0
 42
0.000000001
 43
0.00000001
 40
0.0
 40
0.0
 40
0.0
 40
0.0
 40
0.2500000000000002
 40
0.2500000000000002
 40
0.5000000000000002
 40
0.5000000000000002
 40
0.7500000000000002
 40
0.7500000000000002
 40
0.8750000000000001
 40
0.8750000000000001
 40
1.0
 40
1.0
 40
1.0
 40
1.0
 10
132.4732138728323
 20
78.51174375101466
 30
0.0
 10
132.4732138728323
 20
78.26544841875089
 30
0.0
 10
132.4931456585195
 20
78.02192848397688
 30
0.0
 10
132.5537522051231
 20
77.5392425106016
 30
0.0
 10
132.5948627125682
 20
77.29980204182691
 30
0.0
 10
132.6892391689674
 20
76.82306096216382
 30
0.0
 10
132.7426045308237
 20
76.58577785203691
 30
0.0
 10
132.8269116907583
 20
76.23060296672216
 30
0.0
 10
132.8557365676002
 20
76.11233852628811
 30
0.0
 10
132.9140956461657
 20
75.87593451578702
 30
0.0
 10
132.9433467673838
 20
75.75893204423056
 30
0.0
 10
132.9732138728323
 20
75.63946242774566
 30
0.0
  0
LINE
  5
B7
330
1F
100
AcDbEntity
  8
0
  6
Continuous
 62
     7
370
    25
100
AcDbLine
 10
116.4732134929
 20
72.7671811856
 30
0.0
 11
116.0490156179
 21
72.7671811856
 31
0.0
  0
SPLINE
  5
B8
330
1F
100
AcDbEntity
  8
0
  6
Continuous
 62
     7
370
    25
100
AcDbSpline
210
0.0
220
0.0
230
1.0
 70
     8
 71
     3
 72
    12
 73
     8
 74
     0
 42
0.000000001
 43
0.00000001
 40
0.0
 40
0.0
 40
0.0
 40
0.0
 40
0.2500000000000001
 40
0.2500000000000001
 40
0.5000000000000001
 40
0.5000000000000001
 40
1.0
 40
1.0
 40
1.0
 40
1.0
 10
116.049015548385
 20
72.76718110447666
 30
0.0
 10
116.0712823905372
 20
73.00459366257908
 30
0.0
 10
116.0783204231922
 20
73.24270367672773
 30
0.0
 10
116.0791955446787
 20
73.7204018039536
 30
0.0
 10
116.0725315507314
 20
73.96002466055212
 30
0.0
 10
116.0418792013188
 20
74.67874041463388
 30
0.0
 10
116.0072705182071
 20
75.15955737943712
 30
0.0
 10
115.9732138728323
 20
75.63946242774566
 30
0.0
  0
SPLINE
  5
B9
330
1F
100
AcDbEntity
  8
0
  6
Continuous
 62
     7
370
    25
100
AcDbSpline
210
0.0
220
0.0
230
1.0
 70
     8
 71
     3
 72
    16
 73
    12
 74
     0
 42
0.000000001
 43
0.00000001
 40
0.0
 40
0.0
 40
0.0
 40
0.0
 40
0.2500000000000001
 40
0.2500000000000001
 40
0.5000000000000001
 40
0.5000000000000001
 40
0.7500000000000002
 40
0.7500000000000002
 40
0.8750000000000001
 40
0.8750000000000001
 40
1.0
 40
1.0
 40
1.0
 40
1.0
 10
116.4732138728323
 20
72.76718110447663
 30
0.0
 10
116.4732138728323
 20
73.01347643674045
 30
0.0
 10
116.4532820871452
 20
73.25699637151442
 30
0.0
 10
116.3926755405416
 20
73.73968234488969
 30
0.0
 10
116.3515650330964
 20
73.97912281366436
 30
0.0
 10
116.2571885766972
 20
74.45586389332746
 30
0.0
 10
116.2038232148409
 20
74.69314700345437
 30
0.0
 10
116.1195160549064
 20
75.04832188876914
 30
0.0
 10
116.0906911780645
 20
75.16658632920318
 30
0.0
 10
116.032332099499
 20
75.40299033970429
 30
0.0
 10
116.0030809782809
 20
75.51999281126074
 30
0.0
 10
115.9732138728323
 20
75.63946242774566
 30
0.0
  0
ARC
  5
BA
330
1F
100
AcDbEntity
  8
0
  6
Continuous
 62
     7
370
    25
100
AcDbCircle
 10
133.489903793
 20
79.4431804283
 30
0.0
 40
1.103911594455069
100
AcDbArc
 50
237.5393526556
 51
261.2309848762
  0
SPLINE
  5
BB
330
1F
100
AcDbEntity
  8
0
  6
Continuous
 62
     7
370
    25
100
AcDbSpline
210
0.0
220
0.0
230
1.0
 70
     8
 71
     3
 72
    12
 73
     8
 74
     0
 42
0.000000001
 43
0.00000001
 40
0.0
 40
0.0
 40
0.0
 40
0.0
 40
0.2499999999999999
 40
0.2499999999999999
 40
0.5
 40
0.5
 40
1.0
 40
1.0
 40
1.0
 40
1.0
 10
133.3216105217271
 20
78.35217256638857
 30
0.0
 10
133.2736523660553
 20
78.13660899439208
 30
0.0
 10
133.237369950961
 20
77.91673898277033
 30
0.0
 10
133.1720480739249
 20
77.47077124115603
 30
0.0
 10
133.1436875579703
 20
77.24487801528211
 30
0.0
 10
133.0644311514082
 20
76.56361561646666
 30
0.0
 10
133.0189603742813
 20
76.10108904579614
 30
0.0
 10
132.9732138728323
 20
75.63946242774566
 30
0.0
  0
ARC
  5
BC
330
1F
100
AcDbEntity
  8
0
  6
Continuous
 62
     7
370
    25
100
AcDbCircle
 10
115.4565239526
 20
71.8357444271
 30
0.0
 40
1.103911594455067
100
AcDbArc
 50
57.5393526556
 51
81.2309848762
  0
SPLINE
  5
BD
330
1F
100
AcDbEntity
  8
0
  6
Continuous
 62
     7
370
    25
100
AcDbSpline
210
0.0
220
0.0
230
1.0
 70
     8
 71
     3
 72
    12
 73
     8
 74
     0
 42
0.000000001
 43
0.00000001
 40
0.0
 40
0.0
 40
0.0
 40
0.0
 40
0.2499999999999999
 40
0.2499999999999999
 40
0.4999999999999998
 40
0.4999999999999998
 40
1.0
 40
1.0
 40
1.0
 40
1.0
 10
115.6248172239376
 20
72.92675228910281
 30
0.0
 10
115.6729253325657
 20
73.14298987356777
 30
0.0
 10
115.7091383900211
 20
73.36275546888581
 30
0.0
 10
115.774242599658
 20
73.80719845484843
 30
0.0
 10
115.80248277994
 20
74.03195847874608
 30
0.0
 10
115.8817476111941
 20
74.71292238360435
 30
0.0
 10
115.9276129944858
 20
75.17930531148153
 30
0.0
 10
115.9732138728323
 20
75.63946242774566
 30
0.0
  0
LWPOLYLINE
  5
BE
330
1F
100
AcDbEntity
  8
0
  6
Continuous
 62
     7
370
    25
100
AcDbPolyline
 90
        9
 70
   128
 43
0.0
 10
130.9732140069
 20
83.1394622601
 10
131.0707588708
 20
83.2370075896
 10
131.1645556269
 20
83.3308043457
 10
131.2509991256
 20
83.4172473788
 10
131.3267673393
 20
83.4930160582
 10
131.388948488
 20
83.5551976725
 10
131.4351537292
 20
83.6014024481
 10
131.4636065652
 20
83.629855284
 10
131.4732140889
 20
83.6394628077
  0
LINE
  5
BF
330
1F
100
AcDbEntity
  8
0
  6
Continuous
 62
     7
370
    25
100
AcDbLine
 10
131.4732140889
 20
83.6394628077
 30
0.0
 11
131.4732140889
 21
83.1394622601
 31
0.0
  0
LINE
  5
C0
330
1F
100
AcDbEntity
  8
0
  6
Continuous
 62
     7
370
    25
100
AcDbLine
 10
130.9732140069
 20
83.1394622601
 30
0.0
 11
131.4732140889
 21
83.1394622601
 31
0.0
  0
LINE
  5
C1
330
1F
100
AcDbEntity
  8
0
  6
Continuous
 62
     7
370
    25
100
AcDbLine
 10
132.4732142528
 20
81.6394624799
 30
0.0
 11
132.4732142528
 21
82.1394625619
 31
0.0
  0
LINE
  5
C2
330
1F
100
AcDbEntity
  8
0
  6
Continuous
 62
     7
370
    25
100
AcDbLine
 10
132.4732142528
 20
82.1394625619
 30
0.0
 11
132.9732143348
 21
82.1394625619
 31
0.0
  0
LWPOLYLINE
  5
C3
330
1F
100
AcDbEntity
  8
0
  6
Continuous
 62
     7
370
    25
100
AcDbPolyline
 90
        9
 70
   128
 43
0.0
 10
132.4732142528
 20
81.6394624799
 10
132.5707591166
 20
81.7370078094
 10
132.6645554071
 20
81.8308040998
 10
132.7509989058
 20
81.9172475986
 10
132.8267675852
 20
81.9930158123
 10
132.8889482682
 20
82.0551974266
 10
132.9351539751
 20
82.1014022022
 10
132.9636068111
 20
82.1298550382
 10
132.9732143348
 20
82.1394625619
  0
SPLINE
  5
C4
330
1F
100
AcDbEntity
  8
0
  6
Continuous
 62
     7
370
    25
100
AcDbSpline
210
0.0
220
0.0
230
1.0
 70
     8
 71
     3
 72
     8
 73
     4
 74
     0
 42
0.000000001
 43
0.00000001
 40
0.0
 40
0.0
 40
0.0
 40
0.0
 40
1.0
 40
1.0
 40
1.0
 40
1.0
 10
133.4732138728323
 20
79.53350662971789
 30
0.0
 10
133.4732138728323
 20
79.14701559011687
 30
0.0
 10
133.4110508847817
 20
78.75419144869599
 30
0.0
 10
133.3216105217271
 20
78.35217256638857
 30
0.0
  0
LINE
  5
C5
330
1F
100
AcDbEntity
  8
0
  6
Continuous
 62
     7
370
    25
100
AcDbLine
 10
133.4732134854
 20
82.250573536
 30
0.0
 11
133.4732134854
 21
79.5335065141
 31
0.0
  0
LINE
  5
C6
330
1F
100
AcDbEntity
  8
0
  6
Continuous
 62
     7
370
    25
100
AcDbLine
 10
132.4732142528
 20
82.250573536
 30
0.0
 11
133.4732134854
 21
82.250573536
 31
0.0
  0
SPLINE
  5
C7
330
1F
100
AcDbEntity
  8
0
  6
Continuous
 62
     7
370
    25
100
AcDbSpline
210
0.0
220
0.0
230
1.0
 70
     8
 71
     3
 72
    14
 73
    10
 74
     0
 42
0.000000001
 43
0.00000001
 40
0.0
 40
0.0
 40
0.0
 40
0.0
 40
0.2499999999999995
 40
0.2499999999999995
 40
0.499999999999999
 40
0.499999999999999
 40
0.7499999999999984
 40
0.7499999999999984
 40
1.0
 40
1.0
 40
1.0
 40
1.0
 10
131.9732138728323
 20
82.72279576107898
 30
0.0
 10
131.9732138728323
 20
82.67484441855193
 30
0.0
 10
131.9807447628303
 20
82.62633059697885
 30
0.0
 10
132.0142252904626
 20
82.52858022644294
 30
0.0
 10
132.0403344933877
 20
82.47928705607553
 30
0.0
 10
132.1166254810297
 20
82.38661200709315
 30
0.0
 10
132.1675625618223
 20
82.34217919322873
 30
0.0
 10
132.3018511588461
 20
82.27334418475442
 30
0.0
 10
132.3854180865057
 20
82.25057353885676
 30
0.0
 10
132.4732138728323
 20
82.25057353885676
 30
0.0
  0
SPLINE
  5
C8
330
1F
100
AcDbEntity
  8
0
  6
Continuous
 62
     7
370
    25
100
AcDbSpline
210
0.0
220
0.0
230
1.0
 70
     8
 71
     3
 72
    14
 73
    10
 74
     0
 42
0.000000001
 43
0.00000001
 40
0.0
 40
0.0
 40
0.0
 40
0.0
 40
0.25
 40
0.25
 40
0.5
 40
0.5
 40
0.75
 40
0.75
 40
1.0
 40
1.0
 40
1.0
 40
1.0
 10
116.4732138728323
 20
82.25057353885676
 30
0.0
 10
116.561009659159
 20
82.25057353885676
 30
0.0
 10
116.6445765868186
 20
82.27334418475442
 30
0.0
 10
116.7788651838424
 20
82.34217919322873
 30
0.0
 10
116.829802264635
 20
82.38661200709315
 30
0.0
 10
116.906093252277
 20
82.47928705607553
 30
0.0
 10
116.9322024552021
 20
82.52858022644294
 30
0.0
 10
116.9656829828343
 20
82.62633059697886
 30
0.0
 10
116.9732138728323
 20
82.67484441855193
 30
0.0
 10
116.9732138728323
 20
82.722795761079
 30
0.0
  0
LINE
  5
C9
330
1F
100
AcDbEntity
  8
0
  6
Continuous
 62
     7
370
    25
100
AcDbLine
 10
115.4732142603
 20
82.250573536
 30
0.0
 11
116.4732134929
 21
82.250573536
 31
0.0
  0
LINE
  5
CA
330
1F
100
AcDbEntity
  8
0
  6
Continuous
 62
     7
370
    25
100
AcDbLine
 10
115.4732142603
 20
79.5335065141
 30
0.0
 11
115.4732142603
 21
82.250573536
 31
0.0
  0
SPLINE
  5
CB
330
1F
100
AcDbEntity
  8
0
  6
Continuous
 62
     7
370
    25
100
AcDbSpline
210
0.0
220
0.0
230
1.0
 70
     8
 71
     3
 72
     8
 73
     4
 74
     0
 42
0.000000001
 43
0.00000001
 40
0.0
 40
0.0
 40
0.0
 40
0.0
 40
1.0
 40
1.0
 40
1.0
 40
1.0
 10
115.6248172239376
 20
78.3521725663885
 30
0.0
 10
115.535376860883
 20
78.75419144869593
 30
0.0
 10
115.4732138728323
 20
79.14701559011684
 30
0.0
 10
115.4732138728323
 20
79.53350662971789
 30
0.0
  0
SPLINE
  5
CC
330
1F
100
AcDbEntity
  8
0
  6
Continuous
 62
     7
370
    25
100
AcDbSpline
210
0.0
220
0.0
230
1.0
 70
     8
 71
     3
 72
     8
 73
     4
 74
     0
 42
0.000000001
 43
0.00000001
 40
0.0
 40
0.0
 40
0.0
 40
0.0
 40
1.0
 40
1.0
 40
1.0
 40
1.0
 10
115.4732138728323
 20
71.74541822577342
 30
0.0
 10
115.4732138728323
 20
72.13190926537447
 30
0.0
 10
115.535376860883
 20
72.52473340679536
 30
0.0
 10
115.6248172239376
 20
72.92675228910281
 30
0.0
  0
LINE
  5
CD
330
1F
100
AcDbEntity
  8
0
  6
Continuous
 62
     7
370
    25
100
AcDbLine
 10
115.4732142603
 20
68.5561288647
 30
0.0
 11
115.4732142603
 21
71.7454183414
 31
0.0
  0
LINE
  5
CE
330
1F
100
AcDbEntity
  8
0
  6
Continuous
 62
     7
370
    25
100
AcDbLine
 10
133.4732134854
 20
68.5561288647
 30
0.0
 11
115.4732142603
 21
68.5561288647
 31
0.0
  0
LINE
  5
CF
330
1F
100
AcDbEntity
  8
0
  6
Continuous
 62
     7
370
    25
100
AcDbLine
 10
133.4732134854
 20
71.7454183414
 30
0.0
 11
133.4732134854
 21
68.5561288647
 31
0.0
  0
SPLINE
  5
D0
330
1F
100
AcDbEntity
  8
0
  6
Continuous
 62
     7
370
    25
100
AcDbSpline
210
0.0
220
0.0
230
1.0
 70
     8
 71
     3
 72
     8
 73
     4
 74
     0
 42
0.000000001
 43
0.00000001
 40
0.0
 40
0.0
 40
0.0
 40
0.0
 40
1.0
 40
1.0
 40
1.0
 40
1.0
 10
133.3216105217271
 20
72.92675228910278
 30
0.0
 10
133.4110508847816
 20
72.52473340679535
 30
0.0
 10
133.4732138728323
 20
72.13190926537446
 30
0.0
 10
133.4732138728323
 20
71.74541822577342
 30
0.0
  0
LWPOLYLINE
  5
D1
330
1F
100
AcDbEntity
  8
0
  6
Continuous
 62
     7
370
    25
100
AcDbPolyline
 90
        9
 70
   128
 43
0.0
 10
115.9732134109
 20
82.1394625619
 10
115.9828209346
 20
82.1298550382
 10
116.0112737706
 20
82.1014022022
 10
116.0574794774
 20
82.0551974266
 10
116.1196601605
 20
81.9930158123
 10
116.1954288398
 20
81.9172475986
 10
116.2818723386
 20
81.8308040998
 10
116.375668629
 20
81.7370078094
 10
116.4732134929
 20
81.6394624799
  0
LINE
  5
D2
330
1F
100
AcDbEntity
  8
0
  6
Continuous
 62
     7
370
    25
100
AcDbLine
 10
116.4732134929
 20
81.6394624799
 30
0.0
 11
116.4732134929
 21
78.5117436699
 31
0.0
  0
SPLINE
  5
D3
330
1F
100
AcDbEntity
  8
0
  6
Continuous
 62
     7
370
    25
100
AcDbSpline
210
0.0
220
0.0
230
1.0
 70
     8
 71
     3
 72
     8
 73
     4
 74
     0
 42
0.000000001
 43
0.00000001
 40
0.0
 40
0.0
 40
0.0
 40
0.0
 40
1.0
 40
1.0
 40
1.0
 40
1.0
 10
115.9732138728323
 20
79.76256805336332
 30
0.0
 10
115.9732138728323
 20
79.34837912088089
 30
0.0
 10
116.0049616351168
 20
78.9310689580878
 30
0.0
 10
116.0490155483743
 20
78.51174375101407
 30
0.0
  0
LINE
  5
D4
330
1F
100
AcDbEntity
  8
0
  6
Continuous
 62
     7
370
    25
100
AcDbLine
 10
115.9732134109
 20
79.7625680953
 30
0.0
 11
115.9732134109
 21
82.1394625619
 31
0.0
  0
LINE
  5
D5
330
1F
100
AcDbEntity
  8
0
  6
Continuous
 62
     7
370
    25
100
AcDbLine
 10
132.4732142528
 20
69.1394622936
 30
0.0
 11
132.4732142528
 21
72.7671811856
 31
0.0
  0
LINE
  5
D6
330
1F
100
AcDbEntity
  8
0
  6
Continuous
 62
     7
370
    25
100
AcDbLine
 10
116.4732134929
 20
69.1394622936
 30
0.0
 11
132.4732142528
 21
69.1394622936
 31
0.0
  0
LINE
  5
D7
330
1F
100
AcDbEntity
  8
0
  6
Continuous
 62
     7
370
    25
100
AcDbLine
 10
116.4732134929
 20
72.7671811856
 30
0.0
 11
116.4732134929
 21
69.1394622936
 31
0.0
  0
ARC
  5
D8
330
1F
100
AcDbEntity
  8
0
  6
Continuous
 62
     7
370
    25
100
AcDbCircle
 10
116.4732138728
 20
83.1394624277
 30
0.0
 40
1.5
100
AcDbArc
 50
270.0
 51
0.0
  0
LINE
  5
D9
330
1F
100
AcDbEntity
  8
0
  6
Continuous
 62
     7
370
    25
100
AcDbLine
 10
121.6009326307
 20
83.1394622601
 30
0.0
 11
117.9732137387
 21
83.1394622601
 31
0.0
  0
LINE
  5
DA
330
1F
100
AcDbEntity
  8
0
  6
Continuous
 62
     7
370
    25
100
AcDbLine
 10
130.9732140069
 20
83.1394622601
 30
0.0
 11
127.345495115
 21
83.1394622601
 31
0.0
  0
ARC
  5
DB
330
1F
100
AcDbEntity
  8
0
  6
Continuous
 62
     7
370
    25
100
AcDbCircle
 10
132.4732138728
 20
83.1394624277
 30
0.0
 40
1.5
100
AcDbArc
 50
180.0
 51
270.0
  0
LINE
  5
DC
330
1F
100
AcDbEntity
  8
0
  6
Continuous
 62
     7
370
    25
100
AcDbLine
 10
132.4732142528
 20
78.5117436699
 30
0.0
 11
132.4732142528
 21
81.6394624799
 31
0.0
  0
LINE
  5
DD
330
1F
100
AcDbEntity
  8
0
  6
Continuous
 62
     7
370
    25
100
AcDbLine
 10
125.745458601
 20
72.0158970016
 30
0.0
 11
126.4470167951
 21
70.6784928716
 31
0.0
  0
ELLIPSE
  5
DE
330
1F
100
AcDbEntity
  8
0
  6
Continuous
 62
     7
370
    25
100
AcDbEllipse
 10
126.5138440746
 20
70.7103415527
 30
0.0
 11
0.07471508237067326
 21
0.0
 31
0.0
210
0.0
220
0.0
230
1.0
 40
0.9531667975
 41
3.605240262591795
 42
5.462183310213614
  0
ELLIPSE
  5
DF
330
1F
100
AcDbEntity
  8
0
  6
Continuous
 62
     7
370
    25
100
AcDbEllipse
 10
128.2857713836
 20
68.8966389681
 30
0.0
 11
2.525369784127093
 21
-1.705302565824240E-13
 31
0.0
210
0.0
220
0.0
230
1.0
 40
0.9531667975
 41
0.8210019969639425
 42
2.320590656625497
  0
ELLIPSE
  5
E0
330
1F
100
AcDbEntity
  8
0
  6
Continuous
 62
     7
370
    25
100
AcDbEllipse
 10
130.0576986926
 20
70.7103415527
 30
0.0
 11
0.0747150823706022
 21
2.842170943040401E-14
 31
0.0
210
0.0
220
0.0
230
1.0
 40
0.9531667976
 41
3.962594650564997
 42
5.819537698169459
  0
LINE
  5
E1
330
1F
100
AcDbEntity
  8
0
  6
Continuous
 62
     7
370
    25
100
AcDbLine
 10
130.1245258217
 20
70.6784928716
 30
0.0
 11
130.8260841323
 21
72.0158970016
 31
0.0
  0
LINE
  5
E2
330
1F
100
AcDbEntity
  8
0
  6
Continuous
 62
     7
370
    25
100
AcDbLine
 10
130.8260841323
 20
72.0158970016
 30
0.0
 11
130.7893876945
 21
71.9949264112
 31
0.0
  0
ELLIPSE
  5
E3
330
1F
100
AcDbEntity
  8
0
  6
Continuous
 62
     7
370
    25
100
AcDbEllipse
 10
130.4820370487
 20
72.483563184
 30
0.0
 11
-0.5977206589647892
 21
-1.705302565824240E-13
 31
0.0
210
0.0
220
0.0
230
1.0
 40
0.9531667975
 41
0.3285531705514148
 42
2.110876526947273
  0
LINE
  5
E4
330
1F
100
AcDbEntity
  8
0
  6
Continuous
 62
     7
370
    25
100
AcDbLine
 10
129.9162881476
 20
72.2997268695
 30
0.0
 11
128.8064603721
 21
75.4027568128
 31
0.0
  0
ELLIPSE
  5
E5
330
1F
100
AcDbEntity
  8
0
  6
Continuous
 62
     7
370
    25
100
AcDbEllipse
 10
128.2857713836
 20
75.1716531105
 30
0.0
 11
0.5743721957241519
 21
1.250555214937776E-12
 31
0.0
210
0.0
220
0.0
230
1.0
 40
0.9531667975
 41
0.4357918987530105
 42
2.705800754832453
  0
LINE
  5
E6
330
1F
100
AcDbEntity
  8
0
  6
Continuous
 62
     7
370
    25
100
AcDbLine
 10
127.7650822447
 20
75.4027568128
 30
0.0
 11
126.6555131441
 21
72.3004500415
 31
0.0
  0
ELLIPSE
  5
E7
330
1F
100
AcDbEntity
  8
0
  6
Continuous
 62
     7
370
    25
100
AcDbEllipse
 10
126.0897643491
 20
72.4842863036
 30
0.0
 11
-0.5977206589639081
 21
5.684341886080801E-14
 31
0.0
210
0.0
220
0.0
230
1.0
 40
0.9531667975
 41
1.047197551195618
 42
2.813039483037407
  0
LINE
  5
E8
330
1F
100
AcDbEntity
  8
0
  6
Continuous
 62
     7
370
    25
100
AcDbLine
 10
125.7909039994
 20
71.9908877309
 30
0.0
 11
125.745458601
 21
72.0158970016
 31
0.0
  0
LINE
  5
E9
330
1F
100
AcDbEntity
  8
0
  6
Continuous
 62
     7
370
    25
100
AcDbLine
 10
132.9732143348
 20
82.1394625619
 30
0.0
 11
132.9732143348
 21
79.7625680953
 31
0.0
  0
SPLINE
  5
EA
330
1F
100
AcDbEntity
  8
0
  6
Continuous
 62
     7
370
    25
100
AcDbSpline
210
0.0
220
0.0
230
1.0
 70
     8
 71
     3
 72
     8
 73
     4
 74
     0
 42
0.000000001
 43
0.00000001
 40
0.0
 40
0.0
 40
0.0
 40
0.0
 40
1.0
 40
1.0
 40
1.0
 40
1.0
 10
132.8974121972797
 20
78.51174375101463
 30
0.0
 10
132.9414583500688
 20
78.93099509040897
 30
0.0
 10
132.9732138728323
 20
79.34851805417006
 30
0.0
 10
132.9732138728323
 20
79.76256805336332
 30
0.0
  0
LWPOLYLINE
  5
EB
330
1F
100
AcDbEntity
  8
0
  6
Continuous
 62
     7
370
    25
100
AcDbPolyline
 90
        9
 70
   128
 43
0.0
 10
117.9732137387
 20
83.1394622601
 10
117.8756688749
 20
83.2370075896
 10
117.7818721188
 20
83.3308043457
 10
117.6954286201
 20
83.4172473788
 10
117.6196604063
 20
83.4930160582
 10
117.5574792577
 20
83.5551976725
 10
117.5112740164
 20
83.6014024481
 10
117.4828211804
 20
83.629855284
 10
117.4732136568
 20
83.6394628077
  0
LINE
  5
EC
330
1F
100
AcDbEntity
  8
0
  6
Continuous
 62
     7
370
    25
100
AcDbLine
 10
117.4732136568
 20
83.6394628077
 30
0.0
 11
120.3501082053
 21
83.6394628077
 31
0.0
  0
SPLINE
  5
ED
330
1F
100
AcDbEntity
  8
0
  6
Continuous
 62
     7
370
    25
100
AcDbSpline
210
0.0
220
0.0
230
1.0
 70
     8
 71
     3
 72
     8
 73
     4
 74
     0
 42
0.000000001
 43
0.00000001
 40
0.0
 40
0.0
 40
0.0
 40
0.0
 40
1.0
 40
1.0
 40
1.0
 40
1.0
 10
121.6009325495634
 20
83.56366075219303
 30
0.0
 10
121.181681210169
 20
83.6077069049821
 30
0.0
 10
120.7641582464079
 20
83.63946242774566
 30
0.0
 10
120.3501082472147
 20
83.63946242774566
 30
0.0
  0
LINE
  5
EE
330
1F
100
AcDbEntity
  8
0
  6
Continuous
 62
     7
370
    25
100
AcDbLine
 10
117.9732137387
 20
83.1394622601
 30
0.0
 11
117.4732136568
 21
83.1394622601
 31
0.0
  0
LINE
  5
EF
330
1F
100
AcDbEntity
  8
0
  6
Continuous
 62
     7
370
    25
100
AcDbLine
 10
117.4732136568
 20
83.1394622601
 30
0.0
 11
117.4732136568
 21
83.6394628077
 31
0.0
  0
LWPOLYLINE
  5
F0
330
1F
100
AcDbEntity
  8
0
  6
Continuous
 62
     7
370
    25
100
AcDbPolyline
 90
        9
 70
   128
 43
0.0
 10
132.4732142528
 20
69.1394622936
 10
132.5707591166
 20
69.0419174298
 10
132.6645554071
 20
68.9481206737
 10
132.7509989058
 20
68.861677175
 10
132.8267675852
 20
68.7859089612
 10
132.8889482682
 20
68.7237278126
 10
132.9351539751
 20
68.6775225713
 10
132.9636068111
 20
68.6490697354
 10
132.9732143348
 20
68.6394622117
  0
SPLINE
  5
F1
330
1F
100
AcDbEntity
  8
0
  6
Continuous
 62
     7
370
    25
100
AcDbSpline
210
0.0
220
0.0
230
1.0
 70
     8
 71
     3
 72
     8
 73
     4
 74
     0
 42
0.000000001
 43
0.00000001
 40
0.0
 40
0.0
 40
0.0
 40
0.0
 40
1.0
 40
1.0
 40
1.0
 40
1.0
 10
132.9732138728323
 20
71.51635680212799
 30
0.0
 10
132.9732138728323
 20
71.9305457346104
 30
0.0
 10
132.9414661105479
 20
72.3478558974035
 30
0.0
 10
132.8974121972904
 20
72.76718110447725
 30
0.0
  0
LINE
  5
F2
330
1F
100
AcDbEntity
  8
0
  6
Continuous
 62
     7
370
    25
100
AcDbLine
 10
132.9732143348
 20
71.5163567602
 30
0.0
 11
132.9732143348
 21
68.6394622117
 31
0.0
  0
LINE
  5
F3
330
1F
100
AcDbEntity
  8
0
  6
Continuous
 62
     7
370
    25
100
AcDbLine
 10
132.9732143348
 20
68.6394622117
 30
0.0
 11
115.9732134109
 21
68.6394622117
 31
0.0
  0
LWPOLYLINE
  5
F4
330
1F
100
AcDbEntity
  8
0
  6
Continuous
 62
     7
370
    25
100
AcDbPolyline
 90
        9
 70
   128
 43
0.0
 10
116.4732134929
 20
69.1394622936
 10
116.375668629
 20
69.0419174298
 10
116.2818723386
 20
68.9481206737
 10
116.1954288398
 20
68.861677175
 10
116.1196601605
 20
68.7859089612
 10
116.0574794774
 20
68.7237278126
 10
116.0112737706
 20
68.6775225713
 10
115.9828209346
 20
68.6490697354
 10
115.9732134109
 20
68.6394622117
  0
SPLINE
  5
F5
330
1F
100
AcDbEntity
  8
0
  6
Continuous
 62
     7
370
    25
100
AcDbSpline
210
0.0
220
0.0
230
1.0
 70
     8
 71
     3
 72
     8
 73
     4
 74
     0
 42
0.000000001
 43
0.00000001
 40
0.0
 40
0.0
 40
0.0
 40
0.0
 40
1.0
 40
1.0
 40
1.0
 40
1.0
 10
128.59631949845
 20
83.63946242774566
 30
0.0
 10
128.1821305659676
 20
83.63946242774566
 30
0.0
 10
127.7648204031746
 20
83.60771466546119
 30
0.0
 10
127.3454951961008
 20
83.5636607522037
 30
0.0
  0
LINE
  5
F6
330
1F
100
AcDbEntity
  8
0
  6
Continuous
 62
     7
370
    25
100
AcDbLine
 10
128.5963195404
 20
83.6394628077
 30
0.0
 11
131.4732140889
 21
83.6394628077
 31
0.0
  0
ARC
  5
F7
330
1F
100
AcDbEntity
  8
0
  6
Continuous
 62
     7
370
    25
100
AcDbCircle
 10
132.4732138728
 20
83.1394624277
 30
0.0
 40
1.0
100
AcDbArc
 50
180.0
 51
270.0
  0
SPLINE
  5
F8
330
1F
100
AcDbEntity
  8
0
  6
Continuous
 62
     7
370
    25
100
AcDbSpline
210
0.0
220
0.0
230
1.0
 70
     8
 71
     3
 72
     8
 73
     4
 74
     0
 42
0.000000001
 43
0.00000001
 40
0.0
 40
0.0
 40
0.0
 40
0.0
 40
1.0
 40
1.0
 40
1.0
 40
1.0
 10
120.5791696708601
 20
84.13946242774566
 30
0.0
 10
120.9656607104612
 20
84.13946242774566
 30
0.0
 10
121.3584848518821
 20
84.07729943969497
 30
0.0
 10
121.7605037341895
 20
83.98785907664039
 30
0.0
  0
LINE
  5
F9
330
1F
100
AcDbEntity
  8
0
  6
Continuous
 62
     7
370
    25
100
AcDbLine
 10
117.3898803098
 20
84.1394628897
 30
0.0
 11
120.5791697865
 21
84.1394628897
 31
0.0
  0
LINE
  5
FA
330
1F
100
AcDbEntity
  8
0
  6
Continuous
 62
     7
370
    25
100
AcDbLine
 10
117.3898803098
 20
83.1394622601
 30
0.0
 11
117.3898803098
 21
84.1394628897
 31
0.0
  0
LINE
  5
FB
330
1F
100
AcDbEntity
  8
0
  6
Continuous
 62
     7
370
    25
100
AcDbLine
 10
131.5565474359
 20
84.1394628897
 30
0.0
 11
131.5565474359
 21
83.1394622601
 31
0.0
  0
LINE
  5
FC
330
1F
100
AcDbEntity
  8
0
  6
Continuous
 62
     7
370
    25
100
AcDbLine
 10
128.3672579592
 20
84.1394628897
 30
0.0
 11
131.5565474359
 21
84.1394628897
 31
0.0
  0
SPLINE
  5
FD
330
1F
100
AcDbEntity
  8
0
  6
Continuous
 62
     7
370
    25
100
AcDbSpline
210
0.0
220
0.0
230
1.0
 70
     8
 71
     3
 72
     8
 73
     4
 74
     0
 42
0.000000001
 43
0.00000001
 40
0.0
 40
0.0
 40
0.0
 40
0.0
 40
1.0
 40
1.0
 40
1.0
 40
1.0
 10
127.1859240114753
 20
83.9878590766404
 30
0.0
 10
127.5879428937827
 20
84.07729943969498
 30
0.0
 10
127.9807670352035
 20
84.13946242774566
 30
0.0
 10
128.3672580748046
 20
84.13946242774566
 30
0.0
  0
LINE
  5
FE
330
1F
100
AcDbEntity
  8
0
  6
Continuous
 62
     7
370
    25
100
AcDbLine
 10
115.9732134109
 20
68.6394622117
 30
0.0
 11
115.9732134109
 21
71.5163567602
 31
0.0
  0
SPLINE
  5
FF
330
1F
100
AcDbEntity
  8
0
  6
Continuous
 62
     7
370
    25
100
AcDbSpline
210
0.0
220
0.0
230
1.0
 70
     8
 71
     3
 72
     8
 73
     4
 74
     0
 42
0.000000001
 43
0.00000001
 40
0.0
 40
0.0
 40
0.0
 40
0.0
 40
1.0
 40
1.0
 40
1.0
 40
1.0
 10
116.049015548385
 20
72.76718110447666
 30
0.0
 10
116.0049693955959
 20
72.34792976508233
 30
0.0
 10
115.9732138728323
 20
71.93040680132125
 30
0.0
 10
115.9732138728323
 20
71.51635680212799
 30
0.0
  0
LINE
  5
100
330
1F
100
AcDbEntity
  8
0
  6
Continuous
 62
     7
370
    25
100
AcDbLine
 10
116.4732134929
 20
81.6394624799
 30
0.0
 11
116.4732134929
 21
82.1394625619
 31
0.0
  0
ARC
  5
101
330
1F
100
AcDbEntity
  8
0
  6
Continuous
 62
     7
370
    25
100
AcDbCircle
 10
116.4732138728
 20
83.1394624277
 30
0.0
 40
1.0
100
AcDbArc
 50
270.0
 51
0.0
  0
LINE
  5
102
330
1F
100
AcDbEntity
  8
0
  6
Continuous
 62
     7
370
    25
100
AcDbLine
 10
115.9732134109
 20
82.1394625619
 30
0.0
 11
116.4732134929
 21
82.1394625619
 31
0.0
  0
ELLIPSE
  5
103
330
1F
100
AcDbEntity
  8
0
  6
Continuous
 62
     7
370
    25
100
AcDbEllipse
 10
128.5533257269
 20
72.3719766347
 30
0.0
 11
0.0747150823706022
 21
2.842170943040401E-14
 31
0.0
210
0.0
220
0.0
230
1.0
 40
0.9531667975
 41
4.712388980384341
 42
6.62620924575462
  0
ELLIPSE
  5
104
330
1F
100
AcDbEntity
  8
0
  6
Continuous
 62
     7
370
    25
100
AcDbEllipse
 10
128.0182170408
 20
72.3719766347
 30
0.0
 11
-0.07471508237065905
 21
0.0
 31
0.0
210
0.0
220
0.0
230
1.0
 40
0.9531667975
 41
5.940161364898076
 42
7.853981633974483
  0
LINE
  5
105
330
1F
100
AcDbEntity
  8
0
  6
Continuous
 62
     7
370
    25
100
AcDbLine
 10
128.6236878512
 20
72.3959292318
 30
0.0
 11
128.3561337767
 21
73.1099961359
 31
0.0
  0
LINE
  5
106
330
1F
100
AcDbEntity
  8
0
  6
Continuous
 62
     7
370
    25
100
AcDbLine
 10
128.0182171175
 20
72.3007606375
 30
0.0
 11
128.5533254994
 21
72.3007606375
 31
0.0
  0
LINE
  5
107
330
1F
100
AcDbEntity
  8
0
  6
Continuous
 62
     7
370
    25
100
AcDbLine
 10
128.215409073
 20
73.1099961359
 30
0.0
 11
127.9478547657
 21
72.3959292318
 31
0.0
  0
ELLIPSE
  5
108
330
1F
100
AcDbEntity
  8
0
  6
Continuous
 62
     7
370
    25
100
AcDbEllipse
 10
128.2857713854
 20
73.0860436005
 30
0.0
 11
0.07471508237065905
 21
0.0
 31
0.0
210
0.0
220
0.0
230
1.0
 40
0.9531667975
 41
0.3430239404207376
 42
2.79856871316874
  0
LWPOLYLINE
  5
109
330
1F
100
AcDbEntity
  8
0
  6
Continuous
 62
     7
370
    25
100
AcDbPolyline
 90
        9
 70
   128
 43
0.0
 10
133.4732134854
 20
71.7454183414
 10
133.3756686216
 20
71.7410169109
 10
133.2818723311
 20
71.7279821202
 10
133.1954288324
 20
71.706814555
 10
133.119660153
 20
71.6783277258
 10
133.05747947
 20
71.6436164021
 10
133.0112737631
 20
71.6040147036
 10
132.9828209271
 20
71.5610444113
 10
132.9732143348
 20
71.5163567602
  0
LWPOLYLINE
  5
10A
330
1F
100
AcDbEntity
  8
0
  6
Continuous
 62
     7
370
    25
100
AcDbPolyline
 90
        9
 70
   128
 43
0.0
 10
115.4732142603
 20
79.5335065141
 10
115.5707591241
 20
79.5379079446
 10
115.6645554145
 20
79.5509427353
 10
115.7509989133
 20
79.5721103005
 10
115.8267675927
 20
79.6005971297
 10
115.8889482757
 20
79.6353084534
 10
115.9351539826
 20
79.6749101519
 10
115.9636068185
 20
79.7178804442
 10
115.9732134109
 20
79.7625680953
  0
LWPOLYLINE
  5
10B
330
1F
100
AcDbEntity
  8
0
  6
Continuous
 62
     7
370
    25
100
AcDbPolyline
 90
        9
 70
   128
 43
0.0
 10
128.3672579592
 20
84.1394628897
 10
128.3716593897
 20
84.0419170945
 10
128.3846941804
 20
83.9481208041
 10
128.4058617455
 20
83.8616773054
 10
128.4343485748
 20
83.785908626
 10
128.4690598985
 20
83.723727943
 10
128.508661597
 20
83.6775222361
 10
128.5516318893
 20
83.6490694001
 10
128.5963195404
 20
83.6394628077
  0
LWPOLYLINE
  5
10C
330
1F
100
AcDbEntity
  8
0
  6
Continuous
 62
     7
370
    25
100
AcDbPolyline
 90
        9
 70
   128
 43
0.0
 10
120.3501082053
 20
83.6394628077
 10
120.3947958564
 20
83.6490694001
 10
120.4377661487
 20
83.6775222361
 10
120.4773678472
 20
83.723727943
 10
120.5120791709
 20
83.785908626
 10
120.5405660001
 20
83.8616773054
 10
120.5617335653
 20
83.9481208041
 10
120.574768356
 20
84.0419170945
 10
120.5791697865
 20
84.1394628897
  0
LWPOLYLINE
  5
10D
330
1F
100
AcDbEntity
  8
0
  6
Continuous
 62
     7
370
    25
100
AcDbPolyline
 90
        9
 70
   128
 43
0.0
 10
115.4732142603
 20
71.7454183414
 10
115.5707591241
 20
71.7410169109
 10
115.6645554145
 20
71.7279821202
 10
115.7509989133
 20
71.706814555
 10
115.8267675927
 20
71.6783277258
 10
115.8889482757
 20
71.6436164021
 10
115.9351539826
 20
71.6040147036
 10
115.9636068185
 20
71.5610444113
 10
115.9732134109
 20
71.5163567602
  0
LWPOLYLINE
  5
10E
330
1F
100
AcDbEntity
  8
0
  6
Continuous
 62
     7
370
    25
100
AcDbPolyline
 90
        9
 70
   128
 43
0.0
 10
132.9732143348
 20
79.7625680953
 10
132.9828209271
 20
79.7178804442
 10
133.0112737631
 20
79.6749101519
 10
133.05747947
 20
79.6353084534
 10
133.119660153
 20
79.6005971297
 10
133.1954288324
 20
79.5721103005
 10
133.2818723311
 20
79.5509427353
 10
133.3756686216
 20
79.5379079446
 10
133.4732134854
 20
79.5335065141
  0
SPLINE
  5
10F
330
1F
100
AcDbEntity
  8
0
  6
Continuous
 62
     7
370
    25
100
AcDbSpline
210
0.0
220
0.0
230
1.0
 70
     8
 71
     3
 72
     8
 73
     4
 74
     0
 42
0.000000001
 43
0.00000001
 40
0.0
 40
0.0
 40
0.0
 40
0.0
 40
1.0
 40
1.0
 40
1.0
 40
1.0
 10
133.1902362485239
 20
68.63946242774566
 30
0.0
 10
133.2783601059826
 20
68.63946242774566
 30
0.0
 10
133.3762975786847
 20
68.6081922341436
 30
0.0
 10
133.4732138728323
 20
68.55612909441231
 30
0.0
  0
SPLINE
  5
110
330
1F
100
AcDbEntity
  8
0
  6
Continuous
 62
     7
370
    25
100
AcDbSpline
210
0.0
220
0.0
230
1.0
 70
    24
 71
     3
 72
    10
 73
     6
 74
     0
 42
0.000000001
 43
0.00000001
 40
0.0
 40
0.0
 40
0.0
 40
0.0
 40
0.5
 40
0.5
 40
1.0
 40
1.0
 40
1.0
 40
1.0
 10
133.1902362485239
 20
68.63946242774566
 30
0.0
 10
133.1108990861024
 20
68.63946242774566
 30
0.0
 10
133.0594037775914
 20
68.63946242774566
 30
0.0
 10
132.9903014363059
 20
68.63946242774566
 30
0.0
 10
132.9732138728324
 20
68.63946242774566
 30
0.0
 10
132.9732138728323
 20
68.63946242774566
 30
0.0
  0
SPLINE
  5
111
330
1F
100
AcDbEntity
  8
0
  6
Continuous
 62
     7
370
    25
100
AcDbSpline
210
0.0
220
0.0
230
1.0
 70
     8
 71
     3
 72
     8
 73
     4
 74
     0
 42
0.000000001
 43
0.00000001
 40
0.0
 40
0.0
 40
0.0
 40
0.0
 40
1.0
 40
1.0
 40
1.0
 40
1.0
 10
115.7561914971407
 20
68.63946242774566
 30
0.0
 10
115.668067639682
 20
68.63946242774566
 30
0.0
 10
115.57013016698
 20
68.6081922341436
 30
0.0
 10
115.4732138728323
 20
68.55612909441231
 30
0.0
  0
SPLINE
  5
112
330
1F
100
AcDbEntity
  8
0
  6
Continuous
 62
     7
370
    25
100
AcDbSpline
210
0.0
220
0.0
230
1.0
 70
    24
 71
     3
 72
    10
 73
     6
 74
     0
 42
0.000000001
 43
0.00000001
 40
0.0
 40
0.0
 40
0.0
 40
0.0
 40
0.5
 40
0.5
 40
1.0
 40
1.0
 40
1.0
 40
1.0
 10
115.9732138728323
 20
68.63946242774551
 30
0.0
 10
115.9732138728323
 20
68.63946242774551
 30
0.0
 10
115.9563688572784
 20
68.63946242774566
 30
0.0
 10
115.8870091396508
 20
68.63946242774566
 30
0.0
 10
115.8358096535977
 20
68.63946242774566
 30
0.0
 10
115.7561914971408
 20
68.63946242774566
 30
0.0
  0
SPLINE
  5
113
330
1F
100
AcDbEntity
  8
0
  6
Continuous
 62
     7
370
    25
100
AcDbSpline
210
0.0
220
0.0
230
1.0
 70
     8
 71
     3
 72
     8
 73
     4
 74
     0
 42
0.000000001
 43
0.00000001
 40
0.0
 40
0.0
 40
0.0
 40
0.0
 40
1.0
 40
1.0
 40
1.0
 40
1.0
 10
131.4732138728323
 20
83.85648480343724
 30
0.0
 10
131.4732138728323
 20
83.94460866089592
 30
0.0
 10
131.5044840664359
 20
84.04254613359532
 30
0.0
 10
131.5565472061657
 20
84.13946242774566
 30
0.0
  0
SPLINE
  5
114
330
1F
100
AcDbEntity
  8
0
  6
Continuous
 62
     7
370
    25
100
AcDbSpline
210
0.0
220
0.0
230
1.0
 70
    24
 71
     3
 72
    10
 73
     6
 74
     0
 42
0.000000001
 43
0.00000001
 40
0.0
 40
0.0
 40
0.0
 40
0.0
 40
0.5
 40
0.5
 40
1.0
 40
1.0
 40
1.0
 40
1.0
 10
131.4732138728323
 20
83.85648480343724
 30
0.0
 10
131.4732138728323
 20
83.7771476410157
 30
0.0
 10
131.4732138728323
 20
83.72565233250472
 30
0.0
 10
131.4732138728323
 20
83.6565499912192
 30
0.0
 10
131.4732138728323
 20
83.6394624277457
 30
0.0
 10
131.4732138728323
 20
83.63946242774566
 30
0.0
  0
SPLINE
  5
115
330
1F
100
AcDbEntity
  8
0
  6
Continuous
 62
     7
370
    25
100
AcDbSpline
210
0.0
220
0.0
230
1.0
 70
     8
 71
     3
 72
     8
 73
     4
 74
     0
 42
0.000000001
 43
0.00000001
 40
0.0
 40
0.0
 40
0.0
 40
0.0
 40
1.0
 40
1.0
 40
1.0
 40
1.0
 10
133.1519796023586
 20
82.13946242774566
 30
0.0
 10
133.2489033388511
 20
82.13946242774566
 30
0.0
 10
133.361908826941
 20
82.18258498614125
 30
0.0
 10
133.4732138728323
 20
82.25057353885676
 30
0.0
  0
SPLINE
  5
116
330
1F
100
AcDbEntity
  8
0
  6
Continuous
 62
     7
370
    25
100
AcDbSpline
210
0.0
220
0.0
230
1.0
 70
    24
 71
     3
 72
    10
 73
     6
 74
     0
 42
0.000000001
 43
0.00000001
 40
0.0
 40
0.0
 40
0.0
 40
0.0
 40
0.5
 40
0.5
 40
1.0
 40
1.0
 40
1.0
 40
1.0
 10
132.9732138728323
 20
82.13946242774685
 30
0.0
 10
132.9732138728323
 20
82.13946242774685
 30
0.0
 10
132.9874318425481
 20
82.13946242774566
 30
0.0
 10
133.0456083573391
 20
82.13946242774566
 30
0.0
 10
133.0889297146777
 20
82.13946242774566
 30
0.0
 10
133.1519796023586
 20
82.13946242774566
 30
0.0
  0
SPLINE
  5
117
330
1F
100
AcDbEntity
  8
0
  6
Continuous
 62
     7
370
    25
100
AcDbSpline
210
0.0
220
0.0
230
1.0
 70
     8
 71
     3
 72
     8
 73
     4
 74
     0
 42
0.000000001
 43
0.00000001
 40
0.0
 40
0.0
 40
0.0
 40
0.0
 40
1.0
 40
1.0
 40
1.0
 40
1.0
 10
115.794448143306
 20
82.13946242774566
 30
0.0
 10
115.6975244068135
 20
82.13946242774566
 30
0.0
 10
115.5845189187236
 20
82.18258498614125
 30
0.0
 10
115.4732138728323
 20
82.25057353885676
 30
0.0
  0
SPLINE
  5
118
330
1F
100
AcDbEntity
  8
0
  6
Continuous
 62
     7
370
    25
100
AcDbSpline
210
0.0
220
0.0
230
1.0
 70
    24
 71
     3
 72
    10
 73
     6
 74
     0
 42
0.000000001
 43
0.00000001
 40
0.0
 40
0.0
 40
0.0
 40
0.0
 40
0.5
 40
0.5
 40
1.0
 40
1.0
 40
1.0
 40
1.0
 10
115.794448143306
 20
82.13946242774566
 30
0.0
 10
115.8574981658412
 20
82.13946242774566
 30
0.0
 10
115.9008053901471
 20
82.13946242774566
 30
0.0
 10
115.9589965658093
 20
82.13946242774566
 30
0.0
 10
115.9732138728323
 20
82.13946242774566
 30
0.0
 10
115.9732138728323
 20
82.13946242774566
 30
0.0
  0
SPLINE
  5
119
330
1F
100
AcDbEntity
  8
0
  6
Continuous
 62
     7
370
    25
100
AcDbSpline
210
0.0
220
0.0
230
1.0
 70
     8
 71
     3
 72
     8
 73
     4
 74
     0
 42
0.000000001
 43
0.00000001
 40
0.0
 40
0.0
 40
0.0
 40
0.0
 40
1.0
 40
1.0
 40
1.0
 40
1.0
 10
117.4732138728323
 20
83.85648480343727
 30
0.0
 10
117.4732138728323
 20
83.94460866089595
 30
0.0
 10
117.4419436792285
 20
84.04254613359495
 30
0.0
 10
117.389880539499
 20
84.13946242774566
 30
0.0
  0
SPLINE
  5
11A
330
1F
100
AcDbEntity
  8
0
  6
Continuous
 62
     7
370
    25
100
AcDbSpline
210
0.0
220
0.0
230
1.0
 70
    24
 71
     3
 72
    10
 73
     6
 74
     0
 42
0.000000001
 43
0.00000001
 40
0.0
 40
0.0
 40
0.0
 40
0.0
 40
0.5
 40
0.5
 40
1.0
 40
1.0
 40
1.0
 40
1.0
 10
117.4732138728322
 20
83.63946242774566
 30
0.0
 10
117.4732138728322
 20
83.63946242774566
 30
0.0
 10
117.4732138728323
 20
83.65630744329958
 30
0.0
 10
117.4732138728323
 20
83.72566716092716
 30
0.0
 10
117.4732138728323
 20
83.77686664698025
 30
0.0
 10
117.4732138728323
 20
83.85648480343716
 30
0.0
  0
ARC
  5
11B
330
1F
100
AcDbEntity
  8
0
  6
Continuous
 62
     7
370
    25
100
AcDbCircle
 10
117.0114091012
 20
83.1852948698
 30
0.0
 40
0.4640733516230544
100
AcDbArc
 50
265.2789919347
 51
354.3321397526
  0
LINE
  5
11C
330
1F
100
AcDbEntity
  8
0
  6
Continuous
 62
     7
370
    25
100
AcDbLine
 10
116.4732134929
 20
82.250573536
 30
0.0
 11
116.4732134929
 21
82.1394625619
 31
0.0
  0
ARC
  5
11D
330
1F
100
AcDbEntity
  8
0
  6
Continuous
 62
     7
370
    25
100
AcDbCircle
 10
131.9350186445
 20
83.1852948698
 30
0.0
 40
0.4640733516230608
100
AcDbArc
 50
185.6678602474
 51
274.7210080653
  0
LINE
  5
11E
330
1F
100
AcDbEntity
  8
0
  6
Continuous
 62
     7
370
    25
100
AcDbLine
 10
132.4732142528
 20
82.1394625619
 30
0.0
 11
132.4732142528
 21
82.250573536
 31
0.0
  0
LINE
  5
11F
330
1F
100
AcDbEntity
  8
0
  6
Continuous
 62
     7
370
    25
100
AcDbLine
 10
131.5565474359
 20
83.1394622601
 30
0.0
 11
131.4732140889
 21
83.1394622601
 31
0.0
  0
ARC
  5
120
330
1F
100
AcDbEntity
  8
0
  6
Continuous
 62
     7
370
    25
100
AcDbCircle
 10
132.1746112885
 20
83.3408598434
 30
0.0
 40
0.6500491615196141
100
AcDbArc
 50
198.0483231264
 51
251.9516768736
  0
ARC
  5
121
330
1F
100
AcDbEntity
  8
0
  6
Continuous
 62
     7
370
    25
100
AcDbCircle
 10
116.7718164572
 20
83.3408598434
 30
0.0
 40
0.6500491615196006
100
AcDbArc
 50
288.0483231264
 51
341.9516768736
  0
LINE
  5
122
330
1F
100
AcDbEntity
  8
0
  6
Continuous
 62
     7
370
    25
100
AcDbLine
 10
117.4732136568
 20
83.1394622601
 30
0.0
 11
117.3898803098
 21
83.1394622601
 31
0.0
  0
LINE
  5
123
330
1F
100
AcDbEntity
  8
0
  6
Continuous
 62
     8
370
    25
100
AcDbLine
 10
140.4732146328
 20
86.8894628748
 30
0.0
 11
140.4732146328
 21
64.3894619807
 31
0.0
  0
LINE
  5
124
330
1F
100
AcDbEntity
  8
0
  6
Continuous
 62
     8
370
    25
100
AcDbLine
 10
113.2232134258
 20
91.6394631877
 30
0.0
 11
135.7232143199
 21
91.6394631877
 31
0.0
  0
LINE
  5
125
330
1F
100
AcDbEntity
  8
0
  6
Continuous
 62
     8
370
    25
100
AcDbLine
 10
108.4732131129
 20
75.6394624277
 30
0.0
 11
108.4732131129
 21
86.8894628748
 31
0.0
  0
LINE
  5
126
330
1F
100
AcDbEntity
  8
0
  6
Continuous
 62
     8
370
    25
100
AcDbLine
 10
108.4732131129
 20
64.3894619807
 30
0.0
 11
108.4732131129
 21
75.6394624277
 31
0.0
  0
LINE
  5
127
330
1F
100
AcDbEntity
  8
0
  6
Continuous
 62
     8
370
    25
100
AcDbLine
 10
132.9732143348
 20
89.6394628599
 30
0.0
 11
115.9732134109
 21
89.6394628599
 31
0.0
  0
LINE
  5
128
330
1F
100
AcDbEntity
  8
0
  6
Continuous
 62
     8
370
    25
100
AcDbLine
 10
110.4732134407
 20
75.6394624277
 30
0.0
 11
110.4732134407
 21
67.1394619658
 31
0.0
  0
LINE
  5
129
330
1F
100
AcDbEntity
  8
0
  6
Continuous
 62
     8
370
    25
100
AcDbLine
 10
110.4732134407
 20
84.1394628897
 30
0.0
 11
110.4732134407
 21
75.6394624277
 31
0.0
  0
LINE
  5
12A
330
1F
100
AcDbEntity
  8
0
  6
Continuous
 62
     8
370
    25
100
AcDbLine
 10
138.473214305
 20
67.1394619658
 30
0.0
 11
138.473214305
 21
84.1394628897
 31
0.0
  0
LWPOLYLINE
  5
12B
330
1F
100
AcDbEntity
  8
0
  6
Continuous
 62
     8
370
    25
100
AcDbPolyline
 90
       10
 70
   128
 43
0.0
 10
133.4732134854
 20
84.1394628897
 10
133.4541632821
 20
84.1214706689
 10
133.3970927661
 20
84.0675703749
 10
133.3022440811
 20
83.977991113
 10
133.1700186273
 20
83.8531110003
 10
133.0009751981
 20
83.693459028
 10
132.7958309119
 20
83.4997113361
 10
132.5554528301
 20
83.2726884201
 10
132.2808598196
 20
83.0133504733
 10
131.9732137052
 20
82.7227959908
  0
LWPOLYLINE
  5
12C
330
1F
100
AcDbEntity
  8
0
  6
Continuous
 62
     8
370
    25
100
AcDbPolyline
 90
       10
 70
   128
 43
0.0
 10
116.9732140405
 20
82.7227959908
 10
116.6655679261
 20
83.0133504733
 10
116.3909749155
 20
83.2726884201
 10
116.1505968337
 20
83.4997113361
 10
115.9454525476
 20
83.693459028
 10
115.7764091184
 20
83.8531110003
 10
115.6441836645
 20
83.977991113
 10
115.5493349796
 20
84.0675703749
 10
115.4922644635
 20
84.1214706689
 10
115.4732142603
 20
84.1394628897
  0
LWPOLYLINE
  5
12D
330
1F
100
AcDbEntity
  8
0
  6
Continuous
 62
     8
370
    25
100
AcDbPolyline
 90
       10
 70
   128
 43
0.0
 10
115.9732134109
 20
84.6394620403
 10
115.9912056317
 20
84.6204118371
 10
116.0451059257
 20
84.563341321
 10
116.1346851876
 20
84.468492636
 10
116.2595653003
 20
84.3362671822
 10
116.4192172726
 20
84.167223753
 10
116.6129649644
 20
83.9620794668
 10
116.8399878805
 20
83.721701385
 10
117.0993258273
 20
83.4471083745
 10
117.3898803098
 20
83.1394622601
  0
LWPOLYLINE
  5
12E
330
1F
100
AcDbEntity
  8
0
  6
Continuous
 62
     8
370
    25
100
AcDbPolyline
 90
       10
 70
   128
 43
0.0
 10
131.5565474359
 20
83.1394622601
 10
131.8471019184
 20
83.4471083745
 10
132.1064398652
 20
83.721701385
 10
132.3334627812
 20
83.9620794668
 10
132.527210473
 20
84.167223753
 10
132.6868624454
 20
84.3362671822
 10
132.8117425581
 20
84.468492636
 10
132.9013218199
 20
84.563341321
 10
132.9552221139
 20
84.6204118371
 10
132.9732143348
 20
84.6394620403
  0
LINE
  5
12F
330
1F
100
AcDbEntity
  8
0
  6
CENTERX2
 62
     7
370
    18
100
AcDbLine
 10
124.4732138728
 20
65.5536809167
 30
0.0
 11
124.4732138728
 21
106.1394624277
 31
0.0
  0
LINE
  5
130
330
1F
100
AcDbEntity
  8
0
  6
CENTERX2
 62
     7
370
    18
100
AcDbLine
 10
93.9732138728
 20
75.6394624277
 30
0.0
 11
154.9732138728
 21
75.6394624277
 31
0.0
  0
LINE
  5
131
330
1F
100
AcDbEntity
  8
0
  6
Continuous
 62
     7
370
    25
100
AcDbLine
 10
187.3270766703
 20
104.1394624426
 30
0.0
 11
187.3270766703
 21
91.6394631877
 31
0.0
  0
LINE
  5
132
330
1F
100
AcDbEntity
  8
0
  6
Continuous
 62
     7
370
    25
100
AcDbLine
 10
209.8270775644
 20
91.6394631877
 30
0.0
 11
209.8270775644
 21
104.1394624426
 31
0.0
  0
LINE
  5
133
330
1F
100
AcDbEntity
  8
0
  6
Continuous
 62
     7
370
    25
100
AcDbLine
 10
209.8270775644
 20
104.1394624426
 30
0.0
 11
209.3270774824
 21
104.6394615933
 31
0.0
  0
LINE
  5
134
330
1F
100
AcDbEntity
  8
0
  6
Continuous
 62
     7
370
    25
100
AcDbLine
 10
187.8270767523
 20
104.6394615933
 30
0.0
 11
187.3270766703
 21
104.1394624426
 31
0.0
  0
ARC
  5
135
330
1F
100
AcDbEntity
  8
0
  6
Continuous
 62
     7
370
    25
100
AcDbCircle
 10
188.3270771174
 20
91.6394624277
 30
0.0
 40
1.000000000000014
100
AcDbArc
 50
180.0
 51
270.0
  0
ARC
  5
136
330
1F
100
AcDbEntity
  8
0
  6
Continuous
 62
     7
370
    25
100
AcDbCircle
 10
208.8270771174
 20
91.6394624277
 30
0.0
 40
1.000000000000014
100
AcDbArc
 50
270.0
 51
0.0
  0
ARC
  5
137
330
1F
100
AcDbEntity
  8
0
  6
Continuous
 62
     7
370
    25
100
AcDbCircle
 10
189.0770771174
 20
89.6394624277
 30
0.0
 40
1.0
100
AcDbArc
 50
0.0
 51
90.0
  0
ARC
  5
138
330
1F
100
AcDbEntity
  8
0
  6
Continuous
 62
     7
370
    25
100
AcDbCircle
 10
208.0770771174
 20
89.6394624277
 30
0.0
 40
1.0
100
AcDbArc
 50
90.0
 51
180.0
  0
LINE
  5
139
330
1F
100
AcDbEntity
  8
0
  6
Continuous
 62
     7
370
    25
100
AcDbLine
 10
207.0770775793
 20
83.6394628077
 30
0.0
 11
207.0770775793
 21
89.6394628599
 31
0.0
  0
LINE
  5
13A
330
1F
100
AcDbEntity
  8
0
  6
Continuous
 62
     7
370
    25
100
AcDbLine
 10
190.0770766554
 20
89.6394628599
 30
0.0
 11
190.0770766554
 21
83.6394628077
 31
0.0
  0
CIRCLE
  5
13B
330
1F
100
AcDbEntity
  8
0
  6
Continuous
 62
     7
370
    25
100
AcDbCircle
 10
198.5770771174
 20
75.6394624277
 30
0.0
 40
10.75
  0
CIRCLE
  5
13C
330
1F
100
AcDbEntity
  8
0
  6
Continuous
 62
     7
370
    25
100
AcDbCircle
 10
198.5770771174
 20
75.6394624277
 30
0.0
 40
11.25
  0
CIRCLE
  5
13D
330
1F
100
AcDbEntity
  8
0
  6
Continuous
 62
     7
370
    25
100
AcDbCircle
 10
198.5770771174
 20
75.6394624277
 30
0.0
 40
6.750000000000028
  0
CIRCLE
  5
13E
330
1F
100
AcDbEntity
  8
0
  6
Continuous
 62
     7
370
    25
100
AcDbCircle
 10
198.5770771174
 20
75.6394624277
 30
0.0
 40
6.10343238175048
  0
CIRCLE
  5
13F
330
1F
100
AcDbEntity
  8
0
  6
Continuous
 62
     7
370
    25
100
AcDbCircle
 10
198.5770771174
 20
75.6394624277
 30
0.0
 40
5.81061697881421
  0
CIRCLE
  5
140
330
1F
100
AcDbEntity
  8
0
  6
Continuous
 62
     7
370
    25
100
AcDbCircle
 10
198.5770771174
 20
75.6394624277
 30
0.0
 40
5.722499999999968
  0
CIRCLE
  5
141
330
1F
100
AcDbEntity
  8
0
  6
Continuous
 62
     7
370
    25
100
AcDbCircle
 10
198.5770771174
 20
75.6394624277
 30
0.0
 40
4.0
  0
LINE
  5
142
330
1F
100
AcDbEntity
  8
0
  6
Continuous
 62
     7
370
    25
100
AcDbLine
 10
209.8270775644
 20
104.1394624426
 30
0.0
 11
187.3270766703
 21
104.1394624426
 31
0.0
  0
LINE
  5
143
330
1F
100
AcDbEntity
  8
0
  6
Continuous
 62
     7
370
    25
100
AcDbLine
 10
187.8270767523
 20
104.6394615933
 30
0.0
 11
209.3270774824
 21
104.6394615933
 31
0.0
  0
LINE
  5
144
330
1F
100
AcDbEntity
  8
0
  6
Continuous
 62
     7
370
    25
100
AcDbLine
 10
208.8270774005
 20
90.6394620925
 30
0.0
 11
188.3270768342
 21
90.6394620925
 31
0.0
  0
SPLINE
  5
145
330
1F
100
AcDbEntity
  8
0
  6
Continuous
 62
     7
370
    25
100
AcDbSpline
210
0.0
220
0.0
230
1.0
 70
     8
 71
     3
 72
    12
 73
     8
 74
     0
 42
0.000000001
 43
0.00000001
 40
0.0
 40
0.0
 40
0.0
 40
0.0
 40
0.2499999999999999
 40
0.2499999999999999
 40
0.4999999999999999
 40
0.4999999999999999
 40
1.0
 40
1.0
 40
1.0
 40
1.0
 10
206.6325847800591
 20
83.98785907664039
 30
0.0
 10
206.705403268042
 20
83.93975096799599
 30
0.0
 10
206.7696989065005
 20
83.90353791053178
 30
0.0
 10
206.8804050700833
 20
83.83843370087888
 30
0.0
 10
206.9268585823249
 20
83.81019352059059
 30
0.0
 10
207.0389446049433
 20
83.73092868931761
 30
0.0
 10
207.0770771173662
 20
83.68506330612196
 30
0.0
 10
207.0770771173662
 20
83.63946242774566
 30
0.0
  0
SPLINE
  5
146
330
1F
100
AcDbEntity
  8
0
  6
Continuous
 62
     7
370
    25
100
AcDbSpline
210
0.0
220
0.0
230
1.0
 70
     8
 71
     3
 72
     8
 73
     4
 74
     0
 42
0.000000001
 43
0.00000001
 40
0.0
 40
0.0
 40
0.0
 40
0.0
 40
1.0
 40
1.0
 40
1.0
 40
1.0
 10
206.1326326729217
 20
84.13946242774566
 30
0.0
 10
206.3318255953755
 20
84.13946242774566
 30
0.0
 10
206.4972040264646
 20
84.07729943969497
 30
0.0
 10
206.6325847800591
 20
83.98785907664039
 30
0.0
  0
SPLINE
  5
147
330
1F
100
AcDbEntity
  8
0
  6
Continuous
 62
     7
370
    25
100
AcDbSpline
210
0.0
220
0.0
230
1.0
 70
     8
 71
     3
 72
     8
 73
     4
 74
     0
 42
0.000000001
 43
0.00000001
 40
0.0
 40
0.0
 40
0.0
 40
0.0
 40
1.0
 40
1.0
 40
1.0
 40
1.0
 10
190.5215694546733
 20
83.9878590766404
 30
0.0
 10
190.6569502082677
 20
84.07729943969498
 30
0.0
 10
190.8223286393569
 20
84.13946242774566
 30
0.0
 10
191.0215215618106
 20
84.13946242774566
 30
0.0
  0
SPLINE
  5
148
330
1F
100
AcDbEntity
  8
0
  6
Continuous
 62
     7
370
    25
100
AcDbSpline
210
0.0
220
0.0
230
1.0
 70
     8
 71
     3
 72
    12
 73
     8
 74
     0
 42
0.000000001
 43
0.00000001
 40
0.0
 40
0.0
 40
0.0
 40
0.0
 40
0.2500000000000002
 40
0.2500000000000002
 40
0.5000000000000001
 40
0.5000000000000001
 40
1.0
 40
1.0
 40
1.0
 40
1.0
 10
190.5215694546733
 20
83.9878590766404
 30
0.0
 10
190.4489182799201
 20
83.93986150480141
 30
0.0
 10
190.3846007573289
 20
83.90362293090233
 30
0.0
 10
190.2737215691217
 20
83.83841797567601
 30
0.0
 10
190.2270612025735
 20
83.81005091841587
 30
0.0
 10
190.1148025436226
 20
83.73059414292646
 30
0.0
 10
190.0770771173661
 20
83.68514816307615
 30
0.0
 10
190.0770771173661
 20
83.63946242774566
 30
0.0
  0
LINE
  5
149
330
1F
100
AcDbEntity
  8
0
  6
Continuous
 62
     7
370
    25
100
AcDbLine
 10
207.0770775793
 20
83.1394622601
 30
0.0
 11
207.0770775793
 21
83.0091637127
 31
0.0
  0
LINE
  5
14A
330
1F
100
AcDbEntity
  8
0
  6
Continuous
 62
     7
370
    25
100
AcDbLine
 10
190.0770766554
 20
83.0091637127
 30
0.0
 11
190.0770766554
 21
83.1394622601
 31
0.0
  0
ARC
  5
14B
330
1F
100
AcDbEntity
  8
0
  6
Continuous
 62
     7
370
    25
100
AcDbCircle
 10
206.5770771174
 20
83.1394624277
 30
0.0
 40
0.5
100
AcDbArc
 50
0.0
 51
90.0
  0
LINE
  5
14C
330
1F
100
AcDbEntity
  8
0
  6
Continuous
 62
     7
370
    25
100
AcDbLine
 10
206.4867233751
 20
83.6394628077
 30
0.0
 11
206.5770774973
 21
83.6394628077
 31
0.0
  0
LINE
  5
14D
330
1F
100
AcDbEntity
  8
0
  6
Continuous
 62
     7
370
    25
100
AcDbLine
 10
190.5770767374
 20
83.6394628077
 30
0.0
 11
190.6674308596
 21
83.6394628077
 31
0.0
  0
ARC
  5
14E
330
1F
100
AcDbEntity
  8
0
  6
Continuous
 62
     7
370
    25
100
AcDbCircle
 10
190.5770771174
 20
83.1394624277
 30
0.0
 40
0.5
100
AcDbArc
 50
90.0
 51
180.0
  0
ARC
  5
14F
330
1F
100
AcDbEntity
  8
0
  6
Continuous
 62
     7
370
    25
100
AcDbCircle
 10
207.0910979517
 20
83.9502820559
 30
0.0
 40
0.4600508724523238
100
AcDbArc
 50
175.314811797
 51
237.181165302
  0
ARC
  5
150
330
1F
100
AcDbEntity
  8
0
  6
Continuous
 62
     7
370
    25
100
AcDbCircle
 10
190.063056283
 20
83.9502820559
 30
0.0
 40
0.4600508724523106
100
AcDbArc
 50
302.818834698
 51
4.685188203
  0
SPLINE
  5
151
330
1F
100
AcDbEntity
  8
0
  6
Continuous
 62
     7
370
    25
100
AcDbSpline
210
0.0
220
0.0
230
1.0
 70
     8
 71
     3
 72
    12
 73
     8
 74
     0
 42
0.000000001
 43
0.00000001
 40
0.0
 40
0.0
 40
0.0
 40
0.0
 40
0.2500000000000002
 40
0.2500000000000002
 40
0.5000000000000001
 40
0.5000000000000001
 40
1.0
 40
1.0
 40
1.0
 40
1.0
 10
206.8417576446742
 20
83.56366075219302
 30
0.0
 10
206.8774442787779
 20
83.54139391003909
 30
0.0
 10
206.9110031550773
 20
83.53435587738467
 30
0.0
 10
206.9696469001325
 20
83.53348075590024
 30
0.0
 10
206.9948738160943
 20
83.54014474984932
 30
0.0
 10
207.0559076295948
 20
83.57079709926757
 30
0.0
 10
207.0770771173662
 20
83.60540578239208
 30
0.0
 10
207.0770771173662
 20
83.63946242774566
 30
0.0
  0
SPLINE
  5
152
330
1F
100
AcDbEntity
  8
0
  6
Continuous
 62
     7
370
    25
100
AcDbSpline
210
0.0
220
0.0
230
1.0
 70
    24
 71
     3
 72
    16
 73
    12
 74
     0
 42
0.000000001
 43
0.00000001
 40
0.0
 40
0.0
 40
0.0
 40
0.0
 40
0.2500000000000002
 40
0.2500000000000002
 40
0.5000000000000003
 40
0.5000000000000003
 40
0.7500000000000004
 40
0.7500000000000004
 40
0.8750000000000002
 40
0.8750000000000002
 40
1.0
 40
1.0
 40
1.0
 40
1.0
 10
207.0770771173662
 20
83.13946242774566
 30
0.0
 10
207.0770771173662
 20
83.13946242774566
 30
0.0
 10
207.0770771173662
 20
83.15939421343279
 30
0.0
 10
207.0770771173662
 20
83.22000076003637
 30
0.0
 10
207.0770771173662
 20
83.26111126748155
 30
0.0
 10
207.0770771173662
 20
83.35548772388076
 30
0.0
 10
207.0770771173662
 20
83.40885308573705
 30
0.0
 10
207.0770771173662
 20
83.49316024567163
 30
0.0
 10
207.0770771173662
 20
83.5219851225135
 30
0.0
 10
207.0770771173662
 20
83.580344201079
 30
0.0
 10
207.0770771173662
 20
83.60959532229708
 30
0.0
 10
207.0770771173662
 20
83.63946242774566
 30
0.0
  0
SPLINE
  5
153
330
1F
100
AcDbEntity
  8
0
  6
Continuous
 62
     7
370
    25
100
AcDbSpline
210
0.0
220
0.0
230
1.0
 70
     8
 71
     3
 72
    12
 73
     8
 74
     0
 42
0.000000001
 43
0.00000001
 40
0.0
 40
0.0
 40
0.0
 40
0.0
 40
0.2500000000000002
 40
0.2500000000000002
 40
0.5000000000000001
 40
0.5000000000000001
 40
1.0
 40
1.0
 40
1.0
 40
1.0
 10
190.3123965900582
 20
83.56366075219302
 30
0.0
 10
190.2767099559544
 20
83.5413939100391
 30
0.0
 10
190.243151079655
 20
83.53435587738467
 30
0.0
 10
190.1845073345998
 20
83.53348075590024
 30
0.0
 10
190.159280418638
 20
83.5401447498493
 30
0.0
 10
190.0982466051375
 20
83.57079709926754
 30
0.0
 10
190.0770771173661
 20
83.60540578239195
 30
0.0
 10
190.0770771173661
 20
83.63946242774566
 30
0.0
  0
SPLINE
  5
154
330
1F
100
AcDbEntity
  8
0
  6
Continuous
 62
     7
370
    25
100
AcDbSpline
210
0.0
220
0.0
230
1.0
 70
    24
 71
     3
 72
    16
 73
    12
 74
     0
 42
0.000000001
 43
0.00000001
 40
0.0
 40
0.0
 40
0.0
 40
0.0
 40
0.2500000000000002
 40
0.2500000000000002
 40
0.5000000000000002
 40
0.5000000000000002
 40
0.7500000000000002
 40
0.7500000000000002
 40
0.8750000000000001
 40
0.8750000000000001
 40
1.0
 40
1.0
 40
1.0
 40
1.0
 10
190.0770771173661
 20
83.13946242774566
 30
0.0
 10
190.0770771173661
 20
83.13946242774566
 30
0.0
 10
190.0770771173661
 20
83.1593942134328
 30
0.0
 10
190.0770771173661
 20
83.22000076003638
 30
0.0
 10
190.0770771173661
 20
83.26111126748155
 30
0.0
 10
190.0770771173661
 20
83.35548772388076
 30
0.0
 10
190.0770771173661
 20
83.40885308573705
 30
0.0
 10
190.0770771173661
 20
83.49316024567165
 30
0.0
 10
190.0770771173661
 20
83.5219851225135
 30
0.0
 10
190.0770771173661
 20
83.580344201079
 30
0.0
 10
190.0770771173661
 20
83.60959532229707
 30
0.0
 10
190.0770771173661
 20
83.63946242774566
 30
0.0
  0
LINE
  5
155
330
1F
100
AcDbEntity
  8
0
  6
Continuous
 62
     8
370
    25
100
AcDbLine
 10
187.3270766703
 20
91.6394631877
 30
0.0
 11
209.8270775644
 21
91.6394631877
 31
0.0
  0
LINE
  5
156
330
1F
100
AcDbEntity
  8
0
  6
Continuous
 62
     8
370
    25
100
AcDbLine
 10
207.0770775793
 20
89.6394628599
 30
0.0
 11
190.0770766554
 21
89.6394628599
 31
0.0
  0
LINE
  5
157
330
1F
100
AcDbEntity
  8
0
  6
Continuous
 62
     8
370
    25
100
AcDbLine
 10
205.9467784023
 20
84.1394628897
 30
0.0
 11
206.1326326696
 21
84.1394628897
 31
0.0
  0
LINE
  5
158
330
1F
100
AcDbEntity
  8
0
  6
Continuous
 62
     8
370
    25
100
AcDbLine
 10
191.0215215651
 20
84.1394628897
 30
0.0
 11
191.2073758325
 21
84.1394628897
 31
0.0
  0
LINE
  5
159
330
1F
100
AcDbEntity
  8
0
  6
Continuous
 62
     8
370
    25
100
AcDbLine
 10
207.0770775793
 20
83.1394622601
 30
0.0
 11
206.9623321189
 21
83.1394622601
 31
0.0
  0
LINE
  5
15A
330
1F
100
AcDbEntity
  8
0
  6
Continuous
 62
     8
370
    25
100
AcDbLine
 10
190.0770766554
 20
83.1394622601
 30
0.0
 11
190.1918221159
 21
83.1394622601
 31
0.0
  0
LWPOLYLINE
  5
15B
330
1F
100
AcDbEntity
  8
0
  6
Continuous
 62
     8
370
    25
100
AcDbPolyline
 90
        3
 70
   128
 43
0.0
 10
206.5770774973
 20
83.6394628077
 10
206.4903704343
 20
83.6490694001
 10
206.4724983541
 20
83.6535015642
  0
ARC
  5
15C
330
1F
100
AcDbEntity
  8
0
  6
Continuous
 62
     8
370
    25
100
AcDbCircle
 10
206.684247063
 20
84.1383494476
 30
0.0
 40
0.551615517180185
100
AcDbArc
 50
179.884347748
 51
200.8856234909
  0
ARC
  5
15D
330
1F
100
AcDbEntity
  8
0
  6
Continuous
 62
     8
370
    25
100
AcDbCircle
 10
190.4699071717
 20
84.1383494476
 30
0.0
 40
0.551615517180185
100
AcDbArc
 50
339.1143765091
 51
0.115652252
  0
LWPOLYLINE
  5
15E
330
1F
100
AcDbEntity
  8
0
  6
Continuous
 62
     8
370
    25
100
AcDbPolyline
 90
        3
 70
   128
 43
0.0
 10
190.6816558806
 20
83.6535015642
 10
190.6637838004
 20
83.6490694001
 10
190.5770767374
 20
83.6394628077
  0
LINE
  5
15F
330
1F
100
AcDbEntity
  8
0
  6
Continuous
 62
     8
370
    25
100
AcDbLine
 10
206.5770774973
 20
83.5491086855
 30
0.0
 11
206.5770774973
 21
83.6394628077
 31
0.0
  0
LINE
  5
160
330
1F
100
AcDbEntity
  8
0
  6
Continuous
 62
     8
370
    25
100
AcDbLine
 10
190.5770767374
 20
83.6394628077
 30
0.0
 11
190.5770767374
 21
83.5491086855
 31
0.0
  0
INSERT
  5
16C
330
1F
100
AcDbEntity
  8
0
  6
Continuous
 62
     7
370
    18
100
AcDbBlockReference
  2
SW_CENTERMARKSYMBOL_0
 10
198.5770771174
 20
75.6394624277
 30
0.0
  0
ARC
  5
16D
330
1F
100
AcDbEntity
  8
0
  6
Continuous
 62
     7
370
    18
100
AcDbCircle
 10
198.5770771174
 20
75.6394624277
 30
0.0
 40
6.562891499999999
100
AcDbArc
 50
75.0
 51
345.0
  0
ARC
  5
16E
330
1F
100
AcDbEntity
  8
0
  6
Continuous
 62
     7
370
    18
100
AcDbCircle
 10
198.5770771174
 20
75.6394624277
 30
0.0
 40
6.562891499999999
100
AcDbArc
 50
75.0
 51
345.0
  0
LINE
  5
16F
330
1F
100
AcDbEntity
  8
0
  6
Continuous
 62
     7
370
    25
100
AcDbLine
 10
95.9732138579
 20
139.7136148709
 30
0.0
 11
108.4732131129
 21
139.7136148709
 31
0.0
  0
LINE
  5
170
330
1F
100
AcDbEntity
  8
0
  6
Continuous
 62
     7
370
    25
100
AcDbLine
 10
108.4732131129
 20
162.213615765
 30
0.0
 11
95.9732138579
 21
162.213615765
 31
0.0
  0
LINE
  5
171
330
1F
100
AcDbEntity
  8
0
  6
Continuous
 62
     7
370
    25
100
AcDbLine
 10
152.9732138877
 20
139.7136148709
 30
0.0
 11
153.4732130384
 21
140.2136149528
 31
0.0
  0
LINE
  5
172
330
1F
100
AcDbEntity
  8
0
  6
Continuous
 62
     7
370
    25
100
AcDbLine
 10
153.4732130384
 20
161.713615683
 30
0.0
 11
152.9732138877
 21
162.213615765
 31
0.0
  0
LINE
  5
173
330
1F
100
AcDbEntity
  8
0
  6
Continuous
 62
     7
370
    25
100
AcDbLine
 10
95.9732138579
 20
162.213615765
 30
0.0
 11
95.4732147073
 21
161.713615683
 31
0.0
  0
LINE
  5
174
330
1F
100
AcDbEntity
  8
0
  6
Continuous
 62
     7
370
    25
100
AcDbLine
 10
95.4732147073
 20
140.2136149528
 30
0.0
 11
95.9732138579
 21
139.7136148709
 31
0.0
  0
ARC
  5
175
330
1F
100
AcDbEntity
  8
0
  6
Continuous
 62
     7
370
    25
100
AcDbCircle
 10
108.4732138728
 20
140.7136153179
 30
0.0
 40
1.000000000000028
100
AcDbArc
 50
270.0
 51
0.0
  0
ARC
  5
176
330
1F
100
AcDbEntity
  8
0
  6
Continuous
 62
     7
370
    25
100
AcDbCircle
 10
108.4732138728
 20
161.2136153179
 30
0.0
 40
1.0
100
AcDbArc
 50
0.0
 51
90.0
  0
LINE
  5
177
330
1F
100
AcDbEntity
  8
0
  6
Continuous
 62
     7
370
    25
100
AcDbLine
 10
152.9732138877
 20
162.213615765
 30
0.0
 11
140.4732146328
 21
162.213615765
 31
0.0
  0
LINE
  5
178
330
1F
100
AcDbEntity
  8
0
  6
Continuous
 62
     7
370
    25
100
AcDbLine
 10
140.4732146328
 20
139.7136148709
 30
0.0
 11
152.9732138877
 21
139.7136148709
 31
0.0
  0
ARC
  5
179
330
1F
100
AcDbEntity
  8
0
  6
Continuous
 62
     7
370
    25
100
AcDbCircle
 10
140.4732138728
 20
161.2136153179
 30
0.0
 40
1.0
100
AcDbArc
 50
90.0
 51
180.0
  0
ARC
  5
17A
330
1F
100
AcDbEntity
  8
0
  6
Continuous
 62
     7
370
    25
100
AcDbCircle
 10
140.4732138728
 20
140.7136153179
 30
0.0
 40
1.000000000000028
100
AcDbArc
 50
180.0
 51
270.0
  0
ARC
  5
17B
330
1F
100
AcDbEntity
  8
0
  6
Continuous
 62
     7
370
    25
100
AcDbCircle
 10
138.4732138728
 20
160.4636153179
 30
0.0
 40
1.000000000000028
100
AcDbArc
 50
270.0
 51
0.0
  0
ARC
  5
17C
330
1F
100
AcDbEntity
  8
0
  6
Continuous
 62
     7
370
    25
100
AcDbCircle
 10
138.4732138728
 20
141.4636153179
 30
0.0
 40
1.000000000000028
100
AcDbArc
 50
0.0
 51
90.0
  0
ARC
  5
17D
330
1F
100
AcDbEntity
  8
0
  6
Continuous
 62
     7
370
    25
100
AcDbCircle
 10
110.4732138728
 20
141.4636153179
 30
0.0
 40
1.0
100
AcDbArc
 50
90.0
 51
180.0
  0
ARC
  5
17E
330
1F
100
AcDbEntity
  8
0
  6
Continuous
 62
     7
370
    25
100
AcDbCircle
 10
110.4732138728
 20
160.4636153179
 30
0.0
 40
1.0
100
AcDbArc
 50
180.0
 51
270.0
  0
LINE
  5
17F
330
1F
100
AcDbEntity
  8
0
  6
Continuous
 62
     7
370
    25
100
AcDbLine
 10
115.9732134109
 20
159.4636157799
 30
0.0
 11
110.4732134407
 21
159.4636157799
 31
0.0
  0
LINE
  5
180
330
1F
100
AcDbEntity
  8
0
  6
Continuous
 62
     7
370
    25
100
AcDbLine
 10
138.473214305
 20
159.4636157799
 30
0.0
 11
134.723214156
 21
159.4636157799
 31
0.0
  0
LINE
  5
181
330
1F
100
AcDbEntity
  8
0
  6
Continuous
 62
     7
370
    25
100
AcDbLine
 10
133.2232139101
 20
159.4636157799
 30
0.0
 11
132.9732143348
 21
159.4636157799
 31
0.0
  0
LINE
  5
182
330
1F
100
AcDbEntity
  8
0
  6
Continuous
 62
     7
370
    25
100
AcDbLine
 10
132.9732143348
 20
142.463614856
 30
0.0
 11
138.473214305
 21
142.463614856
 31
0.0
  0
LINE
  5
183
330
1F
100
AcDbEntity
  8
0
  6
Continuous
 62
     7
370
    25
100
AcDbLine
 10
110.4732134407
 20
142.463614856
 30
0.0
 11
115.9732134109
 21
142.463614856
 31
0.0
  0
ARC
  5
184
330
1F
100
AcDbEntity
  8
0
  6
Continuous
 62
     7
370
    25
100
AcDbCircle
 10
134.2649563033
 20
159.2636153179
 30
0.0
 40
0.5000000000000107
100
AcDbArc
 50
23.5781784782
 51
90.0
  0
ARC
  5
185
330
1F
100
AcDbEntity
  8
0
  6
Continuous
 62
     7
370
    25
100
AcDbCircle
 10
133.6814714423
 20
159.2636153179
 30
0.0
 40
0.5000000000000107
100
AcDbArc
 50
90.0
 51
156.4218215218
  0
CIRCLE
  5
186
330
1F
100
AcDbEntity
  8
0
  6
Continuous
 62
     7
370
    25
100
AcDbCircle
 10
124.4732138728
 20
150.9636153179
 30
0.0
 40
8.499999999999986
  0
CIRCLE
  5
187
330
1F
100
AcDbEntity
  8
0
  6
Continuous
 62
     7
370
    25
100
AcDbCircle
 10
124.4732138728
 20
150.9636153179
 30
0.0
 40
10.75000000000003
  0
CIRCLE
  5
188
330
1F
100
AcDbEntity
  8
0
  6
Continuous
 62
     7
370
    25
100
AcDbCircle
 10
124.4732138728
 20
150.9636153179
 30
0.0
 40
11.25
  0
CIRCLE
  5
189
330
1F
100
AcDbEntity
  8
0
  6
Continuous
 62
     7
370
    25
100
AcDbCircle
 10
124.4732138728
 20
150.9636153179
 30
0.0
 40
7.872175816270385
  0
CIRCLE
  5
18A
330
1F
100
AcDbEntity
  8
0
  6
Continuous
 62
     7
370
    25
100
AcDbCircle
 10
124.4732138728
 20
150.9636153179
 30
0.0
 40
7.547130357748912
  0
CIRCLE
  5
18B
330
1F
100
AcDbEntity
  8
0
  6
Continuous
 62
     7
370
    25
100
AcDbCircle
 10
124.4732138728
 20
150.9636153179
 30
0.0
 40
7.475000000000009
  0
CIRCLE
  5
18C
330
1F
100
AcDbEntity
  8
0
  6
Continuous
 62
     7
370
    25
100
AcDbCircle
 10
124.4732138728
 20
150.9636153179
 30
0.0
 40
4.999999999999986
  0
LINE
  5
18D
330
1F
100
AcDbEntity
  8
0
  6
Continuous
 62
     7
370
    25
100
AcDbLine
 10
95.9732138579
 20
162.213615765
 30
0.0
 11
95.9732138579
 21
139.7136148709
 31
0.0
  0
LINE
  5
18E
330
1F
100
AcDbEntity
  8
0
  6
Continuous
 62
     7
370
    25
100
AcDbLine
 10
153.4732130384
 20
161.713615683
 30
0.0
 11
153.4732130384
 21
140.2136149528
 31
0.0
  0
LINE
  5
18F
330
1F
100
AcDbEntity
  8
0
  6
Continuous
 62
     7
370
    25
100
AcDbLine
 10
152.9732138877
 20
139.7136148709
 30
0.0
 11
152.9732138877
 21
162.213615765
 31
0.0
  0
LINE
  5
190
330
1F
100
AcDbEntity
  8
0
  6
Continuous
 62
     7
370
    25
100
AcDbLine
 10
95.4732147073
 20
140.2136149528
 30
0.0
 11
95.4732147073
 21
161.713615683
 31
0.0
  0
LINE
  5
191
330
1F
100
AcDbEntity
  8
0
  6
Continuous
 62
     7
370
    25
100
AcDbLine
 10
109.4732142081
 20
161.213615601
 30
0.0
 11
109.4732142081
 21
140.7136150348
 31
0.0
  0
LINE
  5
192
330
1F
100
AcDbEntity
  8
0
  6
Continuous
 62
     7
370
    25
100
AcDbLine
 10
139.4732135376
 20
140.7136150348
 30
0.0
 11
139.4732135376
 21
161.213615601
 31
0.0
  0
SPLINE
  5
193
330
1F
100
AcDbEntity
  8
0
  6
Continuous
 62
     7
370
    25
100
AcDbSpline
210
0.0
220
0.0
230
1.0
 70
     8
 71
     3
 72
    12
 73
     8
 74
     0
 42
0.000000001
 43
0.00000001
 40
0.0
 40
0.0
 40
0.0
 40
0.0
 40
0.2499999999999999
 40
0.2499999999999999
 40
0.5
 40
0.5
 40
1.0
 40
1.0
 40
1.0
 40
1.0
 10
133.3216105217271
 20
142.9081076552262
 30
0.0
 10
133.2736523660553
 20
142.8355161424672
 30
0.0
 10
133.237369950961
 20
142.7711298765771
 30
0.0
 10
133.1720480739249
 20
142.6600549824611
 30
0.0
 10
133.1436875579703
 20
142.6134295650226
 30
0.0
 10
133.0644311514082
 20
142.5014769268205
 30
0.0
 10
133.0189603742813
 20
142.4636153179191
 30
0.0
 10
132.9732138728323
 20
142.4636153179191
 30
0.0
  0
SPLINE
  5
194
330
1F
100
AcDbEntity
  8
0
  6
Continuous
 62
     7
370
    25
100
AcDbSpline
210
0.0
220
0.0
230
1.0
 70
     8
 71
     3
 72
     8
 73
     4
 74
     0
 42
0.000000001
 43
0.00000001
 40
0.0
 40
0.0
 40
0.0
 40
0.0
 40
1.0
 40
1.0
 40
1.0
 40
1.0
 10
133.4732138728323
 20
143.4080597623636
 30
0.0
 10
133.4732138728323
 20
143.2088668399099
 30
0.0
 10
133.4110508847817
 20
143.0434884088207
 30
0.0
 10
133.3216105217271
 20
142.9081076552262
 30
0.0
  0
SPLINE
  5
195
330
1F
100
AcDbEntity
  8
0
  6
Continuous
 62
     7
370
    25
100
AcDbSpline
210
0.0
220
0.0
230
1.0
 70
     8
 71
     3
 72
     8
 73
     4
 74
     0
 42
0.000000001
 43
0.00000001
 40
0.0
 40
0.0
 40
0.0
 40
0.0
 40
1.0
 40
1.0
 40
1.0
 40
1.0
 10
133.3216105217271
 20
159.019122980612
 30
0.0
 10
133.4110508847817
 20
158.8837422270176
 30
0.0
 10
133.4732138728323
 20
158.7183637959284
 30
0.0
 10
133.4732138728323
 20
158.5191708734747
 30
0.0
  0
SPLINE
  5
196
330
1F
100
AcDbEntity
  8
0
  6
Continuous
 62
     7
370
    25
100
AcDbSpline
210
0.0
220
0.0
230
1.0
 70
     8
 71
     3
 72
    12
 73
     8
 74
     0
 42
0.000000001
 43
0.00000001
 40
0.0
 40
0.0
 40
0.0
 40
0.0
 40
0.2499999999999999
 40
0.2499999999999999
 40
0.4999999999999998
 40
0.4999999999999998
 40
1.0
 40
1.0
 40
1.0
 40
1.0
 10
133.3216105217271
 20
159.019122980612
 30
0.0
 10
133.273502413099
 20
159.0919414685703
 30
0.0
 10
133.2372893556436
 20
159.1562371070098
 30
0.0
 10
133.1721851460066
 20
159.2669432705673
 30
0.0
 10
133.1439449657247
 20
159.3133967828022
 30
0.0
 10
133.0646801344706
 20
159.4254828054197
 30
0.0
 10
133.0188147511803
 20
159.4636153179191
 30
0.0
 10
132.9732138728323
 20
159.4636153179191
 30
0.0
  0
SPLINE
  5
197
330
1F
100
AcDbEntity
  8
0
  6
Continuous
 62
     7
370
    25
100
AcDbSpline
210
0.0
220
0.0
230
1.0
 70
     8
 71
     3
 72
    12
 73
     8
 74
     0
 42
0.000000001
 43
0.00000001
 40
0.0
 40
0.0
 40
0.0
 40
0.0
 40
0.25
 40
0.25
 40
0.4999999999999998
 40
0.4999999999999998
 40
1.0
 40
1.0
 40
1.0
 40
1.0
 10
115.6248172239376
 20
159.0191229806121
 30
0.0
 10
115.672925332582
 20
159.091941468595
 30
0.0
 10
115.7091383900462
 20
159.1562371070534
 30
0.0
 10
115.7742425996991
 20
159.2669432706363
 30
0.0
 10
115.8024827799874
 20
159.3133967828778
 30
0.0
 10
115.8817476112604
 20
159.4254828054963
 30
0.0
 10
115.9276129944561
 20
159.4636153179191
 30
0.0
 10
115.9732138728323
 20
159.4636153179191
 30
0.0
  0
SPLINE
  5
198
330
1F
100
AcDbEntity
  8
0
  6
Continuous
 62
     7
370
    25
100
AcDbSpline
210
0.0
220
0.0
230
1.0
 70
     8
 71
     3
 72
     8
 73
     4
 74
     0
 42
0.000000001
 43
0.00000001
 40
0.0
 40
0.0
 40
0.0
 40
0.0
 40
1.0
 40
1.0
 40
1.0
 40
1.0
 10
115.4732138728323
 20
158.5191708734747
 30
0.0
 10
115.4732138728323
 20
158.7183637959284
 30
0.0
 10
115.535376860883
 20
158.8837422270176
 30
0.0
 10
115.6248172239376
 20
159.0191229806121
 30
0.0
  0
SPLINE
  5
199
330
1F
100
AcDbEntity
  8
0
  6
Continuous
 62
     7
370
    25
100
AcDbSpline
210
0.0
220
0.0
230
1.0
 70
     8
 71
     3
 72
     8
 73
     4
 74
     0
 42
0.000000001
 43
0.00000001
 40
0.0
 40
0.0
 40
0.0
 40
0.0
 40
1.0
 40
1.0
 40
1.0
 40
1.0
 10
115.6248172239376
 20
142.9081076552262
 30
0.0
 10
115.535376860883
 20
143.0434884088207
 30
0.0
 10
115.4732138728323
 20
143.2088668399098
 30
0.0
 10
115.4732138728323
 20
143.4080597623636
 30
0.0
  0
SPLINE
  5
19A
330
1F
100
AcDbEntity
  8
0
  6
Continuous
 62
     7
370
    25
100
AcDbSpline
210
0.0
220
0.0
230
1.0
 70
     8
 71
     3
 72
    12
 73
     8
 74
     0
 42
0.000000001
 43
0.00000001
 40
0.0
 40
0.0
 40
0.0
 40
0.0
 40
0.2499999999999998
 40
0.2499999999999998
 40
0.4999999999999999
 40
0.4999999999999999
 40
1.0
 40
1.0
 40
1.0
 40
1.0
 10
115.6248172239376
 20
142.9081076552262
 30
0.0
 10
115.6728147957766
 20
142.8354564804731
 30
0.0
 10
115.7090533696757
 20
142.7711389578818
 30
0.0
 10
115.774258324902
 20
142.6602597696747
 30
0.0
 10
115.8026253821621
 20
142.6135994031264
 30
0.0
 10
115.8820821576515
 20
142.5013407441755
 30
0.0
 10
115.927528137502
 20
142.4636153179191
 30
0.0
 10
115.9732138728323
 20
142.4636153179191
 30
0.0
  0
LINE
  5
19B
330
1F
100
AcDbEntity
  8
0
  6
Continuous
 62
     7
370
    25
100
AcDbLine
 10
132.4732142528
 20
159.4636157799
 30
0.0
 11
132.4732142528
 21
158.9636156979
 31
0.0
  0
LINE
  5
19C
330
1F
100
AcDbEntity
  8
0
  6
Continuous
 62
     7
370
    25
100
AcDbLine
 10
131.8429151577
 20
159.4636157799
 30
0.0
 11
132.4732142528
 21
159.4636157799
 31
0.0
  0
LINE
  5
19D
330
1F
100
AcDbEntity
  8
0
  6
Continuous
 62
     7
370
    25
100
AcDbLine
 10
116.4732134929
 20
159.4636157799
 30
0.0
 11
116.4732134929
 21
158.9636156979
 31
0.0
  0
LINE
  5
19E
330
1F
100
AcDbEntity
  8
0
  6
Continuous
 62
     7
370
    25
100
AcDbLine
 10
116.4732134929
 20
159.4636157799
 30
0.0
 11
117.1035125879
 21
159.4636157799
 31
0.0
  0
LINE
  5
19F
330
1F
100
AcDbEntity
  8
0
  6
Continuous
 62
     7
370
    25
100
AcDbLine
 10
116.4732134929
 20
142.463614856
 30
0.0
 11
116.4732134929
 21
142.9636149379
 31
0.0
  0
LINE
  5
1A0
330
1F
100
AcDbEntity
  8
0
  6
Continuous
 62
     7
370
    25
100
AcDbLine
 10
117.1035125879
 20
142.463614856
 30
0.0
 11
116.4732134929
 21
142.463614856
 31
0.0
  0
LINE
  5
1A1
330
1F
100
AcDbEntity
  8
0
  6
Continuous
 62
     7
370
    25
100
AcDbLine
 10
132.4732142528
 20
142.463614856
 30
0.0
 11
132.4732142528
 21
142.9636149379
 31
0.0
  0
LINE
  5
1A2
330
1F
100
AcDbEntity
  8
0
  6
Continuous
 62
     7
370
    25
100
AcDbLine
 10
132.4732142528
 20
142.463614856
 30
0.0
 11
131.8429151577
 21
142.463614856
 31
0.0
  0
ARC
  5
1A3
330
1F
100
AcDbEntity
  8
0
  6
Continuous
 62
     7
370
    25
100
AcDbCircle
 10
133.4469782921
 20
158.9931275691
 30
0.0
 40
0.4746822493593837
100
AcDbArc
 50
183.5644831647
 51
273.1682924318
  0
ARC
  5
1A4
330
1F
100
AcDbEntity
  8
0
  6
Continuous
 62
     7
370
    25
100
AcDbCircle
 10
115.4994494535
 20
158.9931275691
 30
0.0
 40
0.4746822493593837
100
AcDbArc
 50
266.8317075682
 51
356.4355168353
  0
ARC
  5
1A5
330
1F
100
AcDbEntity
  8
0
  6
Continuous
 62
     7
370
    25
100
AcDbCircle
 10
133.4469782921
 20
142.9341030667
 30
0.0
 40
0.4746822493593837
100
AcDbArc
 50
86.8317075682
 51
176.4355168353
  0
ARC
  5
1A6
330
1F
100
AcDbEntity
  8
0
  6
Continuous
 62
     7
370
    25
100
AcDbCircle
 10
115.4994494535
 20
142.9341030667
 30
0.0
 40
0.4746822493593837
100
AcDbArc
 50
3.5644831647
 51
93.1682924318
  0
LINE
  5
1A7
330
1F
100
AcDbEntity
  8
0
  6
Continuous
 62
     7
370
    25
100
AcDbLine
 10
132.9732143348
 20
158.9636156979
 30
0.0
 11
132.4732142528
 21
158.9636156979
 31
0.0
  0
ARC
  5
1A8
330
1F
100
AcDbEntity
  8
0
  6
Continuous
 62
     7
370
    25
100
AcDbCircle
 10
132.4732138728
 20
158.9636153179
 30
0.0
 40
0.5
100
AcDbArc
 50
0.0
 51
90.0
  0
LINE
  5
1A9
330
1F
100
AcDbEntity
  8
0
  6
Continuous
 62
     7
370
    25
100
AcDbLine
 10
116.4732134929
 20
158.9636156979
 30
0.0
 11
115.9732134109
 21
158.9636156979
 31
0.0
  0
ARC
  5
1AA
330
1F
100
AcDbEntity
  8
0
  6
Continuous
 62
     7
370
    25
100
AcDbCircle
 10
116.4732138728
 20
158.9636153179
 30
0.0
 40
0.5
100
AcDbArc
 50
90.0
 51
180.0
  0
LINE
  5
1AB
330
1F
100
AcDbEntity
  8
0
  6
Continuous
 62
     7
370
    25
100
AcDbLine
 10
132.9732143348
 20
158.3333166028
 30
0.0
 11
132.9732143348
 21
158.9636156979
 31
0.0
  0
LINE
  5
1AC
330
1F
100
AcDbEntity
  8
0
  6
Continuous
 62
     7
370
    25
100
AcDbLine
 10
115.9732134109
 20
158.3333166028
 30
0.0
 11
115.9732134109
 21
158.9636156979
 31
0.0
  0
LINE
  5
1AD
330
1F
100
AcDbEntity
  8
0
  6
Continuous
 62
     7
370
    25
100
AcDbLine
 10
132.9732143348
 20
142.9636149379
 30
0.0
 11
132.9732143348
 21
143.593914033
 31
0.0
  0
LINE
  5
1AE
330
1F
100
AcDbEntity
  8
0
  6
Continuous
 62
     7
370
    25
100
AcDbLine
 10
132.4732142528
 20
142.9636149379
 30
0.0
 11
132.9732143348
 21
142.9636149379
 31
0.0
  0
LINE
  5
1AF
330
1F
100
AcDbEntity
  8
0
  6
Continuous
 62
     7
370
    25
100
AcDbLine
 10
115.9732134109
 20
142.9636149379
 30
0.0
 11
116.4732134929
 21
142.9636149379
 31
0.0
  0
LINE
  5
1B0
330
1F
100
AcDbEntity
  8
0
  6
Continuous
 62
     7
370
    25
100
AcDbLine
 10
115.9732134109
 20
142.9636149379
 30
0.0
 11
115.9732134109
 21
143.593914033
 31
0.0
  0
ARC
  5
1B1
330
1F
100
AcDbEntity
  8
0
  6
Continuous
 62
     7
370
    25
100
AcDbCircle
 10
132.4732138728
 20
142.9636153179
 30
0.0
 40
0.5
100
AcDbArc
 50
270.0
 51
0.0
  0
ARC
  5
1B2
330
1F
100
AcDbEntity
  8
0
  6
Continuous
 62
     7
370
    25
100
AcDbCircle
 10
116.4732138728
 20
142.9636153179
 30
0.0
 40
0.5
100
AcDbArc
 50
180.0
 51
270.0
  0
ARC
  5
1B3
330
1F
100
AcDbEntity
  8
0
  6
Continuous
 62
     7
370
    25
100
AcDbCircle
 10
115.6623948574
 20
159.4776347436
 30
0.0
 40
0.4600495252436697
100
AcDbArc
 50
265.3147112477
 51
327.1812658513
  0
ARC
  5
1B4
330
1F
100
AcDbEntity
  8
0
  6
Continuous
 62
     7
370
    25
100
AcDbCircle
 10
133.2840328883
 20
159.4776347436
 30
0.0
 40
0.4600495252436775
100
AcDbArc
 50
212.8187341487
 51
274.6852887523
  0
ARC
  5
1B5
330
1F
100
AcDbEntity
  8
0
  6
Continuous
 62
     7
370
    25
100
AcDbCircle
 10
133.2840328883
 20
142.4495958922
 30
0.0
 40
0.4600495252436425
100
AcDbArc
 50
85.3147112477
 51
147.1812658513
  0
ARC
  5
1B6
330
1F
100
AcDbEntity
  8
0
  6
Continuous
 62
     7
370
    25
100
AcDbCircle
 10
115.6623948574
 20
142.4495958922
 30
0.0
 40
0.4600495252436697
100
AcDbArc
 50
32.8187341487
 51
94.6852887523
  0
SPLINE
  5
1B7
330
1F
100
AcDbEntity
  8
0
  6
Continuous
 62
     7
370
    25
100
AcDbSpline
210
0.0
220
0.0
230
1.0
 70
     8
 71
     3
 72
    14
 73
    10
 74
     0
 42
0.000000001
 43
0.00000001
 40
0.0
 40
0.0
 40
0.0
 40
0.0
 40
0.25
 40
0.25
 40
0.5
 40
0.5
 40
0.75
 40
0.75
 40
1.0
 40
1.0
 40
1.0
 40
1.0
 10
127.6354915330007
 20
154.8365986641265
 30
0.0
 10
127.1289515081548
 20
154.7801083283163
 30
0.0
 10
126.6202929775575
 20
154.7050576570919
 30
0.0
 10
125.5704491229498
 20
154.5594412896619
 30
0.0
 10
125.033923156766
 20
154.492055946701
 30
0.0
 10
123.9131202142536
 20
154.4920097506221
 30
0.0
 10
123.3763461830134
 20
154.5593927793875
 30
0.0
 10
122.3262461781634
 20
154.705039733925
 30
0.0
 10
121.817523657216
 20
154.7801030399779
 30
0.0
 10
121.310936212663
 20
154.8365986641266
 30
0.0
  0
SPLINE
  5
1B8
330
1F
100
AcDbEntity
  8
0
  6
Continuous
 62
     7
370
    25
100
AcDbSpline
210
0.0
220
0.0
230
1.0
 70
     8
 71
     3
 72
    14
 73
    10
 74
     0
 42
0.000000001
 43
0.00000001
 40
0.0
 40
0.0
 40
0.0
 40
0.0
 40
0.2500000000000001
 40
0.2500000000000001
 40
0.5000000000000001
 40
0.5000000000000001
 40
0.75
 40
0.75
 40
1.0
 40
1.0
 40
1.0
 40
1.0
 10
121.3109362126639
 20
147.0906319717117
 30
0.0
 10
121.8174762375098
 20
147.1471223075219
 30
0.0
 10
122.326134768107
 20
147.2221729787464
 30
0.0
 10
123.3759786227145
 20
147.3677893461763
 30
0.0
 10
123.9125045888982
 20
147.4351746891373
 30
0.0
 10
125.0333075314104
 20
147.4352208852162
 30
0.0
 10
125.5700815626506
 20
147.3678378564509
 30
0.0
 10
126.6201815675005
 20
147.2221909019134
 30
0.0
 10
127.1289040884478
 20
147.1471275958606
 30
0.0
 10
127.6354915330007
 20
147.0906319717117
 30
0.0
  0
SPLINE
  5
1B9
330
1F
100
AcDbEntity
  8
0
  6
Continuous
 62
     7
370
    25
100
AcDbSpline
210
0.0
220
0.0
230
1.0
 70
    11
 71
     3
 72
    62
 73
    58
 74
     0
 42
0.000000001
 43
0.00000001
 40
0.0
 40
0.0
 40
0.0
 40
0.0
 40
0.0000024013148983
 40
0.0000024013148983
 40
0.0000024013148983
 40
0.0000048026691802
 40
0.0000048026691802
 40
0.0000048026691802
 40
0.0000072061707815
 40
0.0000072061707815
 40
0.0000072061707815
 40
0.0000096131245952
 40
0.0000096131245952
 40
0.0000096131245952
 40
0.0000120233242906
 40
0.0000120233242906
 40
0.0000120233242906
 40
0.0000144351488899
 40
0.0000144351488899
 40
0.0000144351488899
 40
0.0000168462670259
 40
0.0000168462670259
 40
0.0000168462670259
 40
0.0000192546496967
 40
0.0000192546496967
 40
0.0000192546496967
 40
0.0000216594617889
 40
0.0000216594617889
 40
0.0000216594617889
 40
0.0000240614381533
 40
0.0000240614381533
 40
0.0000240614381533
 40
0.0000264625635142
 40
0.0000264625635142
 40
0.0000264625635142
 40
0.0000288651934902
 40
0.0000288651934902
 40
0.0000288651934902
 40
0.0000312710163515
 40
0.0000312710163515
 40
0.0000312710163515
 40
0.000033680319539
 40
0.000033680319539
 40
0.000033680319539
 40
0.0000360918724095
 40
0.0000360918724095
 40
0.0000360918724095
 40
0.0000385034631189
 40
0.0000385034631189
 40
0.0000385034631189
 40
0.0000409128580409
 40
0.0000409128580409
 40
0.0000409128580409
 40
0.0000433187787571
 40
0.0000433187787571
 40
0.0000433187787571
 40
0.0000448099173733
 40
0.0000448099173733
 40
0.0000448099173733
 40
0.0000448099173733
 10
124.4732220857479
 20
150.9707875677339
 30
0.0
 10
124.4740225235194
 20
150.9707866484122
 30
0.0
 10
124.4748338341694
 20
150.970647494884
 30
0.0
 10
124.4755888511472
 20
150.9703816930173
 30
0.0
 10
124.4763438933618
 20
150.9701158822661
 30
0.0
 10
124.4770634400165
 20
150.969716107371
 30
0.0
 10
124.4776880943563
 20
150.9692155569059
 30
0.0
 10
124.4783133085123
 20
150.9687145578467
 30
0.0
 10
124.4788606803213
 20
150.9680988250486
 30
0.0
 10
124.479285154762
 20
150.9674193294108
 30
0.0
 10
124.4797102323179
 20
150.9667388683104
 30
0.0
 10
124.4800237751015
 20
150.9659757346871
 30
0.0
 10
124.4802000125091
 20
150.9651930093602
 30
0.0
 10
124.4803764829838
 20
150.9644092489097
 30
0.0
 10
124.4804201480781
 20
150.9635842456991
 30
0.0
 10
124.4803274168329
 20
150.9627862336336
 30
0.0
 10
124.4802346254227
 20
150.9619877038086
 30
0.0
 10
124.4800026895465
 20
150.9611941655045
 30
0.0
 10
124.4796507282161
 20
150.9604714047877
 30
0.0
 10
124.4792988747861
 20
150.9597488656471
 30
0.0
 10
124.4788173339528
 20
150.9590771067487
 30
0.0
 10
124.4782459242041
 20
150.9585119922933
 30
0.0
 10
124.477675160387
 20
150.9579475166533
 30
0.0
 10
124.476998945061
 20
150.957473854764
 30
0.0
 10
124.4762733354722
 20
150.9571304963264
 30
0.0
 10
124.475548786979
 20
150.9567876399992
 30
0.0
 10
124.474754970318
 20
150.9565652421144
 30
0.0
 10
124.4739577447828
 20
150.9564818591842
 30
0.0
 10
124.4731614374262
 20
150.9563985722876
 30
0.0
 10
124.4723397581081
 20
150.9564516785078
 30
0.0
 10
124.4715607910408
 20
150.9566367523828
 30
0.0
 10
124.4707820823915
 20
150.9568217648606
 30
0.0
 10
124.4700245975549
 20
150.9571437422255
 30
0.0
 10
124.4693509270622
 20
150.9575759279761
 30
0.0
 10
124.4686768292555
 20
150.958008387865
 30
0.0
 10
124.468068085326
 20
150.9585630869423
 30
0.0
 10
124.4675748416537
 20
150.9591940703241
 30
0.0
 10
124.4670809476543
 20
150.9598258856388
 30
0.0
 10
124.4666892527669
 20
150.9605515703962
 30
0.0
 10
124.4664319590938
 20
150.9613111243026
 30
0.0
 10
124.4661742993533
 20
150.9620717588726
 30
0.0
 10
124.4660443219735
 20
150.9628873120053
 30
0.0
 10
124.4660527118572
 20
150.9636903582633
 30
0.0
 10
124.4660611093494
 20
150.9644941327735
 30
0.0
 10
124.4662083642894
 20
150.9653075488405
 30
0.0
 10
124.4664823487361
 20
150.9660632315056
 30
0.0
 10
124.4667563324769
 20
150.9668189122237
 30
0.0
 10
124.4671646266438
 20
150.9675377253217
 30
0.0
 10
124.4676735023539
 20
150.9681599516983
 30
0.0
 10
124.4681819138886
 20
150.9687816105056
 30
0.0
 10
124.4688047875127
 20
150.9693240288126
 30
0.0
 10
124.4694905211708
 20
150.969742013741
 30
0.0
 10
124.4701752769079
 20
150.9701594025835
 30
0.0
 10
124.4709416395125
 20
150.9704642363643
 30
0.0
 10
124.471726029132
 20
150.9706310809419
 30
0.0
 10
124.4722164634351
 20
150.9707353993853
 30
0.0
 10
124.4727206798792
 20
150.9707881436103
 30
0.0
 10
124.4732220857479
 20
150.9707875677339
 30
0.0
  0
SPLINE
  5
1BA
330
1F
100
AcDbEntity
  8
0
  6
Continuous
 62
     7
370
    25
100
AcDbSpline
210
0.0
220
0.0
230
1.0
 70
     8
 71
     3
 72
    12
 73
     8
 74
     0
 42
0.000000001
 43
0.00000001
 40
0.0
 40
0.0
 40
0.0
 40
0.0
 40
0.2499999999999998
 40
0.2499999999999998
 40
0.4999999999999998
 40
0.4999999999999998
 40
1.0
 40
1.0
 40
1.0
 40
1.0
 10
116.049015548385
 20
159.2282958452272
 30
0.0
 10
116.0712823905389
 20
159.2639824793309
 30
0.0
 10
116.0783204231933
 20
159.2975413556303
 30
0.0
 10
116.0791955446778
 20
159.3561851006855
 30
0.0
 10
116.0725315507287
 20
159.3814120166473
 30
0.0
 10
116.0418792013104
 20
159.4424458301478
 30
0.0
 10
116.0072705181861
 20
159.4636153179191
 30
0.0
 10
115.9732138728323
 20
159.4636153179191
 30
0.0
  0
SPLINE
  5
1BB
330
1F
100
AcDbEntity
  8
0
  6
Continuous
 62
     7
370
    25
100
AcDbSpline
210
0.0
220
0.0
230
1.0
 70
    24
 71
     3
 72
    16
 73
    12
 74
     0
 42
0.000000001
 43
0.00000001
 40
0.0
 40
0.0
 40
0.0
 40
0.0
 40
0.2500000000000002
 40
0.2500000000000002
 40
0.5000000000000004
 40
0.5000000000000004
 40
0.7500000000000004
 40
0.7500000000000004
 40
0.8750000000000002
 40
0.8750000000000002
 40
1.0
 40
1.0
 40
1.0
 40
1.0
 10
116.4732138728323
 20
159.4636153179191
 30
0.0
 10
116.4732138728323
 20
159.4636153179191
 30
0.0
 10
116.4532820871452
 20
159.4636153179191
 30
0.0
 10
116.3926755405416
 20
159.4636153179191
 30
0.0
 10
116.3515650330964
 20
159.4636153179191
 30
0.0
 10
116.2571885766972
 20
159.4636153179191
 30
0.0
 10
116.2038232148409
 20
159.4636153179191
 30
0.0
 10
116.1195160549064
 20
159.4636153179191
 30
0.0
 10
116.0906911780645
 20
159.4636153179191
 30
0.0
 10
116.032332099499
 20
159.4636153179191
 30
0.0
 10
116.0030809782809
 20
159.4636153179191
 30
0.0
 10
115.9732138728323
 20
159.4636153179191
 30
0.0
  0
SPLINE
  5
1BC
330
1F
100
AcDbEntity
  8
0
  6
Continuous
 62
     7
370
    25
100
AcDbSpline
210
0.0
220
0.0
230
1.0
 70
     8
 71
     3
 72
    12
 73
     8
 74
     0
 42
0.000000001
 43
0.00000001
 40
0.0
 40
0.0
 40
0.0
 40
0.0
 40
0.2500000000000001
 40
0.2500000000000001
 40
0.5
 40
0.5
 40
1.0
 40
1.0
 40
1.0
 40
1.0
 10
132.8974121972797
 20
159.2282958452272
 30
0.0
 10
132.8751453551274
 20
159.2639824793282
 30
0.0
 10
132.8681073224725
 20
159.2975413556253
 30
0.0
 10
132.8672322009859
 20
159.3561851006773
 30
0.0
 10
132.8738961949333
 20
159.3814120166382
 30
0.0
 10
132.9045485443459
 20
159.4424458301384
 30
0.0
 10
132.9391572271961
 20
159.4636153179191
 30
0.0
 10
132.9732138728323
 20
159.4636153179191
 30
0.0
  0
SPLINE
  5
1BD
330
1F
100
AcDbEntity
  8
0
  6
Continuous
 62
     7
370
    25
100
AcDbSpline
210
0.0
220
0.0
230
1.0
 70
    24
 71
     3
 72
    16
 73
    12
 74
     0
 42
0.000000001
 43
0.00000001
 40
0.0
 40
0.0
 40
0.0
 40
0.0
 40
0.2500000000000002
 40
0.2500000000000002
 40
0.5000000000000004
 40
0.5000000000000004
 40
0.7500000000000004
 40
0.7500000000000004
 40
0.8750000000000002
 40
0.8750000000000002
 40
1.0
 40
1.0
 40
1.0
 40
1.0
 10
132.4732138728323
 20
159.4636153179191
 30
0.0
 10
132.4732138728323
 20
159.4636153179191
 30
0.0
 10
132.4931456585195
 20
159.4636153179191
 30
0.0
 10
132.5537522051231
 20
159.4636153179191
 30
0.0
 10
132.5948627125682
 20
159.4636153179191
 30
0.0
 10
132.6892391689674
 20
159.4636153179191
 30
0.0
 10
132.7426045308237
 20
159.4636153179191
 30
0.0
 10
132.8269116907583
 20
159.4636153179191
 30
0.0
 10
132.8557365676002
 20
159.4636153179191
 30
0.0
 10
132.9140956461657
 20
159.4636153179191
 30
0.0
 10
132.9433467673838
 20
159.4636153179191
 30
0.0
 10
132.9732138728323
 20
159.4636153179191
 30
0.0
  0
SPLINE
  5
1BE
330
1F
100
AcDbEntity
  8
0
  6
Continuous
 62
     7
370
    25
100
AcDbSpline
210
0.0
220
0.0
230
1.0
 70
     8
 71
     3
 72
    12
 73
     8
 74
     0
 42
0.000000001
 43
0.00000001
 40
0.0
 40
0.0
 40
0.0
 40
0.0
 40
0.25
 40
0.25
 40
0.5
 40
0.5
 40
1.0
 40
1.0
 40
1.0
 40
1.0
 10
132.8974121972797
 20
142.6989347906111
 30
0.0
 10
132.8751453551274
 20
142.6632481565101
 30
0.0
 10
132.8681073224725
 20
142.629689280213
 30
0.0
 10
132.8672322009859
 20
142.571045535161
 30
0.0
 10
132.8738961949333
 20
142.5458186192001
 30
0.0
 10
132.9045485443458
 20
142.4847848056999
 30
0.0
 10
132.939157227196
 20
142.4636153179191
 30
0.0
 10
132.9732138728323
 20
142.4636153179191
 30
0.0
  0
SPLINE
  5
1BF
330
1F
100
AcDbEntity
  8
0
  6
Continuous
 62
     7
370
    25
100
AcDbSpline
210
0.0
220
0.0
230
1.0
 70
    24
 71
     3
 72
    16
 73
    12
 74
     0
 42
0.000000001
 43
0.00000001
 40
0.0
 40
0.0
 40
0.0
 40
0.0
 40
0.2500000000000002
 40
0.2500000000000002
 40
0.5000000000000002
 40
0.5000000000000002
 40
0.7500000000000002
 40
0.7500000000000002
 40
0.8750000000000001
 40
0.8750000000000001
 40
1.0
 40
1.0
 40
1.0
 40
1.0
 10
132.4732138728323
 20
142.4636153179191
 30
0.0
 10
132.4732138728323
 20
142.4636153179191
 30
0.0
 10
132.4931456585195
 20
142.4636153179191
 30
0.0
 10
132.5537522051231
 20
142.4636153179191
 30
0.0
 10
132.5948627125682
 20
142.4636153179191
 30
0.0
 10
132.6892391689674
 20
142.4636153179191
 30
0.0
 10
132.7426045308237
 20
142.4636153179191
 30
0.0
 10
132.8269116907583
 20
142.4636153179191
 30
0.0
 10
132.8557365676002
 20
142.4636153179191
 30
0.0
 10
132.9140956461657
 20
142.4636153179191
 30
0.0
 10
132.9433467673838
 20
142.4636153179191
 30
0.0
 10
132.9732138728323
 20
142.4636153179191
 30
0.0
  0
SPLINE
  5
1C0
330
1F
100
AcDbEntity
  8
0
  6
Continuous
 62
     7
370
    25
100
AcDbSpline
210
0.0
220
0.0
230
1.0
 70
     8
 71
     3
 72
    12
 73
     8
 74
     0
 42
0.000000001
 43
0.00000001
 40
0.0
 40
0.0
 40
0.0
 40
0.0
 40
0.2500000000000002
 40
0.2500000000000002
 40
0.5000000000000001
 40
0.5000000000000001
 40
1.0
 40
1.0
 40
1.0
 40
1.0
 10
116.049015548385
 20
142.6989347906111
 30
0.0
 10
116.0712823905389
 20
142.6632481565074
 30
0.0
 10
116.0783204231933
 20
142.629689280208
 30
0.0
 10
116.0791955446778
 20
142.5710455351528
 30
0.0
 10
116.0725315507287
 20
142.545818619191
 30
0.0
 10
116.0418792013104
 20
142.4847848056905
 30
0.0
 10
116.0072705181859
 20
142.4636153179191
 30
0.0
 10
115.9732138728323
 20
142.4636153179191
 30
0.0
  0
SPLINE
  5
1C1
330
1F
100
AcDbEntity
  8
0
  6
Continuous
 62
     7
370
    25
100
AcDbSpline
210
0.0
220
0.0
230
1.0
 70
    24
 71
     3
 72
    16
 73
    12
 74
     0
 42
0.000000001
 43
0.00000001
 40
0.0
 40
0.0
 40
0.0
 40
0.0
 40
0.2499999999999999
 40
0.2499999999999999
 40
0.5
 40
0.5
 40
0.7500000000000001
 40
0.7500000000000001
 40
0.875
 40
0.875
 40
1.0
 40
1.0
 40
1.0
 40
1.0
 10
116.4732138728323
 20
142.4636153179191
 30
0.0
 10
116.4732138728323
 20
142.4636153179191
 30
0.0
 10
116.4532820871452
 20
142.4636153179191
 30
0.0
 10
116.3926755405416
 20
142.4636153179191
 30
0.0
 10
116.3515650330964
 20
142.4636153179191
 30
0.0
 10
116.2571885766972
 20
142.4636153179191
 30
0.0
 10
116.2038232148409
 20
142.4636153179191
 30
0.0
 10
116.1195160549064
 20
142.4636153179191
 30
0.0
 10
116.0906911780645
 20
142.4636153179191
 30
0.0
 10
116.032332099499
 20
142.4636153179191
 30
0.0
 10
116.0030809782809
 20
142.4636153179191
 30
0.0
 10
115.9732138728323
 20
142.4636153179191
 30
0.0
  0
LINE
  5
1C2
330
1F
100
AcDbEntity
  8
0
  6
Continuous
 62
     7
370
    25
100
AcDbLine
 10
133.6814711829
 20
159.7636152702
 30
0.0
 11
134.2649559518
 21
159.7636152702
 31
0.0
  0
LINE
  5
1C3
330
1F
100
AcDbEntity
  8
0
  6
Continuous
 62
     7
370
    25
100
AcDbLine
 10
133.2232139101
 20
159.4636157799
 30
0.0
 11
134.723214156
 21
159.4636157799
 31
0.0
  0
LINE
  5
1C4
330
1F
100
AcDbEntity
  8
0
  6
Continuous
 62
     8
370
    25
100
AcDbLine
 10
108.4732131129
 20
139.7136148709
 30
0.0
 11
108.4732131129
 21
162.213615765
 31
0.0
  0
LINE
  5
1C5
330
1F
100
AcDbEntity
  8
0
  6
Continuous
 62
     8
370
    25
100
AcDbLine
 10
140.4732146328
 20
162.213615765
 30
0.0
 11
140.4732146328
 21
139.7136148709
 31
0.0
  0
LINE
  5
1C6
330
1F
100
AcDbEntity
  8
0
  6
Continuous
 62
     8
370
    25
100
AcDbLine
 10
138.473214305
 20
142.463614856
 30
0.0
 11
138.473214305
 21
159.4636157799
 31
0.0
  0
LINE
  5
1C7
330
1F
100
AcDbEntity
  8
0
  6
Continuous
 62
     8
370
    25
100
AcDbLine
 10
110.4732134407
 20
159.4636157799
 30
0.0
 11
110.4732134407
 21
142.463614856
 31
0.0
  0
LINE
  5
1C8
330
1F
100
AcDbEntity
  8
0
  6
Continuous
 62
     8
370
    25
100
AcDbLine
 10
133.4732134854
 20
144.2136151428
 30
0.0
 11
133.4732134854
 21
143.4080597657
 31
0.0
  0
LINE
  5
1C9
330
1F
100
AcDbEntity
  8
0
  6
Continuous
 62
     8
370
    25
100
AcDbLine
 10
133.4732134854
 20
158.5191708702
 30
0.0
 11
133.4732134854
 21
157.713615493
 31
0.0
  0
LINE
  5
1CA
330
1F
100
AcDbEntity
  8
0
  6
Continuous
 62
     8
370
    25
100
AcDbLine
 10
115.4732142603
 20
157.713615493
 30
0.0
 11
115.4732142603
 21
158.5191708702
 31
0.0
  0
LINE
  5
1CB
330
1F
100
AcDbEntity
  8
0
  6
Continuous
 62
     8
370
    25
100
AcDbLine
 10
115.4732142603
 20
143.4080597657
 30
0.0
 11
115.4732142603
 21
144.2136151428
 31
0.0
  0
LINE
  5
1CC
330
1F
100
AcDbEntity
  8
0
  6
Continuous
 62
     8
370
    25
100
AcDbLine
 10
132.4732142528
 20
158.9636156979
 30
0.0
 11
132.3828601306
 21
158.9636156979
 31
0.0
  0
LINE
  5
1CD
330
1F
100
AcDbEntity
  8
0
  6
Continuous
 62
     8
370
    25
100
AcDbLine
 10
132.4732142528
 20
158.8732615757
 30
0.0
 11
132.4732142528
 21
158.9636156979
 31
0.0
  0
LINE
  5
1CE
330
1F
100
AcDbEntity
  8
0
  6
Continuous
 62
     8
370
    25
100
AcDbLine
 10
116.4732134929
 20
142.9636149379
 30
0.0
 11
116.5635676151
 21
142.9636149379
 31
0.0
  0
LINE
  5
1CF
330
1F
100
AcDbEntity
  8
0
  6
Continuous
 62
     8
370
    25
100
AcDbLine
 10
116.4732134929
 20
142.9636149379
 30
0.0
 11
116.4732134929
 21
143.0539690602
 31
0.0
  0
LINE
  5
1D0
330
1F
100
AcDbEntity
  8
0
  6
Continuous
 62
     8
370
    25
100
AcDbLine
 10
116.5635676151
 20
158.9636156979
 30
0.0
 11
116.4732134929
 21
158.9636156979
 31
0.0
  0
LINE
  5
1D1
330
1F
100
AcDbEntity
  8
0
  6
Continuous
 62
     8
370
    25
100
AcDbLine
 10
116.4732134929
 20
158.8732615757
 30
0.0
 11
116.4732134929
 21
158.9636156979
 31
0.0
  0
LINE
  5
1D2
330
1F
100
AcDbEntity
  8
0
  6
Continuous
 62
     8
370
    25
100
AcDbLine
 10
132.3828601306
 20
142.9636149379
 30
0.0
 11
132.4732142528
 21
142.9636149379
 31
0.0
  0
LINE
  5
1D3
330
1F
100
AcDbEntity
  8
0
  6
Continuous
 62
     8
370
    25
100
AcDbLine
 10
132.4732142528
 20
142.9636149379
 30
0.0
 11
132.4732142528
 21
143.0539690602
 31
0.0
  0
INSERT
  5
1DF
330
1F
100
AcDbEntity
  8
0
  6
Continuous
 62
     7
370
    18
100
AcDbBlockReference
  2
SW_CENTERMARKSYMBOL_1
 10
124.4732138728
 20
150.9636153179
 30
0.0
  0
ARC
  5
1E0
330
1F
100
AcDbEntity
  8
0
  6
Continuous
 62
     7
370
    18
100
AcDbCircle
 10
124.4732138728
 20
150.9636153179
 30
0.0
 40
8.334121500000009
100
AcDbArc
 50
75.0
 51
345.0
  0
ENDSEC
  0
SECTION
  2
OBJECTS
  0
DICTIONARY
  5
C
330
0
100
AcDbDictionary
281
     1
  3
ACAD_GROUP
350
D
  3
ACAD_LAYOUT
350
1A
  3
ACAD_MLINESTYLE
350
17
  3
ACAD_PLOTSETTINGS
350
19
  3
ACAD_PLOTSTYLENAME
350
E
  3
ACAD_SCALELIST
350
47
  0
DICTIONARY
  5
D
102
{ACAD_REACTORS
330
C
102
}
330
C
100
AcDbDictionary
281
     1
  0
DICTIONARY
  5
1A
102
{ACAD_REACTORS
330
C
102
}
330
C
100
AcDbDictionary
281
     1
  3
Layout1
350
1E
  3
Layout2
350
26
  3
Model
350
22
  0
DICTIONARY
  5
17
102
{ACAD_REACTORS
330
C
102
}
330
C
100
AcDbDictionary
281
     1
  3
Standard
350
18
  0
DICTIONARY
  5
19
102
{ACAD_REACTORS
330
C
102
}
330
C
100
AcDbDictionary
281
     1
  0
ACDBDICTIONARYWDFLT
  5
E
102
{ACAD_REACTORS
330
C
102
}
330
C
100
AcDbDictionary
281
     1
  3
Normal
350
F
100
AcDbDictionaryWithDefault
340
F
  0
DICTIONARY
  5
47
102
{ACAD_REACTORS
330
C
102
}
330
C
100
AcDbDictionary
281
     1
  3
A0
350
48
  3
A1
350
49
  3
A2
350
4A
  3
A3
350
4B
  3
A4
350
4C
  3
A5
350
4D
  3
A6
350
4E
  3
A7
350
4F
  3
A8
350
50
  3
A9
350
51
  3
B0
350
52
  3
B1
350
53
  3
B2
350
54
  3
B3
350
55
  3
B4
350
56
  3
B5
350
57
  3
B6
350
58
  3
B7
350
59
  3
B8
350
5A
  3
B9
350
5B
  3
C0
350
5C
  3
C1
350
5D
  3
C2
350
5E
  3
C3
350
5F
  3
C4
350
60
  3
C5
350
61
  3
C6
350
62
  3
C7
350
63
  3
C8
350
64
  3
C9
350
65
  3
D0
350
66
  3
D1
350
67
  3
D2
350
68
  0
LAYOUT
  5
1E
102
{ACAD_REACTORS
330
1A
102
}
330
1A
100
AcDbPlotSettings
  1

  2
none_device
  4

  6

 40
0.0
 41
0.0
 42
0.0
 43
0.0
 44
0.0
 45
0.0
 46
0.0
 47
0.0
 48
0.0
 49
0.0
140
0.0
141
0.0
142
1.0
143
1.0
 70
   688
 72
     1
 73
     0
 74
     5
  7

 75
    16
147
1.0
148
0.0
149
0.0
100
AcDbLayout
  1
Layout1
 70
     1
 71
     1
 10
0.0
 20
0.0
 11
420.0
 21
297.0
 12
0.0
 22
0.0
 32
0.0
 14
1.0000000000E+20
 24
1.0000000000E+20
 34
1.0000000000E+20
 15
-1.0000000000E+20
 25
-1.0000000000E+20
 35
-1.0000000000E+20
146
0.0
 13
0.0
 23
0.0
 33
0.0
 16
1.0
 26
0.0
 36
0.0
 17
0.0
 27
1.0
 37
0.0
 76
     0
330
1B
  0
LAYOUT
  5
26
102
{ACAD_REACTORS
330
1A
102
}
330
1A
100
AcDbPlotSettings
  1

  2
none_device
  4

  6

 40
0.0
 41
0.0
 42
0.0
 43
0.0
 44
0.0
 45
0.0
 46
0.0
 47
0.0
 48
0.0
 49
0.0
140
0.0
141
0.0
142
1.0
143
1.0
 70
   688
 72
     1
 73
     0
 74
     5
  7

 75
    16
147
1.0
148
0.0
149
0.0
100
AcDbLayout
  1
Layout2
 70
     1
 71
     2
 10
0.0
 20
0.0
 11
0.0
 21
0.0
 12
0.0
 22
0.0
 32
0.0
 14
0.0
 24
0.0
 34
0.0
 15
0.0
 25
0.0
 35
0.0
146
0.0
 13
0.0
 23
0.0
 33
0.0
 16
1.0
 26
0.0
 36
0.0
 17
0.0
 27
1.0
 37
0.0
 76
     0
330
23
  0
LAYOUT
  5
22
102
{ACAD_REACTORS
330
1A
102
}
330
1A
100
AcDbPlotSettings
  1

  2
none_device
  4
Letter_(8.50_x_11.00_Inches)
  6

 40
6.35
 41
6.35
 42
6.35000508
 43
6.35000508
 44
215.9
 45
279.4
 46
0.0
 47
0.0
 48
0.0
 49
0.0
140
0.0
141
0.0
142
1.0
143
1.0
 70
  1712
 72
     1
 73
     0
 74
     0
  7

 75
     0
147
1.0
148
0.0
149
0.0
100
AcDbLayout
  1
Model
 70
     1
 71
     0
 10
0.0
 20
0.0
 11
431.8
 21
279.4
 12
0.0
 22
0.0
 32
0.0
 14
0.0
 24
0.0
 34
0.0
 15
431.8
 25
279.4
 35
0.0
146
0.0
 13
0.0
 23
0.0
 33
0.0
 16
1.0
 26
0.0
 36
0.0
 17
0.0
 27
1.0
 37
0.0
 76
     0
330
1F
331
29
  0
MLINESTYLE
  5
18
102
{ACAD_REACTORS
330
17
102
}
330
17
100
AcDbMlineStyle
  2
Standard
 70
     0
  3

 62
   256
 51
90.0
 52
90.0
 71
     2
 49
0.5
 62
   256
  6
BYLAYER
 49
-0.5
 62
   256
  6
BYLAYER
  0
ACDBPLACEHOLDER
  5
F
102
{ACAD_REACTORS
330
E
102
}
330
E
  0
SCALE
  5
48
102
{ACAD_REACTORS
330
47
102
}
330
47
100
AcDbScale
 70
     0
300
1:1
140
1.0
141
1.0
290
     1
  0
SCALE
  5
49
102
{ACAD_REACTORS
330
47
102
}
330
47
100
AcDbScale
 70
     0
300
1:2
140
1.0
141
2.0
290
     0
  0
SCALE
  5
4A
102
{ACAD_REACTORS
330
47
102
}
330
47
100
AcDbScale
 70
     0
300
1:4
140
1.0
141
4.0
290
     0
  0
SCALE
  5
4B
102
{ACAD_REACTORS
330
47
102
}
330
47
100
AcDbScale
 70
     0
300
1:5
140
1.0
141
5.0
290
     0
  0
SCALE
  5
4C
102
{ACAD_REACTORS
330
47
102
}
330
47
100
AcDbScale
 70
     0
300
1:8
140
1.0
141
8.0
290
     0
  0
SCALE
  5
4D
102
{ACAD_REACTORS
330
47
102
}
330
47
100
AcDbScale
 70
     0
300
1:10
140
1.0
141
10.0
290
     0
  0
SCALE
  5
4E
102
{ACAD_REACTORS
330
47
102
}
330
47
100
AcDbScale
 70
     0
300
1:16
140
1.0
141
16.0
290
     0
  0
SCALE
  5
4F
102
{ACAD_REACTORS
330
47
102
}
330
47
100
AcDbScale
 70
     0
300
1:20
140
1.0
141
20.0
290
     0
  0
SCALE
  5
50
102
{ACAD_REACTORS
330
47
102
}
330
47
100
AcDbScale
 70
     0
300
1:30
140
1.0
141
30.0
290
     0
  0
SCALE
  5
51
102
{ACAD_REACTORS
330
47
102
}
330
47
100
AcDbScale
 70
     0
300
1:40
140
1.0
141
40.0
290
     0
  0
SCALE
  5
52
102
{ACAD_REACTORS
330
47
102
}
330
47
100
AcDbScale
 70
     0
300
1:50
140
1.0
141
50.0
290
     0
  0
SCALE
  5
53
102
{ACAD_REACTORS
330
47
102
}
330
47
100
AcDbScale
 70
     0
300
1:100
140
1.0
141
100.0
290
     0
  0
SCALE
  5
54
102
{ACAD_REACTORS
330
47
102
}
330
47
100
AcDbScale
 70
     0
300
2:1
140
2.0
141
1.0
290
     0
  0
SCALE
  5
55
102
{ACAD_REACTORS
330
47
102
}
330
47
100
AcDbScale
 70
     0
300
4:1
140
4.0
141
1.0
290
     0
  0
SCALE
  5
56
102
{ACAD_REACTORS
330
47
102
}
330
47
100
AcDbScale
 70
     0
300
8:1
140
8.0
141
1.0
290
     0
  0
SCALE
  5
57
102
{ACAD_REACTORS
330
47
102
}
330
47
100
AcDbScale
 70
     0
300
10:1
140
10.0
141
1.0
290
     0
  0
SCALE
  5
58
102
{ACAD_REACTORS
330
47
102
}
330
47
100
AcDbScale
 70
     0
300
100:1
140
100.0
141
1.0
290
     0
  0
SCALE
  5
59
102
{ACAD_REACTORS
330
47
102
}
330
47
100
AcDbScale
 70
     0
300
1/128" = 1'-0"
140
0.0078125
141
12.0
290
     0
  0
SCALE
  5
5A
102
{ACAD_REACTORS
330
47
102
}
330
47
100
AcDbScale
 70
     0
300
1/64" = 1'-0"
140
0.015625
141
12.0
290
     0
  0
SCALE
  5
5B
102
{ACAD_REACTORS
330
47
102
}
330
47
100
AcDbScale
 70
     0
300
1/32" = 1'-0"
140
0.03125
141
12.0
290
     0
  0
SCALE
  5
5C
102
{ACAD_REACTORS
330
47
102
}
330
47
100
AcDbScale
 70
     0
300
1/16" = 1'-0"
140
0.0625
141
12.0
290
     0
  0
SCALE
  5
5D
102
{ACAD_REACTORS
330
47
102
}
330
47
100
AcDbScale
 70
     0
300
3/32" = 1'-0"
140
0.09375
141
12.0
290
     0
  0
SCALE
  5
5E
102
{ACAD_REACTORS
330
47
102
}
330
47
100
AcDbScale
 70
     0
300
1/8" = 1'-0"
140
0.125
141
12.0
290
     0
  0
SCALE
  5
5F
102
{ACAD_REACTORS
330
47
102
}
330
47
100
AcDbScale
 70
     0
300
3/16" = 1'-0"
140
0.1875
141
12.0
290
     0
  0
SCALE
  5
60
102
{ACAD_REACTORS
330
47
102
}
330
47
100
AcDbScale
 70
     0
300
1/4" = 1'-0"
140
0.25
141
12.0
290
     0
  0
SCALE
  5
61
102
{ACAD_REACTORS
330
47
102
}
330
47
100
AcDbScale
 70
     0
300
3/8" = 1'-0"
140
0.375
141
12.0
290
     0
  0
SCALE
  5
62
102
{ACAD_REACTORS
330
47
102
}
330
47
100
AcDbScale
 70
     0
300
1/2" = 1'-0"
140
0.5
141
12.0
290
     0
  0
SCALE
  5
63
102
{ACAD_REACTORS
330
47
102
}
330
47
100
AcDbScale
 70
     0
300
3/4" = 1'-0"
140
0.75
141
12.0
290
     0
  0
SCALE
  5
64
102
{ACAD_REACTORS
330
47
102
}
330
47
100
AcDbScale
 70
     0
300
1" = 1'-0"
140
1.0
141
12.0
290
     0
  0
SCALE
  5
65
102
{ACAD_REACTORS
330
47
102
}
330
47
100
AcDbScale
 70
     0
300
1-1/2" = 1'-0"
140
1.5
141
12.0
290
     0
  0
SCALE
  5
66
102
{ACAD_REACTORS
330
47
102
}
330
47
100
AcDbScale
 70
     0
300
3" = 1'-0"
140
3.0
141
12.0
290
     0
  0
SCALE
  5
67
102
{ACAD_REACTORS
330
47
102
}
330
47
100
AcDbScale
 70
     0
300
6" = 1'-0"
140
6.0
141
12.0
290
     0
  0
SCALE
  5
68
102
{ACAD_REACTORS
330
47
102
}
330
47
100
AcDbScale
 70
     0
300
1'-0" = 1'-0"
140
12.0
141
12.0
290
     0
  0
ENDSEC
  0
EOF
