  0
SECTION
  2
HEADER
  9
$ACADVER
  1
AC1015
  9
$ACADMAINTVER
 70
     6
  9
$DWGCODEPAGE
  3
DOS932
  9
$INSBASE
 10
0.0
 20
0.0
 30
0.0
  9
$EXTMIN
 10
0.0
 20
0.0
 30
0.0
  9
$EXTMAX
 10
431.8
 20
279.4
 30
0.0
  9
$LIMMIN
 10
0.0
 20
0.0
  9
$LIMMAX
 10
431.8
 20
279.4
  9
$ORTHOMODE
 70
     0
  9
$REGENMODE
 70
     1
  9
$FILLMODE
 70
     1
  9
$QTEXTMODE
 70
     0
  9
$MIRRTEXT
 70
     1
  9
$LTSCALE
 40
1.0
  9
$ATTMODE
 70
     1
  9
$TEXTSIZE
 40
3.5
  9
$TRACEWID
 40
1.0
  9
$TEXTSTYLE
  7
Standard
  9
$CLAYER
  8
0
  9
$CELTYPE
  6
ByLayer
  9
$CECOLOR
 62
   256
  9
$CELTSCALE
 40
1.0
  9
$DISPSILH
 70
     0
  9
$DIMSCALE
 40
1.0
  9
$DIMASZ
 40
3.302
  9
$DIMEXO
 40
1.0
  9
$DIMDLI
 40
3.75
  9
$DIMRND
 40
0.0
  9
$DIMDLE
 40
0.0
  9
$DIMEXE
 40
1.0
  9
$DIMTP
 40
0.0
  9
$DIMTM
 40
0.0
  9
$DIMTXT
 40
3.5
  9
$DIMCEN
 40
2.5
  9
$DIMTSZ
 40
0.0
  9
$DIMTOL
 70
     0
  9
$DIMLIM
 70
     0
  9
$DIMTIH
 70
     1
  9
$DIMTOH
 70
     1
  9
$DIMSE1
 70
     0
  9
$DIMSE2
 70
     0
  9
$DIMTAD
 70
     1
  9
$DIMZIN
 70
     1
  9
$DIMBLK
  1

  9
$DIMASO
 70
     1
  9
$DIMSHO
 70
     1
  9
$DIMPOST
  1

  9
$DIMAPOST
  1

  9
$DIMALT
 70
     0
  9
$DIMALTD
 70
     3
  9
$DIMALTF
 40
0.0393700787
  9
$DIMLFAC
 40
1.0
  9
$DIMTOFL
 70
     1
  9
$DIMTVP
 40
0.0
  9
$DIMTIX
 70
     0
  9
$DIMSOXD
 70
     0
  9
$DIMSAH
 70
     0
  9
$DIMBLK1
  1

  9
$DIMBLK2
  1

  9
$DIMSTYLE
  2
ISO-25
  9
$DIMCLRD
 70
     0
  9
$DIMCLRE
 70
     0
  9
$DIMCLRT
 70
     0
  9
$DIMTFAC
 40
1.0
  9
$DIMGAP
 40
1.524
  9
$DIMJUST
 70
     0
  9
$DIMSD1
 70
     0
  9
$DIMSD2
 70
     0
  9
$DIMTOLJ
 70
     0
  9
$DIMTZIN
 70
     1
  9
$DIMALTZ
 70
     0
  9
$DIMALTTZ
 70
     0
  9
$DIMUPT
 70
     0
  9
$DIMDEC
 70
     2
  9
$DIMTDEC
 70
     2
  9
$DIMALTU
 70
     2
  9
$DIMALTTD
 70
     3
  9
$DIMTXSTY
  7
Standard
  9
$DIMAUNIT
 70
     0
  9
$DIMADEC
 70
     2
  9
$DIMALTRND
 40
0.0
  9
$DIMAZIN
 70
     0
  9
$DIMDSEP
 70
    44
  9
$DIMATFIT
 70
     3
  9
$DIMFRAC
 70
     0
  9
$DIMLDRBLK
  1

  9
$DIMLUNIT
 70
     2
  9
$DIMLWD
 70
    -2
  9
$DIMLWE
 70
    -2
  9
$DIMTMOVE
 70
     0
  9
$LUNITS
 70
     2
  9
$LUPREC
 70
     2
  9
$SKETCHINC
 40
1.0
  9
$FILLETRAD
 40
10.0
  9
$AUNITS
 70
     0
  9
$AUPREC
 70
     2
  9
$MENU
  1
.
  9
$ELEVATION
 40
0.0
  9
$PELEVATION
 40
0.0
  9
$THICKNESS
 40
0.0
  9
$LIMCHECK
 70
     0
  9
$CHAMFERA
 40
0.0
  9
$CHAMFERB
 40
0.0
  9
$CHAMFERC
 40
0.0
  9
$CHAMFERD
 40
0.0
  9
$SKPOLY
 70
     0
  9
$TDCREATE
 40
2459229.38262103
  9
$TDUCREATE
 40
2459229.00762103
  9
$TDUPDATE
 40
2459229.382621933
  9
$TDUUPDATE
 40
2459229.007621933
  9
$TDINDWG
 40
0.0000000116
  9
$TDUSRTIMER
 40
0.0000000116
  9
$USRTIMER
 70
     1
  9
$ANGBASE
 50
0.0
  9
$ANGDIR
 70
     0
  9
$PDMODE
 70
     0
  9
$PDSIZE
 40
-1.0
  9
$PLINEWID
 40
0.0
  9
$SPLFRAME
 70
     0
  9
$SPLINETYPE
 70
     6
  9
$SPLINESEGS
 70
     8
  9
$HANDSEED
  5
221
  9
$SURFTAB1
 70
     6
  9
$SURFTAB2
 70
     6
  9
$SURFTYPE
 70
     6
  9
$SURFU
 70
     6
  9
$SURFV
 70
     6
  9
$UCSBASE
  2

  9
$UCSNAME
  2

  9
$UCSORG
 10
0.0
 20
0.0
 30
0.0
  9
$UCSXDIR
 10
1.0
 20
0.0
 30
0.0
  9
$UCSYDIR
 10
0.0
 20
1.0
 30
0.0
  9
$UCSORTHOREF
  2

  9
$UCSORTHOVIEW
 70
     0
  9
$UCSORGTOP
 10
0.0
 20
0.0
 30
0.0
  9
$UCSORGBOTTOM
 10
0.0
 20
0.0
 30
0.0
  9
$UCSORGLEFT
 10
0.0
 20
0.0
 30
0.0
  9
$UCSORGRIGHT
 10
0.0
 20
0.0
 30
0.0
  9
$UCSORGFRONT
 10
0.0
 20
0.0
 30
0.0
  9
$UCSORGBACK
 10
0.0
 20
0.0
 30
0.0
  9
$PUCSBASE
  2

  9
$PUCSNAME
  2

  9
$PUCSORG
 10
0.0
 20
0.0
 30
0.0
  9
$PUCSXDIR
 10
1.0
 20
0.0
 30
0.0
  9
$PUCSYDIR
 10
0.0
 20
1.0
 30
0.0
  9
$PUCSORTHOREF
  2

  9
$PUCSORTHOVIEW
 70
     0
  9
$PUCSORGTOP
 10
0.0
 20
0.0
 30
0.0
  9
$PUCSORGBOTTOM
 10
0.0
 20
0.0
 30
0.0
  9
$PUCSORGLEFT
 10
0.0
 20
0.0
 30
0.0
  9
$PUCSORGRIGHT
 10
0.0
 20
0.0
 30
0.0
  9
$PUCSORGFRONT
 10
0.0
 20
0.0
 30
0.0
  9
$PUCSORGBACK
 10
0.0
 20
0.0
 30
0.0
  9
$USERI1
 70
     0
  9
$USERI2
 70
     0
  9
$USERI3
 70
     0
  9
$USERI4
 70
     0
  9
$USERI5
 70
     0
  9
$USERR1
 40
0.0
  9
$USERR2
 40
0.0
  9
$USERR3
 40
0.0
  9
$USERR4
 40
0.0
  9
$USERR5
 40
0.0
  9
$WORLDVIEW
 70
     1
  9
$SHADEDGE
 70
     3
  9
$SHADEDIF
 70
    70
  9
$TILEMODE
 70
     1
  9
$MAXACTVP
 70
    64
  9
$PINSBASE
 10
0.0
 20
0.0
 30
0.0
  9
$PLIMCHECK
 70
     0
  9
$PEXTMIN
 10
1.0000000000E+20
 20
1.0000000000E+20
 30
1.0000000000E+20
  9
$PEXTMAX
 10
-1.0000000000E+20
 20
-1.0000000000E+20
 30
-1.0000000000E+20
  9
$PLIMMIN
 10
0.0
 20
0.0
  9
$PLIMMAX
 10
420.0
 20
297.0
  9
$UNITMODE
 70
     0
  9
$VISRETAIN
 70
     1
  9
$PLINEGEN
 70
     0
  9
$PSLTSCALE
 70
     1
  9
$TREEDEPTH
 70
  3020
  9
$CMLSTYLE
  2
Standard
  9
$CMLJUST
 70
     0
  9
$CMLSCALE
 40
20.0
  9
$PROXYGRAPHICS
 70
     1
  9
$MEASUREMENT
 70
     1
  9
$CELWEIGHT
370
    -1
  9
$ENDCAPS
280
     0
  9
$JOINSTYLE
280
     0
  9
$LWDISPLAY
290
     1
  9
$INSUNITS
 70
     4
  9
$HYPERLINKBASE
  1

  9
$STYLESHEET
  1

  9
$XEDIT
290
     1
  9
$CEPSNTYPE
380
     0
  9
$PSTYLEMODE
290
     1
  9
$FINGERPRINTGUID
  2
{E864507F-6492-4996-8F6A-31448B60CDA9}
  9
$VERSIONGUID
  2
{FAEB1C32-E019-11D5-929B-00C0DF256EC4}
  9
$EXTNAMES
290
     1
  9
$PSVPSCALE
 40
0.0
  9
$OLESTARTUP
290
     0
  0
ENDSEC
  0
SECTION
  2
CLASSES
  0
CLASS
  1
ACDBDICTIONARYWDFLT
  2
AcDbDictionaryWithDefault
  3
ObjectDBX Classes
 90
        0
280
     0
281
     0
  0
CLASS
  1
VISUALSTYLE
  2
AcDbVisualStyle
  3
ObjectDBX Classes
 90
     4095
280
     0
281
     0
  0
CLASS
  1
MATERIAL
  2
AcDbMaterial
  3
ObjectDBX Classes
 90
     1153
280
     0
281
     0
  0
CLASS
  1
SCALE
  2
AcDbScale
  3
ObjectDBX Classes
 90
     1153
280
     0
281
     0
  0
CLASS
  1
TABLESTYLE
  2
AcDbTableStyle
  3
ObjectDBX Classes
 90
     4095
280
     0
281
     0
  0
CLASS
  1
MLEADERSTYLE
  2
AcDbMLeaderStyle
  3
ACDB_MLEADERSTYLE_CLASS
 90
     4095
280
     0
281
     0
  0
CLASS
  1
SUN
  2
AcDbSun
  3
SCENEOE
 90
     1153
280
     0
281
     0
  0
CLASS
  1
ACDBPLACEHOLDER
  2
AcDbPlaceHolder
  3
ObjectDBX Classes
 90
        0
280
     0
281
     0
  0
CLASS
  1
LAYOUT
  2
AcDbLayout
  3
ObjectDBX Classes
 90
        0
280
     0
281
     0
  0
ENDSEC
  0
SECTION
  2
TABLES
  0
TABLE
  2
VPORT
  5
8
330
0
100
AcDbSymbolTable
 70
     1
  0
VPORT
  5
29
330
8
100
AcDbSymbolTableRecord
100
AcDbViewportTableRecord
  2
*Active
 70
     0
 10
0.0
 20
0.0
 11
1.0
 21
1.0
 12
215.9
 22
139.7
 13
0.0
 23
0.0
 14
10.0
 24
10.0
 15
10.0
 25
10.0
 16
0.0
 26
0.0
 36
1.0
 17
0.0
 27
0.0
 37
0.0
 40
279.4
 41
1.5454545455
 42
50.0
 43
0.0
 44
0.0
 50
0.0
 51
0.0
 71
     0
 72
  2000
 73
     1
 74
     3
 75
     0
 76
     0
 77
     0
 78
     0
281
     0
 65
     1
110
0.0
120
0.0
130
0.0
111
1.0
121
0.0
131
0.0
112
0.0
122
1.0
132
0.0
 79
     0
146
0.0
  0
ENDTAB
  0
TABLE
  2
LTYPE
  5
5
330
0
100
AcDbSymbolTable
 70
     6
  0
LTYPE
  5
14
330
5
100
AcDbSymbolTableRecord
100
AcDbLinetypeTableRecord
  2
ByBlock
 70
     0
  3

 72
    65
 73
     0
 40
0.0
  0
LTYPE
  5
15
330
5
100
AcDbSymbolTableRecord
100
AcDbLinetypeTableRecord
  2
ByLayer
 70
     0
  3

 72
    65
 73
     0
 40
0.0
  0
LTYPE
  5
16
330
5
100
AcDbSymbolTableRecord
100
AcDbLinetypeTableRecord
  2
Continuous
 70
     0
  3
Solid line
 72
    65
 73
     0
 40
0.0
  0
LTYPE
  5
6E
330
5
100
AcDbSymbolTableRecord
100
AcDbLinetypeTableRecord
  2
HIDDEN
 70
     0
  3
Hidden __ __ __ __ __ __ __ __ __ __ __ __ __ __
 72
    65
 73
     2
 40
1.905
 49
1.27
 74
     0
 49
-0.635
 74
     0
  0
LTYPE
  5
6F
330
5
100
AcDbSymbolTableRecord
100
AcDbLinetypeTableRecord
  2
PHANTOM
 70
     0
  3
Phantom ______  __  __  ______  __  __  ______
 72
    65
 73
     6
 40
12.7
 49
6.35
 74
     0
 49
-1.27
 74
     0
 49
1.27
 74
     0
 49
-1.27
 74
     0
 49
1.27
 74
     0
 49
-1.27
 74
     0
  0
LTYPE
  5
70
330
5
100
AcDbSymbolTableRecord
100
AcDbLinetypeTableRecord
  2
CENTER
 70
     0
  3
Center ____ _ ____ _ ____ _ ____ _ ____ _ ____
 72
    65
 73
     4
 40
10.16
 49
6.35
 74
     0
 49
-1.27
 74
     0
 49
1.27
 74
     0
 49
-1.27
 74
     0
  0
LTYPE
  5
71
330
5
100
AcDbSymbolTableRecord
100
AcDbLinetypeTableRecord
  2
CENTERX2
 70
     0
  3
Center (2x) ________  __  ________  __  _____
 72
    65
 73
     4
 40
20.32
 49
12.7
 74
     0
 49
-2.54
 74
     0
 49
2.54
 74
     0
 49
-2.54
 74
     0
  0
LTYPE
  5
72
330
5
100
AcDbSymbolTableRecord
100
AcDbLinetypeTableRecord
  2
DOT2
 70
     0
  3
Dot (.5x) ........................................
 72
    65
 73
     2
 40
0.635
 49
0.0
 74
     0
 49
-0.635
 74
     0
  0
ENDTAB
  0
TABLE
  2
LAYER
  5
2
330
0
100
AcDbSymbolTable
 70
     1
  0
LAYER
  5
10
330
2
100
AcDbSymbolTableRecord
100
AcDbLayerTableRecord
  2
0
 70
     0
 62
     7
  6
Continuous
370
    -3
390
F
  0
ENDTAB
  0
TABLE
  2
STYLE
  5
3
330
0
100
AcDbSymbolTable
 70
     2
  0
STYLE
  5
11
330
3
100
AcDbSymbolTableRecord
100
AcDbTextStyleTableRecord
  2
Standard
 70
     0
 40
0.0
 41
1.0
 50
0.0
 71
     0
 42
3.5
  3
txt
  4
bigfont
  0
STYLE
  5
73
330
3
100
AcDbSymbolTableRecord
100
AcDbTextStyleTableRecord
  2
SLDTEXTSTYLE0
 70
     0
 40
0.0
 41
0.7
 50
0.0
 71
     0
 42
3.5
  3
TXT
  4
bigfont
  0
ENDTAB
  0
TABLE
  2
VIEW
  5
6
330
0
100
AcDbSymbolTable
 70
     0
  0
ENDTAB
  0
TABLE
  2
UCS
  5
7
330
0
100
AcDbSymbolTable
 70
     0
  0
ENDTAB
  0
TABLE
  2
APPID
  5
9
330
0
100
AcDbSymbolTable
 70
     1
  0
APPID
  5
12
330
9
100
AcDbSymbolTableRecord
100
AcDbRegAppTableRecord
  2
ACAD
 70
     0
  0
ENDTAB
  0
TABLE
  2
DIMSTYLE
  5
A
330
0
100
AcDbSymbolTable
 70
     1
100
AcDbDimStyleTable
  0
DIMSTYLE
105
27
330
A
100
AcDbSymbolTableRecord
100
AcDbDimStyleTableRecord
  2
ISO-25
 70
     0
 41
2.5
 42
0.625
 43
3.75
 44
1.25
 73
     0
 74
     0
 77
     1
 78
     8
140
2.5
141
2.5
143
0.0393700787
147
0.625
171
     3
172
     1
178
     0
271
     2
272
     2
274
     3
278
    44
283
     0
284
     8
340
11
  0
ENDTAB
  0
TABLE
  2
BLOCK_RECORD
  5
1
330
0
100
AcDbSymbolTable
 70
     3
  0
BLOCK_RECORD
  5
1F
330
1
100
AcDbSymbolTableRecord
100
AcDbBlockTableRecord
  2
*Model_Space
340
22
  0
BLOCK_RECORD
  5
1B
330
1
100
AcDbSymbolTableRecord
100
AcDbBlockTableRecord
  2
*Paper_Space
340
1E
  0
BLOCK_RECORD
  5
23
330
1
100
AcDbSymbolTableRecord
100
AcDbBlockTableRecord
  2
*Paper_Space0
340
26
  0
BLOCK_RECORD
  5
18A
330
1
100
AcDbSymbolTableRecord
100
AcDbBlockTableRecord
  2
SW_CENTERMARKSYMBOL_0
340
0
102
{BLKREFS
331
195
102
}
  0
BLOCK_RECORD
  5
214
330
1
100
AcDbSymbolTableRecord
100
AcDbBlockTableRecord
  2
SW_CENTERMARKSYMBOL_1
340
0
102
{BLKREFS
331
21F
102
}
  0
ENDTAB
  0
ENDSEC
  0
SECTION
  2
BLOCKS
  0
BLOCK
  5
20
330
1F
100
AcDbEntity
  8
0
100
AcDbBlockBegin
  2
*Model_Space
 70
     0
 10
0.0
 20
0.0
 30
0.0
  3
*Model_Space
  1

  0
ENDBLK
  5
21
330
1F
100
AcDbEntity
  8
0
100
AcDbBlockEnd
  0
BLOCK
  5
1C
330
1B
100
AcDbEntity
 67
     1
  8
0
100
AcDbBlockBegin
  2
*Paper_Space
 70
     0
 10
0.0
 20
0.0
 30
0.0
  3
*Paper_Space
  1

  0
ENDBLK
  5
1D
330
1B
100
AcDbEntity
 67
     1
  8
0
100
AcDbBlockEnd
  0
BLOCK
  5
24
330
23
100
AcDbEntity
  8
0
100
AcDbBlockBegin
  2
*Paper_Space0
 70
     0
 10
0.0
 20
0.0
 30
0.0
  3
*Paper_Space0
  1

  0
ENDBLK
  5
25
330
23
100
AcDbEntity
  8
0
100
AcDbBlockEnd
  0
BLOCK
  5
18B
330
18A
100
AcDbEntity
  8
0
100
AcDbBlockBegin
  2
SW_CENTERMARKSYMBOL_0
 70
     0
 10
0.0
 20
0.0
 30
0.0
  3
SW_CENTERMARKSYMBOL_0
  1

  0
LINE
  5
18D
330
18A
100
AcDbEntity
  8
0
  6
Continuous
 62
     0
370
    18
100
AcDbLine
 10
0.0
 20
0.0
 30
0.0
 11
0.0
 21
2.5
 31
0.0
  0
LINE
  5
18E
330
18A
100
AcDbEntity
  8
0
  6
Continuous
 62
     0
370
    18
100
AcDbLine
 10
0.0
 20
0.0
 30
0.0
 11
-2.5
 21
0.0
 31
0.0
  0
LINE
  5
18F
330
18A
100
AcDbEntity
  8
0
  6
Continuous
 62
     0
370
    18
100
AcDbLine
 10
0.0
 20
0.0
 30
0.0
 11
0.0
 21
-2.5
 31
0.0
  0
LINE
  5
190
330
18A
100
AcDbEntity
  8
0
  6
Continuous
 62
     0
370
    18
100
AcDbLine
 10
0.0
 20
0.0
 30
0.0
 11
2.5
 21
0.0
 31
0.0
  0
LINE
  5
191
330
18A
100
AcDbEntity
  8
0
  6
Continuous
 62
     0
370
    18
100
AcDbLine
 10
0.0
 20
5.0
 30
0.0
 11
0.0
 21
26.7248119551
 31
0.0
  0
LINE
  5
192
330
18A
100
AcDbEntity
  8
0
  6
Continuous
 62
     0
370
    18
100
AcDbLine
 10
-5.0
 20
0.0
 30
0.0
 11
-11.5
 21
0.0
 31
0.0
  0
LINE
  5
193
330
18A
100
AcDbEntity
  8
0
  6
Continuous
 62
     0
370
    18
100
AcDbLine
 10
0.0
 20
-5.0
 30
0.0
 11
0.0
 21
-11.5
 31
0.0
  0
LINE
  5
194
330
18A
100
AcDbEntity
  8
0
  6
Continuous
 62
     0
370
    18
100
AcDbLine
 10
5.0
 20
0.0
 30
0.0
 11
11.5
 21
0.0
 31
0.0
  0
ENDBLK
  5
18C
330
18A
100
AcDbEntity
  8
0
100
AcDbBlockEnd
  0
BLOCK
  5
215
330
214
100
AcDbEntity
  8
0
100
AcDbBlockBegin
  2
SW_CENTERMARKSYMBOL_1
 70
     0
 10
0.0
 20
0.0
 30
0.0
  3
SW_CENTERMARKSYMBOL_1
  1

  0
LINE
  5
217
330
214
100
AcDbEntity
  8
0
  6
Continuous
 62
     0
370
    18
100
AcDbLine
 10
0.0
 20
0.0
 30
0.0
 11
0.0
 21
2.5
 31
0.0
  0
LINE
  5
218
330
214
100
AcDbEntity
  8
0
  6
Continuous
 62
     0
370
    18
100
AcDbLine
 10
0.0
 20
0.0
 30
0.0
 11
-2.5
 21
0.0
 31
0.0
  0
LINE
  5
219
330
214
100
AcDbEntity
  8
0
  6
Continuous
 62
     0
370
    18
100
AcDbLine
 10
0.0
 20
0.0
 30
0.0
 11
0.0
 21
-2.5
 31
0.0
  0
LINE
  5
21A
330
214
100
AcDbEntity
  8
0
  6
Continuous
 62
     0
370
    18
100
AcDbLine
 10
0.0
 20
0.0
 30
0.0
 11
2.5
 21
0.0
 31
0.0
  0
LINE
  5
21B
330
214
100
AcDbEntity
  8
0
  6
Continuous
 62
     0
370
    18
100
AcDbLine
 10
0.0
 20
5.0
 30
0.0
 11
0.0
 21
11.5
 31
0.0
  0
LINE
  5
21C
330
214
100
AcDbEntity
  8
0
  6
Continuous
 62
     0
370
    18
100
AcDbLine
 10
-5.0
 20
0.0
 30
0.0
 11
-26.206491932
 21
0.0
 31
0.0
  0
LINE
  5
21D
330
214
100
AcDbEntity
  8
0
  6
Continuous
 62
     0
370
    18
100
AcDbLine
 10
0.0
 20
-5.0
 30
0.0
 11
0.0
 21
-11.5
 31
0.0
  0
LINE
  5
21E
330
214
100
AcDbEntity
  8
0
  6
Continuous
 62
     0
370
    18
100
AcDbLine
 10
5.0
 20
0.0
 30
0.0
 11
26.5390542189
 21
0.0
 31
0.0
  0
ENDBLK
  5
216
330
214
100
AcDbEntity
  8
0
100
AcDbBlockEnd
  0
ENDSEC
  0
SECTION
  2
ENTITIES
  0
MTEXT
  5
74
330
1F
100
AcDbEntity
  8
0
  6
Continuous
 62
     7
370
     0
100
AcDbMText
 10
157.4510607108
 20
124.5826017488
 30
0.0
 40
5.2916666667
 41
0.0
 71
     1
 72
     1
  1
5R-TF1222
  7
SLDTEXTSTYLE0
 73
     1
 44
1.0
  0
LINE
  5
75
330
1F
100
AcDbEntity
  8
0
  6
Continuous
 62
     7
370
    25
100
AcDbLine
 10
140.0625314045
 20
107.1893988014
 30
0.0
 11
139.5625322538
 21
107.6893998147
 31
0.0
  0
LINE
  5
76
330
1F
100
AcDbEntity
  8
0
  6
Continuous
 62
     7
370
    25
100
AcDbLine
 10
122.56253133
 20
107.6893998147
 30
0.0
 11
122.0625321793
 21
107.1893988014
 31
0.0
  0
LINE
  5
77
330
1F
100
AcDbEntity
  8
0
  6
Continuous
 62
     7
370
    25
100
AcDbLine
 10
117.5625314417
 20
91.6893990547
 30
0.0
 11
106.5625324327
 21
91.6893990547
 31
0.0
  0
LINE
  5
78
330
1F
100
AcDbEntity
  8
0
  6
Continuous
 62
     7
370
    25
100
AcDbLine
 10
106.5625324327
 20
73.6893998296
 30
0.0
 11
117.5625314417
 21
73.6893998296
 31
0.0
  0
LINE
  5
79
330
1F
100
AcDbEntity
  8
0
  6
Continuous
 62
     7
370
    25
100
AcDbLine
 10
140.0625314045
 20
96.1893997923
 30
0.0
 11
140.0625314045
 21
107.1893988014
 31
0.0
  0
LINE
  5
7A
330
1F
100
AcDbEntity
  8
0
  6
Continuous
 62
     7
370
    25
100
AcDbLine
 10
122.0625321793
 20
107.1893988014
 30
0.0
 11
122.0625321793
 21
96.1893997923
 31
0.0
  0
LINE
  5
7B
330
1F
100
AcDbEntity
  8
0
  6
Continuous
 62
     7
370
    25
100
AcDbLine
 10
144.5625321421
 20
73.6893998296
 30
0.0
 11
155.5625311512
 21
73.6893998296
 31
0.0
  0
LINE
  5
7C
330
1F
100
AcDbEntity
  8
0
  6
Continuous
 62
     7
370
    25
100
AcDbLine
 10
155.5625311512
 20
91.6893990547
 30
0.0
 11
144.5625321421
 21
91.6893990547
 31
0.0
  0
LINE
  5
7D
330
1F
100
AcDbEntity
  8
0
  6
Continuous
 62
     7
370
    25
100
AcDbLine
 10
155.5625311512
 20
73.6893998296
 30
0.0
 11
156.0625321644
 21
74.1893989802
 31
0.0
  0
LINE
  5
7E
330
1F
100
AcDbEntity
  8
0
  6
Continuous
 62
     7
370
    25
100
AcDbLine
 10
156.0625321644
 20
91.1893999041
 30
0.0
 11
155.5625311512
 21
91.6893990547
 31
0.0
  0
LINE
  5
7F
330
1F
100
AcDbEntity
  8
0
  6
Continuous
 62
     7
370
    25
100
AcDbLine
 10
106.5625324327
 20
91.6893990547
 30
0.0
 11
106.0625314194
 21
91.1893999041
 31
0.0
  0
LINE
  5
80
330
1F
100
AcDbEntity
  8
0
  6
Continuous
 62
     7
370
    25
100
AcDbLine
 10
106.0625314194
 20
74.1893989802
 30
0.0
 11
106.5625324327
 21
73.6893998296
 31
0.0
  0
ARC
  5
81
330
1F
100
AcDbEntity
  8
0
  6
Continuous
 62
     7
370
    25
100
AcDbCircle
 10
123.5625317919
 20
96.1893994421
 30
0.0
 40
1.500000000000001
100
AcDbArc
 50
180.0
 51
258.4630409672
  0
ARC
  5
82
330
1F
100
AcDbEntity
  8
0
  6
Continuous
 62
     7
370
    25
100
AcDbCircle
 10
138.5625317919
 20
96.1893994421
 30
0.0
 40
1.5
100
AcDbArc
 50
281.5369590328
 51
0.0
  0
ARC
  5
83
330
1F
100
AcDbEntity
  8
0
  6
Continuous
 62
     7
370
    25
100
AcDbCircle
 10
144.5625317919
 20
90.1893994421
 30
0.0
 40
1.500000000000015
100
AcDbArc
 50
90.0
 51
168.4630409672
  0
ARC
  5
84
330
1F
100
AcDbEntity
  8
0
  6
Continuous
 62
     7
370
    25
100
AcDbCircle
 10
144.5625317919
 20
75.1893994421
 30
0.0
 40
1.500000000000015
100
AcDbArc
 50
191.5369590328
 51
270.0
  0
ARC
  5
85
330
1F
100
AcDbEntity
  8
0
  6
Continuous
 62
     7
370
    25
100
AcDbCircle
 10
117.5625317919
 20
90.1893994421
 30
0.0
 40
1.500000000000001
100
AcDbArc
 50
11.5369590328
 51
90.0
  0
ARC
  5
86
330
1F
100
AcDbEntity
  8
0
  6
Continuous
 62
     7
370
    25
100
AcDbCircle
 10
117.5625317919
 20
75.1893994421
 30
0.0
 40
1.500000000000004
100
AcDbArc
 50
270.0
 51
348.4630409672
  0
ARC
  5
87
330
1F
100
AcDbEntity
  8
0
  6
Continuous
 62
     7
370
    25
100
AcDbCircle
 10
120.0120215347
 20
90.6893994421
 30
0.0
 40
1.000000000000006
100
AcDbArc
 50
191.5369590328
 51
270.0
  0
ARC
  5
88
330
1F
100
AcDbEntity
  8
0
  6
Continuous
 62
     7
370
    25
100
AcDbCircle
 10
120.0120215347
 20
74.6893994421
 30
0.0
 40
1.000000000000004
100
AcDbArc
 50
90.0
 51
168.4630409672
  0
ARC
  5
89
330
1F
100
AcDbEntity
  8
0
  6
Continuous
 62
     7
370
    25
100
AcDbCircle
 10
123.0625317919
 20
93.7399096994
 30
0.0
 40
1.0
100
AcDbArc
 50
0.0
 51
78.4630409672
  0
ARC
  5
8A
330
1F
100
AcDbEntity
  8
0
  6
Continuous
 62
     7
370
    25
100
AcDbCircle
 10
139.0625317919
 20
93.7399096994
 30
0.0
 40
1.0
100
AcDbArc
 50
101.5369590328
 51
180.0
  0
ARC
  5
8B
330
1F
100
AcDbEntity
  8
0
  6
Continuous
 62
     7
370
    25
100
AcDbCircle
 10
142.1130420491
 20
90.6893994421
 30
0.0
 40
1.0
100
AcDbArc
 50
270.0
 51
348.4630409672
  0
ARC
  5
8C
330
1F
100
AcDbEntity
  8
0
  6
Continuous
 62
     7
370
    25
100
AcDbCircle
 10
142.1130420491
 20
74.6893994421
 30
0.0
 40
1.0
100
AcDbArc
 50
11.5369590328
 51
90.0
  0
LINE
  5
8D
330
1F
100
AcDbEntity
  8
0
  6
Continuous
 62
     7
370
    25
100
AcDbLine
 10
123.5625319595
 20
89.6893996582
 30
0.0
 11
120.0120215717
 21
89.6893996582
 31
0.0
  0
LINE
  5
8E
330
1F
100
AcDbEntity
  8
0
  6
Continuous
 62
     7
370
    25
100
AcDbLine
 10
142.1130420121
 20
89.6893996582
 30
0.0
 11
138.5625316243
 21
89.6893996582
 31
0.0
  0
LINE
  5
8F
330
1F
100
AcDbEntity
  8
0
  6
Continuous
 62
     7
370
    25
100
AcDbLine
 10
120.0120215717
 20
75.6893992261
 30
0.0
 11
142.1130420121
 21
75.6893992261
 31
0.0
  0
LINE
  5
90
330
1F
100
AcDbEntity
  8
0
  6
Continuous
 62
     7
370
    25
100
AcDbLine
 10
124.0625315758
 20
93.7399096624
 30
0.0
 11
124.0625315758
 21
90.1893992745
 31
0.0
  0
LINE
  5
91
330
1F
100
AcDbEntity
  8
0
  6
Continuous
 62
     7
370
    25
100
AcDbLine
 10
138.062532008
 20
90.1893992745
 30
0.0
 11
138.062532008
 21
93.7399096624
 31
0.0
  0
SPLINE
  5
92
330
1F
100
AcDbEntity
  8
0
  6
Continuous
 62
     7
370
    25
100
AcDbSpline
210
0.0
220
0.0
230
1.0
 70
     8
 71
     3
 72
    11
 73
     7
 74
     0
 42
0.000000001
 43
0.00000001
 40
0.0
 40
0.0
 40
0.0
 40
0.0
 40
0.2501293618956914
 40
0.5
 40
0.7498706381043087
 40
1.0
 40
1.0
 40
1.0
 40
1.0
 10
138.5624762105762
 20
89.68934750413634
 30
0.0
 10
138.497024272955
 20
89.69708602830065
 30
0.0
 10
138.3661880985747
 20
89.7125550722099
 30
0.0
 10
138.2003737467811
 20
89.82724139700723
 30
0.0
 10
138.0856874219837
 20
89.99305574880084
 30
0.0
 10
138.0702183780745
 20
90.12389192318118
 30
0.0
 10
138.0624798539102
 20
90.18934386080242
 30
0.0
  0
SPLINE
  5
93
330
1F
100
AcDbEntity
  8
0
  6
Continuous
 62
     7
370
    25
100
AcDbSpline
210
0.0
220
0.0
230
1.0
 70
     8
 71
     3
 72
    11
 73
     7
 74
     0
 42
0.000000001
 43
0.00000001
 40
0.0
 40
0.0
 40
0.0
 40
0.0
 40
0.2501293618956914
 40
0.5
 40
0.7498706381043087
 40
1.0
 40
1.0
 40
1.0
 40
1.0
 10
124.0625837299048
 20
90.18934386080242
 30
0.0
 10
124.0548452057405
 20
90.12389192318118
 30
0.0
 10
124.0393761618313
 20
89.99305574880084
 30
0.0
 10
123.9246898370339
 20
89.82724139700723
 30
0.0
 10
123.7588754852403
 20
89.7125550722099
 30
0.0
 10
123.62803931086
 20
89.69708602830065
 30
0.0
 10
123.5625873732387
 20
89.68934750413634
 30
0.0
  0
LINE
  5
94
330
1F
100
AcDbEntity
  8
0
  6
Continuous
 62
     7
370
    25
100
AcDbLine
 10
140.0625314045
 20
107.1893988014
 30
0.0
 11
122.0625321793
 21
107.1893988014
 31
0.0
  0
LINE
  5
95
330
1F
100
AcDbEntity
  8
0
  6
Continuous
 62
     7
370
    25
100
AcDbLine
 10
122.56253133
 20
107.6893998147
 30
0.0
 11
139.5625322538
 21
107.6893998147
 31
0.0
  0
LINE
  5
96
330
1F
100
AcDbEntity
  8
0
  6
Continuous
 62
     7
370
    25
100
AcDbLine
 10
106.5625324327
 20
82.6893994421
 30
0.0
 11
106.5625324327
 21
73.6893998296
 31
0.0
  0
LINE
  5
97
330
1F
100
AcDbEntity
  8
0
  6
Continuous
 62
     7
370
    25
100
AcDbLine
 10
106.5625324327
 20
91.6893990547
 30
0.0
 11
106.5625324327
 21
82.6893994421
 31
0.0
  0
LINE
  5
98
330
1F
100
AcDbEntity
  8
0
  6
Continuous
 62
     7
370
    25
100
AcDbLine
 10
155.5625311512
 20
73.6893998296
 30
0.0
 11
155.5625311512
 21
91.6893990547
 31
0.0
  0
LINE
  5
99
330
1F
100
AcDbEntity
  8
0
  6
Continuous
 62
     7
370
    25
100
AcDbLine
 10
156.0625321644
 20
91.1893999041
 30
0.0
 11
156.0625321644
 21
74.1893989802
 31
0.0
  0
LINE
  5
9A
330
1F
100
AcDbEntity
  8
0
  6
Continuous
 62
     7
370
    25
100
AcDbLine
 10
106.0625314194
 20
82.6893994421
 30
0.0
 11
106.0625314194
 21
91.1893999041
 31
0.0
  0
LINE
  5
9B
330
1F
100
AcDbEntity
  8
0
  6
Continuous
 62
     7
370
    25
100
AcDbLine
 10
106.0625314194
 20
74.1893989802
 30
0.0
 11
106.0625314194
 21
82.6893994421
 31
0.0
  0
LINE
  5
9C
330
1F
100
AcDbEntity
  8
0
  6
Continuous
 62
     7
370
    25
100
AcDbLine
 10
132.5622238864
 20
79.0444892668
 30
0.0
 11
133.2514418236
 21
77.7306101122
 31
0.0
  0
ARC
  5
9D
330
1F
100
AcDbEntity
  8
0
  6
Continuous
 62
     7
370
    25
100
AcDbCircle
 10
133.3182935714
 20
77.7656782256
 30
0.0
 40
0.0754912582857782
100
AcDbArc
 50
207.6800279694
 51
311.070386533
  0
ARC
  5
9E
330
1F
100
AcDbEntity
  8
0
  6
Continuous
 62
     7
370
    25
100
AcDbCircle
 10
135.0625317919
 20
75.7641330261
 30
0.0
 40
2.579419315655421
100
AcDbArc
 50
48.929613467
 51
131.070386533
  0
ARC
  5
9F
330
1F
100
AcDbEntity
  8
0
  6
Continuous
 62
     7
370
    25
100
AcDbCircle
 10
136.8067700124
 20
77.7656782256
 30
0.0
 40
0.0754912582857716
100
AcDbArc
 50
228.929613467
 51
332.3199720306
  0
LINE
  5
A0
330
1F
100
AcDbEntity
  8
0
  6
Continuous
 62
     7
370
    25
100
AcDbLine
 10
136.8736219074
 20
77.7306101122
 30
0.0
 11
137.5628397281
 21
79.0444892668
 31
0.0
  0
LINE
  5
A1
330
1F
100
AcDbEntity
  8
0
  6
Continuous
 62
     7
370
    25
100
AcDbLine
 10
137.5628397281
 20
79.0444892668
 30
0.0
 11
137.5230247567
 21
79.0217365906
 31
0.0
  0
ARC
  5
A2
330
1F
100
AcDbEntity
  8
0
  6
Continuous
 62
     7
370
    25
100
AcDbCircle
 10
137.2257260177
 20
79.5419801067
 30
0.0
 40
0.5991992501208419
100
AcDbArc
 50
199.6800689411
 51
299.7462530425
  0
LINE
  5
A3
330
1F
100
AcDbEntity
  8
0
  6
Continuous
 62
     7
370
    25
100
AcDbLine
 10
136.6615271608
 20
79.3401890737
 30
0.0
 11
135.5750210996
 21
82.3780128162
 31
0.0
  0
SPLINE
  5
A4
330
1F
100
AcDbEntity
  8
0
  6
Continuous
 62
     7
370
    25
100
AcDbSpline
210
0.0
220
0.0
230
1.0
 70
     8
 71
     3
 72
    16
 73
    12
 74
     0
 42
0.000000001
 43
0.00000001
 40
0.0
 40
0.0
 40
0.0
 40
0.0
 40
0.1113160552874951
 40
0.2221777142163596
 40
0.333357231917414
 40
0.4444842326561919
 40
0.5552113451997907
 40
0.6662702792617305
 40
0.7776772343596836
 40
0.888683744007764
 40
1.0
 40
1.0
 40
1.0
 40
1.0
 10
135.5750210614666
 20
82.37801282486659
 30
0.0
 10
135.5511571183286
 20
82.41853502691932
 30
0.0
 10
135.5035266455735
 20
82.49941401785944
 30
0.0
 10
135.3957942135076
 20
82.59246742767269
 30
0.0
 10
135.2706806023745
 20
82.65752853855216
 30
0.0
 10
135.1332797544442
 20
82.69068543429981
 30
0.0
 10
134.9921863020281
 20
82.69074870720881
 30
0.0
 10
134.8546881977718
 20
82.65769250855762
 30
0.0
 10
134.7294448043797
 20
82.59259489202631
 30
0.0
 10
134.6215473186019
 20
82.49948338509685
 30
0.0
 10
134.5738995824893
 20
82.41854060219887
 30
0.0
 10
134.5500425223484
 20
82.37801282486647
 30
0.0
  0
LINE
  5
A5
330
1F
100
AcDbEntity
  8
0
  6
Continuous
 62
     7
370
    25
100
AcDbLine
 10
134.5500426314
 20
82.3780128162
 30
0.0
 11
133.4638143371
 21
79.340966728
 31
0.0
  0
ARC
  5
A6
330
1F
100
AcDbEntity
  8
0
  6
Continuous
 62
     7
370
    25
100
AcDbCircle
 10
132.8996156571
 20
79.542757637
 30
0.0
 40
0.5991992501208464
100
AcDbArc
 50
241.1755227374
 51
340.3199310589
  0
LINE
  5
A7
330
1F
100
AcDbEntity
  8
0
  6
Continuous
 62
     7
370
    25
100
AcDbLine
 10
132.6107249542
 20
79.0177987259
 30
0.0
 11
132.5622238864
 21
79.0444892668
 31
0.0
  0
SPLINE
  5
A8
330
1F
100
AcDbEntity
  8
0
  6
Continuous
 62
     7
370
    25
100
AcDbSpline
210
0.0
220
0.0
230
1.0
 70
     8
 71
     3
 72
    16
 73
    12
 74
     0
 42
0.000000001
 43
0.00000001
 40
0.0
 40
0.0
 40
0.0
 40
0.0
 40
0.0739298478380645
 40
0.1513677900875573
 40
0.2324450724520033
 40
0.3172760505712285
 40
0.4059605604870915
 40
0.4985859785248051
 40
0.6141264807254729
 40
0.7496239523722917
 40
1.0
 40
1.0
 40
1.0
 40
1.0
 10
124.0625317919075
 20
80.09132323078036
 30
0.0
 10
124.0616164866148
 20
80.15673486527528
 30
0.0
 10
124.0597424432687
 20
80.2906620252662
 30
0.0
 10
124.0453676917084
 20
80.49590400080146
 30
0.0
 10
124.0226743462153
 20
80.71003156837182
 30
0.0
 10
123.9907117869898
 20
80.93304665574958
 30
0.0
 10
123.94976900582
 20
81.16495697115617
 30
0.0
 10
123.8963013150799
 20
81.42212467189964
 30
0.0
 10
123.8256986545942
 20
81.7178987950074
 30
0.0
 10
123.7131919521267
 20
82.14702615043967
 30
0.0
 10
123.6218193693188
 20
82.47596545619896
 30
0.0
 10
123.5625317919075
 20
82.68939944213368
 30
0.0
  0
SPLINE
  5
A9
330
1F
100
AcDbEntity
  8
0
  6
Continuous
 62
     7
370
    25
100
AcDbSpline
210
0.0
220
0.0
230
1.0
 70
     8
 71
     3
 72
    14
 73
    10
 74
     0
 42
0.000000001
 43
0.00000001
 40
0.0
 40
0.0
 40
0.0
 40
0.0
 40
0.2503818975769405
 40
0.3853960642454612
 40
0.5014219062737861
 40
0.6386745024418747
 40
0.7672919706928744
 40
0.8876008223903926
 40
1.0
 40
1.0
 40
1.0
 40
1.0
 10
123.5625317919075
 20
82.68939944213368
 30
0.0
 10
123.6220648756373
 20
82.90276914982977
 30
0.0
 10
123.7137001591139
 20
83.23119483224158
 30
0.0
 10
123.8262262132915
 20
83.6603277248156
 30
0.0
 10
123.9058844229748
 20
83.99452562184665
 30
0.0
 10
123.9725548887721
 20
84.32588849168326
 30
0.0
 10
124.0235771926138
 20
84.66380073875432
 30
0.0
 10
124.0560924846342
 20
84.98211679922181
 30
0.0
 10
124.0604345513185
 20
85.1880222563764
 30
0.0
 10
124.0625317919075
 20
85.28747565348701
 30
0.0
  0
LINE
  5
AA
330
1F
100
AcDbEntity
  8
0
  6
Continuous
 62
     7
370
    25
100
AcDbLine
 10
124.0625315758
 20
85.2874755696
 30
0.0
 11
124.0625315758
 21
88.1894455128
 31
0.0
  0
SPLINE
  5
AB
330
1F
100
AcDbEntity
  8
0
  6
Continuous
 62
     7
370
    25
100
AcDbSpline
210
0.0
220
0.0
230
1.0
 70
     8
 71
     3
 72
    19
 73
    15
 74
     0
 42
0.000000001
 43
0.00000001
 40
0.0
 40
0.0
 40
0.0
 40
0.0
 40
0.0504323727095946
 40
0.1003565609002702
 40
0.1500822900422585
 40
0.199922985600534
 40
0.250189922563005
 40
0.3750855037481943
 40
0.5000544104077007
 40
0.6247887185113573
 40
0.7499189120354086
 40
0.8333029051587477
 40
0.9161791203953933
 40
1.0
 40
1.0
 40
1.0
 40
1.0
 10
125.5624857238623
 20
89.68939944213366
 30
0.0
 10
125.56159694057
 20
89.6498184734292
 30
0.0
 10
125.5598283298581
 20
89.57105537578248
 30
0.0
 10
125.5455889760677
 20
89.4539749335283
 30
0.0
 10
125.5228275392232
 20
89.33881152467218
 30
0.0
 10
125.4907283718258
 20
89.22556480901284
 30
0.0
 10
125.4294239833206
 20
89.05988312329279
 30
0.0
 10
125.3181887913452
 20
88.85038331937966
 30
0.0
 10
125.1299765003775
 20
88.62221421493011
 30
0.0
 10
124.9016916969224
 20
88.43386453923401
 30
0.0
 10
124.6691589406303
 20
88.31023768560622
 30
0.0
 10
124.4523017545065
 20
88.2364389561449
 30
0.0
 10
124.2592404566313
 20
88.19670790792955
 30
0.0
 10
124.1283485994219
 20
88.19187543788705
 30
0.0
 10
124.0625317919075
 20
88.18944551017889
 30
0.0
  0
LINE
  5
AC
330
1F
100
AcDbEntity
  8
0
  6
Continuous
 62
     7
370
    25
100
AcDbLine
 10
125.5624857212
 20
89.6893996582
 30
0.0
 11
128.4644556644
 21
89.6893996582
 31
0.0
  0
SPLINE
  5
AD
330
1F
100
AcDbEntity
  8
0
  6
Continuous
 62
     7
370
    25
100
AcDbSpline
210
0.0
220
0.0
230
1.0
 70
     8
 71
     3
 72
    10
 73
     6
 74
     0
 42
0.000000001
 43
0.00000001
 40
-0.796694357225795
 40
-0.796694357225795
 40
-0.796694357225795
 40
-0.796694357225795
 40
-0.533073702210409
 40
-0.533073702210409
 40
-0.532116113157305
 40
-0.532116113157305
 40
-0.532116113157305
 40
-0.532116113157305
 10
128.4644555805542
 20
89.68939944214092
 30
0.0
 10
129.3431910972706
 20
89.6893994421381
 30
0.0
 10
130.2054790332055
 20
89.95586684519813
 30
0.0
 10
131.0563828335655
 20
90.18768337416135
 30
0.0
 10
131.0594559389055
 20
90.18854635400182
 30
0.0
 10
131.0625317919075
 20
90.18939944213368
 30
0.0
  0
SPLINE
  5
AE
330
1F
100
AcDbEntity
  8
0
  6
Continuous
 62
     7
370
    25
100
AcDbSpline
210
0.0
220
0.0
230
1.0
 70
     8
 71
     3
 72
    10
 73
     6
 74
     0
 42
0.000000001
 43
0.00000001
 40
-0.263620655015386
 40
-0.263620655015386
 40
-0.263620655015386
 40
-0.263620655015386
 40
-0.2626630659468851
 40
-0.2626630659468851
 40
0.0009575890685009
 40
0.0009575890685009
 40
0.0009575890685009
 40
0.0009575890685009
 10
131.0625317919075
 20
90.18939944213368
 30
0.0
 10
131.065607644959
 20
90.18854635398809
 30
0.0
 10
131.0686816432644
 20
90.18768690871602
 30
0.0
 10
131.9192340087731
 20
89.9544861597465
 30
0.0
 10
132.7818724865429
 20
89.68939944213368
 30
0.0
 10
133.6606080032608
 20
89.68939944213368
 30
0.0
  0
LINE
  5
AF
330
1F
100
AcDbEntity
  8
0
  6
Continuous
 62
     7
370
    25
100
AcDbLine
 10
133.6606079194
 20
89.6893996582
 30
0.0
 11
136.5625778626
 21
89.6893996582
 31
0.0
  0
SPLINE
  5
B0
330
1F
100
AcDbEntity
  8
0
  6
Continuous
 62
     7
370
    25
100
AcDbSpline
210
0.0
220
0.0
230
1.0
 70
     8
 71
     3
 72
    19
 73
    15
 74
     0
 42
0.000000001
 43
0.00000001
 40
0.0
 40
0.0
 40
0.0
 40
0.0
 40
0.0504323727096602
 40
0.1003565609003688
 40
0.1500822900423565
 40
0.199922985600599
 40
0.2501899225630071
 40
0.3750855037480327
 40
0.5000544104076973
 40
0.624788718511343
 40
0.7499189120354135
 40
0.8333029051590075
 40
0.916179120395655
 40
1.0
 40
1.0
 40
1.0
 40
1.0
 10
138.0625317919075
 20
88.18944551017884
 30
0.0
 10
138.022950823203
 20
88.19033429347117
 30
0.0
 10
137.9441877255562
 20
88.1921029041831
 30
0.0
 10
137.8271072833019
 20
88.20634225797346
 30
0.0
 10
137.7119438744458
 20
88.22910369481795
 30
0.0
 10
137.5986971587866
 20
88.26120286221538
 30
0.0
 10
137.4330154730667
 20
88.3225072507205
 30
0.0
 10
137.2235156691538
 20
88.43374244269613
 30
0.0
 10
136.9953465647041
 20
88.62195473366353
 30
0.0
 10
136.8069968890076
 20
88.85023953711847
 30
0.0
 10
136.68337003538
 20
89.08277229341091
 30
0.0
 10
136.6095713059188
 20
89.29962947953494
 30
0.0
 10
136.5698402577034
 20
89.49269077741013
 30
0.0
 10
136.5650077876608
 20
89.62358263461934
 30
0.0
 10
136.5625778599527
 20
89.68939944213349
 30
0.0
  0
LINE
  5
B1
330
1F
100
AcDbEntity
  8
0
  6
Continuous
 62
     7
370
    25
100
AcDbLine
 10
138.062532008
 20
88.1894455128
 30
0.0
 11
138.062532008
 21
85.2874755696
 31
0.0
  0
SPLINE
  5
B2
330
1F
100
AcDbEntity
  8
0
  6
Continuous
 62
     7
370
    25
100
AcDbSpline
210
0.0
220
0.0
230
1.0
 70
     8
 71
     3
 72
    16
 73
    12
 74
     0
 42
0.000000001
 43
0.00000001
 40
0.0
 40
0.0
 40
0.0
 40
0.0
 40
0.0739298478317502
 40
0.1513677900738161
 40
0.2324450724296886
 40
0.3172760505391666
 40
0.4059605604440887
 40
0.4985859784696513
 40
0.6141264806631028
 40
0.7496239522892343
 40
1.0
 40
1.0
 40
1.0
 40
1.0
 10
138.0625317919075
 20
85.28747565348701
 30
0.0
 10
138.0634470972
 20
85.22206401899766
 30
0.0
 10
138.0653211405456
 20
85.08813685901889
 30
0.0
 10
138.0796958921031
 20
84.88289488350324
 30
0.0
 10
138.1023892375919
 20
84.66876731595531
 30
0.0
 10
138.134351796811
 20
84.44575222860283
 30
0.0
 10
138.1752945779728
 20
84.21384191322431
 30
0.0
 10
138.2287622687042
 20
83.95667421250641
 30
0.0
 10
138.2993649291774
 20
83.66090008943209
 30
0.0
 10
138.4118716316528
 20
83.23177273395142
 30
0.0
 10
138.5032442144761
 20
82.9028334281391
 30
0.0
 10
138.5625317919075
 20
82.68939944213368
 30
0.0
  0
SPLINE
  5
B3
330
1F
100
AcDbEntity
  8
0
  6
Continuous
 62
     7
370
    25
100
AcDbSpline
210
0.0
220
0.0
230
1.0
 70
     8
 71
     3
 72
    14
 73
    10
 74
     0
 42
0.000000001
 43
0.00000001
 40
0.0
 40
0.0
 40
0.0
 40
0.0
 40
0.250381897495202
 40
0.3853960641816825
 40
0.5014219062198584
 40
0.6386745024049088
 40
0.7672919706705007
 40
0.8876008223803089
 40
0.9999999999999999
 40
0.9999999999999999
 40
0.9999999999999999
 40
0.9999999999999999
 10
138.5625317919075
 20
82.68939944213368
 30
0.0
 10
138.5029987081975
 20
82.47602973450715
 30
0.0
 10
138.4113634247366
 20
82.14760405214955
 30
0.0
 10
138.2988373705662
 20
81.71847115962301
 30
0.0
 10
138.2191791608692
 20
81.38427326255453
 30
0.0
 10
138.1525086950602
 20
81.05291039268286
 30
0.0
 10
138.1014863912088
 20
80.71499814557404
 30
0.0
 10
138.0689710991821
 20
80.39668208507425
 30
0.0
 10
138.0646290324969
 20
80.19077662789988
 30
0.0
 10
138.0625317919075
 20
80.09132323078036
 30
0.0
  0
LINE
  5
B4
330
1F
100
AcDbEntity
  8
0
  6
Continuous
 62
     7
370
    25
100
AcDbLine
 10
138.062532008
 20
80.0913233147
 30
0.0
 11
138.062532008
 21
77.1893994719
 31
0.0
  0
LINE
  5
B5
330
1F
100
AcDbEntity
  8
0
  6
Continuous
 62
     7
370
    25
100
AcDbLine
 10
124.0625315758
 20
77.1893994719
 30
0.0
 11
138.062532008
 21
77.1893994719
 31
0.0
  0
LINE
  5
B6
330
1F
100
AcDbEntity
  8
0
  6
Continuous
 62
     7
370
    25
100
AcDbLine
 10
124.0625315758
 20
77.1893994719
 30
0.0
 11
124.0625315758
 21
80.0913233147
 31
0.0
  0
SPLINE
  5
B7
330
1F
100
AcDbEntity
  8
0
  6
Continuous
 62
     7
370
    25
100
AcDbSpline
210
0.0
220
0.0
230
1.0
 70
     8
 71
     3
 72
    13
 73
     9
 74
     0
 42
0.000000001
 43
0.00000001
 40
0.0
 40
0.0
 40
0.0
 40
0.0
 40
0.1856794033212272
 40
0.3634611737568169
 40
0.533542336720674
 40
0.6961479207300177
 40
0.8515354443703902
 40
1.0
 40
1.0
 40
1.0
 40
1.0
 10
123.2180749744498
 20
85.1142705727157
 30
0.0
 10
123.2017466686067
 20
85.18159336988414
 30
0.0
 10
123.1697845602572
 20
85.31337547625542
 30
0.0
 10
123.1310657070253
 20
85.5054678929615
 30
0.0
 10
123.1005116279376
 20
85.68805497513323
 30
0.0
 10
123.0788948910284
 20
85.861128813913
 30
0.0
 10
123.0651871965397
 20
86.02508881480038
 30
0.0
 10
123.063403379283
 20
86.13023683812774
 30
0.0
 10
123.0625317919075
 20
86.18161300312269
 30
0.0
  0
SPLINE
  5
B8
330
1F
100
AcDbEntity
  8
0
  6
Continuous
 62
     7
370
    25
100
AcDbSpline
210
0.0
220
0.0
230
1.0
 70
     8
 71
     3
 72
    17
 73
    13
 74
     0
 42
0.000000001
 43
0.00000001
 40
0.0
 40
0.0
 40
0.0
 40
0.0
 40
0.1130667886658668
 40
0.2142471894553318
 40
0.3035410226158834
 40
0.3809482842621089
 40
0.4464692357998273
 40
0.5001045924259258
 40
0.6375226532033567
 40
0.75004211245356
 40
0.8820380142920121
 40
1.0
 40
1.0
 40
1.0
 40
1.0
 10
123.5625317919075
 20
82.68939944213368
 30
0.0
 10
123.5523021658035
 20
82.7831169133956
 30
0.0
 10
123.532918324909
 20
82.96069960640074
 30
0.0
 10
123.5050240803512
 20
83.21185892743283
 30
0.0
 10
123.4800312726537
 20
83.43289764915384
 30
0.0
 10
123.4579018751197
 20
83.62384465207207
 30
0.0
 10
123.4387020483933
 20
83.78486109991627
 30
0.0
 10
123.4125202830403
 20
83.99418320698689
 30
0.0
 10
123.3795387414493
 20
84.24016615585198
 30
0.0
 10
123.3339444670351
 20
84.54581632682499
 30
0.0
 10
123.2840358103562
 20
84.83195337492548
 30
0.0
 10
123.2392232508766
 20
85.02375440419164
 30
0.0
 10
123.2180749744498
 20
85.1142705727157
 30
0.0
  0
SPLINE
  5
B9
330
1F
100
AcDbEntity
  8
0
  6
Continuous
 62
     7
370
    25
100
AcDbSpline
210
0.0
220
0.0
230
1.0
 70
     8
 71
     3
 72
    14
 73
    10
 74
     0
 42
0.000000001
 43
0.00000001
 40
0.0
 40
0.0
 40
0.0
 40
0.0
 40
0.0771019312675692
 40
0.1604220743863116
 40
0.2500134455674957
 40
0.3625277428666271
 40
0.4999872826714505
 40
0.6965319275930101
 40
1.0
 40
1.0
 40
1.0
 40
1.0
 10
123.2180749744498
 20
80.26452831155166
 30
0.0
 10
123.232204251353
 20
80.32352177242495
 30
0.0
 10
123.2616023205469
 20
80.44626647172022
 30
0.0
 10
123.3001202167579
 20
80.64135794877319
 30
0.0
 10
123.339182743247
 20
80.86681622563019
 30
0.0
 10
123.3794632496492
 20
81.13865473223265
 30
0.0
 10
123.4281219441977
 20
81.5003287887597
 30
0.0
 10
123.4895567837335
 20
82.02322274939966
 30
0.0
 10
123.5349697327427
 20
82.43778999557429
 30
0.0
 10
123.5625317919075
 20
82.68939944213368
 30
0.0
  0
SPLINE
  5
BA
330
1F
100
AcDbEntity
  8
0
  6
Continuous
 62
     7
370
    25
100
AcDbSpline
210
0.0
220
0.0
230
1.0
 70
     8
 71
     3
 72
    13
 73
     9
 74
     0
 42
0.000000001
 43
0.00000001
 40
0.0
 40
0.0
 40
0.0
 40
0.0
 40
0.1484645556296105
 40
0.303852079269983
 40
0.4664576632793263
 40
0.6365388262431836
 40
0.8143205966787732
 40
1.0
 40
1.0
 40
1.0
 40
1.0
 10
123.0625317919075
 20
79.19718588114466
 30
0.0
 10
123.063403379283
 20
79.24856204613961
 30
0.0
 10
123.0651871965397
 20
79.35371006946698
 30
0.0
 10
123.0788948910284
 20
79.51767007035436
 30
0.0
 10
123.1005116279376
 20
79.69074390913413
 30
0.0
 10
123.1310657070253
 20
79.87333099130583
 30
0.0
 10
123.1697845602572
 20
80.06542340801192
 30
0.0
 10
123.2017466686067
 20
80.19720551438321
 30
0.0
 10
123.2180749744498
 20
80.26452831155166
 30
0.0
  0
LINE
  5
BB
330
1F
100
AcDbEntity
  8
0
  6
Continuous
 62
     7
370
    25
100
AcDbLine
 10
123.0625314119
 20
76.6227329918
 30
0.0
 11
123.0625314119
 21
79.1971858893
 31
0.0
  0
LINE
  5
BC
330
1F
100
AcDbEntity
  8
0
  6
Continuous
 62
     7
370
    25
100
AcDbLine
 10
139.0625321719
 20
76.6227329918
 30
0.0
 11
123.0625314119
 21
76.6227329918
 31
0.0
  0
LINE
  5
BD
330
1F
100
AcDbEntity
  8
0
  6
Continuous
 62
     7
370
    25
100
AcDbLine
 10
139.0625321719
 20
79.1971858893
 30
0.0
 11
139.0625321719
 21
76.6227329918
 31
0.0
  0
SPLINE
  5
BE
330
1F
100
AcDbEntity
  8
0
  6
Continuous
 62
     7
370
    25
100
AcDbSpline
210
0.0
220
0.0
230
1.0
 70
     8
 71
     3
 72
    13
 73
     9
 74
     0
 42
0.000000001
 43
0.00000001
 40
0.0
 40
0.0
 40
0.0
 40
0.0
 40
0.1856794033212448
 40
0.3634611737568449
 40
0.5335423367206995
 40
0.6961479207300406
 40
0.8515354443704051
 40
0.9999999999999999
 40
0.9999999999999999
 40
0.9999999999999999
 40
0.9999999999999999
 10
138.9069886093652
 20
80.26452831155166
 30
0.0
 10
138.9233169152083
 20
80.19720551438321
 30
0.0
 10
138.9552790235578
 20
80.06542340801191
 30
0.0
 10
138.9939978767897
 20
79.8733309913058
 30
0.0
 10
139.0245519558774
 20
79.6907439091341
 30
0.0
 10
139.0461686927866
 20
79.51767007035433
 30
0.0
 10
139.0598763872753
 20
79.35371006946697
 30
0.0
 10
139.061660204532
 20
79.2485620461396
 30
0.0
 10
139.0625317919075
 20
79.19718588114466
 30
0.0
  0
SPLINE
  5
BF
330
1F
100
AcDbEntity
  8
0
  6
Continuous
 62
     7
370
    25
100
AcDbSpline
210
0.0
220
0.0
230
1.0
 70
     8
 71
     3
 72
    16
 73
    12
 74
     0
 42
0.000000001
 43
0.00000001
 40
0.0
 40
0.0
 40
0.0
 40
0.0
 40
0.1113707256031287
 40
0.2115306859456111
 40
0.3004797843893181
 40
0.3782180970979205
 40
0.444745959733242
 40
0.5000641419851813
 40
0.7004020768438615
 40
0.8669907153098478
 40
1.0
 40
1.0
 40
1.0
 40
1.0
 10
138.5625317919075
 20
82.68939944213368
 30
0.0
 10
138.5726094709212
 20
82.59709574301746
 30
0.0
 10
138.5917503927654
 20
82.42177979096961
 30
0.0
 10
138.6193961108113
 20
82.17316714292164
 30
0.0
 10
138.6443448993194
 20
81.9529853538501
 30
0.0
 10
138.666626032449
 20
81.7612187399297
 30
0.0
 10
138.6862051549324
 20
81.5977333396294
 30
0.0
 10
138.7190928749907
 20
81.33488064543488
 30
0.0
 10
138.7669715320666
 20
80.99382032964193
 30
0.0
 10
138.8314848912163
 20
80.59709407644078
 30
0.0
 10
138.8837742584245
 20
80.36677888365968
 30
0.0
 10
138.9069886093652
 20
80.26452831155166
 30
0.0
  0
SPLINE
  5
C0
330
1F
100
AcDbEntity
  8
0
  6
Continuous
 62
     7
370
    25
100
AcDbSpline
210
0.0
220
0.0
230
1.0
 70
     8
 71
     3
 72
    14
 73
    10
 74
     0
 42
0.000000001
 43
0.00000001
 40
0.0
 40
0.0
 40
0.0
 40
0.0
 40
0.0771019312872794
 40
0.1604220744063169
 40
0.2500134455684252
 40
0.3625277428809286
 40
0.4999872826729911
 40
0.6965319256112464
 40
1.0
 40
1.0
 40
1.0
 40
1.0
 10
138.9069886093652
 20
85.1142705727157
 30
0.0
 10
138.8928593324581
 20
85.05527711182745
 30
0.0
 10
138.8634612632599
 20
84.93253241251715
 30
0.0
 10
138.8249433670475
 20
84.73744093546357
 30
0.0
 10
138.7858808405626
 20
84.51198265861044
 30
0.0
 10
138.745600334169
 20
84.24014415202235
 30
0.0
 10
138.6969416398113
 20
83.87847009710421
 30
0.0
 10
138.6355068003608
 20
83.35557613650415
 30
0.0
 10
138.5900938512899
 20
82.94100889033415
 30
0.0
 10
138.5625317919075
 20
82.68939944213368
 30
0.0
  0
SPLINE
  5
C1
330
1F
100
AcDbEntity
  8
0
  6
Continuous
 62
     7
370
    25
100
AcDbSpline
210
0.0
220
0.0
230
1.0
 70
     8
 71
     3
 72
    13
 73
     9
 74
     0
 42
0.000000001
 43
0.00000001
 40
0.0
 40
0.0
 40
0.0
 40
0.0
 40
0.1484645556295969
 40
0.303852079269964
 40
0.4664576632793
 40
0.6365388262431574
 40
0.814320596678755
 40
1.0
 40
1.0
 40
1.0
 40
1.0
 10
139.0625317919075
 20
86.18161300312269
 30
0.0
 10
139.061660204532
 20
86.13023683812776
 30
0.0
 10
139.0598763872753
 20
86.0250888148004
 30
0.0
 10
139.0461686927866
 20
85.86112881391301
 30
0.0
 10
139.0245519558774
 20
85.68805497513326
 30
0.0
 10
138.9939978767897
 20
85.50546789296153
 30
0.0
 10
138.9552790235578
 20
85.31337547625544
 30
0.0
 10
138.9233169152083
 20
85.18159336988415
 30
0.0
 10
138.9069886093652
 20
85.1142705727157
 30
0.0
  0
LINE
  5
C2
330
1F
100
AcDbEntity
  8
0
  6
Continuous
 62
     7
370
    25
100
AcDbLine
 10
139.0625321719
 20
87.8227325924
 30
0.0
 11
139.0625321719
 21
86.181612995
 31
0.0
  0
SPLINE
  5
C3
330
1F
100
AcDbEntity
  8
0
  6
Continuous
 62
     7
370
    25
100
AcDbSpline
210
0.0
220
0.0
230
1.0
 70
     8
 71
     3
 72
    13
 73
     9
 74
     0
 42
0.000000001
 43
0.00000001
 40
0.0
 40
0.0
 40
0.0
 40
0.0
 40
0.1257153360577753
 40
0.250986709269415
 40
0.3762164861937409
 40
0.5018074329537138
 40
0.7521854029755236
 40
1.0
 40
1.0
 40
1.0
 40
1.0
 10
138.844176165352
 20
88.40487550862775
 30
0.0
 10
138.8613704425233
 20
88.38378966877707
 30
0.0
 10
138.8956982753942
 20
88.34169245357431
 30
0.0
 10
138.9392678236294
 20
88.27477973774242
 30
0.0
 10
138.9768756272741
 20
88.20526448609097
 30
0.0
 10
139.0178989048551
 20
88.1089310487652
 30
0.0
 10
139.0544274596098
 20
87.98309723322394
 30
0.0
 10
139.0598396303047
 20
87.87600391734081
 30
0.0
 10
139.0625317919075
 20
87.82273277546702
 30
0.0
  0
SPLINE
  5
C4
330
1F
100
AcDbEntity
  8
0
  6
Continuous
 62
     7
370
    25
100
AcDbSpline
210
0.0
220
0.0
230
1.0
 70
     8
 71
     3
 72
    16
 73
    12
 74
     0
 42
0.000000001
 43
0.00000001
 40
0.0
 40
0.0
 40
0.0
 40
0.0
 40
0.065953468215878
 40
0.1324870475734065
 40
0.2006767984510681
 40
0.2715233530653123
 40
0.3459202143274948
 40
0.4246400792148715
 40
0.5083359903947017
 40
0.7405135829365557
 40
1.0
 40
1.0
 40
1.0
 40
1.0
 10
138.0625317919075
 20
88.75606610880034
 30
0.0
 10
138.0860438443345
 20
88.75561408343974
 30
0.0
 10
138.1332747556529
 20
88.75470605681014
 30
0.0
 10
138.2035928419471
 20
88.74747313414777
 30
0.0
 10
138.2732519566197
 20
88.7359051727106
 30
0.0
 10
138.3422282871015
 20
88.71951778701371
 30
0.0
 10
138.4105196612443
 20
88.69834474988195
 30
0.0
 10
138.4781467454846
 20
88.67222755289787
 30
0.0
 10
138.5831482151343
 20
88.62330450456662
 30
0.0
 10
138.7169318626716
 20
88.53912207039191
 30
0.0
 10
138.8002193665245
 20
88.45125125185906
 30
0.0
 10
138.844176165352
 20
88.40487550862775
 30
0.0
  0
SPLINE
  5
C5
330
1F
100
AcDbEntity
  8
0
  6
Continuous
 62
     7
370
    25
100
AcDbSpline
210
0.0
220
0.0
230
1.0
 70
     8
 71
     3
 72
    13
 73
     9
 74
     0
 42
0.000000001
 43
0.00000001
 40
0.0
 40
0.0
 40
0.0
 40
0.0
 40
0.1759205118839867
 40
0.3391896075500394
 40
0.4921931780779421
 40
0.6738397335242767
 40
0.8395017852842264
 40
1.0
 40
1.0
 40
1.0
 40
1.0
 10
137.7089784013142
 20
88.89274961091328
 30
0.0
 10
137.7220769458608
 20
88.88122443351611
 30
0.0
 10
137.7473320462278
 20
88.85900291792119
 30
0.0
 10
137.7931751128081
 20
88.82859929862767
 30
0.0
 10
137.8470660942376
 20
88.80039558617881
 30
0.0
 10
137.9104140155009
 20
88.77646965793295
 30
0.0
 10
137.9849682113985
 20
88.75934341094023
 30
0.0
 10
138.03695160235
 20
88.75714695124502
 30
0.0
 10
138.0625317919075
 20
88.75606610880034
 30
0.0
  0
SPLINE
  5
C6
330
1F
100
AcDbEntity
  8
0
  6
Continuous
 62
     7
370
    25
100
AcDbSpline
210
0.0
220
0.0
230
1.0
 70
     8
 71
     3
 72
    14
 73
    10
 74
     0
 42
0.000000001
 43
0.00000001
 40
0.0
 40
0.0
 40
0.0
 40
0.0
 40
0.0960186407856747
 40
0.1924368822044046
 40
0.2917857869559113
 40
0.3963838799166358
 40
0.5082236945494524
 40
0.7392053714339348
 40
1.0
 40
1.0
 40
1.0
 40
1.0
 10
124.0625317919075
 20
88.75606610880035
 30
0.0
 10
124.0778122988494
 20
88.756464196695
 30
0.0
 10
124.108436905596
 20
88.75726202920612
 30
0.0
 10
124.1535618266859
 20
88.7632685517325
 30
0.0
 10
124.1974849040458
 20
88.77274621066286
 30
0.0
 10
124.2401811712173
 20
88.78595503840297
 30
0.0
 10
124.2951936503694
 20
88.80811979404464
 30
0.0
 10
124.3588485678275
 20
88.84349089983888
 30
0.0
 10
124.3962505051443
 20
88.87567958245798
 30
0.0
 10
124.4160851825008
 20
88.89274961091328
 30
0.0
  0
SPLINE
  5
C7
330
1F
100
AcDbEntity
  8
0
  6
Continuous
 62
     7
370
    25
100
AcDbSpline
210
0.0
220
0.0
230
1.0
 70
     8
 71
     3
 72
    15
 73
    11
 74
     0
 42
0.000000001
 43
0.00000001
 40
0.0
 40
0.0
 40
0.0
 40
0.0
 40
0.1336726496021612
 40
0.2596519444552429
 40
0.3787836139818168
 40
0.4920668899310182
 40
0.6351830136473593
 40
0.7645526196418757
 40
0.8844004131119898
 40
1.0
 40
1.0
 40
1.0
 40
1.0
 10
123.280887418463
 20
88.40487550862775
 30
0.0
 10
123.3027829088996
 20
88.4291205469792
 30
0.0
 10
123.34531372342
 20
88.47621523216785
 30
0.0
 10
123.4185095815628
 20
88.53922007617639
 30
0.0
 10
123.4962856611324
 20
88.5943123183749
 30
0.0
 10
123.5879241042569
 20
88.6462133150465
 30
0.0
 10
123.6932524854388
 20
88.69253785970156
 30
0.0
 10
123.813801367746
 20
88.7290156964835
 30
0.0
 10
123.9372208264153
 20
88.75183073781295
 30
0.0
 10
124.0212669550195
 20
88.75467140329897
 30
0.0
 10
124.0625317919075
 20
88.75606610880035
 30
0.0
  0
SPLINE
  5
C8
330
1F
100
AcDbEntity
  8
0
  6
Continuous
 62
     7
370
    25
100
AcDbSpline
210
0.0
220
0.0
230
1.0
 70
     8
 71
     3
 72
    13
 73
     9
 74
     0
 42
0.000000001
 43
0.00000001
 40
0.0
 40
0.0
 40
0.0
 40
0.0
 40
0.123835855545221
 40
0.2479006248871513
 40
0.3726202178325717
 40
0.4984138930967346
 40
0.7490996844582696
 40
1.0
 40
1.0
 40
1.0
 40
1.0
 10
123.0625317919075
 20
87.82273277546702
 30
0.0
 10
123.0632033232239
 20
87.84948444025622
 30
0.0
 10
123.0645476271997
 20
87.90303722098213
 30
0.0
 10
123.0754496108501
 20
87.98135392353139
 30
0.0
 10
123.0928112944625
 20
88.05815355456382
 30
0.0
 10
123.1254989358956
 20
88.15768019023848
 30
0.0
 10
123.1813837368201
 20
88.27684331409296
 30
0.0
 10
123.247710068843
 20
88.36218594367334
 30
0.0
 10
123.280887418463
 20
88.40487550862775
 30
0.0
  0
LINE
  5
C9
330
1F
100
AcDbEntity
  8
0
  6
Continuous
 62
     7
370
    25
100
AcDbLine
 10
123.0625314119
 20
86.181612995
 30
0.0
 11
123.0625314119
 21
87.8227325924
 31
0.0
  0
LINE
  5
CA
330
1F
100
AcDbEntity
  8
0
  6
Continuous
 62
     7
370
    25
100
AcDbLine
 10
127.3208744305
 20
90.1893992745
 30
0.0
 11
125.5625318217
 21
90.1893992745
 31
0.0
  0
SPLINE
  5
CB
330
1F
100
AcDbEntity
  8
0
  6
Continuous
 62
     7
370
    25
100
AcDbSpline
210
0.0
220
0.0
230
1.0
 70
     8
 71
     3
 72
     8
 73
     4
 74
     0
 42
0.000000001
 43
0.00000001
 40
0.0000000000000001
 40
0.0000000000000001
 40
0.0000000000000001
 40
0.0000000000000001
 40
0.127234597098751
 40
0.127234597098751
 40
0.127234597098751
 40
0.127234597098751
 10
127.3208744051336
 20
90.18939944213368
 30
0.0
 10
127.6884410189744
 20
90.18939944213368
 30
0.0
 10
128.0758695858532
 20
90.15713595312073
 30
0.0
 10
128.4644555805666
 20
90.11162785086286
 30
0.0
  0
SPLINE
  5
CC
330
1F
100
AcDbEntity
  8
0
  6
Continuous
 62
     7
370
    25
100
AcDbSpline
210
0.0
220
0.0
230
1.0
 70
    24
 71
     3
 72
    10
 73
     6
 74
     0
 42
0.000000001
 43
0.00000001
 40
0.0
 40
0.0
 40
0.0
 40
0.0
 40
0.5
 40
0.5
 40
1.0
 40
1.0
 40
1.0
 40
1.0
 10
128.4644555805542
 20
89.68939944213368
 30
0.0
 10
128.4644555805542
 20
89.77319529567995
 30
0.0
 10
128.4644555805542
 20
89.85690297640544
 30
0.0
 10
128.4644555805542
 20
90.00375499528229
 30
0.0
 10
128.4644555805542
 20
90.06674481079087
 30
0.0
 10
128.4644555805542
 20
90.11162785086252
 30
0.0
  0
SPLINE
  5
CD
330
1F
100
AcDbEntity
  8
0
  6
Continuous
 62
     7
370
    25
100
AcDbSpline
210
0.0
220
0.0
230
1.0
 70
     8
 71
     3
 72
    14
 73
    10
 74
     0
 42
0.000000001
 43
0.00000001
 40
0.0
 40
0.0
 40
0.0
 40
0.0
 40
0.1488603597576148
 40
0.3150273328471772
 40
0.4987646698883385
 40
0.5951853465608922
 40
0.7494349165377944
 40
0.8793203508289453
 40
1.0
 40
1.0
 40
1.0
 40
1.0
 10
125.1975150071085
 20
90.03110508565601
 30
0.0
 10
125.2139933900228
 20
90.01589432824429
 30
0.0
 10
125.248865944594
 20
89.98370439973816
 30
0.0
 10
125.3080163203242
 20
89.92908036863386
 30
0.0
 10
125.3625928437748
 20
89.87837470618462
 30
0.0
 10
125.4171489839737
 20
89.82835806660167
 30
0.0
 10
125.4653147483651
 20
89.78368437109052
 30
0.0
 10
125.5164039559503
 20
89.73510710861068
 30
0.0
 10
125.5475060323112
 20
89.70425752541406
 30
0.0
 10
125.5624857238623
 20
89.68939944213368
 30
0.0
  0
ARC
  5
CE
330
1F
100
AcDbEntity
  8
0
  6
Continuous
 62
     7
370
    25
100
AcDbCircle
 10
125.5625317919
 20
89.6893994421
 30
0.0
 40
0.5
100
AcDbArc
 50
90.0
 51
136.8892083855
  0
LINE
  5
CF
330
1F
100
AcDbEntity
  8
0
  6
Continuous
 62
     7
370
    25
100
AcDbLine
 10
138.5625316243
 20
88.1893994123
 30
0.0
 11
138.5625316243
 21
86.4310568035
 31
0.0
  0
SPLINE
  5
D0
330
1F
100
AcDbEntity
  8
0
  6
Continuous
 62
     7
370
    25
100
AcDbSpline
210
0.0
220
0.0
230
1.0
 70
     8
 71
     3
 72
    11
 73
     7
 74
     0
 42
0.000000001
 43
0.00000001
 40
0.0
 40
0.0
 40
0.0
 40
0.0
 40
0.2815942436633383
 40
0.5420860673673156
 40
0.7815308548566234
 40
1.0
 40
1.0
 40
1.0
 40
1.0
 10
138.4847602006363
 20
85.28747565347811
 30
0.0
 10
138.4968040576309
 20
85.39543998716101
 30
0.0
 10
138.5199892157831
 20
85.60327790423172
 30
0.0
 10
138.5441168998142
 20
85.9017685899004
 30
0.0
 10
138.5595253182574
 20
86.1752788200885
 30
0.0
 10
138.5615607124263
 20
86.34844151109553
 30
0.0
 10
138.5625317919075
 20
86.43105682890761
 30
0.0
  0
SPLINE
  5
D1
330
1F
100
AcDbEntity
  8
0
  6
Continuous
 62
     7
370
    25
100
AcDbSpline
210
0.0
220
0.0
230
1.0
 70
    24
 71
     3
 72
    10
 73
     6
 74
     0
 42
0.000000001
 43
0.00000001
 40
0.0
 40
0.0
 40
0.0
 40
0.0
 40
0.5
 40
0.5
 40
1.0
 40
1.0
 40
1.0
 40
1.0
 10
138.0625317919075
 20
85.28747565348701
 30
0.0
 10
138.1463276454538
 20
85.28747565348701
 30
0.0
 10
138.2300353261793
 20
85.28747565348701
 30
0.0
 10
138.3768873450561
 20
85.28747565348701
 30
0.0
 10
138.4398771605647
 20
85.28747565348701
 30
0.0
 10
138.4847602006363
 20
85.28747565348701
 30
0.0
  0
SPLINE
  5
D2
330
1F
100
AcDbEntity
  8
0
  6
Continuous
 62
     7
370
    25
100
AcDbSpline
210
0.0
220
0.0
230
1.0
 70
     8
 71
     3
 72
    14
 73
    10
 74
     0
 42
0.000000001
 43
0.00000001
 40
0.0
 40
0.0
 40
0.0
 40
0.0
 40
0.1488603598374869
 40
0.3150273329269794
 40
0.4987646698885773
 40
0.5951853465829806
 40
0.7494349165379153
 40
0.8793203509512854
 40
1.0
 40
1.0
 40
1.0
 40
1.0
 10
138.4042374354298
 20
88.55441622693264
 30
0.0
 10
138.3890266780095
 20
88.53793784400982
 30
0.0
 10
138.3568367494942
 20
88.50306528943047
 30
0.0
 10
138.3022127183864
 20
88.44391491370142
 30
0.0
 10
138.2515070559466
 20
88.38933839025387
 30
0.0
 10
138.2014904163742
 20
88.33478225006341
 30
0.0
 10
138.1568167208471
 20
88.28661648565816
 30
0.0
 10
138.1082394583695
 20
88.23552727807562
 30
0.0
 10
138.0773898751729
 20
88.20442520171471
 30
0.0
 10
138.0625317919075
 20
88.18944551017886
 30
0.0
  0
ARC
  5
D3
330
1F
100
AcDbEntity
  8
0
  6
Continuous
 62
     7
370
    25
100
AcDbCircle
 10
138.0625317919
 20
88.1893994421
 30
0.0
 40
0.5
100
AcDbArc
 50
0.0
 51
46.8892083855
  0
SPLINE
  5
D4
330
1F
100
AcDbEntity
  8
0
  6
Continuous
 62
     7
370
    25
100
AcDbSpline
210
0.0
220
0.0
230
1.0
 70
     8
 71
     3
 72
    11
 73
     7
 74
     0
 42
0.000000001
 43
0.00000001
 40
0.0
 40
0.0
 40
0.0
 40
0.0
 40
0.2815942436632133
 40
0.5420860673671491
 40
0.7815308548564992
 40
1.0
 40
1.0
 40
1.0
 40
1.0
 10
123.6403033831786
 20
80.09132323078924
 30
0.0
 10
123.6282595261841
 20
79.9833588971064
 30
0.0
 10
123.6050743680319
 20
79.77552098003574
 30
0.0
 10
123.5809466840008
 20
79.47703029436711
 30
0.0
 10
123.5655382655576
 20
79.20352006417897
 30
0.0
 10
123.5635028713887
 20
79.03035737317188
 30
0.0
 10
123.5625317919075
 20
78.94774205535973
 30
0.0
  0
SPLINE
  5
D5
330
1F
100
AcDbEntity
  8
0
  6
Continuous
 62
     7
370
    25
100
AcDbSpline
210
0.0
220
0.0
230
1.0
 70
    24
 71
     3
 72
    10
 73
     6
 74
     0
 42
0.000000001
 43
0.00000001
 40
0.0
 40
0.0
 40
0.0
 40
0.0
 40
0.5
 40
0.5
 40
1.0
 40
1.0
 40
1.0
 40
1.0
 10
124.0625317919075
 20
80.09132323078036
 30
0.0
 10
123.9787359383612
 20
80.09132323078036
 30
0.0
 10
123.8950282576357
 20
80.09132323078036
 30
0.0
 10
123.7481762387589
 20
80.09132323078036
 30
0.0
 10
123.6851864232503
 20
80.09132323078036
 30
0.0
 10
123.6403033831786
 20
80.09132323078036
 30
0.0
  0
LINE
  5
D6
330
1F
100
AcDbEntity
  8
0
  6
Continuous
 62
     7
370
    25
100
AcDbLine
 10
123.5625319595
 20
77.1893994719
 30
0.0
 11
124.0625315758
 21
77.1893994719
 31
0.0
  0
LINE
  5
D7
330
1F
100
AcDbEntity
  8
0
  6
Continuous
 62
     7
370
    25
100
AcDbLine
 10
123.5625319595
 20
77.1893994719
 30
0.0
 11
123.5625319595
 21
78.9477420807
 31
0.0
  0
SPLINE
  5
D8
330
1F
100
AcDbEntity
  8
0
  6
Continuous
 62
     7
370
    25
100
AcDbSpline
210
0.0
220
0.0
230
1.0
 70
     8
 71
     3
 72
    14
 73
    10
 74
     0
 42
0.000000001
 43
0.00000001
 40
0.0
 40
0.0
 40
0.0
 40
0.0
 40
0.096021547728022
 40
0.1924412985067401
 40
0.2917902771809186
 40
0.396387075314727
 40
0.508224361229722
 40
0.7392002680930558
 40
1.0
 40
1.0
 40
1.0
 40
1.0
 10
137.1291984585742
 20
89.68939944213368
 30
0.0
 10
137.1295965324978
 20
89.67411842764989
 30
0.0
 10
137.1303943311646
 20
89.64349302804592
 30
0.0
 10
137.1364007051243
 20
89.59836715947698
 30
0.0
 10
137.1458781761543
 20
89.5544436992915
 30
0.0
 10
137.1590867640589
 20
89.51174764479148
 30
0.0
 10
137.1812511426495
 20
89.45673617232191
 30
0.0
 10
137.2166226882385
 20
89.39308260210775
 30
0.0
 10
137.2488115042929
 20
89.35568097788115
 30
0.0
 10
137.2658819606871
 20
89.3358460515404
 30
0.0
  0
SPLINE
  5
D9
330
1F
100
AcDbEntity
  8
0
  6
Continuous
 62
     7
370
    25
100
AcDbSpline
210
0.0
220
0.0
230
1.0
 70
     8
 71
     3
 72
    15
 73
    11
 74
     0
 42
0.000000001
 43
0.00000001
 40
0.0
 40
0.0
 40
0.0
 40
0.0
 40
0.1307681764282987
 40
0.2557775964014054
 40
0.375854271439311
 40
0.4919295877812418
 40
0.6226338248371327
 40
0.7437286717850853
 40
0.8761291708518495
 40
1.0
 40
1.0
 40
1.0
 40
1.0
 10
136.7780078584016
 20
90.47104381557814
 30
0.0
 10
136.8017071840721
 20
90.44959795689773
 30
0.0
 10
136.8480621667744
 20
90.40765067021178
 30
0.0
 10
136.9105106532502
 20
90.33481039797998
 30
0.0
 10
136.9659919052579
 20
90.2563834273876
 30
0.0
 10
137.0170198970477
 20
90.16760920551644
 30
0.0
 10
137.0618382228052
 20
90.06823427032286
 30
0.0
 10
137.0984079407434
 20
89.95134921060638
 30
0.0
 10
137.1239627096735
 20
89.82501631516172
 30
0.0
 10
137.1274923690364
 20
89.73359073789786
 30
0.0
 10
137.1291984585742
 20
89.68939944213368
 30
0.0
  0
SPLINE
  5
DA
330
1F
100
AcDbEntity
  8
0
  6
Continuous
 62
     7
370
    25
100
AcDbSpline
210
0.0
220
0.0
230
1.0
 70
     8
 71
     3
 72
    13
 73
     9
 74
     0
 42
0.000000001
 43
0.00000001
 40
0.0
 40
0.0
 40
0.0
 40
0.0
 40
0.1238371160455669
 40
0.247902303023111
 40
0.3726214666345126
 40
0.4984138700895143
 40
0.7490979627897995
 40
1.0
 40
1.0
 40
1.0
 40
1.0
 10
136.1958651252408
 20
90.68939944213368
 30
0.0
 10
136.2226170656684
 20
90.6887279245414
 30
0.0
 10
136.2761702155972
 20
90.68738365262226
 30
0.0
 10
136.3544871868972
 20
90.67648184259623
 30
0.0
 10
136.4312865682233
 20
90.65912040517406
 30
0.0
 10
136.5308125563259
 20
90.62643311980698
 30
0.0
 10
136.6499754046253
 20
90.57054799232706
 30
0.0
 10
136.7353180130524
 20
90.5042214810194
 30
0.0
 10
136.7780078584016
 20
90.47104381557814
 30
0.0
  0
LINE
  5
DB
330
1F
100
AcDbEntity
  8
0
  6
Continuous
 62
     7
370
    25
100
AcDbLine
 10
134.5547453447
 20
90.6893998221
 30
0.0
 11
136.1958649422
 21
90.6893998221
 31
0.0
  0
SPLINE
  5
DC
330
1F
100
AcDbEntity
  8
0
  6
Continuous
 62
     7
370
    25
100
AcDbSpline
210
0.0
220
0.0
230
1.0
 70
     8
 71
     3
 72
    13
 73
     9
 74
     0
 42
0.000000001
 43
0.00000001
 40
0.0
 40
0.0
 40
0.0
 40
0.0
 40
0.1856794033212454
 40
0.3634611737568486
 40
0.5335423367207065
 40
0.6961479207300426
 40
0.8515354443704023
 40
1.0
 40
1.0
 40
1.0
 40
1.0
 10
133.4874029224895
 20
90.53385625959137
 30
0.0
 10
133.554725719658
 20
90.55018456543452
 30
0.0
 10
133.6865078260292
 20
90.58214667378397
 30
0.0
 10
133.8786002427354
 20
90.62086552701591
 30
0.0
 10
134.0611873249071
 20
90.6514196061036
 30
0.0
 10
134.2342611636868
 20
90.67303634301275
 30
0.0
 10
134.3982211645742
 20
90.6867440375015
 30
0.0
 10
134.5033691879016
 20
90.68852785475814
 30
0.0
 10
134.5547453528965
 20
90.68939944213368
 30
0.0
  0
SPLINE
  5
DD
330
1F
100
AcDbEntity
  8
0
  6
Continuous
 62
     7
370
    25
100
AcDbSpline
210
0.0
220
0.0
230
1.0
 70
     8
 71
     3
 72
    17
 73
    13
 74
     0
 42
0.000000001
 43
0.00000001
 40
0.0
 40
0.0
 40
0.0
 40
0.0
 40
0.1130667887614413
 40
0.214247189583317
 40
0.3035410227131065
 40
0.3809482842653933
 40
0.4464692356459874
 40
0.5001045920517729
 40
0.6375226522804812
 40
0.750042112035746
 40
0.8820380142736961
 40
0.9999999999999999
 40
0.9999999999999999
 40
0.9999999999999999
 40
0.9999999999999999
 10
131.0625317919075
 20
90.18939944213368
 30
0.0
 10
131.1562492632482
 20
90.19962906824898
 30
0.0
 10
131.3338319563585
 20
90.21901290916017
 30
0.0
 10
131.5849912774694
 20
90.24690715373141
 30
0.0
 10
131.8060299991128
 20
90.27189996142242
 30
0.0
 10
131.9969770017984
 20
90.29402935892962
 30
0.0
 10
132.1579934492567
 20
90.31322918560925
 30
0.0
 10
132.3673155555748
 20
90.3394109508665
 30
0.0
 10
132.6132985042329
 20
90.37239249245432
 30
0.0
 10
132.9189486755052
 20
90.4179867669338
 30
0.0
 10
133.2050857243569
 20
90.46789542364276
 30
0.0
 10
133.3968867539489
 20
90.51270798317287
 30
0.0
 10
133.4874029224895
 20
90.53385625959137
 30
0.0
  0
SPLINE
  5
DE
330
1F
100
AcDbEntity
  8
0
  6
Continuous
 62
     7
370
    25
100
AcDbSpline
210
0.0
220
0.0
230
1.0
 70
     8
 71
     3
 72
    14
 73
    10
 74
     0
 42
0.000000001
 43
0.00000001
 40
0.0
 40
0.0
 40
0.0
 40
0.0
 40
0.0771019312304826
 40
0.1604220744887596
 40
0.2500134459863516
 40
0.3625277438465788
 40
0.4999872830472304
 40
0.6965319249886696
 40
1.0
 40
1.0
 40
1.0
 40
1.0
 10
128.6376606613255
 20
90.53385625959137
 30
0.0
 10
128.6966541221713
 20
90.51972698270052
 30
0.0
 10
128.8193988215468
 20
90.49032891349934
 30
0.0
 10
129.0144902989355
 20
90.45181101727125
 30
0.0
 10
129.2399485766099
 20
90.41274849069909
 30
0.0
 10
129.5117870834443
 20
90.37246798424275
 30
0.0
 10
129.8734611375322
 20
90.32380928997243
 30
0.0
 10
130.3963550973368
 20
90.26237445066722
 30
0.0
 10
130.810922343193
 20
90.21696150159434
 30
0.0
 10
131.0625317919075
 20
90.18939944213368
 30
0.0
  0
SPLINE
  5
DF
330
1F
100
AcDbEntity
  8
0
  6
Continuous
 62
     7
370
    25
100
AcDbSpline
210
0.0
220
0.0
230
1.0
 70
     8
 71
     3
 72
    13
 73
     9
 74
     0
 42
0.000000001
 43
0.00000001
 40
0.0
 40
0.0
 40
0.0
 40
0.0
 40
0.1484645556295968
 40
0.3038520792699616
 40
0.4664576632792965
 40
0.6365388262431637
 40
0.8143205966787558
 40
1.0
 40
1.0
 40
1.0
 40
1.0
 10
127.5703182309185
 20
90.68939944213368
 30
0.0
 10
127.6216943959134
 20
90.68852785475812
 30
0.0
 10
127.7268424192408
 20
90.68674403750151
 30
0.0
 10
127.8908024201282
 20
90.67303634301275
 30
0.0
 10
128.0638762589079
 20
90.6514196061036
 30
0.0
 10
128.2464633410796
 20
90.62086552701591
 30
0.0
 10
128.4385557577857
 20
90.58214667378397
 30
0.0
 10
128.570337864157
 20
90.55018456543452
 30
0.0
 10
128.6376606613255
 20
90.53385625959137
 30
0.0
  0
LINE
  5
E0
330
1F
100
AcDbEntity
  8
0
  6
Continuous
 62
     7
370
    25
100
AcDbLine
 10
125.9291986416
 20
90.6893998221
 30
0.0
 11
127.5703182391
 21
90.6893998221
 31
0.0
  0
SPLINE
  5
E1
330
1F
100
AcDbEntity
  8
0
  6
Continuous
 62
     7
370
    25
100
AcDbSpline
210
0.0
220
0.0
230
1.0
 70
     8
 71
     3
 72
    13
 73
     9
 74
     0
 42
0.000000001
 43
0.00000001
 40
0.0
 40
0.0
 40
0.0
 40
0.0
 40
0.1257153360429536
 40
0.2509867092496626
 40
0.3762164861788906
 40
0.5018074329534182
 40
0.7521854029562103
 40
1.0
 40
1.0
 40
1.0
 40
1.0
 10
125.3470557254134
 20
90.47104381557814
 30
0.0
 10
125.3681415652616
 20
90.48823809274734
 30
0.0
 10
125.4102387804611
 20
90.52256592561531
 30
0.0
 10
125.4771514962903
 20
90.56613547384812
 30
0.0
 10
125.5466667479442
 20
90.60374327749435
 30
0.0
 10
125.6430001852691
 20
90.6447665550802
 30
0.0
 10
125.768834000813
 20
90.68129510983825
 30
0.0
 10
125.8759273166962
 20
90.68670728053152
 30
0.0
 10
125.9291984585742
 20
90.68939944213368
 30
0.0
  0
SPLINE
  5
E2
330
1F
100
AcDbEntity
  8
0
  6
Continuous
 62
     7
370
    25
100
AcDbSpline
210
0.0
220
0.0
230
1.0
 70
     8
 71
     3
 72
    16
 73
    12
 74
     0
 42
0.000000001
 43
0.00000001
 40
0.0
 40
0.0
 40
0.0
 40
0.0
 40
0.0659534682181705
 40
0.1324870475771656
 40
0.2006767984554997
 40
0.2715233530696834
 40
0.3459202143311513
 40
0.4246400792172604
 40
0.5083359903953556
 40
0.740513582944488
 40
1.0
 40
1.0
 40
1.0
 40
1.0
 10
124.9958651252408
 20
89.68939944213368
 30
0.0
 10
124.9963171506014
 20
89.71291149456154
 30
0.0
 10
124.9972251772309
 20
89.76014240588134
 30
0.0
 10
125.0044580998932
 20
89.8304604921772
 30
0.0
 10
125.0160260613303
 20
89.90011960685075
 30
0.0
 10
125.0324134470272
 20
89.96909593733257
 30
0.0
 10
125.053586484159
 20
90.03738731147462
 30
0.0
 10
125.0797036811431
 20
90.1050143957133
 30
0.0
 10
125.1286267294763
 20
90.21001586536194
 30
0.0
 10
125.212809163651
 20
90.34379951289802
 30
0.0
 10
125.3006799821836
 20
90.42708701675157
 30
0.0
 10
125.3470557254134
 20
90.47104381557814
 30
0.0
  0
SPLINE
  5
E3
330
1F
100
AcDbEntity
  8
0
  6
Continuous
 62
     7
370
    25
100
AcDbSpline
210
0.0
220
0.0
230
1.0
 70
     8
 71
     3
 72
    13
 73
     9
 74
     0
 42
0.000000001
 43
0.00000001
 40
0.0
 40
0.0
 40
0.0
 40
0.0
 40
0.1759205118839894
 40
0.33918960755005
 40
0.4921931780779566
 40
0.6738397335242725
 40
0.8395017852842178
 40
1.0
 40
1.0
 40
1.0
 40
1.0
 10
124.8591816231279
 20
89.3358460515404
 30
0.0
 10
124.8707068005251
 20
89.348944596087
 30
0.0
 10
124.89292831612
 20
89.37419969645396
 30
0.0
 10
124.9233319354135
 20
89.42004276303427
 30
0.0
 10
124.9515356478624
 20
89.47393374446375
 30
0.0
 10
124.9754615761082
 20
89.53728166572708
 30
0.0
 10
124.9925878231009
 20
89.61183586162464
 30
0.0
 10
124.9947842827961
 20
89.66381925257613
 30
0.0
 10
124.9958651252408
 20
89.68939944213368
 30
0.0
  0
SPLINE
  5
E4
330
1F
100
AcDbEntity
  8
0
  6
Continuous
 62
     7
370
    25
100
AcDbSpline
210
0.0
220
0.0
230
1.0
 70
    24
 71
     3
 72
    10
 73
     6
 74
     0
 42
0.000000001
 43
0.00000001
 40
0.0
 40
0.0
 40
0.0
 40
0.0
 40
0.5
 40
0.5
 40
1.0
 40
1.0
 40
1.0
 40
1.0
 10
123.6403033831786
 20
85.28747565347811
 30
0.0
 10
123.6851864232503
 20
85.28747565347811
 30
0.0
 10
123.7481762387589
 20
85.28747565347811
 30
0.0
 10
123.8950282576357
 20
85.28747565347811
 30
0.0
 10
123.9787359383612
 20
85.28747565347811
 30
0.0
 10
124.0625317919075
 20
85.28747565347811
 30
0.0
  0
SPLINE
  5
E5
330
1F
100
AcDbEntity
  8
0
  6
Continuous
 62
     7
370
    25
100
AcDbSpline
210
0.0
220
0.0
230
1.0
 70
     8
 71
     3
 72
    12
 73
     8
 74
     0
 42
0.000000001
 43
0.00000001
 40
0.0
 40
0.0
 40
0.0
 40
0.0
 40
0.1731008601133525
 40
0.359615337634814
 40
0.5595829448172194
 40
0.773035722531595
 40
1.0
 40
1.0
 40
1.0
 40
1.0
 10
123.5625317919075
 20
86.43105682890761
 30
0.0
 10
123.5631456195961
 20
86.36562394466218
 30
0.0
 10
123.5644208405936
 20
86.22968776996645
 30
0.0
 10
123.5741041459008
 20
86.01697589710675
 30
0.0
 10
123.5896594290208
 20
85.78823086743893
 30
0.0
 10
123.6115183294819
 20
85.5433799409091
 30
0.0
 10
123.6305141088994
 20
85.3745040566657
 30
0.0
 10
123.6403033831786
 20
85.28747565347811
 30
0.0
  0
LINE
  5
E6
330
1F
100
AcDbEntity
  8
0
  6
Continuous
 62
     7
370
    25
100
AcDbLine
 10
123.5625319595
 20
86.4310568035
 30
0.0
 11
123.5625319595
 21
88.1893994123
 31
0.0
  0
ARC
  5
E7
330
1F
100
AcDbEntity
  8
0
  6
Continuous
 62
     7
370
    25
100
AcDbCircle
 10
124.0625317919
 20
88.1893994421
 30
0.0
 40
0.5
100
AcDbArc
 50
133.1107916145
 51
180.0
  0
SPLINE
  5
E8
330
1F
100
AcDbEntity
  8
0
  6
Continuous
 62
     7
370
    25
100
AcDbSpline
210
0.0
220
0.0
230
1.0
 70
     8
 71
     3
 72
    13
 73
     9
 74
     0
 42
0.000000001
 43
0.00000001
 40
0.0
 40
0.0
 40
0.0
 40
0.0
 40
0.1206933098378984
 40
0.2506349558807637
 40
0.4049363563536673
 40
0.5013750994399903
 40
0.7702864430522399
 40
1.0
 40
1.0
 40
1.0
 40
1.0
 10
124.0625317919075
 20
88.18944551017887
 30
0.0
 10
124.0476760137156
 20
88.20442305962902
 30
0.0
 10
124.0168261073148
 20
88.23552583948222
 30
0.0
 10
123.9682509556977
 20
88.28661067023
 30
0.0
 10
123.9235612733124
 20
88.3347998908192
 30
0.0
 10
123.8637975639706
 20
88.39996290370885
 30
0.0
 10
123.796005550923
 20
88.472887291136
 30
0.0
 10
123.7445372785447
 20
88.52870249227678
 30
0.0
 10
123.7208261483851
 20
88.55441622693262
 30
0.0
  0
SPLINE
  5
E9
330
1F
100
AcDbEntity
  8
0
  6
Continuous
 62
     7
370
    25
100
AcDbSpline
210
0.0
220
0.0
230
1.0
 70
    24
 71
     3
 72
    10
 73
     6
 74
     0
 42
0.000000001
 43
0.00000001
 40
0.0
 40
0.0
 40
0.0
 40
0.0
 40
0.5
 40
0.5
 40
1.0
 40
1.0
 40
1.0
 40
1.0
 10
133.6606080032519
 20
90.11162785086252
 30
0.0
 10
133.6606080032519
 20
90.06674481079087
 30
0.0
 10
133.6606080032519
 20
90.00375499528229
 30
0.0
 10
133.6606080032519
 20
89.85690297640544
 30
0.0
 10
133.6606080032519
 20
89.77319529567995
 30
0.0
 10
133.6606080032519
 20
89.68939944213368
 30
0.0
  0
SPLINE
  5
EA
330
1F
100
AcDbEntity
  8
0
  6
Continuous
 62
     7
370
    25
100
AcDbSpline
210
0.0
220
0.0
230
1.0
 70
     8
 71
     3
 72
     8
 73
     4
 74
     0
 42
0.000000001
 43
0.00000001
 40
-0.0000000000002226
 40
-0.0000000000002226
 40
-0.0000000000002226
 40
-0.0000000000002226
 40
0.127234597098529
 40
0.127234597098529
 40
0.127234597098529
 40
0.127234597098529
 10
133.6606080032484
 20
90.11162785086286
 30
0.0
 10
134.0491939979618
 20
90.15713595312072
 30
0.0
 10
134.4366225648405
 20
90.18939944213368
 30
0.0
 10
134.8041891786814
 20
90.18939944213368
 30
0.0
  0
LINE
  5
EB
330
1F
100
AcDbEntity
  8
0
  6
Continuous
 62
     7
370
    25
100
AcDbLine
 10
136.5625317621
 20
90.1893992745
 30
0.0
 11
134.8041891533
 21
90.1893992745
 31
0.0
  0
ARC
  5
EC
330
1F
100
AcDbEntity
  8
0
  6
Continuous
 62
     7
370
    25
100
AcDbCircle
 10
136.5625317919
 20
89.6893994421
 30
0.0
 40
0.5
100
AcDbArc
 50
43.1107916145
 51
90.0
  0
SPLINE
  5
ED
330
1F
100
AcDbEntity
  8
0
  6
Continuous
 62
     7
370
    25
100
AcDbSpline
210
0.0
220
0.0
230
1.0
 70
     8
 71
     3
 72
    13
 73
     9
 74
     0
 42
0.000000001
 43
0.00000001
 40
0.0
 40
0.0
 40
0.0
 40
0.0
 40
0.1206933106363776
 40
0.2506349558809258
 40
0.4049363551860728
 40
0.501375099440844
 40
0.7702864432344702
 40
1.0
 40
1.0
 40
1.0
 40
1.0
 10
136.5625778599527
 20
89.68939944213368
 30
0.0
 10
136.5775554095005
 20
89.7042552204255
 30
0.0
 10
136.6086581893505
 20
89.7351051268297
 30
0.0
 10
136.6597430199565
 20
89.78368027829814
 30
0.0
 10
136.7079322404576
 20
89.82836996057986
 30
0.0
 10
136.7730952533543
 20
89.88813366996727
 30
0.0
 10
136.8460196409262
 20
89.95592568314217
 30
0.0
 10
136.9018348420697
 20
90.0073939555169
 30
0.0
 10
136.9275485767064
 20
90.03110508565604
 30
0.0
  0
SPLINE
  5
EE
330
1F
100
AcDbEntity
  8
0
  6
Continuous
 62
     7
370
    25
100
AcDbSpline
210
0.0
220
0.0
230
1.0
 70
    24
 71
     3
 72
    10
 73
     6
 74
     0
 42
0.000000001
 43
0.00000001
 40
0.0
 40
0.0
 40
0.0
 40
0.0
 40
0.5
 40
0.5
 40
1.0
 40
1.0
 40
1.0
 40
1.0
 10
138.4847602006363
 20
80.09132323078924
 30
0.0
 10
138.4398771605647
 20
80.09132323078924
 30
0.0
 10
138.3768873450561
 20
80.09132323078924
 30
0.0
 10
138.2300353261793
 20
80.09132323078924
 30
0.0
 10
138.1463276454538
 20
80.09132323078924
 30
0.0
 10
138.0625317919075
 20
80.09132323078924
 30
0.0
  0
SPLINE
  5
EF
330
1F
100
AcDbEntity
  8
0
  6
Continuous
 62
     7
370
    25
100
AcDbSpline
210
0.0
220
0.0
230
1.0
 70
     8
 71
     3
 72
    12
 73
     8
 74
     0
 42
0.000000001
 43
0.00000001
 40
0.0
 40
0.0
 40
0.0
 40
0.0
 40
0.1731008601132462
 40
0.3596153376346544
 40
0.5595829448170604
 40
0.7730357225314888
 40
1.0
 40
1.0
 40
1.0
 40
1.0
 10
138.5625317919075
 20
78.94774205535973
 30
0.0
 10
138.5619179642188
 20
79.01317493960515
 30
0.0
 10
138.5606427432214
 20
79.1491111143008
 30
0.0
 10
138.5509594379142
 20
79.36182298716045
 30
0.0
 10
138.5354041547942
 20
79.59056801682826
 30
0.0
 10
138.5135452543332
 20
79.83541894335816
 30
0.0
 10
138.4945494749156
 20
80.00429482760161
 30
0.0
 10
138.4847602006363
 20
80.09132323078924
 30
0.0
  0
LINE
  5
F0
330
1F
100
AcDbEntity
  8
0
  6
Continuous
 62
     7
370
    25
100
AcDbLine
 10
138.5625316243
 20
78.9477420807
 30
0.0
 11
138.5625316243
 21
77.1893994719
 31
0.0
  0
LINE
  5
F1
330
1F
100
AcDbEntity
  8
0
  6
Continuous
 62
     7
370
    25
100
AcDbLine
 10
138.062532008
 20
77.1893994719
 30
0.0
 11
138.5625316243
 21
77.1893994719
 31
0.0
  0
SPLINE
  5
F2
330
1F
100
AcDbEntity
  8
0
  6
Continuous
 62
     7
370
    25
100
AcDbSpline
210
0.0
220
0.0
230
1.0
 70
     8
 71
     3
 72
    12
 73
     8
 74
     0
 42
0.000000001
 43
0.00000001
 40
-0.267217449764123
 40
-0.267217449764123
 40
-0.267217449764123
 40
-0.267217449764123
 40
-0.160856558527433
 40
-0.107676112909088
 40
-0.001315221672398
 40
-0.001315221672398
 40
0.0
 40
0.0
 40
0.0
 40
0.0
 10
123.6403033831786
 20
80.09132323079814
 30
0.0
 10
123.6783455700111
 20
80.4654037013767
 30
0.0
 10
123.6728496978498
 20
80.98510486685306
 30
0.0
 10
123.6309531183229
 20
81.83735003548345
 30
0.0
 10
123.5898269605667
 20
82.34156147769589
 30
0.0
 10
123.5631795830534
 20
82.6811008742829
 30
0.0
 10
123.5628560813859
 20
82.68525064279277
 30
0.0
 10
123.5625317919075
 20
82.68939944213368
 30
0.0
  0
SPLINE
  5
F3
330
1F
100
AcDbEntity
  8
0
  6
Continuous
 62
     7
370
    25
100
AcDbSpline
210
0.0
220
0.0
230
1.0
 70
     8
 71
     3
 72
    12
 73
     8
 74
     0
 42
0.000000001
 43
0.00000001
 40
0.0
 40
0.0
 40
0.0
 40
0.0
 40
0.106360891224351
 40
0.159541336836527
 40
0.265902228060878
 40
0.265902228060878
 40
0.267217449764311
 40
0.267217449764311
 40
0.267217449764311
 40
0.267217449764311
 10
138.4847602006363
 20
85.28747565346923
 30
0.0
 10
138.4467180138083
 20
84.91339518293405
 30
0.0
 10
138.4522138859614
 20
84.3936940175144
 30
0.0
 10
138.4941104654782
 20
83.54144884898088
 30
0.0
 10
138.5352366232222
 20
83.0372374068263
 30
0.0
 10
138.5618840007465
 20
82.69769801018009
 30
0.0
 10
138.5622075024215
 20
82.69354824157156
 30
0.0
 10
138.5625317919075
 20
82.68939944213368
 30
0.0
  0
SPLINE
  5
F4
330
1F
100
AcDbEntity
  8
0
  6
Continuous
 62
     7
370
    25
100
AcDbSpline
210
0.0
220
0.0
230
1.0
 70
     8
 71
     3
 72
    12
 73
     8
 74
     0
 42
0.000000001
 43
0.00000001
 40
0.0
 40
0.0
 40
0.0
 40
0.0
 40
0.106360889128132
 40
0.159541333692198
 40
0.26590222282033
 40
0.26590222282033
 40
0.267217449923961
 40
0.267217449923961
 40
0.267217449923961
 40
0.267217449923961
 10
128.464455580572
 20
90.11162785086252
 30
0.0
 10
128.8385360437345
 20
90.07358566478422
 30
0.0
 10
129.3582372011647
 20
90.07908153598325
 30
0.0
 10
130.2104823504391
 20
90.12097811355045
 30
0.0
 10
130.7146937827355
 20
90.16210426997588
 30
0.0
 10
131.054233189788
 20
90.18875164831286
 30
0.0
 10
131.0583829754346
 20
90.18907515131642
 30
0.0
 10
131.0625317919075
 20
90.18939944213368
 30
0.0
  0
SPLINE
  5
F5
330
1F
100
AcDbEntity
  8
0
  6
Continuous
 62
     7
370
    25
100
AcDbSpline
210
0.0
220
0.0
230
1.0
 70
     8
 71
     3
 72
     8
 73
     4
 74
     0
 42
0.000000001
 43
0.00000001
 40
0.0
 40
0.0
 40
0.0
 40
0.0
 40
1.0
 40
1.0
 40
1.0
 40
1.0
 10
123.2180749744498
 20
80.26452831155166
 30
0.0
 10
123.3880788542855
 20
80.2294875866334
 30
0.0
 10
123.554883316638
 20
80.16106163571551
 30
0.0
 10
123.6403033831786
 20
80.09132323079814
 30
0.0
  0
SPLINE
  5
F6
330
1F
100
AcDbEntity
  8
0
  6
Continuous
 62
     7
370
    25
100
AcDbSpline
210
0.0
220
0.0
230
1.0
 70
     8
 71
     3
 72
     9
 73
     5
 74
     0
 42
0.000000001
 43
0.00000001
 40
0.0
 40
0.0
 40
0.0
 40
0.0
 40
0.571428571428571
 40
1.0
 40
1.0
 40
1.0
 40
1.0
 10
138.9069886093652
 20
85.1142705727157
 30
0.0
 10
138.8098435351734
 20
85.13429384409757
 30
0.0
 10
138.6401821964557
 20
85.18781216157288
 30
0.0
 10
138.5213688005823
 20
85.25758776564749
 30
0.0
 10
138.4847602006363
 20
85.28747565346923
 30
0.0
  0
SPLINE
  5
F7
330
1F
100
AcDbEntity
  8
0
  6
Continuous
 62
     7
370
    25
100
AcDbSpline
210
0.0
220
0.0
230
1.0
 70
     8
 71
     3
 72
     9
 73
     5
 74
     0
 42
0.000000001
 43
0.00000001
 40
0.0
 40
0.0
 40
0.0
 40
0.0
 40
0.5
 40
1.0
 40
1.0
 40
1.0
 40
1.0
 10
138.9069886093663
 20
80.2645283115471
 30
0.0
 10
138.8219866694482
 20
80.24700794908756
 30
0.0
 10
138.6520927511995
 20
80.19588573010512
 30
0.0
 10
138.5274702339071
 20
80.12619243324997
 30
0.0
 10
138.4847602006369
 20
80.09132323079092
 30
0.0
  0
SPLINE
  5
F8
330
1F
100
AcDbEntity
  8
0
  6
Continuous
 62
     7
370
    25
100
AcDbSpline
210
0.0
220
0.0
230
1.0
 70
     8
 71
     3
 72
    12
 73
     8
 74
     0
 42
0.000000001
 43
0.00000001
 40
-0.0013152216724614
 40
-0.0013152216724614
 40
-0.0013152216724614
 40
-0.0013152216724614
 40
0.0
 40
0.0
 40
0.159541336854997
 40
0.212721782473329
 40
0.265902228091661
 40
0.265902228091661
 40
0.265902228091661
 40
0.265902228091661
 10
138.5625317919075
 20
82.68939944213368
 30
0.0
 10
138.5622075024291
 20
82.68525064279349
 30
0.0
 10
138.5618821826986
 20
82.6811030961896
 30
0.0
 10
138.5224024326502
 20
82.17346888300682
 30
0.0
 10
138.4673345179747
 20
81.50083898263213
 30
0.0
 10
138.4515222098398
 20
80.63632290585137
 30
0.0
 10
138.4657391072201
 20
80.27836346608738
 30
0.0
 10
138.4847602006363
 20
80.09132323079814
 30
0.0
  0
SPLINE
  5
F9
330
1F
100
AcDbEntity
  8
0
  6
Continuous
 62
     7
370
    25
100
AcDbSpline
210
0.0
220
0.0
230
1.0
 70
     8
 71
     3
 72
    12
 73
     8
 74
     0
 42
0.000000001
 43
0.00000001
 40
-0.265902228061387
 40
-0.265902228061387
 40
-0.265902228061387
 40
-0.265902228061387
 40
-0.2645870063584663
 40
-0.2645870063584663
 40
-0.1582261151339113
 40
-0.1050456695216343
 40
0.0013152217029208
 40
0.0013152217029208
 40
0.0013152217029208
 40
0.0013152217029208
 10
123.5625317919075
 20
82.68939944213368
 30
0.0
 10
123.5628560813933
 20
82.69354824157021
 30
0.0
 10
123.5631795830681
 20
82.6976980101769
 30
0.0
 10
123.5898269605946
 20
83.03723740682541
 30
0.0
 10
123.630953118337
 20
83.54144884897829
 30
0.0
 10
123.6728496978543
 20
84.39369401751398
 30
0.0
 10
123.6783455700068
 20
84.91339518293334
 30
0.0
 10
123.6403033831786
 20
85.28747565346923
 30
0.0
  0
SPLINE
  5
FA
330
1F
100
AcDbEntity
  8
0
  6
Continuous
 62
     7
370
    25
100
AcDbSpline
210
0.0
220
0.0
230
1.0
 70
     8
 71
     3
 72
     9
 73
     5
 74
     0
 42
0.000000001
 43
0.00000001
 40
0.0
 40
0.0
 40
0.0
 40
0.0
 40
0.5
 40
1.0
 40
1.0
 40
1.0
 40
1.0
 10
123.2180749744491
 20
85.1142705727185
 30
0.0
 10
123.3030769143671
 20
85.13179093517803
 30
0.0
 10
123.4729708326158
 20
85.18291315416045
 30
0.0
 10
123.5975933499081
 20
85.25260645101554
 30
0.0
 10
123.6403033831783
 20
85.28747565347456
 30
0.0
  0
SPLINE
  5
FB
330
1F
100
AcDbEntity
  8
0
  6
Continuous
 62
     7
370
    25
100
AcDbSpline
210
0.0
220
0.0
230
1.0
 70
     8
 71
     3
 72
     9
 73
     5
 74
     0
 42
0.000000001
 43
0.00000001
 40
0.0
 40
0.0
 40
0.0
 40
0.0
 40
0.571428571428571
 40
1.0
 40
1.0
 40
1.0
 40
1.0
 10
128.6376606613255
 20
90.53385625959137
 30
0.0
 10
128.6176373899436
 20
90.43671118539953
 30
0.0
 10
128.5641190724683
 20
90.26704984668189
 30
0.0
 10
128.4943434683937
 20
90.14823645080851
 30
0.0
 10
128.464455580572
 20
90.11162785086252
 30
0.0
  0
SPLINE
  5
FC
330
1F
100
AcDbEntity
  8
0
  6
Continuous
 62
     7
370
    25
100
AcDbSpline
210
0.0
220
0.0
230
1.0
 70
     8
 71
     3
 72
    12
 73
     8
 74
     0
 42
0.000000001
 43
0.00000001
 40
-0.0013152270871416
 40
-0.0013152270871416
 40
-0.0013152270871416
 40
-0.0013152270871416
 40
0.0
 40
0.0
 40
0.106360889134687
 40
0.159541333702031
 40
0.265902222836718
 40
0.265902222836718
 40
0.265902222836718
 40
0.265902222836718
 10
131.0625317919075
 20
90.18939944213368
 30
0.0
 10
131.0666806083286
 20
90.18907515132048
 30
0.0
 10
131.070830393923
 20
90.18875164832099
 30
0.0
 10
131.4103698009433
 20
90.16210426998731
 30
0.0
 10
131.9145812332709
 20
90.12097811355731
 30
0.0
 10
132.7668263825969
 20
90.07908153598437
 30
0.0
 10
133.2865275400574
 20
90.07358566478186
 30
0.0
 10
133.660608003243
 20
90.11162785086252
 30
0.0
  0
SPLINE
  5
FD
330
1F
100
AcDbEntity
  8
0
  6
Continuous
 62
     7
370
    25
100
AcDbSpline
210
0.0
220
0.0
230
1.0
 70
     8
 71
     3
 72
     9
 73
     5
 74
     0
 42
0.000000001
 43
0.00000001
 40
0.0
 40
0.0
 40
0.0
 40
0.0
 40
0.5
 40
1.0
 40
1.0
 40
1.0
 40
1.0
 10
133.4874029224942
 20
90.53385625959255
 30
0.0
 10
133.5049232849537
 20
90.44885431967445
 30
0.0
 10
133.5560455039362
 20
90.27896040142566
 30
0.0
 10
133.6257388007913
 20
90.15433788413326
 30
0.0
 10
133.6606080032504
 20
90.1116278508631
 30
0.0
  0
SPLINE
  5
FE
330
1F
100
AcDbEntity
  8
0
  6
Continuous
 62
     7
370
    25
100
AcDbSpline
210
0.0
220
0.0
230
1.0
 70
     8
 71
     3
 72
    13
 73
     9
 74
     0
 42
0.000000001
 43
0.00000001
 40
0.0
 40
0.0
 40
0.0
 40
0.0
 40
0.1162222239500744
 40
0.2381780213579675
 40
0.3660917905452749
 40
0.5001580142688472
 40
0.7504239388829979
 40
1.0
 40
1.0
 40
1.0
 40
1.0
 10
136.9275485767064
 20
90.03110508565604
 30
0.0
 10
136.9385326992016
 20
90.01865707503796
 30
0.0
 10
136.9610428222514
 20
89.99314695797007
 30
0.0
 10
136.9891539494162
 20
89.95163978495337
 30
0.0
 10
137.0136779460144
 20
89.90704703424838
 30
0.0
 10
137.0390515308782
 20
89.84654095094442
 30
0.0
 10
137.0589112087507
 20
89.77113716728255
 30
0.0
 10
137.0613260418098
 20
89.71662028230004
 30
0.0
 10
137.0625317919075
 20
89.68939946090707
 30
0.0
  0
SPLINE
  5
FF
330
1F
100
AcDbEntity
  8
0
  6
Continuous
 62
     7
370
    25
100
AcDbSpline
210
0.0
220
0.0
230
1.0
 70
     8
 71
     3
 72
    10
 73
     6
 74
     0
 42
0.000000001
 43
0.00000001
 40
0.0
 40
0.0
 40
0.0
 40
0.0
 40
0.5
 40
0.5
 40
1.0
 40
1.0
 40
1.0
 40
1.0
 10
137.0625317919075
 20
89.68939944213368
 30
0.0
 10
137.0625317919075
 20
89.42760005120535
 30
0.0
 10
137.1703048909852
 20
89.16741277720723
 30
0.0
 10
137.5405451437327
 20
88.79717253141102
 30
0.0
 10
137.8007324197543
 20
88.68939943721836
 30
0.0
 10
138.0625318106826
 20
88.68939944213368
 30
0.0
  0
SPLINE
  5
100
330
1F
100
AcDbEntity
  8
0
  6
Continuous
 62
     7
370
    25
100
AcDbSpline
210
0.0
220
0.0
230
1.0
 70
     8
 71
     3
 72
    12
 73
     8
 74
     0
 42
0.000000001
 43
0.00000001
 40
0.0
 40
0.0
 40
0.0
 40
0.0
 40
0.1664616503807027
 40
0.3330491366093241
 40
0.5001938540683241
 40
0.7619811741357122
 40
1.0
 40
1.0
 40
1.0
 40
1.0
 10
138.0625318106809
 20
88.68939944213368
 30
0.0
 10
138.0805056344327
 20
88.68885706270223
 30
0.0
 10
138.116466869158
 20
88.68777189383034
 30
0.0
 10
138.1741837982314
 20
88.67798874547049
 30
0.0
 10
138.2444685097237
 20
88.65730867369088
 30
0.0
 10
138.3238112641668
 20
88.62100740427427
 30
0.0
 10
138.3782923351899
 20
88.57589822395046
 30
0.0
 10
138.4042374354298
 20
88.55441622693267
 30
0.0
  0
SPLINE
  5
101
330
1F
100
AcDbEntity
  8
0
  6
Continuous
 62
     7
370
    25
100
AcDbSpline
210
0.0
220
0.0
230
1.0
 70
     8
 71
     3
 72
    13
 73
     9
 74
     0
 42
0.000000001
 43
0.00000001
 40
0.0
 40
0.0
 40
0.0
 40
0.0
 40
0.1162222239446788
 40
0.2381780213507807
 40
0.3660917905398808
 40
0.5001580142687957
 40
0.7504239388759752
 40
1.0
 40
1.0
 40
1.0
 40
1.0
 10
123.7208261483851
 20
88.55441622693262
 30
0.0
 10
123.7332741590026
 20
88.56540034942725
 30
0.0
 10
123.7587842760697
 20
88.58791047247642
 30
0.0
 10
123.8002914490855
 20
88.61602159964097
 30
0.0
 10
123.844884199791
 20
88.6405455962398
 30
0.0
 10
123.9053902830954
 20
88.66591918110392
 30
0.0
 10
123.9807940667581
 20
88.68577885897676
 30
0.0
 10
124.0353109517404
 20
88.6881936920359
 30
0.0
 10
124.0625317731341
 20
88.68939944213368
 30
0.0
  0
SPLINE
  5
102
330
1F
100
AcDbEntity
  8
0
  6
Continuous
 62
     7
370
    25
100
AcDbSpline
210
0.0
220
0.0
230
1.0
 70
     8
 71
     3
 72
    10
 73
     6
 74
     0
 42
0.000000001
 43
0.00000001
 40
0.0
 40
0.0
 40
0.0
 40
0.0
 40
0.5
 40
0.5
 40
1.0
 40
1.0
 40
1.0
 40
1.0
 10
124.0625317731324
 20
88.68939944213368
 30
0.0
 10
124.3243311671899
 20
88.68939943721837
 30
0.0
 10
124.5845184462454
 20
88.79717253409854
 30
0.0
 10
124.9547586999426
 20
89.16741278779573
 30
0.0
 10
125.0625317968228
 20
89.42760006685127
 30
0.0
 10
125.0625317919075
 20
89.68939946090879
 30
0.0
  0
SPLINE
  5
103
330
1F
100
AcDbEntity
  8
0
  6
Continuous
 62
     7
370
    25
100
AcDbSpline
210
0.0
220
0.0
230
1.0
 70
     8
 71
     3
 72
    12
 73
     8
 74
     0
 42
0.000000001
 43
0.00000001
 40
0.0
 40
0.0
 40
0.0
 40
0.0
 40
0.1664615763807151
 40
0.3330490665505926
 40
0.500193865880855
 40
0.7619811797519991
 40
1.0
 40
1.0
 40
1.0
 40
1.0
 10
125.0625317919075
 20
89.68939944213368
 30
0.0
 10
125.0630741702393
 20
89.7073732588952
 30
0.0
 10
125.0641593371653
 20
89.74333448805652
 30
0.0
 10
125.0739424824778
 20
89.80105142541682
 30
0.0
 10
125.0946225559062
 20
89.87133615057047
 30
0.0
 10
125.1309238297061
 20
89.95067891417224
 30
0.0
 10
125.1760330100706
 20
90.00515998534416
 30
0.0
 10
125.1975150071085
 20
90.03110508565601
 30
0.0
  0
LINE
  5
104
330
1F
100
AcDbEntity
  8
0
  6
Continuous
 62
     7
370
    25
100
AcDbLine
 10
138.062532008
 20
76.68939939
 30
0.0
 11
124.0625315758
 21
76.68939939
 31
0.0
  0
SPLINE
  5
105
330
1F
100
AcDbEntity
  8
0
  6
Continuous
 62
     7
370
    25
100
AcDbSpline
210
0.0
220
0.0
230
1.0
 70
    24
 71
     3
 72
    14
 73
    10
 74
     0
 42
0.000000001
 43
0.00000001
 40
0.0
 40
0.0
 40
0.0
 40
0.0
 40
0.25
 40
0.25
 40
0.5
 40
0.5
 40
0.75
 40
0.75
 40
1.0
 40
1.0
 40
1.0
 40
1.0
 10
124.0625317919075
 20
76.68939944213368
 30
0.0
 10
124.0625317919075
 20
76.68939944213368
 30
0.0
 10
124.0625317919075
 20
76.70013881154041
 30
0.0
 10
124.0625317919075
 20
76.74887177166451
 30
0.0
 10
124.0625317919075
 20
76.78703051507149
 30
0.0
 10
124.0625317919075
 20
76.88466158800931
 30
0.0
 10
124.0625317919075
 20
76.94380361216079
 30
0.0
 10
124.0625317919075
 20
77.06690056254469
 30
0.0
 10
124.0625317919075
 20
77.1304738770348
 30
0.0
 10
124.0625317919075
 20
77.18939944213368
 30
0.0
  0
SPLINE
  5
106
330
1F
100
AcDbEntity
  8
0
  6
Continuous
 62
     7
370
    25
100
AcDbSpline
210
0.0
220
0.0
230
1.0
 70
    24
 71
     3
 72
    10
 73
     6
 74
     0
 42
0.000000001
 43
0.00000001
 40
0.0
 40
0.0
 40
0.0
 40
0.0
 40
0.5
 40
0.5
 40
1.0
 40
1.0
 40
1.0
 40
1.0
 10
138.0625317919075
 20
76.68939944213368
 30
0.0
 10
138.0625317919076
 20
76.68939944213368
 30
0.0
 10
138.0625317919076
 20
76.74328599032877
 30
0.0
 10
138.0625317919076
 20
76.92840611275203
 30
0.0
 10
138.0625317919076
 20
77.0584997482341
 30
0.0
 10
138.0625317919075
 20
77.18939944213368
 30
0.0
  0
SPLINE
  5
107
330
1F
100
AcDbEntity
  8
0
  6
Continuous
 62
     7
370
    25
100
AcDbSpline
210
0.0
220
0.0
230
1.0
 70
     8
 71
     3
 72
    14
 73
    10
 74
     0
 42
0.000000001
 43
0.00000001
 40
0.0
 40
0.0
 40
0.0
 40
0.0
 40
0.25
 40
0.25
 40
0.5
 40
0.5
 40
0.75
 40
0.75
 40
1.0
 40
1.0
 40
1.0
 40
1.0
 10
138.0625317919075
 20
76.68939944213368
 30
0.0
 10
138.1214573570064
 20
76.68939944213368
 30
0.0
 10
138.1850306714965
 20
76.70013881154041
 30
0.0
 10
138.3081276218804
 20
76.7488717716645
 30
0.0
 10
138.3672696460318
 20
76.78703051507149
 30
0.0
 10
138.4649007189697
 20
76.8846615880093
 30
0.0
 10
138.5030594623767
 20
76.94380361216079
 30
0.0
 10
138.5517924225008
 20
77.06690056254467
 30
0.0
 10
138.5625317919075
 20
77.1304738770348
 30
0.0
 10
138.5625317919075
 20
77.18939944213368
 30
0.0
  0
SPLINE
  5
108
330
1F
100
AcDbEntity
  8
0
  6
Continuous
 62
     7
370
    25
100
AcDbSpline
210
0.0
220
0.0
230
1.0
 70
     8
 71
     3
 72
    10
 73
     6
 74
     0
 42
0.000000001
 43
0.00000001
 40
0.0
 40
0.0
 40
0.0
 40
0.0
 40
0.5
 40
0.5
 40
1.0
 40
1.0
 40
1.0
 40
1.0
 10
124.0625317919075
 20
76.68939944213368
 30
0.0
 10
123.9316320980079
 20
76.68939944213368
 30
0.0
 10
123.8015384625258
 20
76.74328599032877
 30
0.0
 10
123.6164183401026
 20
76.92840611275203
 30
0.0
 10
123.5625317919075
 20
77.0584997482341
 30
0.0
 10
123.5625317919075
 20
77.18939944213368
 30
0.0
  0
SPLINE
  5
109
330
1F
100
AcDbEntity
  8
0
  6
Continuous
 62
     7
370
    25
100
AcDbSpline
210
0.0
220
0.0
230
1.0
 70
     8
 71
     3
 72
    15
 73
    11
 74
     0
 42
0.000000001
 43
0.00000001
 40
0.0
 40
0.0
 40
0.0
 40
0.0
 40
0.1247517205531464
 40
0.2498857245441838
 40
0.3745674687454417
 40
0.4993106804387823
 40
0.6244677860264319
 40
0.7493917290903895
 40
0.8741574726928457
 40
1.0
 40
1.0
 40
1.0
 40
1.0
 10
134.7991909032484
 20
79.32486704256061
 30
0.0
 10
134.7934997784587
 20
79.32523178505016
 30
0.0
 10
134.7821000892579
 20
79.32596238772935
 30
0.0
 10
134.7658532916928
 20
79.331814344988
 30
0.0
 10
134.7512853645244
 20
79.34090853579693
 30
0.0
 10
134.739238285543
 20
79.353217060211
 30
0.0
 10
134.7304833843669
 20
79.36808079298117
 30
0.0
 10
134.7257694981998
 20
79.38463295179953
 30
0.0
 10
134.7250953573093
 20
79.40199780862748
 30
0.0
 10
134.7283182677695
 20
79.41300801644408
 30
0.0
 10
134.729936646908
 20
79.41853677402571
 30
0.0
  0
SPLINE
  5
10A
330
1F
100
AcDbEntity
  8
0
  6
Continuous
 62
     7
370
    25
100
AcDbSpline
210
0.0
220
0.0
230
1.0
 70
     8
 71
     3
 72
    15
 73
    11
 74
     0
 42
0.000000001
 43
0.00000001
 40
0.0
 40
0.0
 40
0.0
 40
0.0
 40
0.1255482376299943
 40
0.2506612331927046
 40
0.3755698012986847
 40
0.5003109015749712
 40
0.6252467103373207
 40
0.7502075817355112
 40
0.874985997901262
 40
1.0
 40
1.0
 40
1.0
 40
1.0
 10
135.3951269374115
 20
79.41853677377998
 30
0.0
 10
135.3967419828788
 20
79.41302158707697
 30
0.0
 10
135.3999664748838
 20
79.40201033334404
 30
0.0
 10
135.3993089711656
 20
79.38464127407467
 30
0.0
 10
135.3945784100417
 20
79.36809643344186
 30
0.0
 10
135.3858318369086
 20
79.35324526403241
 30
0.0
 10
135.3738021318462
 20
79.34091477506794
 30
0.0
 10
135.3592241831235
 20
79.33182236757462
 30
0.0
 10
135.3429707395426
 20
79.3259706945261
 30
0.0
 10
135.3315756161771
 20
79.32523515778392
 30
0.0
 10
135.3258726809711
 20
79.32486704256061
 30
0.0
  0
LINE
  5
10B
330
1F
100
AcDbEntity
  8
0
  6
Continuous
 62
     7
370
    25
100
AcDbLine
 10
135.3951268311
 20
79.4185368181
 30
0.0
 11
135.1317860599
 21
80.1213587005
 31
0.0
  0
LINE
  5
10C
330
1F
100
AcDbEntity
  8
0
  6
Continuous
 62
     7
370
    25
100
AcDbLine
 10
134.9932774383
 20
80.1213587005
 30
0.0
 11
134.7299366671
 21
79.4185368181
 31
0.0
  0
SPLINE
  5
10D
330
1F
100
AcDbEntity
  8
0
  6
Continuous
 62
     7
370
    25
100
AcDbSpline
210
0.0
220
0.0
230
1.0
 70
     8
 71
     3
 72
    31
 73
    27
 74
     0
 42
0.000000001
 43
0.00000001
 40
0.0
 40
0.0
 40
0.0
 40
0.0
 40
0.041802146707033
 40
0.0834773119907251
 40
0.1252067539465352
 40
0.1667553111646444
 40
0.208343789897431
 40
0.2500683763875439
 40
0.2917172802014936
 40
0.3332298152280506
 40
0.3749213178163661
 40
0.4166401475748497
 40
0.4581957047388333
 40
0.4998271904370101
 40
0.5415736637950209
 40
0.5832410842716478
 40
0.624816154537611
 40
0.6665619264699779
 40
0.7082962697793289
 40
0.7498773808560844
 40
0.7916005699338539
 40
0.8333637303001521
 40
0.8749600854558802
 40
0.9166279211224443
 40
0.9583871623503707
 40
1.0
 40
1.0
 40
1.0
 40
1.0
 10
134.9932775372665
 20
80.12135859064294
 30
0.0
 10
134.9942183829266
 20
80.12364692605449
 30
0.0
 10
134.9960972162615
 20
80.12821664565357
 30
0.0
 10
134.9998410582889
 20
80.13462860347497
 30
0.0
 10
135.0041691918507
 20
80.14062862590572
 30
0.0
 10
135.0091088846891
 20
80.14613598156753
 30
0.0
 10
135.0145976355208
 20
80.1510927126265
 30
0.0
 10
135.0205602985594
 20
80.15547673916528
 30
0.0
 10
135.0269218469653
 20
80.15925028578326
 30
0.0
 10
135.0336286672239
 20
80.16236470696796
 30
0.0
 10
135.040611962024
 20
80.16480675954226
 30
0.0
 10
135.0477983158935
 20
80.16657285477706
 30
0.0
 10
135.0551178621171
 20
80.16764153148412
 30
0.0
 10
135.0625082990565
 20
80.16798976333834
 30
0.0
 10
135.0699044662656
 20
80.16763625025628
 30
0.0
 10
135.0772313233701
 20
80.16658521031864
 30
0.0
 10
135.0844207251553
 20
80.16482310412377
 30
0.0
 10
135.0914083266646
 20
80.16236976680344
 30
0.0
 10
135.0981279781464
 20
80.15925505475694
 30
0.0
 10
135.1045043655016
 20
80.15548820216415
 30
0.0
 10
135.1104668515302
 20
80.15109237563861
 30
0.0
 10
135.1159597713743
 20
80.14612178610899
 30
0.0
 10
135.1209154952435
 20
80.14061596049123
 30
0.0
 10
135.1252393929715
 20
80.13460688267777
 30
0.0
 10
135.1289686165337
 20
80.12819840868193
 30
0.0
 10
135.1308480056337
 20
80.12363585933677
 30
0.0
 10
135.1317860500552
 20
80.12135859064294
 30
0.0
  0
LINE
  5
10E
330
1F
100
AcDbEntity
  8
0
  6
Continuous
 62
     7
370
    25
100
AcDbLine
 10
134.7991909779
 20
79.3248669547
 30
0.0
 11
135.3258727531
 21
79.3248669547
 31
0.0
  0
SPLINE
  5
10F
330
1F
100
AcDbEntity
  8
0
  6
Continuous
 62
     7
370
    25
100
AcDbSpline
210
0.0
220
0.0
230
1.0
 70
     8
 71
     3
 72
     9
 73
     5
 74
     0
 42
0.000000001
 43
0.00000001
 40
0.0
 40
0.0
 40
0.0
 40
0.0
 40
0.5
 40
1.0
 40
1.0
 40
1.0
 40
1.0
 10
123.0625317919075
 20
79.19718588114466
 30
0.0
 10
123.1934314858071
 20
79.19718588114466
 30
0.0
 10
123.4542479217225
 20
79.1431643954452
 30
0.0
 10
123.5625317919075
 20
79.0130462962405
 30
0.0
 10
123.5625317919075
 20
78.94774205535973
 30
0.0
  0
SPLINE
  5
110
330
1F
100
AcDbEntity
  8
0
  6
Continuous
 62
     7
370
    25
100
AcDbSpline
210
0.0
220
0.0
230
1.0
 70
     8
 71
     3
 72
     9
 73
     5
 74
     0
 42
0.000000001
 43
0.00000001
 40
0.0
 40
0.0
 40
0.0
 40
0.0
 40
0.5
 40
1.0
 40
1.0
 40
1.0
 40
1.0
 10
139.0625317919075
 20
86.18161300312269
 30
0.0
 10
138.9316320980079
 20
86.18161300312269
 30
0.0
 10
138.6708156620925
 20
86.23563448882216
 30
0.0
 10
138.5625317919075
 20
86.36575258802685
 30
0.0
 10
138.5625317919075
 20
86.43105682890761
 30
0.0
  0
SPLINE
  5
111
330
1F
100
AcDbEntity
  8
0
  6
Continuous
 62
     7
370
    25
100
AcDbSpline
210
0.0
220
0.0
230
1.0
 70
     8
 71
     3
 72
     9
 73
     5
 74
     0
 42
0.000000001
 43
0.00000001
 40
0.0
 40
0.0
 40
0.0
 40
0.0
 40
0.5
 40
1.0
 40
1.0
 40
1.0
 40
1.0
 10
127.5703182309185
 20
90.68939944213368
 30
0.0
 10
127.5703182309185
 20
90.5584997482341
 30
0.0
 10
127.516296745219
 20
90.29768331231864
 30
0.0
 10
127.3861786460143
 20
90.18939944213368
 30
0.0
 10
127.3208744051336
 20
90.18939944213368
 30
0.0
  0
SPLINE
  5
112
330
1F
100
AcDbEntity
  8
0
  6
Continuous
 62
     7
370
    25
100
AcDbSpline
210
0.0
220
0.0
230
1.0
 70
     8
 71
     3
 72
     9
 73
     5
 74
     0
 42
0.000000001
 43
0.00000001
 40
0.0
 40
0.0
 40
0.0
 40
0.0
 40
0.5
 40
1.0
 40
1.0
 40
1.0
 40
1.0
 10
134.8041891786814
 20
90.18939944213368
 30
0.0
 10
134.7388849378007
 20
90.18939944213368
 30
0.0
 10
134.608766838596
 20
90.29768331231864
 30
0.0
 10
134.5547453528965
 20
90.5584997482341
 30
0.0
 10
134.5547453528965
 20
90.68939944213368
 30
0.0
  0
SPLINE
  5
113
330
1F
100
AcDbEntity
  8
0
  6
Continuous
 62
     7
370
    25
100
AcDbSpline
210
0.0
220
0.0
230
1.0
 70
     8
 71
     3
 72
     9
 73
     5
 74
     0
 42
0.000000001
 43
0.00000001
 40
0.0
 40
0.0
 40
0.0
 40
0.0
 40
0.5
 40
1.0
 40
1.0
 40
1.0
 40
1.0
 10
138.5625317919075
 20
78.94774205535973
 30
0.0
 10
138.5625317919075
 20
79.0130462962405
 30
0.0
 10
138.6708156620925
 20
79.1431643954452
 30
0.0
 10
138.9316320980079
 20
79.19718588114466
 30
0.0
 10
139.0625317919075
 20
79.19718588114466
 30
0.0
  0
SPLINE
  5
114
330
1F
100
AcDbEntity
  8
0
  6
Continuous
 62
     7
370
    25
100
AcDbSpline
210
0.0
220
0.0
230
1.0
 70
     8
 71
     3
 72
     9
 73
     5
 74
     0
 42
0.000000001
 43
0.00000001
 40
0.0
 40
0.0
 40
0.0
 40
0.0
 40
0.5
 40
1.0
 40
1.0
 40
1.0
 40
1.0
 10
123.5625317919075
 20
86.43105682890761
 30
0.0
 10
123.5625317919075
 20
86.36575258802685
 30
0.0
 10
123.4542479217225
 20
86.23563448882216
 30
0.0
 10
123.1934314858071
 20
86.18161300312269
 30
0.0
 10
123.0625317919075
 20
86.18161300312269
 30
0.0
  0
LINE
  5
115
330
1F
100
AcDbEntity
  8
0
  6
Continuous
 62
     7
370
    25
100
AcDbLine
 10
123.5524103458
 20
77.1347569138
 30
0.0
 11
123.5625319595
 21
77.189305874
 31
0.0
  0
SPLINE
  5
116
330
1F
100
AcDbEntity
  8
0
  6
Continuous
 62
     7
370
    25
100
AcDbSpline
210
0.0
220
0.0
230
1.0
 70
     8
 71
     3
 72
    11
 73
     7
 74
     0
 42
0.000000001
 43
0.00000001
 40
0.0
 40
0.0
 40
0.0
 40
0.0
 40
0.2813371813345898
 40
0.4847351098322705
 40
0.7599089647777694
 40
1.0
 40
1.0
 40
1.0
 40
1.0
 10
123.0625317919075
 20
76.62273277546701
 30
0.0
 10
123.0874397093368
 20
76.64710808243474
 30
0.0
 10
123.1303552672219
 20
76.68910596925565
 30
0.0
 10
123.197481886206
 20
76.74749547684847
 30
0.0
 10
123.2614215254686
 20
76.79752715713903
 30
0.0
 10
123.3065529255266
 20
76.82570108253404
 30
0.0
 10
123.327582195651
 20
76.83882890677249
 30
0.0
  0
LINE
  5
117
330
1F
100
AcDbEntity
  8
0
  6
Continuous
 62
     7
370
    25
100
AcDbLine
 10
123.878799327
 20
76.7244273633
 30
0.0
 11
124.0624384436
 21
76.68939939
 31
0.0
  0
SPLINE
  5
118
330
1F
100
AcDbEntity
  8
0
  6
Continuous
 62
     7
370
    25
100
AcDbSpline
210
0.0
220
0.0
230
1.0
 70
     8
 71
     3
 72
    12
 73
     8
 74
     0
 42
0.000000001
 43
0.00000001
 40
0.0
 40
0.0
 40
0.0
 40
0.0
 40
0.156133543665343
 40
0.327879147000269
 40
0.5152978781378685
 40
0.7186269797895557
 40
1.0
 40
1.0
 40
1.0
 40
1.0
 10
138.7974803014076
 20
76.838849995574
 30
0.0
 10
138.8111317798463
 20
76.83051927469815
 30
0.0
 10
138.8397997713662
 20
76.81302482993922
 30
0.0
 10
138.885372355025
 20
76.78034133433196
 30
0.0
 10
138.935318121827
 20
76.74086213737127
 30
0.0
 10
138.9947046306148
 20
76.68907542414736
 30
0.0
 10
139.0376194403938
 20
76.64709987786044
 30
0.0
 10
139.0625317919075
 20
76.62273277546701
 30
0.0
  0
LINE
  5
119
330
1F
100
AcDbEntity
  8
0
  6
Continuous
 62
     7
370
    25
100
AcDbLine
 10
138.5625316243
 20
77.1893701353
 30
0.0
 11
138.5808246623
 21
77.135633754
 31
0.0
  0
SPLINE
  5
11A
330
1F
100
AcDbEntity
  8
0
  6
Continuous
 62
     7
370
    25
100
AcDbSpline
210
0.0
220
0.0
230
1.0
 70
     8
 71
     3
 72
     9
 73
     5
 74
     0
 42
0.000000001
 43
0.00000001
 40
0.0
 40
0.0
 40
0.0
 40
0.0
 40
0.5
 40
1.0
 40
1.0
 40
1.0
 40
1.0
 10
136.1958651252408
 20
90.68939944213368
 30
0.0
 10
136.1958651252408
 20
90.5584997482341
 30
0.0
 10
136.2752753386476
 20
90.29768609677933
 30
0.0
 10
136.4665386830478
 20
90.18939944213368
 30
0.0
 10
136.5625317919075
 20
90.18939944213368
 30
0.0
  0
SPLINE
  5
11B
330
1F
100
AcDbEntity
  8
0
  6
Continuous
 62
     7
370
    25
100
AcDbSpline
210
0.0
220
0.0
230
1.0
 70
     8
 71
     3
 72
     9
 73
     5
 74
     0
 42
0.000000001
 43
0.00000001
 40
0.0
 40
0.0
 40
0.0
 40
0.0
 40
0.5
 40
1.0
 40
1.0
 40
1.0
 40
1.0
 10
123.0625317919075
 20
87.82273277546702
 30
0.0
 10
123.1934314858071
 20
87.82273277546702
 30
0.0
 10
123.4542451372618
 20
87.90214298887383
 30
0.0
 10
123.5625317919075
 20
88.09340633327399
 30
0.0
 10
123.5625317919075
 20
88.18939944213368
 30
0.0
  0
SPLINE
  5
11C
330
1F
100
AcDbEntity
  8
0
  6
Continuous
 62
     7
370
    25
100
AcDbSpline
210
0.0
220
0.0
230
1.0
 70
     8
 71
     3
 72
     9
 73
     5
 74
     0
 42
0.000000001
 43
0.00000001
 40
0.0
 40
0.0
 40
0.0
 40
0.0
 40
0.5
 40
1.0
 40
1.0
 40
1.0
 40
1.0
 10
138.5625317919075
 20
88.18939944213368
 30
0.0
 10
138.5625317919075
 20
88.09340633327399
 30
0.0
 10
138.6708184465532
 20
87.90214298887383
 30
0.0
 10
138.9316320980079
 20
87.82273277546702
 30
0.0
 10
139.0625317919075
 20
87.82273277546702
 30
0.0
  0
SPLINE
  5
11D
330
1F
100
AcDbEntity
  8
0
  6
Continuous
 62
     7
370
    25
100
AcDbSpline
210
0.0
220
0.0
230
1.0
 70
     8
 71
     3
 72
     9
 73
     5
 74
     0
 42
0.000000001
 43
0.00000001
 40
0.0
 40
0.0
 40
0.0
 40
0.0
 40
0.5
 40
1.0
 40
1.0
 40
1.0
 40
1.0
 10
125.5625317919075
 20
90.18939944213368
 30
0.0
 10
125.6585249007672
 20
90.18939944213368
 30
0.0
 10
125.8497882451673
 20
90.29768609677933
 30
0.0
 10
125.9291984585742
 20
90.5584997482341
 30
0.0
 10
125.9291984585742
 20
90.68939944213368
 30
0.0
  0
SPLINE
  5
11E
330
1F
100
AcDbEntity
  8
0
  6
Continuous
 62
     7
370
    25
100
AcDbSpline
210
0.0
220
0.0
230
1.0
 70
     8
 71
     3
 72
     8
 73
     4
 74
     0
 42
0.000000001
 43
0.00000001
 40
0.0
 40
0.0
 40
0.0
 40
0.0
 40
1.0
 40
1.0
 40
1.0
 40
1.0
 10
136.7780078584016
 20
90.47104381557814
 30
0.0
 10
136.7362759552466
 20
90.31414995566877
 30
0.0
 10
136.7742627465775
 20
90.16012277738771
 30
0.0
 10
136.8743939703865
 20
90.0802216288559
 30
0.0
  0
SPLINE
  5
11F
330
1F
100
AcDbEntity
  8
0
  6
Continuous
 62
     7
370
    25
100
AcDbSpline
210
0.0
220
0.0
230
1.0
 70
     8
 71
     3
 72
     9
 73
     5
 74
     0
 42
0.000000001
 43
0.00000001
 40
0.0
 40
0.0
 40
0.0
 40
0.0
 40
0.5
 40
1.0
 40
1.0
 40
1.0
 40
1.0
 10
138.844176165352
 20
88.40487550862775
 30
0.0
 10
138.7657292353973
 20
88.38400955705028
 30
0.0
 10
138.6089340143093
 20
88.37967774239972
 30
0.0
 10
138.4933045528956
 20
88.45119600870818
 30
0.0
 10
138.4533539786297
 20
88.50126162061264
 30
0.0
  0
SPLINE
  5
120
330
1F
100
AcDbEntity
  8
0
  6
Continuous
 62
     7
370
    25
100
AcDbSpline
210
0.0
220
0.0
230
1.0
 70
     8
 71
     3
 72
     9
 73
     5
 74
     0
 42
0.000000001
 43
0.00000001
 40
0.0
 40
0.0
 40
0.0
 40
0.0
 40
0.5
 40
1.0
 40
1.0
 40
1.0
 40
1.0
 10
125.3470557254134
 20
90.47104381557814
 30
0.0
 10
125.3679216769909
 20
90.39259688562346
 30
0.0
 10
125.3722534916415
 20
90.23580166453546
 30
0.0
 10
125.300735225333
 20
90.12017220312181
 30
0.0
 10
125.2506696134285
 20
90.08022162885591
 30
0.0
  0
SPLINE
  5
121
330
1F
100
AcDbEntity
  8
0
  6
Continuous
 62
     7
370
    25
100
AcDbSpline
210
0.0
220
0.0
230
1.0
 70
     8
 71
     3
 72
     9
 73
     5
 74
     0
 42
0.000000001
 43
0.00000001
 40
0.0
 40
0.0
 40
0.0
 40
0.0
 40
0.5
 40
1.0
 40
1.0
 40
1.0
 40
1.0
 10
123.6717096051853
 20
88.50126162061264
 30
0.0
 10
123.6317590309194
 20
88.45119600870818
 30
0.0
 10
123.5161295695057
 20
88.37967774239972
 30
0.0
 10
123.3593343484177
 20
88.38400955705028
 30
0.0
 10
123.280887418463
 20
88.40487550862775
 30
0.0
  0
SPLINE
  5
122
330
1F
100
AcDbEntity
  8
0
  6
Continuous
 62
     7
370
    25
100
AcDbSpline
210
0.0
220
0.0
230
1.0
 70
     8
 71
     3
 72
    10
 73
     6
 74
     0
 42
0.000000001
 43
0.00000001
 40
0.0
 40
0.0
 40
0.0
 40
0.0
 40
0.499999999999999
 40
0.499999999999999
 40
1.0
 40
1.0
 40
1.0
 40
1.0
 10
138.7974803014076
 20
76.838849995574
 30
0.0
 10
138.7639007787341
 20
76.79290652215595
 30
0.0
 10
138.7220939509821
 20
76.75418928775758
 30
0.0
 10
138.6301751674278
 20
76.70235741125846
 30
0.0
 10
138.5803410558855
 20
76.68939944213368
 30
0.0
 10
138.5324443042257
 20
76.68939944213368
 30
0.0
  0
SPLINE
  5
123
330
1F
100
AcDbEntity
  8
0
  6
Continuous
 62
     7
370
    25
100
AcDbSpline
210
0.0
220
0.0
230
1.0
 70
    24
 71
     3
 72
    11
 73
     7
 74
     0
 42
0.000000001
 43
0.00000001
 40
0.0
 40
0.0
 40
0.0
 40
0.0
 40
0.2767778395911417
 40
0.5553076326901417
 40
0.8530198398008104
 40
1.0
 40
1.0
 40
1.0
 40
1.0
 10
138.5324443171739
 20
76.68939938997961
 30
0.0
 10
138.462923894047
 20
76.68939938997961
 30
0.0
 10
138.323442996128
 20
76.68939938997961
 30
0.0
 10
138.1877069918698
 20
76.68939938997961
 30
0.0
 10
138.1009066355296
 20
76.68939938997961
 30
0.0
 10
138.0885214358037
 20
76.68939938997961
 30
0.0
 10
138.0844278673648
 20
76.68939938997961
 30
0.0
  0
SPLINE
  5
124
330
1F
100
AcDbEntity
  8
0
  6
Continuous
 62
     7
370
    25
100
AcDbSpline
210
0.0
220
0.0
230
1.0
 70
     8
 71
     3
 72
    10
 73
     6
 74
     0
 42
0.000000001
 43
0.00000001
 40
0.0
 40
0.0
 40
0.0
 40
0.0
 40
0.5
 40
0.5
 40
1.0
 40
1.0
 40
1.0
 40
1.0
 10
123.327582195651
 20
76.83882890677249
 30
0.0
 10
123.361157401256
 20
76.79289186618665
 30
0.0
 10
123.4029587179578
 20
76.75418011136982
 30
0.0
 10
123.4948652490599
 20
76.7023555759809
 30
0.0
 10
123.5446926634379
 20
76.68939944213368
 30
0.0
 10
123.5925830034024
 20
76.68939944213368
 30
0.0
  0
SPLINE
  5
125
330
1F
100
AcDbEntity
  8
0
  6
Continuous
 62
     7
370
    25
100
AcDbSpline
210
0.0
220
0.0
230
1.0
 70
    24
 71
     3
 72
    11
 73
     7
 74
     0
 42
0.000000001
 43
0.00000001
 40
0.0
 40
0.0
 40
0.0
 40
0.0
 40
0.2043000103634868
 40
0.4140672716802192
 40
0.7075943768723066
 40
1.0
 40
1.0
 40
1.0
 40
1.0
 10
124.0402939210653
 20
76.68939938997961
 30
0.0
 10
124.0279101357291
 20
76.68939938997961
 30
0.0
 10
124.0028111638883
 20
76.68939938997961
 30
0.0
 10
123.9219067145738
 20
76.68939938997961
 30
0.0
 10
123.8006281558534
 20
76.68939938997961
 30
0.0
 10
123.6618428030645
 20
76.68939938997961
 30
0.0
 10
123.5925829450607
 20
76.68939938997961
 30
0.0
  0
SPLINE
  5
126
330
1F
100
AcDbEntity
  8
0
  6
Continuous
 62
     7
370
    25
100
AcDbSpline
210
0.0
220
0.0
230
1.0
 70
    24
 71
     3
 72
     8
 73
     4
 74
     0
 42
0.000000001
 43
0.00000001
 40
0.0
 40
0.0
 40
0.0
 40
0.0
 40
1.0
 40
1.0
 40
1.0
 40
1.0
 10
138.0625317919075
 20
88.75606610880034
 30
0.0
 10
138.0625317919075
 20
88.71263670632852
 30
0.0
 10
138.0625317919075
 20
88.68939944213368
 30
0.0
 10
138.0625317919075
 20
88.68939944213368
 30
0.0
  0
SPLINE
  5
127
330
1F
100
AcDbEntity
  8
0
  6
Continuous
 62
     7
370
    25
100
AcDbSpline
210
0.0
220
0.0
230
1.0
 70
    24
 71
     3
 72
     8
 73
     4
 74
     0
 42
0.000000001
 43
0.00000001
 40
0.0
 40
0.0
 40
0.0
 40
0.0
 40
1.0
 40
1.0
 40
1.0
 40
1.0
 10
124.9958651252408
 20
89.68939944213368
 30
0.0
 10
125.0392945277126
 20
89.68939944213368
 30
0.0
 10
125.0625317919075
 20
89.68939944213368
 30
0.0
 10
125.0625317919075
 20
89.68939944213368
 30
0.0
  0
SPLINE
  5
128
330
1F
100
AcDbEntity
  8
0
  6
Continuous
 62
     7
370
    25
100
AcDbSpline
210
0.0
220
0.0
230
1.0
 70
    24
 71
     3
 72
     8
 73
     4
 74
     0
 42
0.000000001
 43
0.00000001
 40
0.0
 40
0.0
 40
0.0
 40
0.0
 40
1.0
 40
1.0
 40
1.0
 40
1.0
 10
124.0625317919075
 20
88.68939944213368
 30
0.0
 10
124.0625317919075
 20
88.68939944213368
 30
0.0
 10
124.0625317919075
 20
88.71263670632852
 30
0.0
 10
124.0625317919075
 20
88.75606610880035
 30
0.0
  0
SPLINE
  5
129
330
1F
100
AcDbEntity
  8
0
  6
Continuous
 62
     7
370
    25
100
AcDbSpline
210
0.0
220
0.0
230
1.0
 70
    24
 71
     3
 72
     8
 73
     4
 74
     0
 42
0.000000001
 43
0.00000001
 40
0.0
 40
0.0
 40
0.0
 40
0.0
 40
1.0
 40
1.0
 40
1.0
 40
1.0
 10
137.1291984585742
 20
89.68939944213368
 30
0.0
 10
137.0857690561024
 20
89.68939944213368
 30
0.0
 10
137.0625317919075
 20
89.68939944213368
 30
0.0
 10
137.0625317919075
 20
89.68939944213368
 30
0.0
  0
SPLINE
  5
12A
330
1F
100
AcDbEntity
  8
0
  6
Continuous
 62
     7
370
    25
100
AcDbSpline
210
0.0
220
0.0
230
1.0
 70
     8
 71
     3
 72
    11
 73
     7
 74
     0
 42
0.000000001
 43
0.00000001
 40
0.0
 40
0.0
 40
0.0
 40
0.0
 40
0.2796925902103931
 40
0.4824920995717302
 40
0.7583389673489331
 40
0.9999999999999999
 40
0.9999999999999999
 40
0.9999999999999999
 40
0.9999999999999999
 10
139.0625317919075
 20
76.62273277546701
 30
0.0
 10
139.0125341302626
 20
76.63352225441132
 30
0.0
 10
138.9262841630304
 20
76.65213496898201
 30
0.0
 10
138.7912997163675
 20
76.67256611962526
 30
0.0
 10
138.6640081736529
 20
76.68651116546576
 30
0.0
 10
138.5743241272269
 20
76.68848003685808
 30
0.0
 10
138.5324443042257
 20
76.68939944213368
 30
0.0
  0
SPLINE
  5
12B
330
1F
100
AcDbEntity
  8
0
  6
Continuous
 62
     7
370
    25
100
AcDbSpline
210
0.0
220
0.0
230
1.0
 70
     8
 71
     3
 72
    12
 73
     8
 74
     0
 42
0.000000001
 43
0.00000001
 40
0.0
 40
0.0
 40
0.0
 40
0.0
 40
0.1573492972449686
 40
0.3298380470016292
 40
0.5175259235705421
 40
0.7203120516631307
 40
1.0
 40
1.0
 40
1.0
 40
1.0
 10
123.5925830034024
 20
76.68939944213368
 30
0.0
 10
123.5653759458746
 20
76.68900427868577
 30
0.0
 10
123.5083440882384
 20
76.68817593091312
 30
0.0
 10
123.4175670314812
 20
76.68157549180953
 30
0.0
 10
123.3180978107559
 20
76.67028088012466
 30
0.0
 10
123.1987631160189
 20
76.65210073466022
 30
0.0
 10
123.1125241272664
 20
76.63350983334537
 30
0.0
 10
123.0625317919075
 20
76.62273277546701
 30
0.0
  0
SPLINE
  5
12C
330
1F
100
AcDbEntity
  8
0
  6
Continuous
 62
     7
370
    25
100
AcDbSpline
210
0.0
220
0.0
230
1.0
 70
     8
 71
     3
 72
     9
 73
     5
 74
     0
 42
0.000000001
 43
0.00000001
 40
0.0
 40
0.0
 40
0.0
 40
0.0
 40
0.5
 40
1.0
 40
1.0
 40
1.0
 40
1.0
 10
137.2658819606838
 20
89.33584605153688
 30
0.0
 10
137.287866108433
 20
89.23343328355686
 30
0.0
 10
137.4021364999051
 20
89.02900415013123
 30
0.0
 10
137.6065656333307
 20
88.91473375865922
 30
0.0
 10
137.7089784013107
 20
88.89274961091
 30
0.0
  0
SPLINE
  5
12D
330
1F
100
AcDbEntity
  8
0
  6
Continuous
 62
     7
370
    25
100
AcDbSpline
210
0.0
220
0.0
230
1.0
 70
     8
 71
     3
 72
     9
 73
     5
 74
     0
 42
0.000000001
 43
0.00000001
 40
0.0
 40
0.0
 40
0.0
 40
0.0
 40
0.5
 40
1.0
 40
1.0
 40
1.0
 40
1.0
 10
124.4160851825008
 20
88.89274961091327
 30
0.0
 10
124.5184979504809
 20
88.91473375866244
 30
0.0
 10
124.7229270839067
 20
89.02900415013443
 30
0.0
 10
124.8371974753787
 20
89.23343328356026
 30
0.0
 10
124.8591816231279
 20
89.3358460515404
 30
0.0
  0
LINE
  5
12E
330
1F
100
AcDbEntity
  8
0
  6
Continuous
 62
     8
370
    25
100
AcDbLine
 10
117.5625314417
 20
82.6893994421
 30
0.0
 11
117.5625314417
 21
91.6893990547
 31
0.0
  0
LINE
  5
12F
330
1F
100
AcDbEntity
  8
0
  6
Continuous
 62
     8
370
    25
100
AcDbLine
 10
117.5625314417
 20
73.6893998296
 30
0.0
 11
117.5625314417
 21
82.6893994421
 31
0.0
  0
LINE
  5
130
330
1F
100
AcDbEntity
  8
0
  6
Continuous
 62
     8
370
    25
100
AcDbLine
 10
122.0625321793
 20
96.1893997923
 30
0.0
 11
140.0625314045
 21
96.1893997923
 31
0.0
  0
LINE
  5
131
330
1F
100
AcDbEntity
  8
0
  6
Continuous
 62
     8
370
    25
100
AcDbLine
 10
144.5625321421
 20
91.6893990547
 30
0.0
 11
144.5625321421
 21
73.6893998296
 31
0.0
  0
LINE
  5
132
330
1F
100
AcDbEntity
  8
0
  6
Continuous
 62
     8
370
    25
100
AcDbLine
 10
123.2625320035
 20
94.7197057143
 30
0.0
 11
138.8625315803
 21
94.7197057143
 31
0.0
  0
LINE
  5
133
330
1F
100
AcDbEntity
  8
0
  6
Continuous
 62
     8
370
    25
100
AcDbLine
 10
143.0928380641
 20
90.4893992305
 30
0.0
 11
143.0928380641
 21
74.8893996537
 31
0.0
  0
LINE
  5
134
330
1F
100
AcDbEntity
  8
0
  6
Continuous
 62
     8
370
    25
100
AcDbLine
 10
119.0322255197
 20
74.8893996537
 30
0.0
 11
119.0322255197
 21
90.4893992305
 31
0.0
  0
LINE
  5
135
330
1F
100
AcDbEntity
  8
0
  6
Continuous
 62
     8
370
    25
100
AcDbLine
 10
120.0120215717
 20
89.6893996582
 30
0.0
 11
120.0120215717
 21
75.6893992261
 31
0.0
  0
LINE
  5
136
330
1F
100
AcDbEntity
  8
0
  6
Continuous
 62
     8
370
    25
100
AcDbLine
 10
138.062532008
 20
93.7399096624
 30
0.0
 11
124.0625315758
 21
93.7399096624
 31
0.0
  0
LINE
  5
137
330
1F
100
AcDbEntity
  8
0
  6
Continuous
 62
     8
370
    25
100
AcDbLine
 10
142.1130420121
 20
75.6893992261
 30
0.0
 11
142.1130420121
 21
89.6893996582
 31
0.0
  0
SPLINE
  5
138
330
1F
100
AcDbEntity
  8
0
  6
Continuous
 62
     8
370
    25
100
AcDbSpline
210
0.0
220
0.0
230
1.0
 70
     8
 71
     3
 72
    19
 73
    15
 74
     0
 42
0.000000001
 43
0.00000001
 40
0.0
 40
0.0
 40
0.0
 40
0.0
 40
0.0606727911926113
 40
0.1214874002643155
 40
0.1825081921994686
 40
0.2437988823923964
 40
0.3054223490615667
 40
0.3674404582586578
 40
0.4299139036293041
 40
0.4929020625848005
 40
0.6146975824539129
 40
0.7395812568283596
 40
0.8679067285909485
 40
1.0
 40
1.0
 40
1.0
 40
1.0
 10
138.5625317919091
 20
89.68939944213368
 30
0.0
 10
138.561860490261
 20
89.68877567397972
 30
0.0
 10
138.56051631785
 20
89.68752667966277
 30
0.0
 10
138.5496566079741
 20
89.67741981885449
 30
0.0
 10
138.5323271767353
 20
89.66126806434056
 30
0.0
 10
138.5078893330008
 20
89.63846877997132
 30
0.0
 10
138.4765157094608
 20
89.60917886553977
 30
0.0
 10
138.4381599771431
 20
89.57335807858591
 30
0.0
 10
138.3928363535269
 20
89.53102882809108
 30
0.0
 10
138.3244251549497
 20
89.467155679093
 30
0.0
 10
138.2233796419977
 20
89.372897484267
 30
0.0
 10
138.0778613939747
 20
89.23712018544677
 30
0.0
 10
137.9078092407304
 20
89.07836075027929
 30
0.0
 10
137.7758915531665
 20
88.9552138965862
 30
0.0
 10
137.7089784013142
 20
88.89274961091328
 30
0.0
  0
SPLINE
  5
139
330
1F
100
AcDbEntity
  8
0
  6
Continuous
 62
     8
370
    25
100
AcDbSpline
210
0.0
220
0.0
230
1.0
 70
     8
 71
     3
 72
    18
 73
    14
 74
     0
 42
0.000000001
 43
0.00000001
 40
0.0
 40
0.0
 40
0.0
 40
0.0
 40
0.0759716985786636
 40
0.1506710093718998
 40
0.2241554833695644
 40
0.296485571458475
 40
0.3677246633008381
 40
0.4379391034842293
 40
0.5071981812646982
 40
0.6326267587181382
 40
0.756240453292097
 40
0.8785294569467931
 40
1.0
 40
1.0
 40
1.0
 40
1.0
 10
124.4160851825008
 20
88.89274961091328
 30
0.0
 10
124.3771662688481
 20
88.92907811189455
 30
0.0
 10
124.2999802625667
 20
89.0011266775344
 30
0.0
 10
124.19328723978
 20
89.10074199257564
 30
0.0
 10
124.0945839002141
 20
89.19288630831176
 30
0.0
 10
124.0044199596958
 20
89.27703961009357
 30
0.0
 10
123.9226543847787
 20
89.35333269085623
 30
0.0
 10
123.8493189542835
 20
89.42174667171678
 30
0.0
 10
123.7666177376655
 20
89.49890673746744
 30
0.0
 10
123.6837745059627
 20
89.57627911980485
 30
0.0
 10
123.6142491419997
 20
89.64120993676248
 30
0.0
 10
123.5706426511068
 20
89.68186654503054
 30
0.0
 10
123.5652293529766
 20
89.68689410336907
 30
0.0
 10
123.5625317919068
 20
89.68939944213368
 30
0.0
  0
SPLINE
  5
13A
330
1F
100
AcDbEntity
  8
0
  6
Continuous
 62
     8
370
    25
100
AcDbSpline
210
0.0
220
0.0
230
1.0
 70
    24
 71
     3
 72
     9
 73
     5
 74
     0
 42
0.000000001
 43
0.00000001
 40
-0.481733964059299
 40
-0.481733964059299
 40
-0.481733964059299
 40
-0.481733964059299
 40
-0.4129148263141913
 40
0.0000000001423262
 40
0.0000000001423262
 40
0.0000000001423262
 40
0.0000000001423262
 10
138.062479852261
 20
90.1893437925125
 30
0.0
 10
138.0625064371672
 20
90.18937227634052
 30
0.0
 10
138.0239332699862
 20
90.14804388293231
 30
0.0
 10
137.7122725470968
 20
89.8141216798365
 30
0.0
 10
137.2658819606838
 20
89.33584605153688
 30
0.0
  0
SPLINE
  5
13B
330
1F
100
AcDbEntity
  8
0
  6
Continuous
 62
     8
370
    25
100
AcDbSpline
210
0.0
220
0.0
230
1.0
 70
    24
 71
     3
 72
     9
 73
     5
 74
     0
 42
0.000000001
 43
0.00000001
 40
-0.0000000000100284
 40
-0.0000000000100284
 40
-0.0000000000100284
 40
-0.0000000000100284
 40
0.412914826326082
 40
0.481733964058292
 40
0.481733964058292
 40
0.481733964058292
 40
0.481733964058292
 10
124.8591816231279
 20
89.3358460515404
 30
0.0
 10
124.4127910368459
 20
89.81412167969961
 30
0.0
 10
124.1011303139809
 20
90.14804388276929
 30
0.0
 10
124.0625571466691
 20
90.1893722763177
 30
0.0
 10
124.062583731554
 20
90.18934379251245
 30
0.0
  0
SPLINE
  5
13C
330
1F
100
AcDbEntity
  8
0
  6
Continuous
 62
     8
370
    25
100
AcDbSpline
210
0.0
220
0.0
230
1.0
 70
     8
 71
     3
 72
    12
 73
     8
 74
     0
 42
0.000000001
 43
0.00000001
 40
0.0
 40
0.0
 40
0.0
 40
0.0
 40
0.1646973236447365
 40
0.341712621123571
 40
0.5400570339626277
 40
0.8380246350087188
 40
1.0
 40
1.0
 40
1.0
 40
1.0
 10
123.3275820913731
 20
76.8388287000928
 30
0.0
 10
123.3503272659135
 20
76.85355648993684
 30
0.0
 10
123.3975187626426
 20
76.8841135843667
 30
0.0
 10
123.451767257051
 20
76.93578428872678
 30
0.0
 10
123.5047858441703
 20
77.00222582191738
 30
0.0
 10
123.5435940126067
 20
77.06939960120627
 30
0.0
 10
123.5501141780984
 20
77.11773494481066
 30
0.0
 10
123.5524103458046
 20
77.13475691383816
 30
0.0
  0
SPLINE
  5
13D
330
1F
100
AcDbEntity
  8
0
  6
Continuous
 62
     8
370
    25
100
AcDbSpline
210
0.0
220
0.0
230
1.0
 70
     8
 71
     3
 72
     9
 73
     5
 74
     0
 42
0.000000001
 43
0.00000001
 40
0.0
 40
0.0
 40
0.0
 40
0.0
 40
0.4584340749503982
 40
1.0
 40
1.0
 40
1.0
 40
1.0
 10
138.58082466228
 20
77.13563375404216
 30
0.0
 10
138.5897966697512
 20
77.08730884018357
 30
0.0
 10
138.6093676570782
 20
76.98189583425939
 30
0.0
 10
138.7313945099835
 20
76.88910336173326
 30
0.0
 10
138.797480095458
 20
76.83885012051202
 30
0.0
  0
SPLINE
  5
13E
330
1F
100
AcDbEntity
  8
0
  6
Continuous
 62
     8
370
    25
100
AcDbSpline
210
0.0
220
0.0
230
1.0
 70
     8
 71
     3
 72
    10
 73
     6
 74
     0
 42
0.000000001
 43
0.00000001
 40
0.0
 40
0.0
 40
0.0
 40
0.0
 40
0.248573228850268
 40
0.6467864389238261
 40
1.0
 40
1.0
 40
1.0
 40
1.0
 10
137.2884646470665
 20
89.08250563075877
 30
0.0
 10
137.2807327717499
 20
89.10125083352052
 30
0.0
 10
137.2606144664707
 20
89.1500257679624
 30
0.0
 10
137.2507532471319
 20
89.236818471687
 30
0.0
 10
137.2610444726612
 20
89.30418142105425
 30
0.0
 10
137.2658819372773
 20
89.33584586015083
 30
0.0
  0
SPLINE
  5
13F
330
1F
100
AcDbEntity
  8
0
  6
Continuous
 62
     8
370
    25
100
AcDbSpline
210
0.0
220
0.0
230
1.0
 70
     8
 71
     3
 72
    10
 73
     6
 74
     0
 42
0.000000001
 43
0.00000001
 40
0.0
 40
0.0
 40
0.0
 40
0.0
 40
0.248573228850268
 40
0.6467864389238261
 40
1.0
 40
1.0
 40
1.0
 40
1.0
 10
124.6694256032824
 20
88.91533229729272
 30
0.0
 10
124.6506804005206
 20
88.90760042197608
 30
0.0
 10
124.6019054660788
 20
88.88748211669686
 30
0.0
 10
124.5151127623542
 20
88.87762089735806
 30
0.0
 10
124.4477498129869
 20
88.88791212288733
 30
0.0
 10
124.4160853738903
 20
88.89274958750345
 30
0.0
  0
SPLINE
  5
140
330
1F
100
AcDbEntity
  8
0
  6
Continuous
 62
     8
370
    25
100
AcDbSpline
210
0.0
220
0.0
230
1.0
 70
     8
 71
     3
 72
    10
 73
     6
 74
     0
 42
0.000000001
 43
0.00000001
 40
0.0
 40
0.0
 40
0.0
 40
0.0
 40
0.3531919359855523
 40
0.7514407532050961
 40
1.0
 40
1.0
 40
1.0
 40
1.0
 10
137.7089782099247
 20
88.89274958750345
 30
0.0
 10
137.6773165282911
 20
88.88791208812724
 30
0.0
 10
137.6099540676278
 20
88.8776199670324
 30
0.0
 10
137.5231619395551
 20
88.88748139563015
 30
0.0
 10
137.4743857209743
 20
88.90759904075813
 30
0.0
 10
137.4556417058229
 20
88.91532996898628
 30
0.0
  0
SPLINE
  5
141
330
1F
100
AcDbEntity
  8
0
  6
Continuous
 62
     8
370
    25
100
AcDbSpline
210
0.0
220
0.0
230
1.0
 70
     8
 71
     3
 72
    10
 73
     6
 74
     0
 42
0.000000001
 43
0.00000001
 40
0.0
 40
0.0
 40
0.0
 40
0.0
 40
0.3531919359855523
 40
0.7514407532050961
 40
1.0
 40
1.0
 40
1.0
 40
1.0
 10
124.8591816465377
 20
89.33584586015083
 30
0.0
 10
124.8640191459139
 20
89.3041841785173
 30
0.0
 10
124.8743112670088
 20
89.236821717854
 30
0.0
 10
124.864449838411
 20
89.15002958978127
 30
0.0
 10
124.8443321932831
 20
89.10125337120049
 30
0.0
 10
124.8366012650549
 20
89.08250935604907
 30
0.0
  0
LINE
  5
142
330
1F
100
AcDbEntity
  8
0
  6
CENTERX2
 62
     7
370
    18
100
AcDbLine
 10
131.0625317919
 20
109.1893994421
 30
0.0
 11
131.0625317919
 21
74.516144533
 31
0.0
  0
LINE
  5
143
330
1F
100
AcDbEntity
  8
0
  6
CENTERX2
 62
     7
370
    18
100
AcDbLine
 10
104.5625317919
 20
82.6893994421
 30
0.0
 11
157.5625317919
 21
82.6893994421
 31
0.0
  0
LINE
  5
144
330
1F
100
AcDbEntity
  8
0
  6
Continuous
 62
     7
370
    25
100
AcDbLine
 10
209.1433533661
 20
96.1893997923
 30
0.0
 11
209.1433533661
 21
107.1893988014
 31
0.0
  0
LINE
  5
145
330
1F
100
AcDbEntity
  8
0
  6
Continuous
 62
     7
370
    25
100
AcDbLine
 10
191.143354141
 20
107.1893988014
 30
0.0
 11
191.143354141
 21
96.1893997923
 31
0.0
  0
LINE
  5
146
330
1F
100
AcDbEntity
  8
0
  6
Continuous
 62
     7
370
    25
100
AcDbLine
 10
209.1433533661
 20
107.1893988014
 30
0.0
 11
208.6433542155
 21
107.6893998147
 31
0.0
  0
LINE
  5
147
330
1F
100
AcDbEntity
  8
0
  6
Continuous
 62
     7
370
    25
100
AcDbLine
 10
191.6433532916
 20
107.6893998147
 30
0.0
 11
191.143354141
 21
107.1893988014
 31
0.0
  0
ARC
  5
148
330
1F
100
AcDbEntity
  8
0
  6
Continuous
 62
     7
370
    25
100
AcDbCircle
 10
192.6433537535
 20
96.1893994421
 30
0.0
 40
1.5
100
AcDbArc
 50
180.0
 51
258.4630409672
  0
ARC
  5
149
330
1F
100
AcDbEntity
  8
0
  6
Continuous
 62
     7
370
    25
100
AcDbCircle
 10
207.6433537535
 20
96.1893994421
 30
0.0
 40
1.500000000000004
100
AcDbArc
 50
281.5369590328
 51
0.0
  0
ARC
  5
14A
330
1F
100
AcDbEntity
  8
0
  6
Continuous
 62
     7
370
    25
100
AcDbCircle
 10
192.1433537535
 20
93.7399096994
 30
0.0
 40
1.0
100
AcDbArc
 50
0.0
 51
78.4630409672
  0
ARC
  5
14B
330
1F
100
AcDbEntity
  8
0
  6
Continuous
 62
     7
370
    25
100
AcDbCircle
 10
208.1433537535
 20
93.7399096994
 30
0.0
 40
1.0
100
AcDbArc
 50
101.5369590328
 51
180.0
  0
LINE
  5
14C
330
1F
100
AcDbEntity
  8
0
  6
Continuous
 62
     7
370
    25
100
AcDbLine
 10
193.1433535375
 20
93.7399096624
 30
0.0
 11
193.1433535375
 21
90.1893992745
 31
0.0
  0
LINE
  5
14D
330
1F
100
AcDbEntity
  8
0
  6
Continuous
 62
     7
370
    25
100
AcDbLine
 10
207.1433539696
 20
90.1893992745
 30
0.0
 11
207.1433539696
 21
93.7399096624
 31
0.0
  0
CIRCLE
  5
14E
330
1F
100
AcDbEntity
  8
0
  6
Continuous
 62
     7
370
    25
100
AcDbCircle
 10
200.1433537535
 20
82.6893994421
 30
0.0
 40
9.0
  0
CIRCLE
  5
14F
330
1F
100
AcDbEntity
  8
0
  6
Continuous
 62
     7
370
    25
100
AcDbCircle
 10
200.1433537535
 20
82.6893994421
 30
0.0
 40
8.5
  0
CIRCLE
  5
150
330
1F
100
AcDbEntity
  8
0
  6
Continuous
 62
     7
370
    25
100
AcDbCircle
 10
200.1433537535
 20
82.6893994421
 30
0.0
 40
6.75
  0
CIRCLE
  5
151
330
1F
100
AcDbEntity
  8
0
  6
Continuous
 62
     7
370
    25
100
AcDbCircle
 10
200.1433537535
 20
82.6893994421
 30
0.0
 40
7.599999999999994
  0
CIRCLE
  5
152
330
1F
100
AcDbEntity
  8
0
  6
Continuous
 62
     7
370
    25
100
AcDbCircle
 10
200.1433537535
 20
82.6893994421
 30
0.0
 40
7.700000000000017
  0
CIRCLE
  5
153
330
1F
100
AcDbEntity
  8
0
  6
Continuous
 62
     7
370
    25
100
AcDbCircle
 10
200.1433537535
 20
82.6893994421
 30
0.0
 40
6.10343238175048
  0
CIRCLE
  5
154
330
1F
100
AcDbEntity
  8
0
  6
Continuous
 62
     7
370
    25
100
AcDbCircle
 10
200.1433537535
 20
82.6893994421
 30
0.0
 40
7.650000000000006
  0
CIRCLE
  5
155
330
1F
100
AcDbEntity
  8
0
  6
Continuous
 62
     7
370
    25
100
AcDbCircle
 10
200.1433537535
 20
82.6893994421
 30
0.0
 40
5.81061697881421
  0
CIRCLE
  5
156
330
1F
100
AcDbEntity
  8
0
  6
Continuous
 62
     7
370
    25
100
AcDbCircle
 10
200.1433537535
 20
82.6893994421
 30
0.0
 40
5.722499999999997
  0
CIRCLE
  5
157
330
1F
100
AcDbEntity
  8
0
  6
Continuous
 62
     7
370
    25
100
AcDbCircle
 10
200.1433537535
 20
82.6893994421
 30
0.0
 40
4.0
  0
LINE
  5
158
330
1F
100
AcDbEntity
  8
0
  6
Continuous
 62
     7
370
    25
100
AcDbLine
 10
200.1433537535
 20
107.1893988014
 30
0.0
 11
191.143354141
 21
107.1893988014
 31
0.0
  0
LINE
  5
159
330
1F
100
AcDbEntity
  8
0
  6
Continuous
 62
     7
370
    25
100
AcDbLine
 10
209.1433533661
 20
107.1893988014
 30
0.0
 11
200.1433537535
 21
107.1893988014
 31
0.0
  0
LINE
  5
15A
330
1F
100
AcDbEntity
  8
0
  6
Continuous
 62
     7
370
    25
100
AcDbLine
 10
200.1433537535
 20
107.6893998147
 30
0.0
 11
208.6433542155
 21
107.6893998147
 31
0.0
  0
LINE
  5
15B
330
1F
100
AcDbEntity
  8
0
  6
Continuous
 62
     7
370
    25
100
AcDbLine
 10
191.6433532916
 20
107.6893998147
 30
0.0
 11
200.1433537535
 21
107.6893998147
 31
0.0
  0
LINE
  5
15C
330
1F
100
AcDbEntity
  8
0
  6
Continuous
 62
     7
370
    25
100
AcDbLine
 10
193.2783371031
 20
88.5544163943
 30
0.0
 11
193.299065084
 21
88.5336884134
 31
0.0
  0
LINE
  5
15D
330
1F
100
AcDbEntity
  8
0
  6
Continuous
 62
     7
370
    25
100
AcDbLine
 10
193.3826396436
 20
88.6194166564
 30
0.0
 11
193.2783371031
 21
88.5544163943
 31
0.0
  0
LINE
  5
15E
330
1F
100
AcDbEntity
  8
0
  6
Continuous
 62
     7
370
    25
100
AcDbLine
 10
207.008370404
 20
88.5544163943
 30
0.0
 11
206.8858055592
 21
88.6307978839
 31
0.0
  0
LINE
  5
15F
330
1F
100
AcDbEntity
  8
0
  6
Continuous
 62
     7
370
    25
100
AcDbLine
 10
206.9876424231
 20
88.5336884134
 30
0.0
 11
207.008370404
 21
88.5544163943
 31
0.0
  0
SPLINE
  5
160
330
1F
100
AcDbEntity
  8
0
  6
Continuous
 62
     7
370
    25
100
AcDbSpline
210
0.0
220
0.0
230
1.0
 70
     8
 71
     3
 72
     9
 73
     5
 74
     0
 42
0.000000001
 43
0.00000001
 40
0.0
 40
0.0
 40
0.0
 40
0.0
 40
0.1468917263368845
 40
1.0
 40
1.0
 40
1.0
 40
1.0
 10
207.1159274511094
 20
88.3459444925759
 30
0.0
 10
207.1143305328865
 20
88.3567659121821
 30
0.0
 10
207.1034591362276
 20
88.43043527311926
 30
0.0
 10
207.0521460350839
 20
88.49733968606346
 30
0.0
 10
207.0083704039509
 20
88.5544163942907
 30
0.0
  0
SPLINE
  5
161
330
1F
100
AcDbEntity
  8
0
  6
Continuous
 62
     7
370
    25
100
AcDbSpline
210
0.0
220
0.0
230
1.0
 70
     8
 71
     3
 72
    13
 73
     9
 74
     0
 42
0.000000001
 43
0.00000001
 40
0.0
 40
0.0
 40
0.0
 40
0.0
 40
0.1162222239500744
 40
0.2381780213579675
 40
0.3660917905452749
 40
0.5001580142688472
 40
0.7504239388829979
 40
1.0
 40
1.0
 40
1.0
 40
1.0
 10
193.2783369687434
 20
90.03110508565604
 30
0.0
 10
193.2901744270741
 20
90.01865707503796
 30
0.0
 10
193.3144333192832
 20
89.99314695797007
 30
0.0
 10
193.3547194776407
 20
89.95163978495337
 30
0.0
 10
193.3988766685869
 20
89.90704703424838
 30
0.0
 10
193.4602909438809
 20
89.84654095094442
 30
0.0
 10
193.5403217458923
 20
89.77113716728255
 30
0.0
 10
193.609041365755
 20
89.71662028230004
 30
0.0
 10
193.6433537535424
 20
89.68939946090707
 30
0.0
  0
SPLINE
  5
162
330
1F
100
AcDbEntity
  8
0
  6
Continuous
 62
     7
370
    25
100
AcDbSpline
210
0.0
220
0.0
230
1.0
 70
     8
 71
     3
 72
    13
 73
     9
 74
     0
 42
0.000000001
 43
0.00000001
 40
0.0
 40
0.0
 40
0.0
 40
0.0
 40
0.1206933106363776
 40
0.2506349558809258
 40
0.4049363551860728
 40
0.501375099440844
 40
0.7702864432344702
 40
1.0
 40
1.0
 40
1.0
 40
1.0
 10
193.1433537535424
 20
89.68939944213368
 30
0.0
 10
193.1437414682883
 20
89.7042552204255
 30
0.0
 10
193.144546607096
 20
89.7351051268297
 30
0.0
 10
193.1514966189294
 20
89.78368027829814
 30
0.0
 10
193.1622869277389
 20
89.82836996057986
 30
0.0
 10
193.1829067131379
 20
89.88813366996727
 30
0.0
 10
193.215414397152
 20
89.95592568314217
 30
0.0
 10
193.2584915691552
 20
90.0073939555169
 30
0.0
 10
193.2783369687434
 20
90.03110508565604
 30
0.0
  0
SPLINE
  5
163
330
1F
100
AcDbEntity
  8
0
  6
Continuous
 62
     7
370
    25
100
AcDbSpline
210
0.0
220
0.0
230
1.0
 70
    24
 71
     3
 72
    13
 73
     9
 74
     0
 42
0.000000001
 43
0.00000001
 40
0.0
 40
0.0
 40
0.0
 40
0.0
 40
0.1144647671590815
 40
0.291615705726434
 40
0.4684340794035635
 40
0.6458133828963049
 40
0.8225570207736255
 40
1.0
 40
1.0
 40
1.0
 40
1.0
 10
193.1433535374755
 20
88.35249494990445
 30
0.0
 10
193.1433535374755
 20
88.38049482798347
 30
0.0
 10
193.1433535374755
 20
88.45182860525763
 30
0.0
 10
193.1433535374755
 20
88.62323332807478
 30
0.0
 10
193.1433535374755
 20
88.84992752981864
 30
0.0
 10
193.1433535374755
 20
89.11155410840229
 30
0.0
 10
193.1433535374755
 20
89.3945565144597
 30
0.0
 10
193.1433535374755
 20
89.59098932478229
 30
0.0
 10
193.1433535374755
 20
89.68939965820051
 30
0.0
  0
SPLINE
  5
164
330
1F
100
AcDbEntity
  8
0
  6
Continuous
 62
     7
370
    25
100
AcDbSpline
210
0.0
220
0.0
230
1.0
 70
     8
 71
     3
 72
    12
 73
     8
 74
     0
 42
0.000000001
 43
0.00000001
 40
0.0
 40
0.0
 40
0.0
 40
0.0
 40
0.1664615747826677
 40
0.3330490629245378
 40
0.50019385964186
 40
0.761981166969512
 40
1.0
 40
1.0
 40
1.0
 40
1.0
 10
206.6433537535424
 20
89.68939944213368
 30
0.0
 10
206.6663474284424
 20
89.7073732589486
 30
0.0
 10
206.7123521709101
 20
89.74333448817048
 30
0.0
 10
206.7778951337069
 20
89.80105142473856
 30
0.0
 10
206.8522613291406
 20
89.87133614772978
 30
0.0
 10
206.9315328850063
 20
89.95067891163293
 30
0.0
 10
206.9835830762207
 20
90.00515998380044
 30
0.0
 10
207.0083705383415
 20
90.03110508565587
 30
0.0
  0
SPLINE
  5
165
330
1F
100
AcDbEntity
  8
0
  6
Continuous
 62
     7
370
    25
100
AcDbSpline
210
0.0
220
0.0
230
1.0
 70
     8
 71
     3
 72
    14
 73
    10
 74
     0
 42
0.000000001
 43
0.00000001
 40
0.0
 40
0.0
 40
0.0
 40
0.0
 40
0.1488603140964728
 40
0.3150272284381161
 40
0.4987644934539461
 40
0.5951852670853452
 40
0.7494348315821825
 40
0.8793203117440467
 40
1.0
 40
1.0
 40
1.0
 40
1.0
 10
207.0083705383415
 20
90.03110508565587
 30
0.0
 10
207.0216138954078
 20
90.0158943329962
 30
0.0
 10
207.0496402911408
 20
89.98370441534138
 30
0.0
 10
207.0837098442634
 20
89.92908040471194
 30
0.0
 10
207.1072637336163
 20
89.87837474769863
 30
0.0
 10
207.1243928055455
 20
89.82835810617003
 30
0.0
 10
207.1352178460476
 20
89.7836843952625
 30
0.0
 10
207.1421590809964
 20
89.73510712383802
 30
0.0
 10
207.142965404161
 20
89.70425753021173
 30
0.0
 10
207.1433537535424
 20
89.68939944213368
 30
0.0
  0
SPLINE
  5
166
330
1F
100
AcDbEntity
  8
0
  6
Continuous
 62
     7
370
    25
100
AcDbSpline
210
0.0
220
0.0
230
1.0
 70
    24
 71
     3
 72
    13
 73
     9
 74
     0
 42
0.000000001
 43
0.00000001
 40
0.0
 40
0.0
 40
0.0
 40
0.0
 40
0.1695817806945505
 40
0.3388103097035301
 40
0.508174029247671
 40
0.6776374365387978
 40
0.8467827107175723
 40
1.0
 40
1.0
 40
1.0
 40
1.0
 10
207.1433539696092
 20
89.68939965820051
 30
0.0
 10
207.1433539696092
 20
89.591090257759
 30
0.0
 10
207.1433539696092
 20
89.39467624279857
 30
0.0
 10
207.1433539696092
 20
89.11176758112805
 30
0.0
 10
207.1433539696092
 20
88.85022437870134
 30
0.0
 10
207.1433539696092
 20
88.62298849207484
 30
0.0
 10
207.1433539696092
 20
88.4371494972332
 30
0.0
 10
207.1433539696092
 20
88.35573874083256
 30
0.0
 10
207.1433539696092
 20
88.317044621763
 30
0.0
  0
SPLINE
  5
167
330
1F
100
AcDbEntity
  8
0
  6
Continuous
 62
     7
370
    25
100
AcDbSpline
210
0.0
220
0.0
230
1.0
 70
     8
 71
     3
 72
    14
 73
    10
 74
     0
 42
0.000000001
 43
0.00000001
 40
0.0
 40
0.0
 40
0.0
 40
0.0
 40
0.0771019312235469
 40
0.1604220744820928
 40
0.2500134459871365
 40
0.3625277437571762
 40
0.4999872830486552
 40
0.6965319223496549
 40
1.0
 40
1.0
 40
1.0
 40
1.0
 10
206.7099358173005
 20
90.53385625959137
 30
0.0
 10
206.7312005426011
 20
90.51972698270187
 30
0.0
 10
206.7754449771034
 20
90.49032891350213
 30
0.0
 10
206.8381037182942
 20
90.45181101727485
 30
0.0
 10
206.9034772421048
 20
90.41274849070963
 30
0.0
 10
206.971822549348
 20
90.37246798426075
 30
0.0
 10
207.0454852668455
 20
90.32380929024438
 30
0.0
 10
207.1232481925609
 20
90.26237445103666
 30
0.0
 10
207.1357600487742
 20
90.21696150188308
 30
0.0
 10
207.1433537535424
 20
90.18939944213368
 30
0.0
  0
SPLINE
  5
168
330
1F
100
AcDbEntity
  8
0
  6
Continuous
 62
     7
370
    25
100
AcDbSpline
210
0.0
220
0.0
230
1.0
 70
     8
 71
     3
 72
    13
 73
     9
 74
     0
 42
0.000000001
 43
0.00000001
 40
0.0
 40
0.0
 40
0.0
 40
0.0
 40
0.1484645556295967
 40
0.3038520792699613
 40
0.4664576632792974
 40
0.6365388262431585
 40
0.814320596678755
 40
0.9999999999999999
 40
0.9999999999999999
 40
0.9999999999999999
 40
0.9999999999999999
 10
206.210020420209
 20
90.68939944213368
 30
0.0
 10
206.2390953196426
 20
90.68852785475814
 30
0.0
 10
206.298600893953
 20
90.68674403750151
 30
0.0
 10
206.3844376572006
 20
90.67303634301275
 30
0.0
 10
206.4696051240782
 20
90.6514196061036
 30
0.0
 10
206.5529300079967
 20
90.62086552701591
 30
0.0
 10
206.6344052508452
 20
90.58214667378395
 30
0.0
 10
206.6843968731807
 20
90.5501845654345
 30
0.0
 10
206.7099358173005
 20
90.53385625959137
 30
0.0
  0
LINE
  5
169
330
1F
100
AcDbEntity
  8
0
  6
Continuous
 62
     7
370
    25
100
AcDbLine
 10
204.9024386525
 20
90.6893998221
 30
0.0
 11
206.2100202039
 21
90.6893998221
 31
0.0
  0
LINE
  5
16A
330
1F
100
AcDbEntity
  8
0
  6
Continuous
 62
     7
370
    25
100
AcDbLine
 10
194.0766873032
 20
90.6893998221
 30
0.0
 11
195.3842688546
 21
90.6893998221
 31
0.0
  0
SPLINE
  5
16B
330
1F
100
AcDbEntity
  8
0
  6
Continuous
 62
     7
370
    25
100
AcDbSpline
210
0.0
220
0.0
230
1.0
 70
     8
 71
     3
 72
    13
 73
     9
 74
     0
 42
0.000000001
 43
0.00000001
 40
0.0
 40
0.0
 40
0.0
 40
0.0
 40
0.1856794033212454
 40
0.3634611737568486
 40
0.5335423367207065
 40
0.6961479207300426
 40
0.8515354443704023
 40
1.0
 40
1.0
 40
1.0
 40
1.0
 10
193.5767716897843
 20
90.53385625959137
 30
0.0
 10
193.6023106339041
 20
90.55018456543452
 30
0.0
 10
193.6523022562396
 20
90.58214667378397
 30
0.0
 10
193.733777499088
 20
90.62086552701591
 30
0.0
 10
193.8171023830066
 20
90.6514196061036
 30
0.0
 10
193.9022698498842
 20
90.67303634301275
 30
0.0
 10
193.9881066131318
 20
90.6867440375015
 30
0.0
 10
194.0476121874421
 20
90.68852785475814
 30
0.0
 10
194.0766870868757
 20
90.68939944213368
 30
0.0
  0
SPLINE
  5
16C
330
1F
100
AcDbEntity
  8
0
  6
Continuous
 62
     7
370
    25
100
AcDbSpline
210
0.0
220
0.0
230
1.0
 70
     8
 71
     3
 72
    17
 73
    13
 74
     0
 42
0.000000001
 43
0.00000001
 40
0.0
 40
0.0
 40
0.0
 40
0.0
 40
0.1130667887614413
 40
0.214247189583317
 40
0.3035410227131065
 40
0.3809482842653933
 40
0.4464692356459874
 40
0.5001045920517729
 40
0.6375226522804812
 40
0.750042112035746
 40
0.8820380142736961
 40
0.9999999999999999
 40
0.9999999999999999
 40
0.9999999999999999
 40
0.9999999999999999
 10
193.1433537535424
 20
90.18939944213368
 30
0.0
 10
193.1444312362339
 20
90.19962906824898
 30
0.0
 10
193.146472928945
 20
90.21901290916017
 30
0.0
 10
193.1616383506577
 20
90.24690715373141
 30
0.0
 10
193.1818995962275
 20
90.27189996142242
 30
0.0
 10
193.2052503477669
 20
90.29402935892962
 30
0.0
 10
193.2290708737362
 20
90.31322918560925
 30
0.0
 10
193.2645883132299
 20
90.3394109508665
 30
0.0
 10
193.3148976060044
 20
90.37239249245432
 30
0.0
 10
193.3918840843395
 20
90.4179867669338
 30
0.0
 10
193.4763246645689
 20
90.46789542364276
 30
0.0
 10
193.5445664967463
 20
90.51270798317287
 30
0.0
 10
193.5767716897843
 20
90.53385625959137
 30
0.0
  0
LINE
  5
16D
330
1F
100
AcDbEntity
  8
0
  6
Continuous
 62
     7
370
    25
100
AcDbLine
 10
193.6433536194
 20
90.1893992745
 30
0.0
 11
195.0443342522
 21
90.1893992745
 31
0.0
  0
ARC
  5
16E
330
1F
100
AcDbEntity
  8
0
  6
Continuous
 62
     7
370
    25
100
AcDbCircle
 10
193.6433537535
 20
89.6893994421
 30
0.0
 40
0.5
100
AcDbArc
 50
90.0
 51
136.8892083855
  0
LINE
  5
16F
330
1F
100
AcDbEntity
  8
0
  6
Continuous
 62
     7
370
    25
100
AcDbLine
 10
205.2423732549
 20
90.1893992745
 30
0.0
 11
206.6433538877
 21
90.1893992745
 31
0.0
  0
ARC
  5
170
330
1F
100
AcDbEntity
  8
0
  6
Continuous
 62
     7
370
    25
100
AcDbCircle
 10
206.6433537535
 20
89.6893994421
 30
0.0
 40
0.5
100
AcDbArc
 50
43.1107916145
 51
90.0
  0
SPLINE
  5
171
330
1F
100
AcDbEntity
  8
0
  6
Continuous
 62
     7
370
    25
100
AcDbSpline
210
0.0
220
0.0
230
1.0
 70
     8
 71
     3
 72
     9
 73
     5
 74
     0
 42
0.000000001
 43
0.00000001
 40
0.0
 40
0.0
 40
0.0
 40
0.0
 40
0.5
 40
1.0
 40
1.0
 40
1.0
 40
1.0
 10
205.2423732671352
 20
90.18939944213368
 30
0.0
 10
205.1533785879995
 20
90.18939944213368
 30
0.0
 10
204.9760594015756
 20
90.29768609677933
 30
0.0
 10
204.9024386328957
 20
90.5584997482341
 30
0.0
 10
204.9024386328957
 20
90.68939944213368
 30
0.0
  0
SPLINE
  5
172
330
1F
100
AcDbEntity
  8
0
  6
Continuous
 62
     7
370
    25
100
AcDbSpline
210
0.0
220
0.0
230
1.0
 70
     8
 71
     3
 72
     9
 73
     5
 74
     0
 42
0.000000001
 43
0.00000001
 40
0.0
 40
0.0
 40
0.0
 40
0.0
 40
0.5
 40
1.0
 40
1.0
 40
1.0
 40
1.0
 10
195.3842688741891
 20
90.68939944213368
 30
0.0
 10
195.3842688741891
 20
90.5584997482341
 30
0.0
 10
195.3106481055091
 20
90.29768609677933
 30
0.0
 10
195.1333289190852
 20
90.18939944213368
 30
0.0
 10
195.0443342399496
 20
90.18939944213368
 30
0.0
  0
SPLINE
  5
173
330
1F
100
AcDbEntity
  8
0
  6
Continuous
 62
     7
370
    25
100
AcDbSpline
210
0.0
220
0.0
230
1.0
 70
     8
 71
     3
 72
     9
 73
     5
 74
     0
 42
0.000000001
 43
0.00000001
 40
0.0
 40
0.0
 40
0.0
 40
0.0
 40
0.5
 40
1.0
 40
1.0
 40
1.0
 40
1.0
 10
193.6433537535424
 20
90.18939944213368
 30
0.0
 10
193.756800154922
 20
90.18939944213368
 30
0.0
 10
193.9828410660488
 20
90.29768331231864
 30
0.0
 10
194.0766870868757
 20
90.5584997482341
 30
0.0
 10
194.0766870868757
 20
90.68939944213368
 30
0.0
  0
SPLINE
  5
174
330
1F
100
AcDbEntity
  8
0
  6
Continuous
 62
     7
370
    25
100
AcDbSpline
210
0.0
220
0.0
230
1.0
 70
     8
 71
     3
 72
     9
 73
     5
 74
     0
 42
0.000000001
 43
0.00000001
 40
0.0
 40
0.0
 40
0.0
 40
0.0
 40
0.5
 40
1.0
 40
1.0
 40
1.0
 40
1.0
 10
206.210020420209
 20
90.68939944213368
 30
0.0
 10
206.210020420209
 20
90.5584997482341
 30
0.0
 10
206.303866441036
 20
90.29768331231864
 30
0.0
 10
206.5299073521628
 20
90.18939944213368
 30
0.0
 10
206.6433537535424
 20
90.18939944213368
 30
0.0
  0
SPLINE
  5
175
330
1F
100
AcDbEntity
  8
0
  6
Continuous
 62
     7
370
    25
100
AcDbSpline
210
0.0
220
0.0
230
1.0
 70
     8
 71
     3
 72
     9
 73
     5
 74
     0
 42
0.000000001
 43
0.00000001
 40
0.0
 40
0.0
 40
0.0
 40
0.0
 40
0.571428571428571
 40
1.0
 40
1.0
 40
1.0
 40
1.0
 10
206.7099358173005
 20
90.53385625959137
 30
0.0
 10
206.7025417343145
 20
90.43671118539953
 30
0.0
 10
206.7398569138927
 20
90.26704984668189
 30
0.0
 10
206.8534489613962
 20
90.14823645080851
 30
0.0
 10
206.9111655734128
 20
90.11162785086253
 30
0.0
  0
SPLINE
  5
176
330
1F
100
AcDbEntity
  8
0
  6
Continuous
 62
     7
370
    25
100
AcDbSpline
210
0.0
220
0.0
230
1.0
 70
     8
 71
     3
 72
     9
 73
     5
 74
     0
 42
0.000000001
 43
0.00000001
 40
0.0
 40
0.0
 40
0.0
 40
0.0
 40
0.5
 40
1.0
 40
1.0
 40
1.0
 40
1.0
 10
193.576771689786
 20
90.53385625959255
 30
0.0
 10
193.5832415123989
 20
90.44885431967445
 30
0.0
 10
193.5525625191929
 20
90.27896040142566
 30
0.0
 10
193.4428779810259
 20
90.15433788413326
 30
0.0
 10
193.3755419336729
 20
90.1116278508631
 30
0.0
  0
SPLINE
  5
177
330
1F
100
AcDbEntity
  8
0
  6
Continuous
 62
     7
370
    25
100
AcDbSpline
210
0.0
220
0.0
230
1.0
 70
     8
 71
     3
 72
    12
 73
     8
 74
     0
 42
0.000000001
 43
0.00000001
 40
0.0
 40
0.0
 40
0.0
 40
0.0
 40
0.106360889119859
 40
0.159541333679788
 40
0.265902222799647
 40
0.265902222799647
 40
0.267217449924086
 40
0.267217449924086
 40
0.267217449924086
 40
0.267217449924086
 10
206.9111655734128
 20
90.11162785086253
 30
0.0
 10
206.9711423574838
 20
90.07358566478717
 30
0.0
 10
207.0454330005676
 20
90.0790815359794
 30
0.0
 10
207.1236645854133
 20
90.12097811354039
 30
0.0
 10
207.1430407031361
 20
90.16210426995472
 30
0.0
 10
207.1433518458747
 20
90.18875164830281
 30
0.0
 10
207.1433537535424
 20
90.18907515131144
 30
0.0
 10
207.1433537535424
 20
90.18939944213368
 30
0.0
  0
SPLINE
  5
178
330
1F
100
AcDbEntity
  8
0
  6
Continuous
 62
     7
370
    25
100
AcDbSpline
210
0.0
220
0.0
230
1.0
 70
    24
 71
     3
 72
    14
 73
    10
 74
     0
 42
0.000000001
 43
0.00000001
 40
0.0
 40
0.0
 40
0.0
 40
0.0
 40
0.2503841006840345
 40
0.3856977520239709
 40
0.5014304172375459
 40
0.6388330237075766
 40
0.767498519821732
 40
0.8877539750359934
 40
1.0
 40
1.0
 40
1.0
 40
1.0
 10
207.1433537535424
 20
90.18939944213368
 30
0.0
 10
207.1433537535424
 20
90.1301127705216
 30
0.0
 10
207.1433537535424
 20
90.03878614114183
 30
0.0
 10
207.1433537535424
 20
89.92627204779231
 30
0.0
 10
207.1433537535424
 20
89.84648548181279
 30
0.0
 10
207.1433537535424
 20
89.77968609382697
 30
0.0
 10
207.1433537535424
 20
89.72849688063009
 30
0.0
 10
207.1433537535424
 20
89.69586735732096
 30
0.0
 10
207.1433537535424
 20
89.69150532472528
 30
0.0
 10
207.1433537535424
 20
89.68939944213368
 30
0.0
  0
LINE
  5
179
330
1F
100
AcDbEntity
  8
0
  6
Continuous
 62
     7
370
    25
100
AcDbLine
 10
193.1433535375
 20
90.1893992745
 30
0.0
 11
193.1507682622
 21
90.1649404154
 31
0.0
  0
SPLINE
  5
17A
330
1F
100
AcDbEntity
  8
0
  6
Continuous
 62
     7
370
    25
100
AcDbSpline
210
0.0
220
0.0
230
1.0
 70
    24
 71
     3
 72
    10
 73
     6
 74
     0
 42
0.000000001
 43
0.00000001
 40
-0.263620655015386
 40
-0.263620655015386
 40
-0.263620655015386
 40
-0.263620655015386
 40
-0.2626630659468851
 40
-0.2626630659468851
 40
0.0009575890685009
 40
0.0009575890685009
 40
0.0009575890685009
 40
0.0009575890685009
 10
193.1433537535424
 20
90.18939944213368
 30
0.0
 10
193.1433537535424
 20
90.18854635398809
 30
0.0
 10
193.1433537535424
 20
90.18768690871602
 30
0.0
 10
193.1433537535422
 20
89.9544861597465
 30
0.0
 10
193.1433537535424
 20
89.68939944213368
 30
0.0
 10
193.1433537535424
 20
89.68939944213368
 30
0.0
  0
LINE
  5
17B
330
1F
100
AcDbEntity
  8
0
  6
Continuous
 62
     8
370
    25
100
AcDbLine
 10
200.1433537535
 20
96.1893997923
 30
0.0
 11
209.1433533661
 21
96.1893997923
 31
0.0
  0
LINE
  5
17C
330
1F
100
AcDbEntity
  8
0
  6
Continuous
 62
     8
370
    25
100
AcDbLine
 10
191.143354141
 20
96.1893997923
 30
0.0
 11
200.1433537535
 21
96.1893997923
 31
0.0
  0
LINE
  5
17D
330
1F
100
AcDbEntity
  8
0
  6
Continuous
 62
     8
370
    25
100
AcDbLine
 10
200.1433537535
 20
94.7197057143
 30
0.0
 11
207.9433535419
 21
94.7197057143
 31
0.0
  0
LINE
  5
17E
330
1F
100
AcDbEntity
  8
0
  6
Continuous
 62
     8
370
    25
100
AcDbLine
 10
192.3433539651
 20
94.7197057143
 30
0.0
 11
200.1433537535
 21
94.7197057143
 31
0.0
  0
LINE
  5
17F
330
1F
100
AcDbEntity
  8
0
  6
Continuous
 62
     8
370
    25
100
AcDbLine
 10
200.1433537535
 20
93.7399096624
 30
0.0
 11
193.1433535375
 21
93.7399096624
 31
0.0
  0
LINE
  5
180
330
1F
100
AcDbEntity
  8
0
  6
Continuous
 62
     8
370
    25
100
AcDbLine
 10
207.1433539696
 20
93.7399096624
 30
0.0
 11
200.1433537535
 21
93.7399096624
 31
0.0
  0
SPLINE
  5
181
330
1F
100
AcDbEntity
  8
0
  6
Continuous
 62
     8
370
    25
100
AcDbSpline
210
0.0
220
0.0
230
1.0
 70
    24
 71
     3
 72
    10
 73
     6
 74
     0
 42
0.000000001
 43
0.00000001
 40
0.0
 40
0.0
 40
0.0
 40
0.0
 40
0.414928205129049
 40
0.8298562538090092
 40
1.0
 40
1.0
 40
1.0
 40
1.0
 10
193.6433536194319
 20
89.68939965820051
 30
0.0
 10
193.6433536194319
 20
89.5600016428178
 30
0.0
 10
193.6433536194319
 20
89.30120566084202
 30
0.0
 10
193.6433536194319
 20
89.0159097113794
 30
0.0
 10
193.6433536194319
 20
88.92100338966073
 30
0.0
 10
193.6433536194319
 20
88.89340384161211
 30
0.0
  0
SPLINE
  5
182
330
1F
100
AcDbEntity
  8
0
  6
Continuous
 62
     8
370
    25
100
AcDbSpline
210
0.0
220
0.0
230
1.0
 70
    24
 71
     3
 72
    10
 73
     6
 74
     0
 42
0.000000001
 43
0.00000001
 40
0.0
 40
0.0
 40
0.0
 40
0.0
 40
0.1548036829657409
 40
0.5774017618123293
 40
0.9999999999999999
 40
0.9999999999999999
 40
0.9999999999999999
 40
0.9999999999999999
 10
206.6433538876528
 20
88.90288563674427
 30
0.0
 10
206.6433538876528
 20
88.9276775045962
 30
0.0
 10
206.6433538876528
 20
89.02014861317761
 30
0.0
 10
206.6433538876528
 20
89.30152467624058
 30
0.0
 10
206.6433538876528
 20
89.56010798129735
 30
0.0
 10
206.6433538876528
 20
89.68939965820051
 30
0.0
  0
LINE
  5
183
330
1F
100
AcDbEntity
  8
0
  6
Continuous
 62
     8
370
    25
100
AcDbLine
 10
205.8002080031
 20
89.6893996582
 30
0.0
 11
206.6433538877
 21
89.6893996582
 31
0.0
  0
LINE
  5
184
330
1F
100
AcDbEntity
  8
0
  6
Continuous
 62
     8
370
    25
100
AcDbLine
 10
193.6433536194
 20
89.6893996582
 30
0.0
 11
194.486499504
 21
89.6893996582
 31
0.0
  0
SPLINE
  5
185
330
1F
100
AcDbEntity
  8
0
  6
Continuous
 62
     8
370
    25
100
AcDbSpline
210
0.0
220
0.0
230
1.0
 70
     8
 71
     3
 72
     9
 73
     5
 74
     0
 42
0.000000001
 43
0.00000001
 40
0.0
 40
0.0
 40
0.0
 40
0.0
 40
0.2445636372772303
 40
1.0
 40
1.0
 40
1.0
 40
1.0
 10
204.4290399372632
 20
90.58132076865174
 30
0.0
 10
204.4676146059854
 20
90.60013226956173
 30
0.0
 10
204.625343159386
 20
90.67705090358031
 30
0.0
 10
204.7831930815017
 20
90.68408557529796
 30
0.0
 10
204.9024386525209
 20
90.68939982211329
 30
0.0
  0
SPLINE
  5
186
330
1F
100
AcDbEntity
  8
0
  6
Continuous
 62
     8
370
    25
100
AcDbSpline
210
0.0
220
0.0
230
1.0
 70
     8
 71
     3
 72
     9
 73
     5
 74
     0
 42
0.000000001
 43
0.00000001
 40
0.0
 40
0.0
 40
0.0
 40
0.0
 40
0.7519363683777341
 40
1.0
 40
1.0
 40
1.0
 40
1.0
 10
195.3842688545639
 20
90.68939982211329
 30
0.0
 10
195.5035143451916
 20
90.68402402902016
 30
0.0
 10
195.6620988952181
 20
90.67687476304609
 30
0.0
 10
195.8205613705931
 20
90.59951600948756
 30
0.0
 10
195.8598701477105
 20
90.58032611614205
 30
0.0
  0
LINE
  5
187
330
1F
100
AcDbEntity
  8
0
  6
Continuous
 62
     8
370
    25
100
AcDbLine
 10
195.183198639
 20
90.1848269463
 30
0.0
 11
195.0443342522
 21
90.1893992745
 31
0.0
  0
LINE
  5
188
330
1F
100
AcDbEntity
  8
0
  6
Continuous
 62
     8
370
    25
100
AcDbLine
 10
205.2423732549
 20
90.1893992745
 30
0.0
 11
205.096878317
 21
90.182751494
 31
0.0
  0
SPLINE
  5
189
330
1F
100
AcDbEntity
  8
0
  6
Continuous
 62
     8
370
    25
100
AcDbSpline
210
0.0
220
0.0
230
1.0
 70
     8
 71
     3
 72
    11
 73
     7
 74
     0
 42
0.000000001
 43
0.00000001
 40
0.0
 40
0.0
 40
0.0
 40
0.0
 40
0.138306374567875
 40
0.4174703047224942
 40
0.7013665291882653
 40
1.0
 40
1.0
 40
1.0
 40
1.0
 10
193.1507682621533
 20
90.16494041537977
 30
0.0
 10
193.1525412712644
 20
90.15656063692907
 30
0.0
 10
193.157893003288
 20
90.13126672929646
 30
0.0
 10
193.1989983173992
 20
90.0990667543154
 30
0.0
 10
193.2720470891775
 20
90.06914855647125
 30
0.0
 10
193.3404667430114
 20
90.09723122440134
 30
0.0
 10
193.3755420342142
 20
90.11162778591849
 30
0.0
  0
INSERT
  5
195
330
1F
100
AcDbEntity
  8
0
  6
Continuous
 62
     7
370
    18
100
AcDbBlockReference
  2
SW_CENTERMARKSYMBOL_0
 10
200.1433537535
 20
82.6893994421
 30
0.0
  0
ARC
  5
196
330
1F
100
AcDbEntity
  8
0
  6
Continuous
 62
     7
370
    18
100
AcDbCircle
 10
200.1433537535
 20
82.6893994421
 30
0.0
 40
6.562891500000013
100
AcDbArc
 50
75.0
 51
345.0
  0
ARC
  5
197
330
1F
100
AcDbEntity
  8
0
  6
Continuous
 62
     7
370
    18
100
AcDbCircle
 10
200.1433537535
 20
82.6893994421
 30
0.0
 40
6.562891500000013
100
AcDbArc
 50
75.0
 51
345.0
  0
LINE
  5
198
330
1F
100
AcDbEntity
  8
0
  6
Continuous
 62
     7
370
    25
100
AcDbLine
 10
144.5625321421
 20
135.7083194786
 30
0.0
 11
155.5625311512
 21
135.7083194786
 31
0.0
  0
LINE
  5
199
330
1F
100
AcDbEntity
  8
0
  6
Continuous
 62
     7
370
    25
100
AcDbLine
 10
155.5625311512
 20
153.7083187037
 30
0.0
 11
144.5625321421
 21
153.7083187037
 31
0.0
  0
LINE
  5
19A
330
1F
100
AcDbEntity
  8
0
  6
Continuous
 62
     7
370
    25
100
AcDbLine
 10
155.5625311512
 20
135.7083194786
 30
0.0
 11
156.0625321644
 21
136.2083186292
 31
0.0
  0
LINE
  5
19B
330
1F
100
AcDbEntity
  8
0
  6
Continuous
 62
     7
370
    25
100
AcDbLine
 10
156.0625321644
 20
153.2083195531
 30
0.0
 11
155.5625311512
 21
153.7083187037
 31
0.0
  0
LINE
  5
19C
330
1F
100
AcDbEntity
  8
0
  6
Continuous
 62
     7
370
    25
100
AcDbLine
 10
106.5625324327
 20
153.7083187037
 30
0.0
 11
106.0625314194
 21
153.2083195531
 31
0.0
  0
LINE
  5
19D
330
1F
100
AcDbEntity
  8
0
  6
Continuous
 62
     7
370
    25
100
AcDbLine
 10
106.0625314194
 20
136.2083186292
 30
0.0
 11
106.5625324327
 21
135.7083194786
 31
0.0
  0
LINE
  5
19E
330
1F
100
AcDbEntity
  8
0
  6
Continuous
 62
     7
370
    25
100
AcDbLine
 10
117.5625314417
 20
153.7083187037
 30
0.0
 11
106.5625324327
 21
153.7083187037
 31
0.0
  0
LINE
  5
19F
330
1F
100
AcDbEntity
  8
0
  6
Continuous
 62
     7
370
    25
100
AcDbLine
 10
106.5625324327
 20
135.7083194786
 30
0.0
 11
117.5625314417
 21
135.7083194786
 31
0.0
  0
ARC
  5
1A0
330
1F
100
AcDbEntity
  8
0
  6
Continuous
 62
     7
370
    25
100
AcDbCircle
 10
144.5625317919
 20
152.2083190911
 30
0.0
 40
1.500000000000018
100
AcDbArc
 50
90.0
 51
168.4630409672
  0
ARC
  5
1A1
330
1F
100
AcDbEntity
  8
0
  6
Continuous
 62
     7
370
    25
100
AcDbCircle
 10
144.5625317919
 20
137.2083190911
 30
0.0
 40
1.500000000000018
100
AcDbArc
 50
191.5369590328
 51
270.0
  0
ARC
  5
1A2
330
1F
100
AcDbEntity
  8
0
  6
Continuous
 62
     7
370
    25
100
AcDbCircle
 10
117.5625317919
 20
152.2083190911
 30
0.0
 40
1.500000000000004
100
AcDbArc
 50
11.5369590328
 51
90.0
  0
ARC
  5
1A3
330
1F
100
AcDbEntity
  8
0
  6
Continuous
 62
     7
370
    25
100
AcDbCircle
 10
117.5625317919
 20
137.2083190911
 30
0.0
 40
1.500000000000004
100
AcDbArc
 50
270.0
 51
348.4630409672
  0
ARC
  5
1A4
330
1F
100
AcDbEntity
  8
0
  6
Continuous
 62
     7
370
    25
100
AcDbCircle
 10
120.0120215347
 20
152.7083190911
 30
0.0
 40
1.000000000000004
100
AcDbArc
 50
191.5369590328
 51
270.0
  0
ARC
  5
1A5
330
1F
100
AcDbEntity
  8
0
  6
Continuous
 62
     7
370
    25
100
AcDbCircle
 10
120.0120215347
 20
136.7083190911
 30
0.0
 40
1.000000000000004
100
AcDbArc
 50
90.0
 51
168.4630409672
  0
ARC
  5
1A6
330
1F
100
AcDbEntity
  8
0
  6
Continuous
 62
     7
370
    25
100
AcDbCircle
 10
142.1130420491
 20
152.7083190911
 30
0.0
 40
1.0
100
AcDbArc
 50
270.0
 51
348.4630409672
  0
ARC
  5
1A7
330
1F
100
AcDbEntity
  8
0
  6
Continuous
 62
     7
370
    25
100
AcDbCircle
 10
142.1130420491
 20
136.7083190911
 30
0.0
 40
1.0
100
AcDbArc
 50
11.5369590328
 51
90.0
  0
SPLINE
  5
1A8
330
1F
100
AcDbEntity
  8
0
  6
Continuous
 62
     7
370
    25
100
AcDbSpline
210
0.0
220
0.0
230
1.0
 70
     8
 71
     3
 72
    16
 73
    12
 74
     0
 42
0.000000001
 43
0.00000001
 40
0.0
 40
0.0
 40
0.0
 40
0.0
 40
0.001558688101615
 40
0.0410302892138949
 40
0.1371775496461782
 40
0.2564358294803687
 40
0.3953632821085705
 40
0.5485297445143557
 40
0.7092896286264974
 40
0.8703572720428943
 40
1.0
 40
1.0
 40
1.0
 40
1.0
 10
136.8568390089094
 20
137.8024015472228
 30
0.0
 10
136.8562651321183
 20
137.801991076883
 30
0.0
 10
136.8411586264047
 20
137.7911860179782
 30
0.0
 10
136.8016273555864
 20
137.7695548590237
 30
0.0
 10
136.7525927656813
 20
137.7418708919442
 30
0.0
 10
136.74109137684
 20
137.7255871255105
 30
0.0
 10
136.7874617175844
 20
137.7156041511504
 30
0.0
 10
136.9015221992553
 20
137.7109102035517
 30
0.0
 10
137.0798448639466
 20
137.7088907227085
 30
0.0
 10
137.2921892108462
 20
137.7083408712624
 30
0.0
 10
137.4534540117841
 20
137.708335642395
 30
0.0
 10
137.5253702926456
 20
137.7083333105737
 30
0.0
  0
LINE
  5
1A9
330
1F
100
AcDbEntity
  8
0
  6
Continuous
 62
     7
370
    25
100
AcDbLine
 10
123.5625319595
 20
151.7083193072
 30
0.0
 11
120.0120215717
 21
151.7083193072
 31
0.0
  0
LINE
  5
1AA
330
1F
100
AcDbEntity
  8
0
  6
Continuous
 62
     7
370
    25
100
AcDbLine
 10
142.1130420121
 20
151.7083193072
 30
0.0
 11
138.5625316243
 21
151.7083193072
 31
0.0
  0
LINE
  5
1AB
330
1F
100
AcDbEntity
  8
0
  6
Continuous
 62
     7
370
    25
100
AcDbLine
 10
138.5625316243
 20
137.7083188751
 30
0.0
 11
142.1130420121
 21
137.7083188751
 31
0.0
  0
LINE
  5
1AC
330
1F
100
AcDbEntity
  8
0
  6
Continuous
 62
     7
370
    25
100
AcDbLine
 10
120.0120215717
 20
137.7083188751
 30
0.0
 11
123.5625319595
 21
137.7083188751
 31
0.0
  0
CIRCLE
  5
1AD
330
1F
100
AcDbEntity
  8
0
  6
Continuous
 62
     7
370
    25
100
AcDbCircle
 10
131.0625317919
 20
144.7083190911
 30
0.0
 40
9.0
  0
CIRCLE
  5
1AE
330
1F
100
AcDbEntity
  8
0
  6
Continuous
 62
     7
370
    25
100
AcDbCircle
 10
131.0625317919
 20
144.7083190911
 30
0.0
 40
8.499999999999972
  0
CIRCLE
  5
1AF
330
1F
100
AcDbEntity
  8
0
  6
Continuous
 62
     7
370
    25
100
AcDbCircle
 10
131.0625317919
 20
144.7083190911
 30
0.0
 40
7.700000000000017
  0
CIRCLE
  5
1B0
330
1F
100
AcDbEntity
  8
0
  6
Continuous
 62
     7
370
    25
100
AcDbCircle
 10
131.0625317919
 20
144.7083190911
 30
0.0
 40
6.75
  0
CIRCLE
  5
1B1
330
1F
100
AcDbEntity
  8
0
  6
Continuous
 62
     7
370
    25
100
AcDbCircle
 10
131.0625317919
 20
144.7083190911
 30
0.0
 40
7.599999999999994
  0
CIRCLE
  5
1B2
330
1F
100
AcDbEntity
  8
0
  6
Continuous
 62
     7
370
    25
100
AcDbCircle
 10
131.0625317919
 20
144.7083190911
 30
0.0
 40
6.103432381750451
  0
CIRCLE
  5
1B3
330
1F
100
AcDbEntity
  8
0
  6
Continuous
 62
     7
370
    25
100
AcDbCircle
 10
131.0625317919
 20
144.7083190911
 30
0.0
 40
7.649999999999977
  0
CIRCLE
  5
1B4
330
1F
100
AcDbEntity
  8
0
  6
Continuous
 62
     7
370
    25
100
AcDbCircle
 10
131.0625317919
 20
144.7083190911
 30
0.0
 40
5.81061697881421
  0
CIRCLE
  5
1B5
330
1F
100
AcDbEntity
  8
0
  6
Continuous
 62
     7
370
    25
100
AcDbCircle
 10
131.0625317919
 20
144.7083190911
 30
0.0
 40
5.722499999999997
  0
CIRCLE
  5
1B6
330
1F
100
AcDbEntity
  8
0
  6
Continuous
 62
     7
370
    25
100
AcDbCircle
 10
131.0625317919
 20
144.7083190911
 30
0.0
 40
4.000000000000014
  0
LINE
  5
1B7
330
1F
100
AcDbEntity
  8
0
  6
Continuous
 62
     7
370
    25
100
AcDbLine
 10
155.5625311512
 20
135.7083194786
 30
0.0
 11
155.5625311512
 21
153.7083187037
 31
0.0
  0
LINE
  5
1B8
330
1F
100
AcDbEntity
  8
0
  6
Continuous
 62
     7
370
    25
100
AcDbLine
 10
156.0625321644
 20
153.2083195531
 30
0.0
 11
156.0625321644
 21
136.2083186292
 31
0.0
  0
LINE
  5
1B9
330
1F
100
AcDbEntity
  8
0
  6
Continuous
 62
     7
370
    25
100
AcDbLine
 10
106.5625324327
 20
153.7083187037
 30
0.0
 11
106.5625324327
 21
135.7083194786
 31
0.0
  0
LINE
  5
1BA
330
1F
100
AcDbEntity
  8
0
  6
Continuous
 62
     7
370
    25
100
AcDbLine
 10
106.0625314194
 20
136.2083186292
 30
0.0
 11
106.0625314194
 21
153.2083195531
 31
0.0
  0
LINE
  5
1BB
330
1F
100
AcDbEntity
  8
0
  6
Continuous
 62
     7
370
    25
100
AcDbLine
 10
125.1975148398
 20
151.5733357415
 30
0.0
 11
125.1245880912
 21
151.4563141287
 31
0.0
  0
LINE
  5
1BC
330
1F
100
AcDbEntity
  8
0
  6
Continuous
 62
     7
370
    25
100
AcDbLine
 10
125.2182428206
 20
151.5526077607
 30
0.0
 11
125.1975148398
 21
151.5733357415
 31
0.0
  0
LINE
  5
1BD
330
1F
100
AcDbEntity
  8
0
  6
Continuous
 62
     7
370
    25
100
AcDbLine
 10
136.9275487441
 20
151.5733357415
 30
0.0
 11
136.9068207632
 21
151.5526077607
 31
0.0
  0
LINE
  5
1BE
330
1F
100
AcDbEntity
  8
0
  6
Continuous
 62
     7
370
    25
100
AcDbLine
 10
137.0122013095
 20
151.4374986188
 30
0.0
 11
136.9275487441
 21
151.5733357415
 31
0.0
  0
LINE
  5
1BF
330
1F
100
AcDbEntity
  8
0
  6
Continuous
 62
     7
370
    25
100
AcDbLine
 10
136.9275487441
 20
137.8433024407
 30
0.0
 11
136.9985723349
 21
137.9572697812
 31
0.0
  0
LINE
  5
1C0
330
1F
100
AcDbEntity
  8
0
  6
Continuous
 62
     7
370
    25
100
AcDbLine
 10
136.9068207632
 20
137.8640304216
 30
0.0
 11
136.9275487441
 21
137.8433024407
 31
0.0
  0
LINE
  5
1C1
330
1F
100
AcDbEntity
  8
0
  6
Continuous
 62
     7
370
    25
100
AcDbLine
 10
125.1975148398
 20
137.8433024407
 30
0.0
 11
125.2182428206
 21
137.8640304216
 31
0.0
  0
LINE
  5
1C2
330
1F
100
AcDbEntity
  8
0
  6
Continuous
 62
     7
370
    25
100
AcDbLine
 10
125.1072841178
 20
137.9880900391
 30
0.0
 11
125.1975148398
 21
137.8433024407
 31
0.0
  0
SPLINE
  5
1C3
330
1F
100
AcDbEntity
  8
0
  6
Continuous
 62
     7
370
    25
100
AcDbSpline
210
0.0
220
0.0
230
1.0
 70
     8
 71
     3
 72
     9
 73
     5
 74
     0
 42
0.000000001
 43
0.00000001
 40
0.0
 40
0.0
 40
0.0
 40
0.0
 40
0.0530734654727561
 40
1.0
 40
1.0
 40
1.0
 40
1.0
 10
125.3841886709451
 20
151.6770729691679
 30
0.0
 10
125.3806762066965
 20
151.6764926608519
 30
0.0
 10
125.3144950327845
 20
151.6655586034898
 30
0.0
 10
125.2544104887817
 20
151.6181901690342
 30
0.0
 10
125.1975148397505
 20
151.5733357415492
 30
0.0
  0
SPLINE
  5
1C4
330
1F
100
AcDbEntity
  8
0
  6
Continuous
 62
     7
370
    25
100
AcDbSpline
210
0.0
220
0.0
230
1.0
 70
     8
 71
     3
 72
     9
 73
     5
 74
     0
 42
0.000000001
 43
0.00000001
 40
0.0
 40
0.0
 40
0.0
 40
0.0
 40
0.7968510054537402
 40
1.0
 40
1.0
 40
1.0
 40
1.0
 10
125.1975148397505
 20
137.8433024407321
 30
0.0
 10
125.2546996875867
 20
137.8001739518582
 30
0.0
 10
125.3264632261212
 20
137.7460502968979
 30
0.0
 10
125.405469716037
 20
137.7352227441435
 30
0.0
 10
125.421519805026
 20
137.7330231376881
 30
0.0
  0
SPLINE
  5
1C5
330
1F
100
AcDbEntity
  8
0
  6
Continuous
 62
     7
370
    25
100
AcDbSpline
210
0.0
220
0.0
230
1.0
 70
     8
 71
     3
 72
     9
 73
     5
 74
     0
 42
0.000000001
 43
0.00000001
 40
0.0
 40
0.0
 40
0.0
 40
0.0
 40
0.1433472084244004
 40
1.0
 40
1.0
 40
1.0
 40
1.0
 10
136.7199872101664
 20
137.7359046497339
 30
0.0
 10
136.7305026616047
 20
137.737463503379
 30
0.0
 10
136.8038591751626
 20
137.7483381737836
 30
0.0
 10
136.870478830417
 20
137.7994862760995
 30
0.0
 10
136.9275487440645
 20
137.8433024407321
 30
0.0
  0
SPLINE
  5
1C6
330
1F
100
AcDbEntity
  8
0
  6
Continuous
 62
     7
370
    25
100
AcDbSpline
210
0.0
220
0.0
230
1.0
 70
     8
 71
     3
 72
    12
 73
     8
 74
     0
 42
0.000000001
 43
0.00000001
 40
0.0
 40
0.0
 40
0.0
 40
0.0
 40
0.1664616487437876
 40
0.3330491329443992
 40
0.500193847829015
 40
0.7619811613088653
 40
1.0
 40
1.0
 40
1.0
 40
1.0
 10
124.0625317731341
 20
151.2083190911407
 30
0.0
 10
124.044557949333
 20
151.231312776136
 30
0.0
 10
124.008596714551
 20
151.2773175280333
 30
0.0
 10
123.9508797862689
 20
151.3428604920414
 30
0.0
 10
123.8805950769422
 20
151.417226677756
 30
0.0
 10
123.8012523221942
 20
151.4964982223845
 30
0.0
 10
123.7467712501742
 20
151.5485484137454
 30
0.0
 10
123.7208261483851
 20
151.5733358759396
 30
0.0
  0
SPLINE
  5
1C7
330
1F
100
AcDbEntity
  8
0
  6
Continuous
 62
     7
370
    25
100
AcDbSpline
210
0.0
220
0.0
230
1.0
 70
     8
 71
     3
 72
    14
 73
    10
 74
     0
 42
0.000000001
 43
0.00000001
 40
0.0
 40
0.0
 40
0.0
 40
0.0
 40
0.1488603139315083
 40
0.3150272282737267
 40
0.4987644934547347
 40
0.5951852632716568
 40
0.749434831581739
 40
0.879320313901446
 40
1.0
 40
1.0
 40
1.0
 40
1.0
 10
123.7208261483851
 20
151.5733358759396
 30
0.0
 10
123.7360369010272
 20
151.5865792329915
 30
0.0
 10
123.7682268186638
 20
151.6146056287104
 30
0.0
 10
123.8228508292805
 20
151.6486751818377
 30
0.0
 10
123.8735564859048
 20
151.6722290710123
 30
0.0
 10
123.9235731273968
 20
151.6893581430094
 30
0.0
 10
123.9682468385767
 20
151.7001831836447
 30
0.0
 10
124.0168241104795
 20
151.7071244186207
 30
0.0
 10
124.0476737040986
 20
151.7079307417725
 30
0.0
 10
124.0625317919075
 20
151.7083190911407
 30
0.0
  0
SPLINE
  5
1C8
330
1F
100
AcDbEntity
  8
0
  6
Continuous
 62
     7
370
    25
100
AcDbSpline
210
0.0
220
0.0
230
1.0
 70
    24
 71
     3
 72
    13
 73
     9
 74
     0
 42
0.000000001
 43
0.00000001
 40
0.0
 40
0.0
 40
0.0
 40
0.0
 40
0.1847371487918729
 40
0.3690894761192522
 40
0.5535890758358414
 40
0.7381972723018706
 40
0.9224589043912812
 40
0.9999999999999999
 40
0.9999999999999999
 40
0.9999999999999999
 40
0.9999999999999999
 10
124.0625315758407
 20
151.7083193072075
 30
0.0
 10
124.1608476867905
 20
151.7083193072075
 30
0.0
 10
124.3572751087891
 20
151.7083193072075
 30
0.0
 10
124.640083351537
 20
151.7083193072075
 30
0.0
 10
124.9020083500166
 20
151.7083193072075
 30
0.0
 10
125.1278173421401
 20
151.7083193072075
 30
0.0
 10
125.2869489454417
 20
151.7083193072075
 30
0.0
 10
125.3493609992592
 20
151.7083193072075
 30
0.0
 10
125.367846288067
 20
151.7083193072075
 30
0.0
  0
SPLINE
  5
1C9
330
1F
100
AcDbEntity
  8
0
  6
Continuous
 62
     7
370
    25
100
AcDbSpline
210
0.0
220
0.0
230
1.0
 70
     8
 71
     3
 72
    12
 73
     8
 74
     0
 42
0.000000001
 43
0.00000001
 40
0.0
 40
0.0
 40
0.0
 40
0.0
 40
0.1664616503807027
 40
0.3330491366093241
 40
0.5001938540683241
 40
0.7619811741357122
 40
1.0
 40
1.0
 40
1.0
 40
1.0
 10
138.0625318106809
 20
138.2083190911407
 30
0.0
 10
138.0805056344327
 20
138.1853254057373
 30
0.0
 10
138.116466869158
 20
138.1393206529696
 30
0.0
 10
138.1741837982314
 20
138.0737776881593
 30
0.0
 10
138.2444685097237
 20
137.9994115019397
 30
0.0
 10
138.3238112641668
 20
137.9201399582802
 30
0.0
 10
138.3782923351899
 20
137.8680897673191
 30
0.0
 10
138.4042374354298
 20
137.8433023063417
 30
0.0
  0
SPLINE
  5
1CA
330
1F
100
AcDbEntity
  8
0
  6
Continuous
 62
     7
370
    25
100
AcDbSpline
210
0.0
220
0.0
230
1.0
 70
     8
 71
     3
 72
    14
 73
    10
 74
     0
 42
0.000000001
 43
0.00000001
 40
0.0
 40
0.0
 40
0.0
 40
0.0
 40
0.1488603598374869
 40
0.3150273329269794
 40
0.4987646698885773
 40
0.5951853465829806
 40
0.7494349165379153
 40
0.8793203509512854
 40
1.0
 40
1.0
 40
1.0
 40
1.0
 10
138.4042374354298
 20
137.8433023063417
 30
0.0
 10
138.3890266780095
 20
137.8300589454334
 30
0.0
 10
138.3568367494942
 20
137.8020325408857
 30
0.0
 10
138.3022127183864
 20
137.7679629796768
 30
0.0
 10
138.2515070559466
 20
137.7444090942852
 30
0.0
 10
138.2014904163742
 20
137.7272800282184
 30
0.0
 10
138.1568167208471
 20
137.7164549942125
 30
0.0
 10
138.1082394583695
 20
137.7095137628976
 30
0.0
 10
138.0773898751729
 20
137.7087074402692
 30
0.0
 10
138.0625317919075
 20
137.7083190911407
 30
0.0
  0
SPLINE
  5
1CB
330
1F
100
AcDbEntity
  8
0
  6
Continuous
 62
     7
370
    25
100
AcDbSpline
210
0.0
220
0.0
230
1.0
 70
    24
 71
     3
 72
    13
 73
     9
 74
     0
 42
0.000000001
 43
0.00000001
 40
0.0
 40
0.0
 40
0.0
 40
0.0
 40
0.1685697420418679
 40
0.336788340551284
 40
0.5051413227990079
 40
0.6735933978721836
 40
0.8417292384037441
 40
0.9999999999999999
 40
0.9999999999999999
 40
0.9999999999999999
 40
0.9999999999999999
 10
138.0625320079743
 20
137.7083188750738
 30
0.0
 10
137.9642229572266
 20
137.7083188750738
 30
0.0
 10
137.7678096409253
 20
137.7083188750738
 30
0.0
 10
137.484895746287
 20
137.7083188750738
 30
0.0
 10
137.2233724397763
 20
137.7083188750738
 30
0.0
 10
136.9960621957199
 20
137.7083188750738
 30
0.0
 10
136.8082263241309
 20
137.7083188750738
 30
0.0
 10
136.7254217420953
 20
137.7083188750738
 30
0.0
 10
136.6852707642138
 20
137.7083188750738
 30
0.0
  0
SPLINE
  5
1CC
330
1F
100
AcDbEntity
  8
0
  6
Continuous
 62
     7
370
    25
100
AcDbSpline
210
0.0
220
0.0
230
1.0
 70
     8
 71
     3
 72
    13
 73
     9
 74
     0
 42
0.000000001
 43
0.00000001
 40
0.0
 40
0.0
 40
0.0
 40
0.0
 40
0.1162222239446788
 40
0.2381780213507807
 40
0.3660917905398808
 40
0.5001580142687957
 40
0.7504239388759752
 40
1.0
 40
1.0
 40
1.0
 40
1.0
 10
123.7208261483851
 20
137.8433023063417
 30
0.0
 10
123.7332741590026
 20
137.8551397646719
 30
0.0
 10
123.7587842760697
 20
137.8793986568803
 30
0.0
 10
123.8002914490855
 20
137.9196848152372
 30
0.0
 10
123.844884199791
 20
137.9638420061841
 30
0.0
 10
123.9053902830954
 20
138.0252562814775
 30
0.0
 10
123.9807940667581
 20
138.1052870834894
 30
0.0
 10
124.0353109517404
 20
138.1740067033523
 30
0.0
 10
124.0625317731341
 20
138.2083190911407
 30
0.0
  0
SPLINE
  5
1CD
330
1F
100
AcDbEntity
  8
0
  6
Continuous
 62
     7
370
    25
100
AcDbSpline
210
0.0
220
0.0
230
1.0
 70
     8
 71
     3
 72
    13
 73
     9
 74
     0
 42
0.000000001
 43
0.00000001
 40
0.0
 40
0.0
 40
0.0
 40
0.0
 40
0.1206933098378984
 40
0.2506349558807637
 40
0.4049363563536673
 40
0.5013750994399903
 40
0.7702864430522399
 40
1.0
 40
1.0
 40
1.0
 40
1.0
 10
124.0625317919075
 20
137.7083190911407
 30
0.0
 10
124.0476760137156
 20
137.7087068058816
 30
0.0
 10
124.0168261073148
 20
137.7095119446845
 30
0.0
 10
123.9682509556977
 20
137.7164619565239
 30
0.0
 10
123.9235612733124
 20
137.7272522653793
 30
0.0
 10
123.8637975639706
 20
137.747872050791
 30
0.0
 10
123.796005550923
 20
137.7803797347347
 30
0.0
 10
123.7445372785447
 20
137.8234569067378
 30
0.0
 10
123.7208261483851
 20
137.8433023063417
 30
0.0
  0
SPLINE
  5
1CE
330
1F
100
AcDbEntity
  8
0
  6
Continuous
 62
     7
370
    25
100
AcDbSpline
210
0.0
220
0.0
230
1.0
 70
    24
 71
     3
 72
    13
 73
     9
 74
     0
 42
0.000000001
 43
0.00000001
 40
0.0
 40
0.0
 40
0.0
 40
0.0
 40
0.1144647671590815
 40
0.291615705726434
 40
0.4684340794035635
 40
0.6458133828963049
 40
0.8225570207736255
 40
1.0
 40
1.0
 40
1.0
 40
1.0
 10
125.3994362841367
 20
137.7083188750738
 30
0.0
 10
125.3714364060577
 20
137.7083188750738
 30
0.0
 10
125.3001026287835
 20
137.7083188750738
 30
0.0
 10
125.1286979059664
 20
137.7083188750738
 30
0.0
 10
124.9020037042225
 20
137.7083188750738
 30
0.0
 10
124.6403771256389
 20
137.7083188750738
 30
0.0
 10
124.3573747195815
 20
137.7083188750738
 30
0.0
 10
124.1609419092589
 20
137.7083188750738
 30
0.0
 10
124.0625315758407
 20
137.7083188750738
 30
0.0
  0
SPLINE
  5
1CF
330
1F
100
AcDbEntity
  8
0
  6
Continuous
 62
     7
370
    25
100
AcDbSpline
210
0.0
220
0.0
230
1.0
 70
     8
 71
     3
 72
    13
 73
     9
 74
     0
 42
0.000000001
 43
0.00000001
 40
0.0
 40
0.0
 40
0.0
 40
0.0
 40
0.1162222328345675
 40
0.2381780342187649
 40
0.3660918025068102
 40
0.5001580205070525
 40
0.7504239414864089
 40
0.9999999999999999
 40
0.9999999999999999
 40
0.9999999999999999
 40
0.9999999999999999
 10
138.4042374354298
 20
151.5733358759396
 30
0.0
 10
138.3917894238222
 20
151.5614984167281
 30
0.0
 10
138.3662793052992
 20
151.5372395232583
 30
0.0
 10
138.3247721305882
 20
151.4969533636665
 30
0.0
 10
138.2801793800186
 20
151.4527961729034
 30
0.0
 10
138.2196732983888
 20
151.3913818980823
 30
0.0
 10
138.1442695170105
 20
151.3113510968008
 30
0.0
 10
138.0897526320958
 20
151.2426314783122
 30
0.0
 10
138.0625318106809
 20
151.2083190911407
 30
0.0
  0
SPLINE
  5
1D0
330
1F
100
AcDbEntity
  8
0
  6
Continuous
 62
     7
370
    25
100
AcDbSpline
210
0.0
220
0.0
230
1.0
 70
     8
 71
     3
 72
    13
 73
     9
 74
     0
 42
0.000000001
 43
0.00000001
 40
0.0
 40
0.0
 40
0.0
 40
0.0
 40
0.1206933478353882
 40
0.25063504079335
 40
0.4049364375708385
 40
0.5013752757893005
 40
0.7702865166940487
 40
1.0
 40
1.0
 40
1.0
 40
1.0
 10
138.0625317919075
 20
151.7083190911407
 30
0.0
 10
138.077387574765
 20
151.7079313761544
 30
0.0
 10
138.1082374915939
 20
151.707126236823
 30
0.0
 10
138.1568126523792
 20
151.7001762213347
 30
0.0
 10
138.2015023503066
 20
151.689385905932
 30
0.0
 10
138.261266057924
 20
151.6687661147452
 30
0.0
 10
138.3290580592706
 20
151.636258427713
 30
0.0
 10
138.3805263130527
 20
151.5931812697377
 30
0.0
 10
138.4042374354298
 20
151.5733358759396
 30
0.0
  0
SPLINE
  5
1D1
330
1F
100
AcDbEntity
  8
0
  6
Continuous
 62
     7
370
    25
100
AcDbSpline
210
0.0
220
0.0
230
1.0
 70
    24
 71
     3
 72
    13
 73
     9
 74
     0
 42
0.000000001
 43
0.00000001
 40
0.0
 40
0.0
 40
0.0
 40
0.0
 40
0.1262016779661141
 40
0.3010046526261732
 40
0.4754794702211407
 40
0.6505077830509483
 40
0.824908855396662
 40
0.9999999999999999
 40
0.9999999999999999
 40
0.9999999999999999
 40
0.9999999999999999
 10
136.7151308286011
 20
151.7083193072075
 30
0.0
 10
136.7462864651374
 20
151.7083193072075
 30
0.0
 10
136.8205960282438
 20
151.7083193072075
 30
0.0
 10
136.9961990482677
 20
151.7083193072075
 30
0.0
 10
137.2231046395636
 20
151.7083193072075
 30
0.0
 10
137.4846745556103
 20
151.7083193072075
 30
0.0
 10
137.7676918491439
 20
151.7083193072075
 30
0.0
 10
137.9641226708351
 20
151.7083193072075
 30
0.0
 10
138.0625320079743
 20
151.7083193072075
 30
0.0
  0
SPLINE
  5
1D2
330
1F
100
AcDbEntity
  8
0
  6
Continuous
 62
     7
370
    25
100
AcDbSpline
210
0.0
220
0.0
230
1.0
 70
     8
 71
     3
 72
    13
 73
     9
 74
     0
 42
0.000000001
 43
0.00000001
 40
0.0
 40
0.0
 40
0.0
 40
0.0
 40
0.1856794033212272
 40
0.3634611737568169
 40
0.533542336720674
 40
0.6961479207300177
 40
0.8515354443703902
 40
1.0
 40
1.0
 40
1.0
 40
1.0
 10
123.2180749744498
 20
138.1417370273825
 30
0.0
 10
123.2017466686067
 20
138.1672759715024
 30
0.0
 10
123.1697845602572
 20
138.2172675938378
 30
0.0
 10
123.1310657070253
 20
138.2987428366863
 30
0.0
 10
123.1005116279376
 20
138.3820677206049
 30
0.0
 10
123.0788948910284
 20
138.4672351874824
 30
0.0
 10
123.0651871965397
 20
138.55307195073
 30
0.0
 10
123.063403379283
 20
138.6125775250404
 30
0.0
 10
123.0625317919075
 20
138.641652424474
 30
0.0
  0
SPLINE
  5
1D3
330
1F
100
AcDbEntity
  8
0
  6
Continuous
 62
     7
370
    25
100
AcDbSpline
210
0.0
220
0.0
230
1.0
 70
     8
 71
     3
 72
    17
 73
    13
 74
     0
 42
0.000000001
 43
0.00000001
 40
0.0
 40
0.0
 40
0.0
 40
0.0
 40
0.1130667886658668
 40
0.2142471894553318
 40
0.3035410226158834
 40
0.3809482842621089
 40
0.4464692357998273
 40
0.5001045924259258
 40
0.6375226532033567
 40
0.75004211245356
 40
0.8820380142920121
 40
1.0
 40
1.0
 40
1.0
 40
1.0
 10
123.5625317919075
 20
137.7083190911407
 30
0.0
 10
123.5523021658035
 20
137.7093965738304
 30
0.0
 10
123.532918324909
 20
137.7114382665387
 30
0.0
 10
123.5050240803512
 20
137.7266036882364
 30
0.0
 10
123.4800312726537
 20
137.7468649338044
 30
0.0
 10
123.4579018751197
 20
137.770215685369
 30
0.0
 10
123.4387020483933
 20
137.7940362113999
 30
0.0
 10
123.4125202830403
 20
137.8295536510415
 30
0.0
 10
123.3795387414493
 20
137.8798629439173
 30
0.0
 10
123.3339444670351
 20
137.9568494222542
 30
0.0
 10
123.2840358103562
 20
138.0412900022876
 30
0.0
 10
123.2392232508766
 20
138.10953183435
 30
0.0
 10
123.2180749744498
 20
138.1417370273825
 30
0.0
  0
SPLINE
  5
1D4
330
1F
100
AcDbEntity
  8
0
  6
Continuous
 62
     7
370
    25
100
AcDbSpline
210
0.0
220
0.0
230
1.0
 70
     8
 71
     3
 72
    14
 73
    10
 74
     0
 42
0.000000001
 43
0.00000001
 40
0.0
 40
0.0
 40
0.0
 40
0.0
 40
0.0771019312872794
 40
0.1604220744063169
 40
0.2500134455684252
 40
0.3625277428809286
 40
0.4999872826729911
 40
0.6965319256112464
 40
1.0
 40
1.0
 40
1.0
 40
1.0
 10
138.9069886093652
 20
138.1417370273825
 30
0.0
 10
138.8928593324581
 20
138.120472302065
 30
0.0
 10
138.8634612632599
 20
138.0762278675849
 30
0.0
 10
138.8249433670475
 20
138.0135691265012
 30
0.0
 10
138.7858808405626
 20
137.9481956028877
 30
0.0
 10
138.745600334169
 20
137.8798502956414
 30
0.0
 10
138.6969416398113
 20
137.8061875774547
 30
0.0
 10
138.6355068003608
 20
137.7284246518731
 30
0.0
 10
138.5900938512899
 20
137.7159127957605
 30
0.0
 10
138.5625317919075
 20
137.7083190911407
 30
0.0
  0
SPLINE
  5
1D5
330
1F
100
AcDbEntity
  8
0
  6
Continuous
 62
     7
370
    25
100
AcDbSpline
210
0.0
220
0.0
230
1.0
 70
     8
 71
     3
 72
    13
 73
     9
 74
     0
 42
0.000000001
 43
0.00000001
 40
0.0
 40
0.0
 40
0.0
 40
0.0
 40
0.1484645556295969
 40
0.303852079269964
 40
0.4664576632793
 40
0.6365388262431574
 40
0.814320596678755
 40
1.0
 40
1.0
 40
1.0
 40
1.0
 10
139.0625317919075
 20
138.641652424474
 30
0.0
 10
139.061660204532
 20
138.6125775250404
 30
0.0
 10
139.0598763872753
 20
138.55307195073
 30
0.0
 10
139.0461686927866
 20
138.4672351874824
 30
0.0
 10
139.0245519558774
 20
138.3820677206049
 30
0.0
 10
138.9939978767897
 20
138.2987428366863
 30
0.0
 10
138.9552790235578
 20
138.2172675938378
 30
0.0
 10
138.9233169152083
 20
138.1672759715024
 30
0.0
 10
138.9069886093652
 20
138.1417370273825
 30
0.0
  0
LINE
  5
1D6
330
1F
100
AcDbEntity
  8
0
  6
Continuous
 62
     7
370
    25
100
AcDbLine
 10
139.0625321719
 20
139.9492341922
 30
0.0
 11
139.0625321719
 21
138.6416526408
 31
0.0
  0
LINE
  5
1D7
330
1F
100
AcDbEntity
  8
0
  6
Continuous
 62
     7
370
    25
100
AcDbLine
 10
139.0625321719
 20
150.7749855415
 30
0.0
 11
139.0625321719
 21
149.4674039901
 31
0.0
  0
SPLINE
  5
1D8
330
1F
100
AcDbEntity
  8
0
  6
Continuous
 62
     7
370
    25
100
AcDbSpline
210
0.0
220
0.0
230
1.0
 70
     8
 71
     3
 72
    13
 73
     9
 74
     0
 42
0.000000001
 43
0.00000001
 40
0.0
 40
0.0
 40
0.0
 40
0.0
 40
0.1856794033212442
 40
0.3634611737568403
 40
0.5335423367206995
 40
0.6961479207300372
 40
0.8515354443704025
 40
0.9999999999999999
 40
0.9999999999999999
 40
0.9999999999999999
 40
0.9999999999999999
 10
138.9069886093652
 20
151.2749011548988
 30
0.0
 10
138.9233169152083
 20
151.2493622107789
 30
0.0
 10
138.9552790235578
 20
151.1993705884435
 30
0.0
 10
138.9939978767897
 20
151.117895345595
 30
0.0
 10
139.0245519558774
 20
151.0345704616765
 30
0.0
 10
139.0461686927866
 20
150.9494029947989
 30
0.0
 10
139.0598763872753
 20
150.8635662315513
 30
0.0
 10
139.061660204532
 20
150.8040606572409
 30
0.0
 10
139.0625317919075
 20
150.7749857578073
 30
0.0
  0
SPLINE
  5
1D9
330
1F
100
AcDbEntity
  8
0
  6
Continuous
 62
     7
370
    25
100
AcDbSpline
210
0.0
220
0.0
230
1.0
 70
     8
 71
     3
 72
    16
 73
    12
 74
     0
 42
0.000000001
 43
0.00000001
 40
0.0
 40
0.0
 40
0.0
 40
0.0
 40
0.1113707238457123
 40
0.2115306831336734
 40
0.3004797812258395
 40
0.3782180942859685
 40
0.4447459579759641
 40
0.500064141985791
 40
0.7004020768506897
 40
0.8669907153164842
 40
1.0
 40
1.0
 40
1.0
 40
1.0
 10
138.5625317919075
 20
151.7083190911407
 30
0.0
 10
138.5726094707349
 20
151.707273447702
 30
0.0
 10
138.591750392273
 20
151.7052874170537
 30
0.0
 10
138.6193961099874
 20
151.690479859864
 30
0.0
 10
138.6443448983852
 20
151.6705250509327
 30
0.0
 10
138.6666260316251
 20
151.6472785689538
 30
0.0
 10
138.6862051544466
 20
151.6232218215936
 30
0.0
 10
138.7190928748153
 20
151.5787425099171
 30
0.0
 10
138.766971532062
 20
151.5046191165563
 30
0.0
 10
138.8314848912204
 20
151.3926051839664
 30
0.0
 10
138.8837742584262
 20
151.3110904010028
 30
0.0
 10
138.9069886093652
 20
151.2749011548988
 30
0.0
  0
SPLINE
  5
1DA
330
1F
100
AcDbEntity
  8
0
  6
Continuous
 62
     7
370
    25
100
AcDbSpline
210
0.0
220
0.0
230
1.0
 70
     8
 71
     3
 72
    14
 73
    10
 74
     0
 42
0.000000001
 43
0.00000001
 40
0.0
 40
0.0
 40
0.0
 40
0.0
 40
0.0771019312877576
 40
0.1604220744066402
 40
0.250013445567957
 40
0.3625277428349449
 40
0.4999872826724504
 40
0.6965319246666456
 40
1.0
 40
1.0
 40
1.0
 40
1.0
 10
123.2180749744498
 20
151.2749011548988
 30
0.0
 10
123.232204251357
 20
151.2961658802164
 30
0.0
 10
123.2616023205554
 20
151.3404103146965
 30
0.0
 10
123.300120216768
 20
151.40306905578
 30
0.0
 10
123.3391827432486
 20
151.4684425793828
 30
0.0
 10
123.3794632496381
 20
151.5367878866313
 30
0.0
 10
123.4281219439061
 20
151.6104506046645
 30
0.0
 10
123.4895567833237
 20
151.6882135303324
 30
0.0
 10
123.5349697324225
 20
151.7007253864775
 30
0.0
 10
123.5625317919075
 20
151.7083190911407
 30
0.0
  0
SPLINE
  5
1DB
330
1F
100
AcDbEntity
  8
0
  6
Continuous
 62
     7
370
    25
100
AcDbSpline
210
0.0
220
0.0
230
1.0
 70
     8
 71
     3
 72
    13
 73
     9
 74
     0
 42
0.000000001
 43
0.00000001
 40
0.0
 40
0.0
 40
0.0
 40
0.0
 40
0.1484645556296106
 40
0.3038520792699841
 40
0.4664576632793244
 40
0.6365388262431811
 40
0.8143205966787692
 40
1.0
 40
1.0
 40
1.0
 40
1.0
 10
123.0625317919075
 20
150.7749857578073
 30
0.0
 10
123.063403379283
 20
150.8040606572409
 30
0.0
 10
123.0651871965397
 20
150.8635662315513
 30
0.0
 10
123.0788948910284
 20
150.9494029947989
 30
0.0
 10
123.1005116279376
 20
151.0345704616765
 30
0.0
 10
123.1310657070253
 20
151.117895345595
 30
0.0
 10
123.1697845602572
 20
151.1993705884435
 30
0.0
 10
123.2017466686067
 20
151.2493622107789
 30
0.0
 10
123.2180749744498
 20
151.2749011548988
 30
0.0
  0
LINE
  5
1DC
330
1F
100
AcDbEntity
  8
0
  6
Continuous
 62
     7
370
    25
100
AcDbLine
 10
123.0625314119
 20
149.4674039901
 30
0.0
 11
123.0625314119
 21
150.7749855415
 31
0.0
  0
LINE
  5
1DD
330
1F
100
AcDbEntity
  8
0
  6
Continuous
 62
     7
370
    25
100
AcDbLine
 10
123.0625314119
 20
138.6416526408
 30
0.0
 11
123.0625314119
 21
139.9492341922
 31
0.0
  0
LINE
  5
1DE
330
1F
100
AcDbEntity
  8
0
  6
Continuous
 62
     7
370
    25
100
AcDbLine
 10
138.5625316243
 20
149.8073385925
 30
0.0
 11
138.5625316243
 21
151.2083192253
 31
0.0
  0
ARC
  5
1DF
330
1F
100
AcDbEntity
  8
0
  6
Continuous
 62
     7
370
    25
100
AcDbCircle
 10
138.0625317919
 20
151.2083190911
 30
0.0
 40
0.5
100
AcDbArc
 50
0.0
 51
46.8892083855
  0
LINE
  5
1E0
330
1F
100
AcDbEntity
  8
0
  6
Continuous
 62
     7
370
    25
100
AcDbLine
 10
123.5625319595
 20
139.6092995898
 30
0.0
 11
123.5625319595
 21
138.208318957
 31
0.0
  0
ARC
  5
1E1
330
1F
100
AcDbEntity
  8
0
  6
Continuous
 62
     7
370
    25
100
AcDbCircle
 10
124.0625317919
 20
138.2083190911
 30
0.0
 40
0.5
100
AcDbArc
 50
180.0
 51
226.8892083855
  0
LINE
  5
1E2
330
1F
100
AcDbEntity
  8
0
  6
Continuous
 62
     7
370
    25
100
AcDbLine
 10
123.5625319595
 20
151.2083192253
 30
0.0
 11
123.5625319595
 21
149.8073385925
 31
0.0
  0
ARC
  5
1E3
330
1F
100
AcDbEntity
  8
0
  6
Continuous
 62
     7
370
    25
100
AcDbCircle
 10
124.0625317919
 20
151.2083190911
 30
0.0
 40
0.5
100
AcDbArc
 50
133.1107916145
 51
180.0
  0
LINE
  5
1E4
330
1F
100
AcDbEntity
  8
0
  6
Continuous
 62
     7
370
    25
100
AcDbLine
 10
138.5625316243
 20
138.208318957
 30
0.0
 11
138.5625316243
 21
139.6092995898
 31
0.0
  0
ARC
  5
1E5
330
1F
100
AcDbEntity
  8
0
  6
Continuous
 62
     7
370
    25
100
AcDbCircle
 10
138.0625317919
 20
138.2083190911
 30
0.0
 40
0.5
100
AcDbArc
 50
313.1107916145
 51
0.0
  0
SPLINE
  5
1E6
330
1F
100
AcDbEntity
  8
0
  6
Continuous
 62
     7
370
    25
100
AcDbSpline
210
0.0
220
0.0
230
1.0
 70
     8
 71
     3
 72
     9
 73
     5
 74
     0
 42
0.000000001
 43
0.00000001
 40
0.0
 40
0.0
 40
0.0
 40
0.0
 40
0.5
 40
1.0
 40
1.0
 40
1.0
 40
1.0
 10
123.5625317919075
 20
149.8073386047334
 30
0.0
 10
123.5625317919075
 20
149.7183439255978
 30
0.0
 10
123.4542451372618
 20
149.5410247391739
 30
0.0
 10
123.1934314858071
 20
149.4674039704939
 30
0.0
 10
123.0625317919075
 20
149.4674039704939
 30
0.0
  0
SPLINE
  5
1E7
330
1F
100
AcDbEntity
  8
0
  6
Continuous
 62
     7
370
    25
100
AcDbSpline
210
0.0
220
0.0
230
1.0
 70
     8
 71
     3
 72
     9
 73
     5
 74
     0
 42
0.000000001
 43
0.00000001
 40
0.0
 40
0.0
 40
0.0
 40
0.0
 40
0.5
 40
1.0
 40
1.0
 40
1.0
 40
1.0
 10
139.0625317919075
 20
149.4674039704939
 30
0.0
 10
138.9316320980079
 20
149.4674039704939
 30
0.0
 10
138.6708184465532
 20
149.5410247391739
 30
0.0
 10
138.5625317919075
 20
149.7183439255978
 30
0.0
 10
138.5625317919075
 20
149.8073386047334
 30
0.0
  0
SPLINE
  5
1E8
330
1F
100
AcDbEntity
  8
0
  6
Continuous
 62
     7
370
    25
100
AcDbSpline
210
0.0
220
0.0
230
1.0
 70
     8
 71
     3
 72
     9
 73
     5
 74
     0
 42
0.000000001
 43
0.00000001
 40
0.0
 40
0.0
 40
0.0
 40
0.0
 40
0.5
 40
1.0
 40
1.0
 40
1.0
 40
1.0
 10
123.0625317919075
 20
139.9492342117874
 30
0.0
 10
123.1934314858071
 20
139.9492342117874
 30
0.0
 10
123.4542451372618
 20
139.8756134431074
 30
0.0
 10
123.5625317919075
 20
139.6982942566835
 30
0.0
 10
123.5625317919075
 20
139.6092995775479
 30
0.0
  0
SPLINE
  5
1E9
330
1F
100
AcDbEntity
  8
0
  6
Continuous
 62
     7
370
    25
100
AcDbSpline
210
0.0
220
0.0
230
1.0
 70
     8
 71
     3
 72
     9
 73
     5
 74
     0
 42
0.000000001
 43
0.00000001
 40
0.0
 40
0.0
 40
0.0
 40
0.0
 40
0.5
 40
1.0
 40
1.0
 40
1.0
 40
1.0
 10
138.5625317919075
 20
139.6092995775479
 30
0.0
 10
138.5625317919075
 20
139.6982942566835
 30
0.0
 10
138.6708184465532
 20
139.8756134431074
 30
0.0
 10
138.9316320980079
 20
139.9492342117874
 30
0.0
 10
139.0625317919075
 20
139.9492342117874
 30
0.0
  0
SPLINE
  5
1EA
330
1F
100
AcDbEntity
  8
0
  6
Continuous
 62
     7
370
    25
100
AcDbSpline
210
0.0
220
0.0
230
1.0
 70
     8
 71
     3
 72
     9
 73
     5
 74
     0
 42
0.000000001
 43
0.00000001
 40
0.0
 40
0.0
 40
0.0
 40
0.0
 40
0.5
 40
1.0
 40
1.0
 40
1.0
 40
1.0
 10
138.5625317919075
 20
151.2083190911407
 30
0.0
 10
138.5625317919075
 20
151.094872689761
 30
0.0
 10
138.6708156620925
 20
150.8688317786343
 30
0.0
 10
138.9316320980079
 20
150.7749857578073
 30
0.0
 10
139.0625317919075
 20
150.7749857578073
 30
0.0
  0
SPLINE
  5
1EB
330
1F
100
AcDbEntity
  8
0
  6
Continuous
 62
     7
370
    25
100
AcDbSpline
210
0.0
220
0.0
230
1.0
 70
     8
 71
     3
 72
     9
 73
     5
 74
     0
 42
0.000000001
 43
0.00000001
 40
0.0
 40
0.0
 40
0.0
 40
0.0
 40
0.5
 40
1.0
 40
1.0
 40
1.0
 40
1.0
 10
123.5625317919075
 20
138.2083190911407
 30
0.0
 10
123.5625317919075
 20
138.3217654925203
 30
0.0
 10
123.4542479217225
 20
138.547806403647
 30
0.0
 10
123.1934314858071
 20
138.641652424474
 30
0.0
 10
123.0625317919075
 20
138.641652424474
 30
0.0
  0
SPLINE
  5
1EC
330
1F
100
AcDbEntity
  8
0
  6
Continuous
 62
     7
370
    25
100
AcDbSpline
210
0.0
220
0.0
230
1.0
 70
     8
 71
     3
 72
     9
 73
     5
 74
     0
 42
0.000000001
 43
0.00000001
 40
0.0
 40
0.0
 40
0.0
 40
0.0
 40
0.5
 40
1.0
 40
1.0
 40
1.0
 40
1.0
 10
123.0625317919075
 20
150.7749857578073
 30
0.0
 10
123.1934314858071
 20
150.7749857578073
 30
0.0
 10
123.4542479217225
 20
150.8688317786343
 30
0.0
 10
123.5625317919075
 20
151.094872689761
 30
0.0
 10
123.5625317919075
 20
151.2083190911407
 30
0.0
  0
SPLINE
  5
1ED
330
1F
100
AcDbEntity
  8
0
  6
Continuous
 62
     7
370
    25
100
AcDbSpline
210
0.0
220
0.0
230
1.0
 70
     8
 71
     3
 72
     9
 73
     5
 74
     0
 42
0.000000001
 43
0.00000001
 40
0.0
 40
0.0
 40
0.0
 40
0.0
 40
0.5
 40
1.0
 40
1.0
 40
1.0
 40
1.0
 10
139.0625317919075
 20
138.641652424474
 30
0.0
 10
138.9316320980079
 20
138.641652424474
 30
0.0
 10
138.6708156620925
 20
138.547806403647
 30
0.0
 10
138.5625317919075
 20
138.3217654925203
 30
0.0
 10
138.5625317919075
 20
138.2083190911407
 30
0.0
  0
SPLINE
  5
1EE
330
1F
100
AcDbEntity
  8
0
  6
Continuous
 62
     7
370
    25
100
AcDbSpline
210
0.0
220
0.0
230
1.0
 70
     8
 71
     3
 72
    10
 73
     6
 74
     0
 42
0.000000001
 43
0.00000001
 40
0.0
 40
0.0
 40
0.0
 40
0.0
 40
0.5
 40
0.5
 40
1.0
 40
1.0
 40
1.0
 40
1.0
 10
130.0625317919075
 20
140.8353357449332
 30
0.0
 10
130.3895484809154
 20
140.8502612506562
 30
0.0
 10
130.7200553058499
 20
140.8598897327718
 30
0.0
 10
131.3903095735927
 20
140.8601525913579
 30
0.0
 10
131.7309199499835
 20
140.8504709799558
 30
0.0
 10
132.0625317919075
 20
140.8353357449332
 30
0.0
  0
SPLINE
  5
1EF
330
1F
100
AcDbEntity
  8
0
  6
Continuous
 62
     7
370
    25
100
AcDbSpline
210
0.0
220
0.0
230
1.0
 70
     8
 71
     3
 72
    10
 73
     6
 74
     0
 42
0.000000001
 43
0.00000001
 40
0.0
 40
0.0
 40
0.0
 40
0.0
 40
0.5
 40
0.5
 40
1.0
 40
1.0
 40
1.0
 40
1.0
 10
132.0625317919075
 20
148.5813024373481
 30
0.0
 10
131.7355151028996
 20
148.5663769316251
 30
0.0
 10
131.4050082779652
 20
148.5567484495095
 30
0.0
 10
130.7347540102223
 20
148.5564855909234
 30
0.0
 10
130.3941436338314
 20
148.5661672023255
 30
0.0
 10
130.0625317919075
 20
148.5813024373481
 30
0.0
  0
SPLINE
  5
1F0
330
1F
100
AcDbEntity
  8
0
  6
Continuous
 62
     7
370
    25
100
AcDbSpline
210
0.0
220
0.0
230
1.0
 70
     8
 71
     3
 72
     8
 73
     4
 74
     0
 42
0.000000001
 43
0.00000001
 40
0.0
 40
0.0
 40
0.0
 40
0.0
 40
1.0
 40
1.0
 40
1.0
 40
1.0
 10
123.2180749744498
 20
151.2749011548988
 30
0.0
 10
123.3880788542855
 20
151.2619615096733
 30
0.0
 10
123.554883316638
 20
151.3414588163057
 30
0.0
 10
123.6403033831786
 20
151.4761309110111
 30
0.0
  0
SPLINE
  5
1F1
330
1F
100
AcDbEntity
  8
0
  6
Continuous
 62
     7
370
    25
100
AcDbSpline
210
0.0
220
0.0
230
1.0
 70
     8
 71
     3
 72
     9
 73
     5
 74
     0
 42
0.000000001
 43
0.00000001
 40
0.0
 40
0.0
 40
0.0
 40
0.0
 40
0.571428571428571
 40
1.0
 40
1.0
 40
1.0
 40
1.0
 10
138.9069886093652
 20
138.1417370273825
 30
0.0
 10
138.8098435351734
 20
138.1491311103685
 30
0.0
 10
138.6401821964557
 20
138.1118159307904
 30
0.0
 10
138.5213688005823
 20
137.9982238832868
 30
0.0
 10
138.4847602006363
 20
137.9405072712702
 30
0.0
  0
SPLINE
  5
1F2
330
1F
100
AcDbEntity
  8
0
  6
Continuous
 62
     7
370
    25
100
AcDbSpline
210
0.0
220
0.0
230
1.0
 70
     8
 71
     3
 72
     9
 73
     5
 74
     0
 42
0.000000001
 43
0.00000001
 40
0.0
 40
0.0
 40
0.0
 40
0.0
 40
0.5
 40
1.0
 40
1.0
 40
1.0
 40
1.0
 10
138.9069886093664
 20
151.274901154897
 30
0.0
 10
138.8219866694483
 20
151.2684313322842
 30
0.0
 10
138.6520927511995
 20
151.2991103254901
 30
0.0
 10
138.5274702339071
 20
151.4087948636571
 30
0.0
 10
138.4847602006369
 20
151.4761309110101
 30
0.0
  0
SPLINE
  5
1F3
330
1F
100
AcDbEntity
  8
0
  6
Continuous
 62
     7
370
    25
100
AcDbSpline
210
0.0
220
0.0
230
1.0
 70
     8
 71
     3
 72
     9
 73
     5
 74
     0
 42
0.000000001
 43
0.00000001
 40
0.0
 40
0.0
 40
0.0
 40
0.0
 40
0.5
 40
1.0
 40
1.0
 40
1.0
 40
1.0
 10
123.2180749744491
 20
138.1417370273836
 30
0.0
 10
123.3030769143671
 20
138.1482068499965
 30
0.0
 10
123.4729708326158
 20
138.1175278567906
 30
0.0
 10
123.5975933499081
 20
138.0078433186237
 30
0.0
 10
123.6403033831783
 20
137.9405072712708
 30
0.0
  0
SPLINE
  5
1F4
330
1F
100
AcDbEntity
  8
0
  6
Continuous
 62
     7
370
    25
100
AcDbSpline
210
0.0
220
0.0
230
1.0
 70
     8
 71
     3
 72
    11
 73
     7
 74
     0
 42
0.000000001
 43
0.00000001
 40
0.0
 40
0.0
 40
0.0
 40
0.0
 40
0.2876478479512965
 40
0.5611005784409707
 40
0.8299950982559509
 40
1.0
 40
1.0
 40
1.0
 40
1.0
 10
123.6403034481227
 20
151.4761308104688
 30
0.0
 10
123.6546938769793
 20
151.5111869667584
 30
0.0
 10
123.6827645822287
 20
151.5795692950537
 30
0.0
 10
123.6529322422174
 20
151.6528859574448
 30
0.0
 10
123.6187000435676
 20
151.6953594988549
 30
0.0
 10
123.5909740330281
 20
151.7008325927373
 30
0.0
 10
123.5802345390438
 20
151.7029525608713
 30
0.0
  0
SPLINE
  5
1F5
330
1F
100
AcDbEntity
  8
0
  6
Continuous
 62
     7
370
    25
100
AcDbSpline
210
0.0
220
0.0
230
1.0
 70
    24
 71
     3
 72
    14
 73
    10
 74
     0
 42
0.000000001
 43
0.00000001
 40
0.0
 40
0.0
 40
0.0
 40
0.0
 40
0.250384366109634
 40
0.3856975923178703
 40
0.5014306604032173
 40
0.6388329400918317
 40
0.7674982872365089
 40
0.8877537710032762
 40
1.0
 40
1.0
 40
1.0
 40
1.0
 10
123.5625317919075
 20
151.7083190911407
 30
0.0
 10
123.6218187367929
 20
151.7083190911407
 30
0.0
 10
123.7131456525006
 20
151.7083190911407
 30
0.0
 10
123.8256599824024
 20
151.7083190911407
 30
0.0
 10
123.9054463917753
 20
151.7083190911407
 30
0.0
 10
123.9722456056317
 20
151.7083190911407
 30
0.0
 10
124.0234345693024
 20
151.7083190911407
 30
0.0
 10
124.0560639211612
 20
151.7083190911407
 30
0.0
 10
124.0604259226245
 20
151.7083190911407
 30
0.0
 10
124.0625317919075
 20
151.7083190911407
 30
0.0
  0
SPLINE
  5
1F6
330
1F
100
AcDbEntity
  8
0
  6
Continuous
 62
     7
370
    25
100
AcDbSpline
210
0.0
220
0.0
230
1.0
 70
     8
 71
     3
 72
    12
 73
     8
 74
     0
 42
0.000000001
 43
0.00000001
 40
0.0
 40
0.0
 40
0.0
 40
0.0
 40
0.106360891224351
 40
0.159541336836527
 40
0.265902228060878
 40
0.265902228060878
 40
0.267217449764311
 40
0.267217449764311
 40
0.267217449764311
 40
0.267217449764311
 10
138.4847602006363
 20
137.9405072712702
 30
0.0
 10
138.4467180138083
 20
137.8805304860125
 30
0.0
 10
138.4522138859614
 20
137.8062398419759
 30
0.0
 10
138.4941104654782
 20
137.7280082567526
 30
0.0
 10
138.5352366232222
 20
137.7086321402402
 30
0.0
 10
138.5618840007465
 20
137.7083209987927
 30
0.0
 10
138.5622075024215
 20
137.7083190911407
 30
0.0
 10
138.5625317919075
 20
137.7083190911407
 30
0.0
  0
SPLINE
  5
1F7
330
1F
100
AcDbEntity
  8
0
  6
Continuous
 62
     7
370
    25
100
AcDbSpline
210
0.0
220
0.0
230
1.0
 70
    24
 71
     3
 72
    16
 73
    12
 74
     0
 42
0.000000001
 43
0.00000001
 40
0.0
 40
0.0
 40
0.0
 40
0.0
 40
0.0739298478317502
 40
0.1513677900738161
 40
0.2324450724296886
 40
0.3172760505391666
 40
0.4059605604440887
 40
0.4985859784696513
 40
0.6141264806631028
 40
0.7496239522892343
 40
1.0
 40
1.0
 40
1.0
 40
1.0
 10
138.0625317919075
 20
137.7083190911407
 30
0.0
 10
138.0634470972
 20
137.7083190911407
 30
0.0
 10
138.0653211405456
 20
137.7083190911407
 30
0.0
 10
138.0796958921031
 20
137.7083190911407
 30
0.0
 10
138.1023892375919
 20
137.7083190911407
 30
0.0
 10
138.134351796811
 20
137.7083190911407
 30
0.0
 10
138.1752945779728
 20
137.7083190911407
 30
0.0
 10
138.2287622687042
 20
137.7083190911407
 30
0.0
 10
138.2993649291774
 20
137.7083190911407
 30
0.0
 10
138.4118716316528
 20
137.7083190911407
 30
0.0
 10
138.5032442144761
 20
137.7083190911407
 30
0.0
 10
138.5625317919075
 20
137.7083190911407
 30
0.0
  0
SPLINE
  5
1F8
330
1F
100
AcDbEntity
  8
0
  6
Continuous
 62
     7
370
    25
100
AcDbSpline
210
0.0
220
0.0
230
1.0
 70
     8
 71
     3
 72
    12
 73
     8
 74
     0
 42
0.000000001
 43
0.00000001
 40
-0.265902228061387
 40
-0.265902228061387
 40
-0.265902228061387
 40
-0.265902228061387
 40
-0.2645870063584663
 40
-0.2645870063584663
 40
-0.1582261151339113
 40
-0.1050456695216343
 40
0.0013152217029208
 40
0.0013152217029208
 40
0.0013152217029208
 40
0.0013152217029208
 10
123.5625317919075
 20
137.7083190911407
 30
0.0
 10
123.5628560813933
 20
137.7083190911407
 30
0.0
 10
123.5631795830681
 20
137.7083209987927
 30
0.0
 10
123.5898269605946
 20
137.70863214024
 30
0.0
 10
123.630953118337
 20
137.7280082567524
 30
0.0
 10
123.6728496978543
 20
137.8062398419757
 30
0.0
 10
123.6783455700068
 20
137.8805304860124
 30
0.0
 10
123.6403033831786
 20
137.9405072712702
 30
0.0
  0
SPLINE
  5
1F9
330
1F
100
AcDbEntity
  8
0
  6
Continuous
 62
     7
370
    25
100
AcDbSpline
210
0.0
220
0.0
230
1.0
 70
    24
 71
     3
 72
    14
 73
    10
 74
     0
 42
0.000000001
 43
0.00000001
 40
0.0
 40
0.0
 40
0.0
 40
0.0
 40
0.2503818975769405
 40
0.3853960642454612
 40
0.5014219062737861
 40
0.6386745024418747
 40
0.7672919706928744
 40
0.8876008223903926
 40
1.0
 40
1.0
 40
1.0
 40
1.0
 10
123.5625317919075
 20
137.7083190911407
 30
0.0
 10
123.6220648756373
 20
137.7083190911407
 30
0.0
 10
123.7137001591139
 20
137.7083190911407
 30
0.0
 10
123.8262262132915
 20
137.7083190911407
 30
0.0
 10
123.9058844229748
 20
137.7083190911407
 30
0.0
 10
123.9725548887721
 20
137.7083190911407
 30
0.0
 10
124.0235771926138
 20
137.7083190911407
 30
0.0
 10
124.0560924846342
 20
137.7083190911407
 30
0.0
 10
124.0604345513185
 20
137.7083190911407
 30
0.0
 10
124.0625317919075
 20
137.7083190911407
 30
0.0
  0
LINE
  5
1FA
330
1F
100
AcDbEntity
  8
0
  6
Continuous
 62
     7
370
    25
100
AcDbLine
 10
138.5625316243
 20
151.7083193072
 30
0.0
 11
138.5381612408
 21
151.7008733832
 31
0.0
  0
SPLINE
  5
1FB
330
1F
100
AcDbEntity
  8
0
  6
Continuous
 62
     7
370
    25
100
AcDbSpline
210
0.0
220
0.0
230
1.0
 70
    24
 71
     3
 72
    16
 73
    12
 74
     0
 42
0.000000001
 43
0.00000001
 40
0.0
 40
0.0
 40
0.0
 40
0.0
 40
0.0740424421768231
 40
0.1515492076760871
 40
0.2326508292781398
 40
0.3174612427217847
 40
0.4060800799075449
 40
0.4985946693164888
 40
0.6144270548830109
 40
0.7496263894763571
 40
1.0
 40
1.0
 40
1.0
 40
1.0
 10
138.0625317919075
 20
151.7083190911407
 30
0.0
 10
138.0634435896742
 20
151.7083190911407
 30
0.0
 10
138.065309846716
 20
151.7083190911407
 30
0.0
 10
138.0796355048612
 20
151.7083190911407
 30
0.0
 10
138.1022549131222
 20
151.7083190911407
 30
0.0
 10
138.1341137907267
 20
151.7083190911407
 30
0.0
 10
138.1749250793579
 20
151.7083190911407
 30
0.0
 10
138.2283049705335
 20
151.7083190911407
 30
0.0
 10
138.2987986013944
 20
151.7083190911407
 30
0.0
 10
138.4113166986879
 20
151.7083190911407
 30
0.0
 10
138.5029980645537
 20
151.7083190911407
 30
0.0
 10
138.5625317919075
 20
151.7083190911407
 30
0.0
  0
LINE
  5
1FC
330
1F
100
AcDbEntity
  8
0
  6
Continuous
 62
     8
370
    25
100
AcDbLine
 10
144.5625321421
 20
153.7083187037
 30
0.0
 11
144.5625321421
 21
135.7083194786
 31
0.0
  0
LINE
  5
1FD
330
1F
100
AcDbEntity
  8
0
  6
Continuous
 62
     8
370
    25
100
AcDbLine
 10
117.5625314417
 20
135.7083194786
 30
0.0
 11
117.5625314417
 21
153.7083187037
 31
0.0
  0
LINE
  5
1FE
330
1F
100
AcDbEntity
  8
0
  6
Continuous
 62
     8
370
    25
100
AcDbLine
 10
143.0928380641
 20
152.5083188795
 30
0.0
 11
143.0928380641
 21
136.9083193027
 31
0.0
  0
LINE
  5
1FF
330
1F
100
AcDbEntity
  8
0
  6
Continuous
 62
     8
370
    25
100
AcDbLine
 10
119.0322255197
 20
136.9083193027
 30
0.0
 11
119.0322255197
 21
152.5083188795
 31
0.0
  0
LINE
  5
200
330
1F
100
AcDbEntity
  8
0
  6
Continuous
 62
     8
370
    25
100
AcDbLine
 10
120.0120215717
 20
151.7083193072
 30
0.0
 11
120.0120215717
 21
137.7083188751
 31
0.0
  0
LINE
  5
201
330
1F
100
AcDbEntity
  8
0
  6
Continuous
 62
     8
370
    25
100
AcDbLine
 10
142.1130420121
 20
137.7083188751
 30
0.0
 11
142.1130420121
 21
151.7083193072
 31
0.0
  0
SPLINE
  5
202
330
1F
100
AcDbEntity
  8
0
  6
Continuous
 62
     8
370
    25
100
AcDbSpline
210
0.0
220
0.0
230
1.0
 70
    24
 71
     3
 72
    10
 73
     6
 74
     0
 42
0.000000001
 43
0.00000001
 40
0.0
 40
0.0
 40
0.0
 40
0.0
 40
0.1854692482601167
 40
0.5927345473501382
 40
1.0
 40
1.0
 40
1.0
 40
1.0
 10
124.8683570365428
 20
151.2083192252511
 30
0.0
 10
124.8378693978248
 20
151.2083192252511
 30
0.0
 10
124.740435041969
 20
151.2083192252511
 30
0.0
 10
124.4510341947512
 20
151.2083192252511
 30
0.0
 10
124.192032465087
 20
151.2083192252511
 30
0.0
 10
124.0625315758407
 20
151.2083192252511
 30
0.0
  0
SPLINE
  5
203
330
1F
100
AcDbEntity
  8
0
  6
Continuous
 62
     8
370
    25
100
AcDbSpline
210
0.0
220
0.0
230
1.0
 70
    24
 71
     3
 72
    10
 73
     6
 74
     0
 42
0.000000001
 43
0.00000001
 40
0.0
 40
0.0
 40
0.0
 40
0.0
 40
0.1631383445646793
 40
0.5815690933974468
 40
1.0
 40
1.0
 40
1.0
 40
1.0
 10
137.270909216535
 20
138.2083189570302
 30
0.0
 10
137.2972166718699
 20
138.2083189570302
 30
0.0
 10
137.3909996692978
 20
138.2083189570302
 30
0.0
 10
137.6744823606031
 20
138.2083189570302
 30
0.0
 10
137.9331821092601
 20
138.2083189570302
 30
0.0
 10
138.0625320079743
 20
138.2083189570302
 30
0.0
  0
SPLINE
  5
204
330
1F
100
AcDbEntity
  8
0
  6
Continuous
 62
     8
370
    25
100
AcDbSpline
210
0.0
220
0.0
230
1.0
 70
    24
 71
     3
 72
    10
 73
     6
 74
     0
 42
0.000000001
 43
0.00000001
 40
0.0
 40
0.0
 40
0.0
 40
0.0
 40
0.420022781542934
 40
0.8400454047158643
 40
0.9999999999999999
 40
0.9999999999999999
 40
0.9999999999999999
 40
0.9999999999999999
 10
124.0625315758407
 20
138.2083189570302
 30
0.0
 10
124.1918593363506
 20
138.2083189570302
 30
0.0
 10
124.4505148086073
 20
138.2083189570302
 30
0.0
 10
124.733186643905
 20
138.2083189570302
 30
0.0
 10
124.8264650039703
 20
138.2083189570302
 30
0.0
 10
124.8521906736314
 20
138.2083189570302
 30
0.0
  0
SPLINE
  5
205
330
1F
100
AcDbEntity
  8
0
  6
Continuous
 62
     8
370
    25
100
AcDbSpline
210
0.0
220
0.0
230
1.0
 70
    24
 71
     3
 72
    10
 73
     6
 74
     0
 42
0.000000001
 43
0.00000001
 40
0.0
 40
0.0
 40
0.0
 40
0.0
 40
0.4073172865843637
 40
0.814634419589343
 40
1.0
 40
1.0
 40
1.0
 40
1.0
 10
138.0625320079743
 20
151.2083192252511
 30
0.0
 10
137.9330317889343
 20
151.2083192252511
 30
0.0
 10
137.6740313996825
 20
151.2083192252511
 30
0.0
 10
137.3846591536415
 20
151.2083192252511
 30
0.0
 10
137.2872419623557
 20
151.2083192252511
 30
0.0
 10
137.2567740681588
 20
151.2083192252511
 30
0.0
  0
LINE
  5
206
330
1F
100
AcDbEntity
  8
0
  6
Continuous
 62
     8
370
    25
100
AcDbLine
 10
124.0625315758
 20
150.3651733407
 30
0.0
 11
124.0625315758
 21
151.2083192253
 31
0.0
  0
LINE
  5
207
330
1F
100
AcDbEntity
  8
0
  6
Continuous
 62
     8
370
    25
100
AcDbLine
 10
138.062532008
 20
139.0514648416
 30
0.0
 11
138.062532008
 21
138.208318957
 31
0.0
  0
LINE
  5
208
330
1F
100
AcDbEntity
  8
0
  6
Continuous
 62
     8
370
    25
100
AcDbLine
 10
124.0625315758
 20
138.208318957
 30
0.0
 11
124.0625315758
 21
139.0514648416
 31
0.0
  0
LINE
  5
209
330
1F
100
AcDbEntity
  8
0
  6
Continuous
 62
     8
370
    25
100
AcDbLine
 10
138.062532008
 20
151.2083192253
 30
0.0
 11
138.062532008
 21
150.3651733407
 31
0.0
  0
SPLINE
  5
20A
330
1F
100
AcDbEntity
  8
0
  6
Continuous
 62
     8
370
    25
100
AcDbSpline
210
0.0
220
0.0
230
1.0
 70
     8
 71
     3
 72
     9
 73
     5
 74
     0
 42
0.000000001
 43
0.00000001
 40
0.0
 40
0.0
 40
0.0
 40
0.0
 40
0.2468662200500413
 40
1.0
 40
1.0
 40
1.0
 40
1.0
 10
138.9537993299782
 20
140.4240797170395
 30
0.0
 10
138.9728594823067
 20
140.3850228304657
 30
0.0
 10
139.0500679084925
 20
140.226812093631
 30
0.0
 10
139.0571776131466
 20
140.0684796807579
 30
0.0
 10
139.0625321718871
 20
139.9492341921622
 30
0.0
  0
SPLINE
  5
20B
330
1F
100
AcDbEntity
  8
0
  6
Continuous
 62
     8
370
    25
100
AcDbSpline
210
0.0
220
0.0
230
1.0
 70
     8
 71
     3
 72
     9
 73
     5
 74
     0
 42
0.000000001
 43
0.00000001
 40
0.0
 40
0.0
 40
0.0
 40
0.0
 40
0.767158451968582
 40
1.0
 40
1.0
 40
1.0
 40
1.0
 10
139.0625321718871
 20
149.4674039901191
 30
0.0
 10
139.05742441134
 20
149.3481580125192
 30
0.0
 10
139.0507663858251
 20
149.1927194883213
 30
0.0
 10
138.9752911701138
 20
149.0374007246924
 30
0.0
 10
138.9577174040496
 20
149.0012360633308
 30
0.0
  0
SPLINE
  5
20C
330
1F
100
AcDbEntity
  8
0
  6
Continuous
 62
     8
370
    25
100
AcDbSpline
210
0.0
220
0.0
230
1.0
 70
     8
 71
     3
 72
     9
 73
     5
 74
     0
 42
0.000000001
 43
0.00000001
 40
0.0
 40
0.0
 40
0.0
 40
0.0
 40
0.2421160240027969
 40
1.0
 40
1.0
 40
1.0
 40
1.0
 10
123.1699203553616
 20
148.9955335752064
 30
0.0
 10
123.1513710527524
 20
149.0335988649365
 30
0.0
 10
123.0747577732899
 20
149.1908180737308
 30
0.0
 10
123.0678026149695
 20
149.3481583306334
 30
0.0
 10
123.0625314119279
 20
149.4674039901191
 30
0.0
  0
SPLINE
  5
20D
330
1F
100
AcDbEntity
  8
0
  6
Continuous
 62
     8
370
    25
100
AcDbSpline
210
0.0
220
0.0
230
1.0
 70
     8
 71
     3
 72
     9
 73
     5
 74
     0
 42
0.000000001
 43
0.00000001
 40
0.0
 40
0.0
 40
0.0
 40
0.0
 40
0.777086530085037
 40
1.0
 40
1.0
 40
1.0
 40
1.0
 10
123.0625314119279
 20
139.9492341921622
 30
0.0
 10
123.0674651723727
 20
140.068480072132
 30
0.0
 10
123.0738142213574
 20
140.2219325839864
 30
0.0
 10
123.148099249442
 20
140.3752680897429
 30
0.0
 10
123.1646583828151
 20
140.4094486393923
 30
0.0
  0
LINE
  5
20E
330
1F
100
AcDbEntity
  8
0
  6
Continuous
 62
     8
370
    25
100
AcDbLine
 10
138.5578941035
 20
149.6665002675
 30
0.0
 11
138.5625316243
 21
149.8073385925
 31
0.0
  0
LINE
  5
20F
330
1F
100
AcDbEntity
  8
0
  6
Continuous
 62
     8
370
    25
100
AcDbLine
 10
123.5676472488
 20
139.7646590964
 30
0.0
 11
123.5625319595
 21
139.6092995898
 31
0.0
  0
LINE
  5
210
330
1F
100
AcDbEntity
  8
0
  6
Continuous
 62
     8
370
    25
100
AcDbLine
 10
123.5625319595
 20
149.8073385925
 30
0.0
 11
123.568206508
 21
149.6831485898
 31
0.0
  0
LINE
  5
211
330
1F
100
AcDbEntity
  8
0
  6
Continuous
 62
     8
370
    25
100
AcDbLine
 10
138.5625316243
 20
139.6092995898
 30
0.0
 11
138.5560677799
 21
139.7507632979
 31
0.0
  0
SPLINE
  5
212
330
1F
100
AcDbEntity
  8
0
  6
Continuous
 62
     8
370
    25
100
AcDbSpline
210
0.0
220
0.0
230
1.0
 70
     8
 71
     3
 72
    11
 73
     7
 74
     0
 42
0.000000001
 43
0.00000001
 40
0.0
 40
0.0
 40
0.0
 40
0.0
 40
0.137696887866455
 40
0.4171858930680554
 40
0.7017749847908697
 40
1.0
 40
1.0
 40
1.0
 40
1.0
 10
138.5381612407982
 20
151.7008733832234
 30
0.0
 10
138.529926918112
 20
151.6991136876464
 30
0.0
 10
138.5049790538801
 20
151.6937822659837
 30
0.0
 10
138.4722178770005
 20
151.6525922513569
 30
0.0
 10
138.4450341765363
 20
151.5800072318953
 30
0.0
 10
138.4713132018664
 20
151.5112921859188
 30
0.0
 10
138.4847601356923
 20
151.4761308104688
 30
0.0
  0
LINE
  5
213
330
1F
100
AcDbEntity
  8
0
  6
Continuous
 62
     8
370
    25
100
AcDbLine
 10
136.7571735236
 20
137.7083188751
 30
0.0
 11
136.7571735236
 21
137.739025046
 31
0.0
  0
INSERT
  5
21F
330
1F
100
AcDbEntity
  8
0
  6
Continuous
 62
     7
370
    18
100
AcDbBlockReference
  2
SW_CENTERMARKSYMBOL_1
 10
131.0625317919
 20
144.7083190911
 30
0.0
  0
ARC
  5
220
330
1F
100
AcDbEntity
  8
0
  6
Continuous
 62
     7
370
    18
100
AcDbCircle
 10
131.0625317919
 20
144.7083190911
 30
0.0
 40
6.562891500000013
100
AcDbArc
 50
75.0
 51
345.0
  0
ENDSEC
  0
SECTION
  2
OBJECTS
  0
DICTIONARY
  5
C
330
0
100
AcDbDictionary
281
     1
  3
ACAD_GROUP
350
D
  3
ACAD_LAYOUT
350
1A
  3
ACAD_MLINESTYLE
350
17
  3
ACAD_PLOTSETTINGS
350
19
  3
ACAD_PLOTSTYLENAME
350
E
  3
ACAD_SCALELIST
350
47
  0
DICTIONARY
  5
D
102
{ACAD_REACTORS
330
C
102
}
330
C
100
AcDbDictionary
281
     1
  0
DICTIONARY
  5
1A
102
{ACAD_REACTORS
330
C
102
}
330
C
100
AcDbDictionary
281
     1
  3
Layout1
350
1E
  3
Layout2
350
26
  3
Model
350
22
  0
DICTIONARY
  5
17
102
{ACAD_REACTORS
330
C
102
}
330
C
100
AcDbDictionary
281
     1
  3
Standard
350
18
  0
DICTIONARY
  5
19
102
{ACAD_REACTORS
330
C
102
}
330
C
100
AcDbDictionary
281
     1
  0
ACDBDICTIONARYWDFLT
  5
E
102
{ACAD_REACTORS
330
C
102
}
330
C
100
AcDbDictionary
281
     1
  3
Normal
350
F
100
AcDbDictionaryWithDefault
340
F
  0
DICTIONARY
  5
47
102
{ACAD_REACTORS
330
C
102
}
330
C
100
AcDbDictionary
281
     1
  3
A0
350
48
  3
A1
350
49
  3
A2
350
4A
  3
A3
350
4B
  3
A4
350
4C
  3
A5
350
4D
  3
A6
350
4E
  3
A7
350
4F
  3
A8
350
50
  3
A9
350
51
  3
B0
350
52
  3
B1
350
53
  3
B2
350
54
  3
B3
350
55
  3
B4
350
56
  3
B5
350
57
  3
B6
350
58
  3
B7
350
59
  3
B8
350
5A
  3
B9
350
5B
  3
C0
350
5C
  3
C1
350
5D
  3
C2
350
5E
  3
C3
350
5F
  3
C4
350
60
  3
C5
350
61
  3
C6
350
62
  3
C7
350
63
  3
C8
350
64
  3
C9
350
65
  3
D0
350
66
  3
D1
350
67
  3
D2
350
68
  0
LAYOUT
  5
1E
102
{ACAD_REACTORS
330
1A
102
}
330
1A
100
AcDbPlotSettings
  1

  2
none_device
  4

  6

 40
0.0
 41
0.0
 42
0.0
 43
0.0
 44
0.0
 45
0.0
 46
0.0
 47
0.0
 48
0.0
 49
0.0
140
0.0
141
0.0
142
1.0
143
1.0
 70
   688
 72
     1
 73
     0
 74
     5
  7

 75
    16
147
1.0
148
0.0
149
0.0
100
AcDbLayout
  1
Layout1
 70
     1
 71
     1
 10
0.0
 20
0.0
 11
420.0
 21
297.0
 12
0.0
 22
0.0
 32
0.0
 14
1.0000000000E+20
 24
1.0000000000E+20
 34
1.0000000000E+20
 15
-1.0000000000E+20
 25
-1.0000000000E+20
 35
-1.0000000000E+20
146
0.0
 13
0.0
 23
0.0
 33
0.0
 16
1.0
 26
0.0
 36
0.0
 17
0.0
 27
1.0
 37
0.0
 76
     0
330
1B
  0
LAYOUT
  5
26
102
{ACAD_REACTORS
330
1A
102
}
330
1A
100
AcDbPlotSettings
  1

  2
none_device
  4

  6

 40
0.0
 41
0.0
 42
0.0
 43
0.0
 44
0.0
 45
0.0
 46
0.0
 47
0.0
 48
0.0
 49
0.0
140
0.0
141
0.0
142
1.0
143
1.0
 70
   688
 72
     1
 73
     0
 74
     5
  7

 75
    16
147
1.0
148
0.0
149
0.0
100
AcDbLayout
  1
Layout2
 70
     1
 71
     2
 10
0.0
 20
0.0
 11
0.0
 21
0.0
 12
0.0
 22
0.0
 32
0.0
 14
0.0
 24
0.0
 34
0.0
 15
0.0
 25
0.0
 35
0.0
146
0.0
 13
0.0
 23
0.0
 33
0.0
 16
1.0
 26
0.0
 36
0.0
 17
0.0
 27
1.0
 37
0.0
 76
     0
330
23
  0
LAYOUT
  5
22
102
{ACAD_REACTORS
330
1A
102
}
330
1A
100
AcDbPlotSettings
  1

  2
none_device
  4
Letter_(8.50_x_11.00_Inches)
  6

 40
6.35
 41
6.35
 42
6.35000508
 43
6.35000508
 44
215.9
 45
279.4
 46
0.0
 47
0.0
 48
0.0
 49
0.0
140
0.0
141
0.0
142
1.0
143
1.0
 70
  1712
 72
     1
 73
     0
 74
     0
  7

 75
     0
147
1.0
148
0.0
149
0.0
100
AcDbLayout
  1
Model
 70
     1
 71
     0
 10
0.0
 20
0.0
 11
431.8
 21
279.4
 12
0.0
 22
0.0
 32
0.0
 14
0.0
 24
0.0
 34
0.0
 15
431.8
 25
279.4
 35
0.0
146
0.0
 13
0.0
 23
0.0
 33
0.0
 16
1.0
 26
0.0
 36
0.0
 17
0.0
 27
1.0
 37
0.0
 76
     0
330
1F
331
29
  0
MLINESTYLE
  5
18
102
{ACAD_REACTORS
330
17
102
}
330
17
100
AcDbMlineStyle
  2
Standard
 70
     0
  3

 62
   256
 51
90.0
 52
90.0
 71
     2
 49
0.5
 62
   256
  6
BYLAYER
 49
-0.5
 62
   256
  6
BYLAYER
  0
ACDBPLACEHOLDER
  5
F
102
{ACAD_REACTORS
330
E
102
}
330
E
  0
SCALE
  5
48
102
{ACAD_REACTORS
330
47
102
}
330
47
100
AcDbScale
 70
     0
300
1:1
140
1.0
141
1.0
290
     1
  0
SCALE
  5
49
102
{ACAD_REACTORS
330
47
102
}
330
47
100
AcDbScale
 70
     0
300
1:2
140
1.0
141
2.0
290
     0
  0
SCALE
  5
4A
102
{ACAD_REACTORS
330
47
102
}
330
47
100
AcDbScale
 70
     0
300
1:4
140
1.0
141
4.0
290
     0
  0
SCALE
  5
4B
102
{ACAD_REACTORS
330
47
102
}
330
47
100
AcDbScale
 70
     0
300
1:5
140
1.0
141
5.0
290
     0
  0
SCALE
  5
4C
102
{ACAD_REACTORS
330
47
102
}
330
47
100
AcDbScale
 70
     0
300
1:8
140
1.0
141
8.0
290
     0
  0
SCALE
  5
4D
102
{ACAD_REACTORS
330
47
102
}
330
47
100
AcDbScale
 70
     0
300
1:10
140
1.0
141
10.0
290
     0
  0
SCALE
  5
4E
102
{ACAD_REACTORS
330
47
102
}
330
47
100
AcDbScale
 70
     0
300
1:16
140
1.0
141
16.0
290
     0
  0
SCALE
  5
4F
102
{ACAD_REACTORS
330
47
102
}
330
47
100
AcDbScale
 70
     0
300
1:20
140
1.0
141
20.0
290
     0
  0
SCALE
  5
50
102
{ACAD_REACTORS
330
47
102
}
330
47
100
AcDbScale
 70
     0
300
1:30
140
1.0
141
30.0
290
     0
  0
SCALE
  5
51
102
{ACAD_REACTORS
330
47
102
}
330
47
100
AcDbScale
 70
     0
300
1:40
140
1.0
141
40.0
290
     0
  0
SCALE
  5
52
102
{ACAD_REACTORS
330
47
102
}
330
47
100
AcDbScale
 70
     0
300
1:50
140
1.0
141
50.0
290
     0
  0
SCALE
  5
53
102
{ACAD_REACTORS
330
47
102
}
330
47
100
AcDbScale
 70
     0
300
1:100
140
1.0
141
100.0
290
     0
  0
SCALE
  5
54
102
{ACAD_REACTORS
330
47
102
}
330
47
100
AcDbScale
 70
     0
300
2:1
140
2.0
141
1.0
290
     0
  0
SCALE
  5
55
102
{ACAD_REACTORS
330
47
102
}
330
47
100
AcDbScale
 70
     0
300
4:1
140
4.0
141
1.0
290
     0
  0
SCALE
  5
56
102
{ACAD_REACTORS
330
47
102
}
330
47
100
AcDbScale
 70
     0
300
8:1
140
8.0
141
1.0
290
     0
  0
SCALE
  5
57
102
{ACAD_REACTORS
330
47
102
}
330
47
100
AcDbScale
 70
     0
300
10:1
140
10.0
141
1.0
290
     0
  0
SCALE
  5
58
102
{ACAD_REACTORS
330
47
102
}
330
47
100
AcDbScale
 70
     0
300
100:1
140
100.0
141
1.0
290
     0
  0
SCALE
  5
59
102
{ACAD_REACTORS
330
47
102
}
330
47
100
AcDbScale
 70
     0
300
1/128" = 1'-0"
140
0.0078125
141
12.0
290
     0
  0
SCALE
  5
5A
102
{ACAD_REACTORS
330
47
102
}
330
47
100
AcDbScale
 70
     0
300
1/64" = 1'-0"
140
0.015625
141
12.0
290
     0
  0
SCALE
  5
5B
102
{ACAD_REACTORS
330
47
102
}
330
47
100
AcDbScale
 70
     0
300
1/32" = 1'-0"
140
0.03125
141
12.0
290
     0
  0
SCALE
  5
5C
102
{ACAD_REACTORS
330
47
102
}
330
47
100
AcDbScale
 70
     0
300
1/16" = 1'-0"
140
0.0625
141
12.0
290
     0
  0
SCALE
  5
5D
102
{ACAD_REACTORS
330
47
102
}
330
47
100
AcDbScale
 70
     0
300
3/32" = 1'-0"
140
0.09375
141
12.0
290
     0
  0
SCALE
  5
5E
102
{ACAD_REACTORS
330
47
102
}
330
47
100
AcDbScale
 70
     0
300
1/8" = 1'-0"
140
0.125
141
12.0
290
     0
  0
SCALE
  5
5F
102
{ACAD_REACTORS
330
47
102
}
330
47
100
AcDbScale
 70
     0
300
3/16" = 1'-0"
140
0.1875
141
12.0
290
     0
  0
SCALE
  5
60
102
{ACAD_REACTORS
330
47
102
}
330
47
100
AcDbScale
 70
     0
300
1/4" = 1'-0"
140
0.25
141
12.0
290
     0
  0
SCALE
  5
61
102
{ACAD_REACTORS
330
47
102
}
330
47
100
AcDbScale
 70
     0
300
3/8" = 1'-0"
140
0.375
141
12.0
290
     0
  0
SCALE
  5
62
102
{ACAD_REACTORS
330
47
102
}
330
47
100
AcDbScale
 70
     0
300
1/2" = 1'-0"
140
0.5
141
12.0
290
     0
  0
SCALE
  5
63
102
{ACAD_REACTORS
330
47
102
}
330
47
100
AcDbScale
 70
     0
300
3/4" = 1'-0"
140
0.75
141
12.0
290
     0
  0
SCALE
  5
64
102
{ACAD_REACTORS
330
47
102
}
330
47
100
AcDbScale
 70
     0
300
1" = 1'-0"
140
1.0
141
12.0
290
     0
  0
SCALE
  5
65
102
{ACAD_REACTORS
330
47
102
}
330
47
100
AcDbScale
 70
     0
300
1-1/2" = 1'-0"
140
1.5
141
12.0
290
     0
  0
SCALE
  5
66
102
{ACAD_REACTORS
330
47
102
}
330
47
100
AcDbScale
 70
     0
300
3" = 1'-0"
140
3.0
141
12.0
290
     0
  0
SCALE
  5
67
102
{ACAD_REACTORS
330
47
102
}
330
47
100
AcDbScale
 70
     0
300
6" = 1'-0"
140
6.0
141
12.0
290
     0
  0
SCALE
  5
68
102
{ACAD_REACTORS
330
47
102
}
330
47
100
AcDbScale
 70
     0
300
1'-0" = 1'-0"
140
12.0
141
12.0
290
     0
  0
ENDSEC
  0
EOF
