  0
SECTION
  2
HEADER
  9
$ACADVER
  1
AC1015
  9
$ACADMAINTVER
 70
     6
  9
$DWGCODEPAGE
  3
DOS932
  9
$INSBASE
 10
0.0
 20
0.0
 30
0.0
  9
$EXTMIN
 10
0.0
 20
0.0
 30
0.0
  9
$EXTMAX
 10
215.9
 20
139.7
 30
0.0
  9
$LIMMIN
 10
0.0
 20
0.0
  9
$LIMMAX
 10
215.9
 20
139.7
  9
$ORTHOMODE
 70
     0
  9
$REGENMODE
 70
     1
  9
$FILLMODE
 70
     1
  9
$QTEXTMODE
 70
     0
  9
$MIRRTEXT
 70
     1
  9
$LTSCALE
 40
0.5
  9
$ATTMODE
 70
     1
  9
$TEXTSIZE
 40
1.75
  9
$TRACEWID
 40
1.0
  9
$TEXTSTYLE
  7
Standard
  9
$CLAYER
  8
0
  9
$CELTYPE
  6
ByLayer
  9
$CECOLOR
 62
   256
  9
$CELTSCALE
 40
1.0
  9
$DISPSILH
 70
     0
  9
$DIMSCALE
 40
1.0
  9
$DIMASZ
 40
1.651
  9
$DIMEXO
 40
0.5
  9
$DIMDLI
 40
3.75
  9
$DIMRND
 40
0.0
  9
$DIMDLE
 40
0.0
  9
$DIMEXE
 40
0.5
  9
$DIMTP
 40
0.0
  9
$DIMTM
 40
0.0
  9
$DIMTXT
 40
1.75
  9
$DIMCEN
 40
2.5
  9
$DIMTSZ
 40
0.0
  9
$DIMTOL
 70
     0
  9
$DIMLIM
 70
     0
  9
$DIMTIH
 70
     1
  9
$DIMTOH
 70
     1
  9
$DIMSE1
 70
     0
  9
$DIMSE2
 70
     0
  9
$DIMTAD
 70
     1
  9
$DIMZIN
 70
     1
  9
$DIMBLK
  1

  9
$DIMASO
 70
     1
  9
$DIMSHO
 70
     1
  9
$DIMPOST
  1

  9
$DIMAPOST
  1

  9
$DIMALT
 70
     0
  9
$DIMALTD
 70
     3
  9
$DIMALTF
 40
0.0393700787
  9
$DIMLFAC
 40
1.0
  9
$DIMTOFL
 70
     1
  9
$DIMTVP
 40
0.0
  9
$DIMTIX
 70
     0
  9
$DIMSOXD
 70
     0
  9
$DIMSAH
 70
     0
  9
$DIMBLK1
  1

  9
$DIMBLK2
  1

  9
$DIMSTYLE
  2
ISO-25
  9
$DIMCLRD
 70
     0
  9
$DIMCLRE
 70
     0
  9
$DIMCLRT
 70
     0
  9
$DIMTFAC
 40
1.0
  9
$DIMGAP
 40
0.762
  9
$DIMJUST
 70
     0
  9
$DIMSD1
 70
     0
  9
$DIMSD2
 70
     0
  9
$DIMTOLJ
 70
     0
  9
$DIMTZIN
 70
     1
  9
$DIMALTZ
 70
     0
  9
$DIMALTTZ
 70
     0
  9
$DIMUPT
 70
     0
  9
$DIMDEC
 70
     2
  9
$DIMTDEC
 70
     2
  9
$DIMALTU
 70
     2
  9
$DIMALTTD
 70
     3
  9
$DIMTXSTY
  7
Standard
  9
$DIMAUNIT
 70
     0
  9
$DIMADEC
 70
     2
  9
$DIMALTRND
 40
0.0
  9
$DIMAZIN
 70
     0
  9
$DIMDSEP
 70
    44
  9
$DIMATFIT
 70
     3
  9
$DIMFRAC
 70
     0
  9
$DIMLDRBLK
  1

  9
$DIMLUNIT
 70
     2
  9
$DIMLWD
 70
    -2
  9
$DIMLWE
 70
    -2
  9
$DIMTMOVE
 70
     0
  9
$LUNITS
 70
     2
  9
$LUPREC
 70
     2
  9
$SKETCHINC
 40
1.0
  9
$FILLETRAD
 40
10.0
  9
$AUNITS
 70
     0
  9
$AUPREC
 70
     2
  9
$MENU
  1
.
  9
$ELEVATION
 40
0.0
  9
$PELEVATION
 40
0.0
  9
$THICKNESS
 40
0.0
  9
$LIMCHECK
 70
     0
  9
$CHAMFERA
 40
0.0
  9
$CHAMFERB
 40
0.0
  9
$CHAMFERC
 40
0.0
  9
$CHAMFERD
 40
0.0
  9
$SKPOLY
 70
     0
  9
$TDCREATE
 40
2459229.378759155
  9
$TDUCREATE
 40
2459229.003759155
  9
$TDUPDATE
 40
2459229.378760058
  9
$TDUUPDATE
 40
2459229.003760058
  9
$TDINDWG
 40
0.0000000116
  9
$TDUSRTIMER
 40
0.0000000116
  9
$USRTIMER
 70
     1
  9
$ANGBASE
 50
0.0
  9
$ANGDIR
 70
     0
  9
$PDMODE
 70
     0
  9
$PDSIZE
 40
-1.0
  9
$PLINEWID
 40
0.0
  9
$SPLFRAME
 70
     0
  9
$SPLINETYPE
 70
     6
  9
$SPLINESEGS
 70
     8
  9
$HANDSEED
  5
283
  9
$SURFTAB1
 70
     6
  9
$SURFTAB2
 70
     6
  9
$SURFTYPE
 70
     6
  9
$SURFU
 70
     6
  9
$SURFV
 70
     6
  9
$UCSBASE
  2

  9
$UCSNAME
  2

  9
$UCSORG
 10
0.0
 20
0.0
 30
0.0
  9
$UCSXDIR
 10
1.0
 20
0.0
 30
0.0
  9
$UCSYDIR
 10
0.0
 20
1.0
 30
0.0
  9
$UCSORTHOREF
  2

  9
$UCSORTHOVIEW
 70
     0
  9
$UCSORGTOP
 10
0.0
 20
0.0
 30
0.0
  9
$UCSORGBOTTOM
 10
0.0
 20
0.0
 30
0.0
  9
$UCSORGLEFT
 10
0.0
 20
0.0
 30
0.0
  9
$UCSORGRIGHT
 10
0.0
 20
0.0
 30
0.0
  9
$UCSORGFRONT
 10
0.0
 20
0.0
 30
0.0
  9
$UCSORGBACK
 10
0.0
 20
0.0
 30
0.0
  9
$PUCSBASE
  2

  9
$PUCSNAME
  2

  9
$PUCSORG
 10
0.0
 20
0.0
 30
0.0
  9
$PUCSXDIR
 10
1.0
 20
0.0
 30
0.0
  9
$PUCSYDIR
 10
0.0
 20
1.0
 30
0.0
  9
$PUCSORTHOREF
  2

  9
$PUCSORTHOVIEW
 70
     0
  9
$PUCSORGTOP
 10
0.0
 20
0.0
 30
0.0
  9
$PUCSORGBOTTOM
 10
0.0
 20
0.0
 30
0.0
  9
$PUCSORGLEFT
 10
0.0
 20
0.0
 30
0.0
  9
$PUCSORGRIGHT
 10
0.0
 20
0.0
 30
0.0
  9
$PUCSORGFRONT
 10
0.0
 20
0.0
 30
0.0
  9
$PUCSORGBACK
 10
0.0
 20
0.0
 30
0.0
  9
$USERI1
 70
     0
  9
$USERI2
 70
     0
  9
$USERI3
 70
     0
  9
$USERI4
 70
     0
  9
$USERI5
 70
     0
  9
$USERR1
 40
0.0
  9
$USERR2
 40
0.0
  9
$USERR3
 40
0.0
  9
$USERR4
 40
0.0
  9
$USERR5
 40
0.0
  9
$WORLDVIEW
 70
     1
  9
$SHADEDGE
 70
     3
  9
$SHADEDIF
 70
    70
  9
$TILEMODE
 70
     1
  9
$MAXACTVP
 70
    64
  9
$PINSBASE
 10
0.0
 20
0.0
 30
0.0
  9
$PLIMCHECK
 70
     0
  9
$PEXTMIN
 10
1.0000000000E+20
 20
1.0000000000E+20
 30
1.0000000000E+20
  9
$PEXTMAX
 10
-1.0000000000E+20
 20
-1.0000000000E+20
 30
-1.0000000000E+20
  9
$PLIMMIN
 10
0.0
 20
0.0
  9
$PLIMMAX
 10
420.0
 20
297.0
  9
$UNITMODE
 70
     0
  9
$VISRETAIN
 70
     1
  9
$PLINEGEN
 70
     0
  9
$PSLTSCALE
 70
     1
  9
$TREEDEPTH
 70
  3020
  9
$CMLSTYLE
  2
Standard
  9
$CMLJUST
 70
     0
  9
$CMLSCALE
 40
20.0
  9
$PROXYGRAPHICS
 70
     1
  9
$MEASUREMENT
 70
     1
  9
$CELWEIGHT
370
    -1
  9
$ENDCAPS
280
     0
  9
$JOINSTYLE
280
     0
  9
$LWDISPLAY
290
     1
  9
$INSUNITS
 70
     4
  9
$HYPERLINKBASE
  1

  9
$STYLESHEET
  1

  9
$XEDIT
290
     1
  9
$CEPSNTYPE
380
     0
  9
$PSTYLEMODE
290
     1
  9
$FINGERPRINTGUID
  2
{7800793B-C89F-4CEE-9A9E-868AD977569C}
  9
$VERSIONGUID
  2
{FAEB1C32-E019-11D5-929B-00C0DF256EC4}
  9
$EXTNAMES
290
     1
  9
$PSVPSCALE
 40
0.0
  9
$OLESTARTUP
290
     0
  0
ENDSEC
  0
SECTION
  2
CLASSES
  0
CLASS
  1
ACDBDICTIONARYWDFLT
  2
AcDbDictionaryWithDefault
  3
ObjectDBX Classes
 90
        0
280
     0
281
     0
  0
CLASS
  1
VISUALSTYLE
  2
AcDbVisualStyle
  3
ObjectDBX Classes
 90
     4095
280
     0
281
     0
  0
CLASS
  1
MATERIAL
  2
AcDbMaterial
  3
ObjectDBX Classes
 90
     1153
280
     0
281
     0
  0
CLASS
  1
SCALE
  2
AcDbScale
  3
ObjectDBX Classes
 90
     1153
280
     0
281
     0
  0
CLASS
  1
TABLESTYLE
  2
AcDbTableStyle
  3
ObjectDBX Classes
 90
     4095
280
     0
281
     0
  0
CLASS
  1
MLEADERSTYLE
  2
AcDbMLeaderStyle
  3
ACDB_MLEADERSTYLE_CLASS
 90
     4095
280
     0
281
     0
  0
CLASS
  1
SUN
  2
AcDbSun
  3
SCENEOE
 90
     1153
280
     0
281
     0
  0
CLASS
  1
ACDBPLACEHOLDER
  2
AcDbPlaceHolder
  3
ObjectDBX Classes
 90
        0
280
     0
281
     0
  0
CLASS
  1
LAYOUT
  2
AcDbLayout
  3
ObjectDBX Classes
 90
        0
280
     0
281
     0
  0
ENDSEC
  0
SECTION
  2
TABLES
  0
TABLE
  2
VPORT
  5
8
330
0
100
AcDbSymbolTable
 70
     1
  0
VPORT
  5
29
330
8
100
AcDbSymbolTableRecord
100
AcDbViewportTableRecord
  2
*Active
 70
     0
 10
0.0
 20
0.0
 11
1.0
 21
1.0
 12
107.95
 22
69.85
 13
0.0
 23
0.0
 14
10.0
 24
10.0
 15
10.0
 25
10.0
 16
0.0
 26
0.0
 36
1.0
 17
0.0
 27
0.0
 37
0.0
 40
139.7
 41
1.5454545455
 42
50.0
 43
0.0
 44
0.0
 50
0.0
 51
0.0
 71
     0
 72
  2000
 73
     1
 74
     3
 75
     0
 76
     0
 77
     0
 78
     0
281
     0
 65
     1
110
0.0
120
0.0
130
0.0
111
1.0
121
0.0
131
0.0
112
0.0
122
1.0
132
0.0
 79
     0
146
0.0
  0
ENDTAB
  0
TABLE
  2
LTYPE
  5
5
330
0
100
AcDbSymbolTable
 70
     6
  0
LTYPE
  5
14
330
5
100
AcDbSymbolTableRecord
100
AcDbLinetypeTableRecord
  2
ByBlock
 70
     0
  3

 72
    65
 73
     0
 40
0.0
  0
LTYPE
  5
15
330
5
100
AcDbSymbolTableRecord
100
AcDbLinetypeTableRecord
  2
ByLayer
 70
     0
  3

 72
    65
 73
     0
 40
0.0
  0
LTYPE
  5
16
330
5
100
AcDbSymbolTableRecord
100
AcDbLinetypeTableRecord
  2
Continuous
 70
     0
  3
Solid line
 72
    65
 73
     0
 40
0.0
  0
LTYPE
  5
6E
330
5
100
AcDbSymbolTableRecord
100
AcDbLinetypeTableRecord
  2
HIDDEN
 70
     0
  3
Hidden __ __ __ __ __ __ __ __ __ __ __ __ __ __
 72
    65
 73
     2
 40
1.905
 49
1.27
 74
     0
 49
-0.635
 74
     0
  0
LTYPE
  5
6F
330
5
100
AcDbSymbolTableRecord
100
AcDbLinetypeTableRecord
  2
PHANTOM
 70
     0
  3
Phantom ______  __  __  ______  __  __  ______
 72
    65
 73
     6
 40
12.7
 49
6.35
 74
     0
 49
-1.27
 74
     0
 49
1.27
 74
     0
 49
-1.27
 74
     0
 49
1.27
 74
     0
 49
-1.27
 74
     0
  0
LTYPE
  5
70
330
5
100
AcDbSymbolTableRecord
100
AcDbLinetypeTableRecord
  2
CENTER
 70
     0
  3
Center ____ _ ____ _ ____ _ ____ _ ____ _ ____
 72
    65
 73
     4
 40
10.16
 49
6.35
 74
     0
 49
-1.27
 74
     0
 49
1.27
 74
     0
 49
-1.27
 74
     0
  0
LTYPE
  5
71
330
5
100
AcDbSymbolTableRecord
100
AcDbLinetypeTableRecord
  2
CENTERX2
 70
     0
  3
Center (2x) ________  __  ________  __  _____
 72
    65
 73
     4
 40
20.32
 49
12.7
 74
     0
 49
-2.54
 74
     0
 49
2.54
 74
     0
 49
-2.54
 74
     0
  0
LTYPE
  5
72
330
5
100
AcDbSymbolTableRecord
100
AcDbLinetypeTableRecord
  2
DOT2
 70
     0
  3
Dot (.5x) ........................................
 72
    65
 73
     2
 40
0.635
 49
0.0
 74
     0
 49
-0.635
 74
     0
  0
ENDTAB
  0
TABLE
  2
LAYER
  5
2
330
0
100
AcDbSymbolTable
 70
     1
  0
LAYER
  5
10
330
2
100
AcDbSymbolTableRecord
100
AcDbLayerTableRecord
  2
0
 70
     0
 62
     7
  6
Continuous
370
    -3
390
F
  0
ENDTAB
  0
TABLE
  2
STYLE
  5
3
330
0
100
AcDbSymbolTable
 70
     2
  0
STYLE
  5
11
330
3
100
AcDbSymbolTableRecord
100
AcDbTextStyleTableRecord
  2
Standard
 70
     0
 40
0.0
 41
1.0
 50
0.0
 71
     0
 42
1.75
  3
txt
  4
bigfont
  0
STYLE
  5
73
330
3
100
AcDbSymbolTableRecord
100
AcDbTextStyleTableRecord
  2
SLDTEXTSTYLE0
 70
     0
 40
0.0
 41
0.7
 50
0.0
 71
     0
 42
1.75
  3
TXT
  4
bigfont
  0
ENDTAB
  0
TABLE
  2
VIEW
  5
6
330
0
100
AcDbSymbolTable
 70
     0
  0
ENDTAB
  0
TABLE
  2
UCS
  5
7
330
0
100
AcDbSymbolTable
 70
     0
  0
ENDTAB
  0
TABLE
  2
APPID
  5
9
330
0
100
AcDbSymbolTable
 70
     1
  0
APPID
  5
12
330
9
100
AcDbSymbolTableRecord
100
AcDbRegAppTableRecord
  2
ACAD
 70
     0
  0
ENDTAB
  0
TABLE
  2
DIMSTYLE
  5
A
330
0
100
AcDbSymbolTable
 70
     1
100
AcDbDimStyleTable
  0
DIMSTYLE
105
27
330
A
100
AcDbSymbolTableRecord
100
AcDbDimStyleTableRecord
  2
ISO-25
 70
     0
 41
2.5
 42
0.625
 43
3.75
 44
1.25
 73
     0
 74
     0
 77
     1
 78
     8
140
2.5
141
2.5
143
0.0393700787
147
0.625
171
     3
172
     1
178
     0
271
     2
272
     2
274
     3
278
    44
283
     0
284
     8
340
11
  0
ENDTAB
  0
TABLE
  2
BLOCK_RECORD
  5
1
330
0
100
AcDbSymbolTable
 70
     3
  0
BLOCK_RECORD
  5
1F
330
1
100
AcDbSymbolTableRecord
100
AcDbBlockTableRecord
  2
*Model_Space
340
22
  0
BLOCK_RECORD
  5
1B
330
1
100
AcDbSymbolTableRecord
100
AcDbBlockTableRecord
  2
*Paper_Space
340
1E
  0
BLOCK_RECORD
  5
23
330
1
100
AcDbSymbolTableRecord
100
AcDbBlockTableRecord
  2
*Paper_Space0
340
26
  0
BLOCK_RECORD
  5
1C7
330
1
100
AcDbSymbolTableRecord
100
AcDbBlockTableRecord
  2
SW_CENTERMARKSYMBOL_0
340
0
102
{BLKREFS
331
1D2
102
}
  0
BLOCK_RECORD
  5
276
330
1
100
AcDbSymbolTableRecord
100
AcDbBlockTableRecord
  2
SW_CENTERMARKSYMBOL_1
340
0
102
{BLKREFS
331
281
102
}
  0
ENDTAB
  0
ENDSEC
  0
SECTION
  2
BLOCKS
  0
BLOCK
  5
20
330
1F
100
AcDbEntity
  8
0
100
AcDbBlockBegin
  2
*Model_Space
 70
     0
 10
0.0
 20
0.0
 30
0.0
  3
*Model_Space
  1

  0
ENDBLK
  5
21
330
1F
100
AcDbEntity
  8
0
100
AcDbBlockEnd
  0
BLOCK
  5
1C
330
1B
100
AcDbEntity
 67
     1
  8
0
100
AcDbBlockBegin
  2
*Paper_Space
 70
     0
 10
0.0
 20
0.0
 30
0.0
  3
*Paper_Space
  1

  0
ENDBLK
  5
1D
330
1B
100
AcDbEntity
 67
     1
  8
0
100
AcDbBlockEnd
  0
BLOCK
  5
24
330
23
100
AcDbEntity
  8
0
100
AcDbBlockBegin
  2
*Paper_Space0
 70
     0
 10
0.0
 20
0.0
 30
0.0
  3
*Paper_Space0
  1

  0
ENDBLK
  5
25
330
23
100
AcDbEntity
  8
0
100
AcDbBlockEnd
  0
BLOCK
  5
1C8
330
1C7
100
AcDbEntity
  8
0
100
AcDbBlockBegin
  2
SW_CENTERMARKSYMBOL_0
 70
     0
 10
0.0
 20
0.0
 30
0.0
  3
SW_CENTERMARKSYMBOL_0
  1

  0
LINE
  5
1CA
330
1C7
100
AcDbEntity
  8
0
  6
Continuous
 62
     0
370
    18
100
AcDbLine
 10
0.0
 20
0.0
 30
0.0
 11
0.0
 21
2.5
 31
0.0
  0
LINE
  5
1CB
330
1C7
100
AcDbEntity
  8
0
  6
Continuous
 62
     0
370
    18
100
AcDbLine
 10
0.0
 20
0.0
 30
0.0
 11
-2.5
 21
0.0
 31
0.0
  0
LINE
  5
1CC
330
1C7
100
AcDbEntity
  8
0
  6
Continuous
 62
     0
370
    18
100
AcDbLine
 10
0.0
 20
0.0
 30
0.0
 11
0.0
 21
-2.5
 31
0.0
  0
LINE
  5
1CD
330
1C7
100
AcDbEntity
  8
0
  6
Continuous
 62
     0
370
    18
100
AcDbLine
 10
0.0
 20
0.0
 30
0.0
 11
2.5
 21
0.0
 31
0.0
  0
LINE
  5
1CE
330
1C7
100
AcDbEntity
  8
0
  6
Continuous
 62
     0
370
    18
100
AcDbLine
 10
0.0
 20
5.0
 30
0.0
 11
0.0
 21
23.4158969454
 31
0.0
  0
LINE
  5
1CF
330
1C7
100
AcDbEntity
  8
0
  6
Continuous
 62
     0
370
    18
100
AcDbLine
 10
-5.0
 20
0.0
 30
0.0
 11
-9.75
 21
0.0
 31
0.0
  0
LINE
  5
1D0
330
1C7
100
AcDbEntity
  8
0
  6
Continuous
 62
     0
370
    18
100
AcDbLine
 10
0.0
 20
-5.0
 30
0.0
 11
0.0
 21
-9.75
 31
0.0
  0
LINE
  5
1D1
330
1C7
100
AcDbEntity
  8
0
  6
Continuous
 62
     0
370
    18
100
AcDbLine
 10
5.0
 20
0.0
 30
0.0
 11
9.75
 21
0.0
 31
0.0
  0
ENDBLK
  5
1C9
330
1C7
100
AcDbEntity
  8
0
100
AcDbBlockEnd
  0
BLOCK
  5
277
330
276
100
AcDbEntity
  8
0
100
AcDbBlockBegin
  2
SW_CENTERMARKSYMBOL_1
 70
     0
 10
0.0
 20
0.0
 30
0.0
  3
SW_CENTERMARKSYMBOL_1
  1

  0
LINE
  5
279
330
276
100
AcDbEntity
  8
0
  6
Continuous
 62
     0
370
    18
100
AcDbLine
 10
0.0
 20
0.0
 30
0.0
 11
0.0
 21
2.5
 31
0.0
  0
LINE
  5
27A
330
276
100
AcDbEntity
  8
0
  6
Continuous
 62
     0
370
    18
100
AcDbLine
 10
0.0
 20
0.0
 30
0.0
 11
-2.5
 21
0.0
 31
0.0
  0
LINE
  5
27B
330
276
100
AcDbEntity
  8
0
  6
Continuous
 62
     0
370
    18
100
AcDbLine
 10
0.0
 20
0.0
 30
0.0
 11
0.0
 21
-2.5
 31
0.0
  0
LINE
  5
27C
330
276
100
AcDbEntity
  8
0
  6
Continuous
 62
     0
370
    18
100
AcDbLine
 10
0.0
 20
0.0
 30
0.0
 11
2.5
 21
0.0
 31
0.0
  0
LINE
  5
27D
330
276
100
AcDbEntity
  8
0
  6
Continuous
 62
     0
370
    18
100
AcDbLine
 10
0.0
 20
5.0
 30
0.0
 11
0.0
 21
9.75
 31
0.0
  0
LINE
  5
27E
330
276
100
AcDbEntity
  8
0
  6
Continuous
 62
     0
370
    18
100
AcDbLine
 10
-5.0
 20
0.0
 30
0.0
 11
-23.4112314482
 21
0.0
 31
0.0
  0
LINE
  5
27F
330
276
100
AcDbEntity
  8
0
  6
Continuous
 62
     0
370
    18
100
AcDbLine
 10
0.0
 20
-5.0
 30
0.0
 11
0.0
 21
-9.75
 31
0.0
  0
LINE
  5
280
330
276
100
AcDbEntity
  8
0
  6
Continuous
 62
     0
370
    18
100
AcDbLine
 10
5.0
 20
0.0
 30
0.0
 11
23.4764822564
 21
0.0
 31
0.0
  0
ENDBLK
  5
278
330
276
100
AcDbEntity
  8
0
100
AcDbBlockEnd
  0
ENDSEC
  0
SECTION
  2
ENTITIES
  0
MTEXT
  5
74
330
1F
100
AcDbEntity
  8
0
  6
Continuous
 62
     7
370
     0
100
AcDbMText
 10
84.8667474567
 20
65.9055881631
 30
0.0
 40
2.6458333333
 41
0.0
 71
     1
 72
     1
  1
5R-TF1111
  7
SLDTEXTSTYLE0
 73
     1
 44
1.0
  0
ARC
  5
75
330
1F
100
AcDbEntity
  8
0
  6
Continuous
 62
     7
370
    25
100
AcDbCircle
 10
49.4245445087
 20
27.387519707
 30
0.0
 40
1.0
100
AcDbArc
 50
270.0
 51
338.1276005171
  0
ARC
  5
76
330
1F
100
AcDbEntity
  8
0
  6
Continuous
 62
     7
370
    25
100
AcDbCircle
 10
49.4245445087
 20
39.887519707
 30
0.0
 40
1.000000000000002
100
AcDbArc
 50
21.7839281367
 51
90.0
  0
ARC
  5
77
330
1F
100
AcDbEntity
  8
0
  6
Continuous
 62
     7
370
    25
100
AcDbCircle
 10
71.4245445087
 20
39.887519707
 30
0.0
 40
1.0
100
AcDbArc
 50
90.0
 51
158.1276005171
  0
ARC
  5
78
330
1F
100
AcDbEntity
  8
0
  6
Continuous
 62
     7
370
    25
100
AcDbCircle
 10
71.4245445087
 20
27.387519707
 30
0.0
 40
1.0
100
AcDbArc
 50
201.7839281367
 51
270.0
  0
ARC
  5
79
330
1F
100
AcDbEntity
  8
0
  6
Continuous
 62
     7
370
    25
100
AcDbCircle
 10
54.1745445087
 20
44.637519707
 30
0.0
 40
1.00000000000001
100
AcDbArc
 50
180.0
 51
248.2607265255
  0
ARC
  5
7A
330
1F
100
AcDbEntity
  8
0
  6
Continuous
 62
     7
370
    25
100
AcDbCircle
 10
66.6745445087
 20
44.637519707
 30
0.0
 40
1.000000000000006
100
AcDbArc
 50
291.8578361251
 51
0.0
  0
LINE
  5
7B
330
1F
100
AcDbEntity
  8
0
  6
Continuous
 62
     7
370
    25
100
AcDbLine
 10
81.9245452388
 20
40.8875194984
 30
0.0
 11
71.4245444491
 21
40.8875194984
 31
0.0
  0
LINE
  5
7C
330
1F
100
AcDbEntity
  8
0
  6
Continuous
 62
     7
370
    25
100
AcDbLine
 10
71.4245444491
 20
26.3875199157
 30
0.0
 11
81.9245452388
 21
26.3875199157
 31
0.0
  0
LINE
  5
7D
330
1F
100
AcDbEntity
  8
0
  6
Continuous
 62
     7
370
    25
100
AcDbLine
 10
38.9245437785
 20
40.8875194984
 30
0.0
 11
38.4245446279
 21
40.3875198821
 31
0.0
  0
LINE
  5
7E
330
1F
100
AcDbEntity
  8
0
  6
Continuous
 62
     7
370
    25
100
AcDbLine
 10
38.4245446279
 20
26.887519532
 30
0.0
 11
38.9245437785
 21
26.3875199157
 31
0.0
  0
LINE
  5
7F
330
1F
100
AcDbEntity
  8
0
  6
Continuous
 62
     7
370
    25
100
AcDbLine
 10
81.9245452388
 20
26.3875199157
 30
0.0
 11
82.4245443895
 21
26.887519532
 31
0.0
  0
LINE
  5
80
330
1F
100
AcDbEntity
  8
0
  6
Continuous
 62
     7
370
    25
100
AcDbLine
 10
82.4245443895
 20
40.3875198821
 30
0.0
 11
81.9245452388
 21
40.8875194984
 31
0.0
  0
LINE
  5
81
330
1F
100
AcDbEntity
  8
0
  6
Continuous
 62
     7
370
    25
100
AcDbLine
 10
38.9245437785
 20
26.3875199157
 30
0.0
 11
49.4245445683
 21
26.3875199157
 31
0.0
  0
LINE
  5
82
330
1F
100
AcDbEntity
  8
0
  6
Continuous
 62
     7
370
    25
100
AcDbLine
 10
49.4245445683
 20
40.8875194984
 30
0.0
 11
38.9245437785
 21
40.8875194984
 31
0.0
  0
LINE
  5
83
330
1F
100
AcDbEntity
  8
0
  6
Continuous
 62
     7
370
    25
100
AcDbLine
 10
67.6745443001
 20
44.6375196474
 30
0.0
 11
67.6745443001
 21
55.1375204372
 31
0.0
  0
LINE
  5
84
330
1F
100
AcDbEntity
  8
0
  6
Continuous
 62
     7
370
    25
100
AcDbLine
 10
53.1745447173
 20
55.1375204372
 30
0.0
 11
53.1745447173
 21
44.6375196474
 31
0.0
  0
LINE
  5
85
330
1F
100
AcDbEntity
  8
0
  6
Continuous
 62
     7
370
    25
100
AcDbLine
 10
67.6745443001
 20
55.1375204372
 30
0.0
 11
67.1745446838
 21
55.6375195878
 31
0.0
  0
LINE
  5
86
330
1F
100
AcDbEntity
  8
0
  6
Continuous
 62
     7
370
    25
100
AcDbLine
 10
53.6745443336
 20
55.6375195878
 30
0.0
 11
53.1745447173
 21
55.1375204372
 31
0.0
  0
SPLINE
  5
87
330
1F
100
AcDbEntity
  8
0
  6
Continuous
 62
     7
370
    25
100
AcDbSpline
210
0.0
220
0.0
230
1.0
 70
     8
 71
     3
 72
    11
 73
     7
 74
     0
 42
0.000000001
 43
0.00000001
 40
0.0
 40
0.0
 40
0.0
 40
0.0
 40
0.2500538626994269
 40
0.4999819337220742
 40
0.749932391486029
 40
1.0
 40
1.0
 40
1.0
 40
1.0
 10
50.35237840852615
 20
27.01536683838052
 30
0.0
 10
50.39760747360013
 20
27.10354209147179
 30
0.0
 10
50.48804285089047
 20
27.27984824035941
 30
0.0
 10
50.71307359076056
 20
27.47908271161377
 30
0.0
 10
50.98245866436882
 20
27.61238701055975
 30
0.0
 10
51.17986716528738
 20
27.62965608992604
 30
0.0
 10
51.27859454146501
 20
27.63829265262169
 30
0.0
  0
SPLINE
  5
88
330
1F
100
AcDbEntity
  8
0
  6
Continuous
 62
     7
370
    25
100
AcDbSpline
210
0.0
220
0.0
230
1.0
 70
     8
 71
     3
 72
    11
 73
     7
 74
     0
 42
0.000000001
 43
0.00000001
 40
0.0
 40
0.0
 40
0.0
 40
0.0
 40
0.2500765330476004
 40
0.5000300275733256
 40
0.7499566387606212
 40
1.0
 40
1.0
 40
1.0
 40
1.0
 10
51.27859454146501
 20
39.63602126117033
 30
0.0
 10
51.17986765853548
 20
39.64465883605843
 30
0.0
 10
50.98246246664534
 20
39.66192973611783
 30
0.0
 10
50.71307552663669
 20
39.79520912326384
 30
0.0
 10
50.48804650822677
 20
39.99442059540269
 30
0.0
 10
50.3976081479713
 20
40.17070756882325
 30
0.0
 10
50.35237840852615
 20
40.25887163828295
 30
0.0
  0
SPLINE
  5
89
330
1F
100
AcDbEntity
  8
0
  6
Continuous
 62
     7
370
    25
100
AcDbSpline
210
0.0
220
0.0
230
1.0
 70
     8
 71
     3
 72
    11
 73
     7
 74
     0
 42
0.000000001
 43
0.00000001
 40
0.0
 40
0.0
 40
0.0
 40
0.0
 40
0.2500538626994269
 40
0.4999819337220742
 40
0.749932391486029
 40
1.0
 40
1.0
 40
1.0
 40
1.0
 10
70.49671060881492
 20
40.25967257569712
 30
0.0
 10
70.45148154374094
 20
40.17149732260584
 30
0.0
 10
70.3610461664506
 20
39.99519117371823
 30
0.0
 10
70.13601542658051
 20
39.79595670246387
 30
0.0
 10
69.86663035297225
 20
39.66265240351789
 30
0.0
 10
69.66922185205368
 20
39.6453833241516
 30
0.0
 10
69.57049447587606
 20
39.63674676145595
 30
0.0
  0
SPLINE
  5
8A
330
1F
100
AcDbEntity
  8
0
  6
Continuous
 62
     7
370
    25
100
AcDbSpline
210
0.0
220
0.0
230
1.0
 70
     8
 71
     3
 72
    11
 73
     7
 74
     0
 42
0.000000001
 43
0.00000001
 40
0.0
 40
0.0
 40
0.0
 40
0.0
 40
0.2500765330476004
 40
0.5000300275733256
 40
0.7499566387606212
 40
1.0
 40
1.0
 40
1.0
 40
1.0
 10
69.57049447587606
 20
27.63901815290731
 30
0.0
 10
69.66922135880559
 20
27.63038057801921
 30
0.0
 10
69.86662655069573
 20
27.61310967795981
 30
0.0
 10
70.13601349070437
 20
27.4798302908138
 30
0.0
 10
70.36104250911428
 20
27.28061881867494
 30
0.0
 10
70.45148086936977
 20
27.10433184525439
 30
0.0
 10
70.49671060881492
 20
27.01616777579468
 30
0.0
  0
SPLINE
  5
8B
330
1F
100
AcDbEntity
  8
0
  6
Continuous
 62
     7
370
    25
100
AcDbSpline
210
0.0
220
0.0
230
1.0
 70
     8
 71
     3
 72
    11
 73
     7
 74
     0
 42
0.000000001
 43
0.00000001
 40
0.0
 40
0.0
 40
0.0
 40
0.0
 40
0.2500433612393788
 40
0.4999699724266744
 40
0.7499234669523995
 40
1.0
 40
1.0
 40
1.0
 40
1.0
 10
53.8031925774264
 20
43.70968580718321
 30
0.0
 10
53.8913566468861
 20
43.66445606773806
 30
0.0
 10
54.06764362030665
 20
43.57401770748258
 30
0.0
 10
54.26685509244551
 20
43.34898868907266
 30
0.0
 10
54.40013447959153
 20
43.079601749064
 30
0.0
 10
54.41740537965092
 20
42.88219655717388
 30
0.0
 10
54.42604295453903
 20
42.78346967424434
 30
0.0
  0
SPLINE
  5
8C
330
1F
100
AcDbEntity
  8
0
  6
Continuous
 62
     7
370
    25
100
AcDbSpline
210
0.0
220
0.0
230
1.0
 70
     8
 71
     3
 72
    11
 73
     7
 74
     0
 42
0.000000001
 43
0.00000001
 40
0.0
 40
0.0
 40
0.0
 40
0.0
 40
0.2500676085139711
 40
0.5000180662779259
 40
0.7499461373005731
 40
1.0
 40
1.0
 40
1.0
 40
1.0
 10
66.42377156308767
 20
42.78346967424434
 30
0.0
 10
66.43240812578331
 20
42.88219705042198
 30
0.0
 10
66.4496772051496
 20
43.07960555134053
 30
0.0
 10
66.58298150409559
 20
43.34899062494879
 30
0.0
 10
66.78221597534994
 20
43.57402136481888
 30
0.0
 10
66.95852212423756
 20
43.66445674210922
 30
0.0
 10
67.04669737732884
 20
43.70968580718321
 30
0.0
  0
LINE
  5
8D
330
1F
100
AcDbEntity
  8
0
  6
Continuous
 62
     7
370
    25
100
AcDbLine
 10
54.2245443306
 20
39.6375197592
 30
0.0
 11
51.2785945415
 21
39.6375197592
 31
0.0
  0
LINE
  5
8E
330
1F
100
AcDbEntity
  8
0
  6
Continuous
 62
     7
370
    25
100
AcDbLine
 10
69.5704944759
 20
39.6375197592
 30
0.0
 11
66.6245446867
 21
39.6375197592
 31
0.0
  0
LINE
  5
8F
330
1F
100
AcDbEntity
  8
0
  6
Continuous
 62
     7
370
    25
100
AcDbLine
 10
51.2785945415
 20
27.6375196549
 30
0.0
 11
69.5704944759
 21
27.6375196549
 31
0.0
  0
LINE
  5
90
330
1F
100
AcDbEntity
  8
0
  6
Continuous
 62
     7
370
    25
100
AcDbLine
 10
54.4245444565
 20
42.7834696742
 30
0.0
 11
54.4245444565
 21
39.8375198851
 31
0.0
  0
LINE
  5
91
330
1F
100
AcDbEntity
  8
0
  6
Continuous
 62
     7
370
    25
100
AcDbLine
 10
66.4245445608
 20
39.8375198851
 30
0.0
 11
66.4245445608
 21
42.7834696742
 31
0.0
  0
ARC
  5
92
330
1F
100
AcDbEntity
  8
0
  6
Continuous
 62
     7
370
    25
100
AcDbCircle
 10
66.6245445087
 20
39.837519707
 30
0.0
 40
0.1999999999999912
100
AcDbArc
 50
180.9243785428
 51
268.0272653466
  0
ARC
  5
93
330
1F
100
AcDbEntity
  8
0
  6
Continuous
 62
     7
370
    25
100
AcDbCircle
 10
54.2245445087
 20
39.837519707
 30
0.0
 40
0.1999999999999988
100
AcDbArc
 50
271.8400723276
 51
358.0272653466
  0
LINE
  5
94
330
1F
100
AcDbEntity
  8
0
  6
Continuous
 62
     7
370
    25
100
AcDbLine
 10
53.8046766399
 20
43.7090860354
 30
0.0
 11
53.8049578994
 21
43.7091912749
 31
0.0
  0
LINE
  5
95
330
1F
100
AcDbEntity
  8
0
  6
Continuous
 62
     7
370
    25
100
AcDbLine
 10
81.9245452388
 20
26.3875199157
 30
0.0
 11
81.9245452388
 21
40.8875194984
 31
0.0
  0
LINE
  5
96
330
1F
100
AcDbEntity
  8
0
  6
Continuous
 62
     7
370
    25
100
AcDbLine
 10
38.9245437785
 20
40.8875194984
 30
0.0
 11
38.9245437785
 21
26.3875199157
 31
0.0
  0
LINE
  5
97
330
1F
100
AcDbEntity
  8
0
  6
Continuous
 62
     7
370
    25
100
AcDbLine
 10
38.4245446279
 20
33.637519707
 30
0.0
 11
38.4245446279
 21
40.3875198821
 31
0.0
  0
LINE
  5
98
330
1F
100
AcDbEntity
  8
0
  6
Continuous
 62
     7
370
    25
100
AcDbLine
 10
38.4245446279
 20
26.887519532
 30
0.0
 11
38.4245446279
 21
33.637519707
 31
0.0
  0
LINE
  5
99
330
1F
100
AcDbEntity
  8
0
  6
Continuous
 62
     7
370
    25
100
AcDbLine
 10
82.4245443895
 20
40.3875198821
 30
0.0
 11
82.4245443895
 21
26.887519532
 31
0.0
  0
LINE
  5
9A
330
1F
100
AcDbEntity
  8
0
  6
Continuous
 62
     7
370
    25
100
AcDbLine
 10
67.6745443001
 20
55.1375204372
 30
0.0
 11
53.1745447173
 21
55.1375204372
 31
0.0
  0
LINE
  5
9B
330
1F
100
AcDbEntity
  8
0
  6
Continuous
 62
     7
370
    25
100
AcDbLine
 10
53.6745443336
 20
55.6375195878
 30
0.0
 11
67.1745446838
 21
55.6375195878
 31
0.0
  0
SPLINE
  5
9C
330
1F
100
AcDbEntity
  8
0
  6
Continuous
 62
     7
370
    25
100
AcDbSpline
210
0.0
220
0.0
230
1.0
 70
     8
 71
     3
 72
     9
 73
     5
 74
     0
 42
0.000000001
 43
0.00000001
 40
0.001813512106624
 40
0.001813512106624
 40
0.001813512106624
 40
0.001813512106624
 40
0.501813512106624
 40
1.0
 40
1.0
 40
1.0
 40
1.0
 10
51.27859413044445
 20
33.6423874999315
 30
0.0
 10
51.08086087172791
 20
33.64240340778982
 30
0.0
 10
50.68655727972697
 20
33.6424745077399
 30
0.0
 10
50.42666320262818
 20
33.64275320600575
 30
0.0
 10
50.35237835630291
 20
33.6428930346404
 30
0.0
  0
SPLINE
  5
9D
330
1F
100
AcDbEntity
  8
0
  6
Continuous
 62
     7
370
    25
100
AcDbSpline
210
0.0
220
0.0
230
1.0
 70
    24
 71
     3
 72
     9
 73
     5
 74
     0
 42
0.000000001
 43
0.00000001
 40
0.0
 40
0.0
 40
0.0
 40
0.0
 40
0.8815729555810312
 40
1.0
 40
1.0
 40
1.0
 40
1.0
 10
51.27859454146501
 20
39.63512439753097
 30
0.0
 10
51.27859454146501
 20
39.63661718130065
 30
0.0
 10
51.27859454146501
 20
39.63831049977217
 30
0.0
 10
51.27859454146501
 20
39.63732120061528
 30
0.0
 10
51.27859454146501
 20
39.63720404084009
 30
0.0
  0
SPLINE
  5
9E
330
1F
100
AcDbEntity
  8
0
  6
Continuous
 62
     7
370
    25
100
AcDbSpline
210
0.0
220
0.0
230
1.0
 70
     8
 71
     3
 72
     9
 73
     5
 74
     0
 42
0.000000001
 43
0.00000001
 40
0.001813512106624
 40
0.001813512106624
 40
0.001813512106624
 40
0.001813512106624
 40
0.501813512106624
 40
1.0
 40
1.0
 40
1.0
 40
1.0
 10
69.57049488689663
 20
33.63265191414614
 30
0.0
 10
69.76822814561316
 20
33.63263600628781
 30
0.0
 10
70.16253173761409
 20
33.63256490633774
 30
0.0
 10
70.4224258147129
 20
33.63228620807188
 30
0.0
 10
70.49671066103816
 20
33.63214637943724
 30
0.0
  0
SPLINE
  5
9F
330
1F
100
AcDbEntity
  8
0
  6
Continuous
 62
     7
370
    25
100
AcDbSpline
210
0.0
220
0.0
230
1.0
 70
    24
 71
     3
 72
     9
 73
     5
 74
     0
 42
0.000000001
 43
0.00000001
 40
0.0
 40
0.0
 40
0.0
 40
0.0
 40
0.8815729555810312
 40
1.0
 40
1.0
 40
1.0
 40
1.0
 10
69.57049447587606
 20
27.63991501654667
 30
0.0
 10
69.57049447587606
 20
27.63842223277699
 30
0.0
 10
69.57049447587606
 20
27.63672891430547
 30
0.0
 10
69.57049447587606
 20
27.63771821346235
 30
0.0
 10
69.57049447587606
 20
27.63783537323755
 30
0.0
  0
SPLINE
  5
A0
330
1F
100
AcDbEntity
  8
0
  6
Continuous
 62
     7
370
    25
100
AcDbSpline
210
0.0
220
0.0
230
1.0
 70
    24
 71
     3
 72
     9
 73
     5
 74
     0
 42
0.000000001
 43
0.00000001
 40
0.0
 40
0.0
 40
0.0
 40
0.0
 40
0.1184270444189687
 40
1.0
 40
1.0
 40
1.0
 40
1.0
 10
54.42486017486927
 20
42.78346967424434
 30
0.0
 10
54.42474301509407
 20
42.78346967424434
 30
0.0
 10
54.42375371593717
 20
42.78346967424434
 30
0.0
 10
54.4254470344087
 20
42.78346967424434
 30
0.0
 10
54.42693981817838
 20
42.78346967424434
 30
0.0
  0
SPLINE
  5
A1
330
1F
100
AcDbEntity
  8
0
  6
Continuous
 62
     7
370
    25
100
AcDbSpline
210
0.0
220
0.0
230
1.0
 70
     8
 71
     3
 72
     9
 73
     5
 74
     0
 42
0.000000001
 43
0.00000001
 40
0.0018135121066271
 40
0.0018135121066271
 40
0.0018135121066271
 40
0.0018135121066271
 40
0.5018135121066271
 40
1.0
 40
1.0
 40
1.0
 40
1.0
 10
60.41967671577785
 20
42.7834700852649
 30
0.0
 10
60.41966080791953
 20
42.98120334398144
 30
0.0
 10
60.41958970796946
 20
43.37550693598237
 30
0.0
 10
60.41931100970361
 20
43.63540101308116
 30
0.0
 10
60.41917118106895
 20
43.70968585940645
 30
0.0
  0
SPLINE
  5
A2
330
1F
100
AcDbEntity
  8
0
  6
Continuous
 62
     7
370
    25
100
AcDbSpline
210
0.0
220
0.0
230
1.0
 70
     8
 71
     3
 72
    10
 73
     6
 74
     0
 42
0.000000001
 43
0.00000001
 40
0.0
 40
0.0
 40
0.0
 40
0.0
 40
0.5
 40
0.5
 40
1.0
 40
1.0
 40
1.0
 40
1.0
 10
54.42454450867054
 20
38.66977777155495
 30
0.0
 10
54.55215837012794
 20
38.66977777155495
 30
0.0
 10
54.67198019556228
 20
38.70069318771097
 30
0.0
 10
54.86264215912517
 20
38.7881864243115
 30
0.0
 10
54.933851434544
 20
38.8419739741114
 30
0.0
 10
54.99022993361974
 20
38.89653381192663
 30
0.0
  0
LINE
  5
A3
330
1F
100
AcDbEntity
  8
0
  6
Continuous
 62
     7
370
    25
100
AcDbLine
 10
54.1245445005
 20
38.6697778153
 30
0.0
 11
54.4245444565
 21
38.6697778153
 31
0.0
  0
SPLINE
  5
A4
330
1F
100
AcDbEntity
  8
0
  6
Continuous
 62
     7
370
    25
100
AcDbSpline
210
0.0
220
0.0
230
1.0
 70
     8
 71
     3
 72
    14
 73
    10
 74
     0
 42
0.000000001
 43
0.00000001
 40
0.0
 40
0.0
 40
0.0
 40
0.0
 40
0.25
 40
0.25
 40
0.5
 40
0.5
 40
0.75
 40
0.75
 40
1.0
 40
1.0
 40
1.0
 40
1.0
 10
54.12454450867053
 20
38.66977777155496
 30
0.0
 10
54.0535908191303
 20
38.66977777155495
 30
0.0
 10
53.98740417487171
 20
38.65063919780528
 30
0.0
 10
53.88487451253077
 20
38.59765929916691
 30
0.0
 10
53.84554227814521
 20
38.56399703971858
 30
0.0
 10
53.78423680077849
 20
38.49144307759614
 30
0.0
 10
53.76188906700877
 20
38.4516692532808
 30
0.0
 10
53.73222181230587
 20
38.36974784167771
 30
0.0
 10
53.72454450867053
 20
38.32712647323428
 30
0.0
 10
53.72454450867053
 20
38.2826809973614
 30
0.0
  0
LINE
  5
A5
330
1F
100
AcDbEntity
  8
0
  6
Continuous
 62
     7
370
    25
100
AcDbLine
 10
53.7245447143
 20
35.7577360841
 30
0.0
 11
53.7245447143
 21
38.2826810377
 31
0.0
  0
SPLINE
  5
A6
330
1F
100
AcDbEntity
  8
0
  6
Continuous
 62
     7
370
    25
100
AcDbSpline
210
0.0
220
0.0
230
1.0
 70
    24
 71
     3
 72
    14
 73
    10
 74
     0
 42
0.000000001
 43
0.00000001
 40
0.0
 40
0.0
 40
0.0
 40
0.0
 40
0.25
 40
0.25
 40
0.5
 40
0.5
 40
0.75
 40
0.75
 40
1.0
 40
1.0
 40
1.0
 40
1.0
 10
53.72454450867053
 20
33.63751970703882
 30
0.0
 10
53.72454450867053
 20
33.81608473773411
 30
0.0
 10
53.72454450867053
 20
33.99465058595371
 30
0.0
 10
53.72454450867053
 20
34.35111072127614
 30
0.0
 10
53.72454450867053
 20
34.52900664650464
 30
0.0
 10
53.72454450867053
 20
34.88340792973548
 30
0.0
 10
53.72454450867053
 20
35.05991493324544
 30
0.0
 10
53.72454450867053
 20
35.41072104525993
 30
0.0
 10
53.72454450867053
 20
35.58502180530837
 30
0.0
 10
53.72454450867053
 20
35.75773605867172
 30
0.0
  0
SPLINE
  5
A7
330
1F
100
AcDbEntity
  8
0
  6
Continuous
 62
     7
370
    25
100
AcDbSpline
210
0.0
220
0.0
230
1.0
 70
    24
 71
     3
 72
    14
 73
    10
 74
     0
 42
0.000000001
 43
0.00000001
 40
0.0
 40
0.0
 40
0.0
 40
0.0
 40
0.25
 40
0.25
 40
0.5
 40
0.5
 40
0.75
 40
0.75
 40
1.0
 40
1.0
 40
1.0
 40
1.0
 10
53.72454450867053
 20
33.63751970703882
 30
0.0
 10
53.72454450867053
 20
33.45895467634353
 30
0.0
 10
53.72454450867053
 20
33.28038882812394
 30
0.0
 10
53.72454450867053
 20
32.9239286928015
 30
0.0
 10
53.72454450867053
 20
32.74603276757299
 30
0.0
 10
53.72454450867053
 20
32.39163148434216
 30
0.0
 10
53.72454450867053
 20
32.21512448083219
 30
0.0
 10
53.72454450867053
 20
31.8643183688177
 30
0.0
 10
53.72454450867053
 20
31.69001760876927
 30
0.0
 10
53.72454450867053
 20
31.51730335540592
 30
0.0
  0
LINE
  5
A8
330
1F
100
AcDbEntity
  8
0
  6
Continuous
 62
     7
370
    25
100
AcDbLine
 10
53.7245447143
 20
28.9923583763
 30
0.0
 11
53.7245447143
 21
31.51730333
 31
0.0
  0
SPLINE
  5
A9
330
1F
100
AcDbEntity
  8
0
  6
Continuous
 62
     7
370
    25
100
AcDbSpline
210
0.0
220
0.0
230
1.0
 70
     8
 71
     3
 72
    12
 73
     8
 74
     0
 42
0.000000001
 43
0.00000001
 40
0.0
 40
0.0
 40
0.0
 40
0.0
 40
0.5000000000000001
 40
0.5000000000000001
 40
0.75
 40
0.75
 40
1.0
 40
1.0
 40
1.0
 40
1.0
 10
53.72454450867053
 20
28.99235841671624
 30
0.0
 10
53.72454450867053
 20
28.90354299745306
 30
0.0
 10
53.75395213325301
 20
28.81934065058155
 30
0.0
 10
53.84560869832142
 20
28.71101249708131
 30
0.0
 10
53.8849704442917
 20
28.67732256834056
 30
0.0
 10
53.98739666447732
 20
28.62441207997721
 30
0.0
 10
54.05353352794768
 20
28.60526164252269
 30
0.0
 10
54.12454450867053
 20
28.60526164252269
 30
0.0
  0
LINE
  5
AA
330
1F
100
AcDbEntity
  8
0
  6
Continuous
 62
     7
370
    25
100
AcDbLine
 10
66.7245445169
 20
28.6052615988
 30
0.0
 11
54.1245445005
 21
28.6052615988
 31
0.0
  0
SPLINE
  5
AB
330
1F
100
AcDbEntity
  8
0
  6
Continuous
 62
     7
370
    25
100
AcDbSpline
210
0.0
220
0.0
230
1.0
 70
     8
 71
     3
 72
    14
 73
    10
 74
     0
 42
0.000000001
 43
0.00000001
 40
0.0
 40
0.0
 40
0.0
 40
0.0
 40
0.25
 40
0.25
 40
0.5
 40
0.5
 40
0.75
 40
0.75
 40
1.0
 40
1.0
 40
1.0
 40
1.0
 10
66.72454450867053
 20
28.60526164252269
 30
0.0
 10
66.79549819821077
 20
28.60526164252269
 30
0.0
 10
66.86168484246936
 20
28.62440021627235
 30
0.0
 10
66.9642145048103
 20
28.67738011491073
 30
0.0
 10
67.00354673919585
 20
28.71104237435906
 30
0.0
 10
67.06485221656258
 20
28.78359633648149
 30
0.0
 10
67.0871999503323
 20
28.82337016079683
 30
0.0
 10
67.1168672050352
 20
28.90529157239992
 30
0.0
 10
67.12454450867052
 20
28.94791294084335
 30
0.0
 10
67.12454450867052
 20
28.99235841671623
 30
0.0
  0
LINE
  5
AC
330
1F
100
AcDbEntity
  8
0
  6
Continuous
 62
     7
370
    25
100
AcDbLine
 10
67.124544303
 20
31.51730333
 30
0.0
 11
67.124544303
 21
28.9923583763
 31
0.0
  0
SPLINE
  5
AD
330
1F
100
AcDbEntity
  8
0
  6
Continuous
 62
     7
370
    25
100
AcDbSpline
210
0.0
220
0.0
230
1.0
 70
    24
 71
     3
 72
    14
 73
    10
 74
     0
 42
0.000000001
 43
0.00000001
 40
0.0
 40
0.0
 40
0.0
 40
0.0
 40
0.25
 40
0.25
 40
0.5
 40
0.5
 40
0.75
 40
0.75
 40
1.0
 40
1.0
 40
1.0
 40
1.0
 10
67.12454450867052
 20
33.63751970703882
 30
0.0
 10
67.12454450867052
 20
33.45895467634354
 30
0.0
 10
67.12454450867052
 20
33.28038882812394
 30
0.0
 10
67.12454450867052
 20
32.9239286928015
 30
0.0
 10
67.12454450867052
 20
32.746032767573
 30
0.0
 10
67.12454450867052
 20
32.39163148434216
 30
0.0
 10
67.12454450867052
 20
32.21512448083219
 30
0.0
 10
67.12454450867052
 20
31.86431836881771
 30
0.0
 10
67.12454450867052
 20
31.69001760876928
 30
0.0
 10
67.12454450867052
 20
31.51730335540592
 30
0.0
  0
SPLINE
  5
AE
330
1F
100
AcDbEntity
  8
0
  6
Continuous
 62
     7
370
    25
100
AcDbSpline
210
0.0
220
0.0
230
1.0
 70
    24
 71
     3
 72
    14
 73
    10
 74
     0
 42
0.000000001
 43
0.00000001
 40
0.0
 40
0.0
 40
0.0
 40
0.0
 40
0.25
 40
0.25
 40
0.5
 40
0.5
 40
0.75
 40
0.75
 40
1.0
 40
1.0
 40
1.0
 40
1.0
 10
67.12454450867052
 20
33.63751970703882
 30
0.0
 10
67.12454450867052
 20
33.81608473773412
 30
0.0
 10
67.12454450867052
 20
33.99465058595371
 30
0.0
 10
67.12454450867052
 20
34.35111072127614
 30
0.0
 10
67.12454450867052
 20
34.52900664650464
 30
0.0
 10
67.12454450867052
 20
34.88340792973548
 30
0.0
 10
67.12454450867052
 20
35.05991493324545
 30
0.0
 10
67.12454450867052
 20
35.41072104525993
 30
0.0
 10
67.12454450867052
 20
35.58502180530837
 30
0.0
 10
67.12454450867052
 20
35.75773605867172
 30
0.0
  0
LINE
  5
AF
330
1F
100
AcDbEntity
  8
0
  6
Continuous
 62
     7
370
    25
100
AcDbLine
 10
67.124544303
 20
38.2826810377
 30
0.0
 11
67.124544303
 21
35.7577360841
 31
0.0
  0
SPLINE
  5
B0
330
1F
100
AcDbEntity
  8
0
  6
Continuous
 62
     7
370
    25
100
AcDbSpline
210
0.0
220
0.0
230
1.0
 70
     8
 71
     3
 72
    12
 73
     8
 74
     0
 42
0.000000001
 43
0.00000001
 40
0.0
 40
0.0
 40
0.0
 40
0.0
 40
0.4999999999999979
 40
0.4999999999999979
 40
0.7499999999999989
 40
0.7499999999999989
 40
1.0
 40
1.0
 40
1.0
 40
1.0
 10
67.12454450867052
 20
38.2826809973614
 30
0.0
 10
67.12454450867052
 20
38.37149641662459
 30
0.0
 10
67.09513688408806
 20
38.45569876349609
 30
0.0
 10
67.00348031901964
 20
38.56402691699633
 30
0.0
 10
66.96411857304938
 20
38.59771684573708
 30
0.0
 10
66.86169235286376
 20
38.65062733410043
 30
0.0
 10
66.79555548939338
 20
38.66977777155495
 30
0.0
 10
66.72454450867052
 20
38.66977777155495
 30
0.0
  0
LINE
  5
B1
330
1F
100
AcDbEntity
  8
0
  6
Continuous
 62
     7
370
    25
100
AcDbLine
 10
66.4245445608
 20
38.6697778153
 30
0.0
 11
66.7245445169
 21
38.6697778153
 31
0.0
  0
SPLINE
  5
B2
330
1F
100
AcDbEntity
  8
0
  6
Continuous
 62
     7
370
    25
100
AcDbSpline
210
0.0
220
0.0
230
1.0
 70
     8
 71
     3
 72
    10
 73
     6
 74
     0
 42
0.000000001
 43
0.00000001
 40
0.0
 40
0.0
 40
0.0
 40
0.0
 40
0.5
 40
0.5
 40
1.0
 40
1.0
 40
1.0
 40
1.0
 10
65.85885908372133
 20
38.89653381192662
 30
0.0
 10
65.91523758279708
 20
38.84197397411139
 30
0.0
 10
65.98644685821593
 20
38.78818642431148
 30
0.0
 10
66.17710882177883
 20
38.70069318771095
 30
0.0
 10
66.29693064721313
 20
38.66977777155495
 30
0.0
 10
66.42454450867054
 20
38.66977777155495
 30
0.0
  0
SPLINE
  5
B3
330
1F
100
AcDbEntity
  8
0
  6
Continuous
 62
     7
370
    25
100
AcDbSpline
210
0.0
220
0.0
230
1.0
 70
     8
 71
     3
 72
    10
 73
     6
 74
     0
 42
0.000000001
 43
0.00000001
 40
0.0
 40
0.0
 40
0.0
 40
0.0
 40
0.5
 40
0.5
 40
1.0
 40
1.0
 40
1.0
 40
1.0
 10
55.16553040378273
 20
39.07183428208962
 30
0.0
 10
55.22009024159797
 20
39.12821278116537
 30
0.0
 10
55.27387779139787
 20
39.19942205658422
 30
0.0
 10
55.36137102799839
 20
39.39008402014711
 30
0.0
 10
55.39228644415441
 20
39.50990584558143
 30
0.0
 10
55.39228644415441
 20
39.63751970703882
 30
0.0
  0
LINE
  5
B4
330
1F
100
AcDbEntity
  8
0
  6
Continuous
 62
     7
370
    25
100
AcDbLine
 10
62.5447608858
 20
40.3375195014
 30
0.0
 11
65.4245443969
 21
40.3375195014
 31
0.0
  0
SPLINE
  5
B5
330
1F
100
AcDbEntity
  8
0
  6
Continuous
 62
     7
370
    25
100
AcDbSpline
210
0.0
220
0.0
230
1.0
 70
    24
 71
     3
 72
    14
 73
    10
 74
     0
 42
0.000000001
 43
0.00000001
 40
0.0
 40
0.0
 40
0.0
 40
0.0
 40
0.25
 40
0.25
 40
0.5
 40
0.5
 40
0.75
 40
0.75
 40
1.0
 40
1.0
 40
1.0
 40
1.0
 10
60.42454450867054
 20
40.33751970703882
 30
0.0
 10
60.60310953936582
 20
40.33751970703882
 30
0.0
 10
60.78167538758542
 20
40.33751970703882
 30
0.0
 10
61.13813552290785
 20
40.33751970703882
 30
0.0
 10
61.31603144813636
 20
40.33751970703882
 30
0.0
 10
61.67043273136719
 20
40.33751970703882
 30
0.0
 10
61.84693973487716
 20
40.33751970703882
 30
0.0
 10
62.19774584689164
 20
40.33751970703882
 30
0.0
 10
62.37204660694007
 20
40.33751970703882
 30
0.0
 10
62.54476086030343
 20
40.33751970703882
 30
0.0
  0
SPLINE
  5
B6
330
1F
100
AcDbEntity
  8
0
  6
Continuous
 62
     7
370
    25
100
AcDbSpline
210
0.0
220
0.0
230
1.0
 70
    24
 71
     3
 72
    14
 73
    10
 74
     0
 42
0.000000001
 43
0.00000001
 40
0.0
 40
0.0
 40
0.0
 40
0.0
 40
0.25
 40
0.25
 40
0.5
 40
0.5
 40
0.75
 40
0.75
 40
1.0
 40
1.0
 40
1.0
 40
1.0
 10
60.42454450867054
 20
40.33751970703882
 30
0.0
 10
60.24597947797524
 20
40.33751970703882
 30
0.0
 10
60.06741362975564
 20
40.33751970703882
 30
0.0
 10
59.71095349443321
 20
40.33751970703882
 30
0.0
 10
59.53305756920471
 20
40.33751970703882
 30
0.0
 10
59.17865628597387
 20
40.33751970703882
 30
0.0
 10
59.0021492824639
 20
40.33751970703882
 30
0.0
 10
58.65134317044942
 20
40.33751970703882
 30
0.0
 10
58.47704241040099
 20
40.33751970703882
 30
0.0
 10
58.30432815703764
 20
40.33751970703882
 30
0.0
  0
LINE
  5
B7
330
1F
100
AcDbEntity
  8
0
  6
Continuous
 62
     7
370
    25
100
AcDbLine
 10
55.779383178
 20
40.3375195014
 30
0.0
 11
58.3043281316
 21
40.3375195014
 31
0.0
  0
SPLINE
  5
B8
330
1F
100
AcDbEntity
  8
0
  6
Continuous
 62
     7
370
    25
100
AcDbSpline
210
0.0
220
0.0
230
1.0
 70
     8
 71
     3
 72
    12
 73
     8
 74
     0
 42
0.000000001
 43
0.00000001
 40
0.0
 40
0.0
 40
0.0
 40
0.0
 40
0.4999999999999986
 40
0.4999999999999986
 40
0.7499999999999992
 40
0.7499999999999992
 40
1.0
 40
1.0
 40
1.0
 40
1.0
 10
55.77938321834795
 20
40.33751970703882
 30
0.0
 10
55.69056779908477
 20
40.33751970703882
 30
0.0
 10
55.60636545221327
 20
40.30811208245635
 30
0.0
 10
55.49803729871303
 20
40.21645551738794
 30
0.0
 10
55.46434736997227
 20
40.17709377141765
 30
0.0
 10
55.41143688160892
 20
40.07466755123204
 30
0.0
 10
55.39228644415441
 20
40.00853068776168
 30
0.0
 10
55.39228644415441
 20
39.93751970703882
 30
0.0
  0
LINE
  5
B9
330
1F
100
AcDbEntity
  8
0
  6
Continuous
 62
     7
370
    25
100
AcDbLine
 10
55.3922864004
 20
39.6375197592
 30
0.0
 11
55.3922864004
 21
39.9375197152
 31
0.0
  0
SPLINE
  5
BA
330
1F
100
AcDbEntity
  8
0
  6
Continuous
 62
     7
370
    25
100
AcDbSpline
210
0.0
220
0.0
230
1.0
 70
     8
 71
     3
 72
    14
 73
    10
 74
     0
 42
0.000000001
 43
0.00000001
 40
0.0
 40
0.0
 40
0.0
 40
0.0
 40
0.0484828720475278
 40
0.1220284832782636
 40
0.2276256188317521
 40
0.3675218964939739
 40
0.5426290638215259
 40
0.7533807556067993
 40
1.0
 40
1.0
 40
1.0
 40
1.0
 10
53.92454450867054
 20
35.82840993705948
 30
0.0
 10
53.92455154625539
 20
35.82631957687719
 30
0.0
 10
53.9245692594347
 20
35.82105826557738
 30
0.0
 10
53.92517847664605
 20
35.81774234073241
 30
0.0
 10
53.92724710728071
 20
35.81490175445129
 30
0.0
 10
53.93218129942759
 20
35.81372456221261
 30
0.0
 10
53.94185983611192
 20
35.81376060002282
 30
0.0
 10
53.95799865005262
 20
35.81517773869805
 30
0.0
 10
53.97432162939617
 20
35.81702935650515
 30
0.0
 10
53.98312315243475
 20
35.81802776840318
 30
0.0
  0
LINE
  5
BB
330
1F
100
AcDbEntity
  8
0
  6
Continuous
 62
     7
370
    25
100
AcDbLine
 10
53.9245443746
 20
35.8284099634
 30
0.0
 11
53.9245443746
 21
38.437519935
 31
0.0
  0
LINE
  5
BC
330
1F
100
AcDbEntity
  8
0
  6
Continuous
 62
     7
370
    25
100
AcDbLine
 10
53.9245443746
 20
38.437519935
 30
0.0
 11
54.1245445005
 21
38.437519935
 31
0.0
  0
LINE
  5
BD
330
1F
100
AcDbEntity
  8
0
  6
Continuous
 62
     7
370
    25
100
AcDbLine
 10
54.1245445005
 20
38.437519935
 30
0.0
 11
54.1245445005
 21
35.8284099634
 31
0.0
  0
SPLINE
  5
BE
330
1F
100
AcDbEntity
  8
0
  6
Continuous
 62
     7
370
    25
100
AcDbSpline
210
0.0
220
0.0
230
1.0
 70
     8
 71
     3
 72
     8
 73
     4
 74
     0
 42
0.000000001
 43
0.00000001
 40
0.0
 40
0.0
 40
0.0
 40
0.0
 40
1.0
 40
1.0
 40
1.0
 40
1.0
 10
53.98312315243475
 20
35.81802776840318
 30
0.0
 10
54.02014717691929
 20
35.82148849128861
 30
0.0
 10
54.07218463111142
 20
35.82494921417405
 30
0.0
 10
54.12454450867053
 20
35.82840993705948
 30
0.0
  0
LINE
  5
BF
330
1F
100
AcDbEntity
  8
0
  6
Continuous
 62
     7
370
    25
100
AcDbLine
 10
66.7245445169
 20
28.8375194791
 30
0.0
 11
66.7245445169
 21
31.4466294507
 31
0.0
  0
SPLINE
  5
C0
330
1F
100
AcDbEntity
  8
0
  6
Continuous
 62
     7
370
    25
100
AcDbSpline
210
0.0
220
0.0
230
1.0
 70
     8
 71
     3
 72
    10
 73
     6
 74
     0
 42
0.000000001
 43
0.00000001
 40
0.0
 40
0.0
 40
0.0
 40
0.0
 40
0.5
 40
0.5
 40
1.0
 40
1.0
 40
1.0
 40
1.0
 10
66.86596586490631
 20
31.45701164567446
 30
0.0
 10
66.84308118189352
 20
31.45437297513962
 30
0.0
 10
66.81663574691565
 20
31.45177743297554
 30
0.0
 10
66.76627731438522
 20
31.44790568391481
 30
0.0
 10
66.74236431683266
 20
31.44662947701816
 30
0.0
 10
66.72454450867053
 20
31.44662947701816
 30
0.0
  0
SPLINE
  5
C1
330
1F
100
AcDbEntity
  8
0
  6
Continuous
 62
     7
370
    25
100
AcDbSpline
210
0.0
220
0.0
230
1.0
 70
     8
 71
     3
 72
    12
 73
     8
 74
     0
 42
0.000000001
 43
0.00000001
 40
0.0
 40
0.0
 40
0.0
 40
0.0
 40
0.25
 40
0.25
 40
0.5
 40
0.5
 40
1.0
 40
1.0
 40
1.0
 40
1.0
 10
66.86596586490631
 20
31.45701164567446
 30
0.0
 10
66.87740820641271
 20
31.45833098094188
 30
0.0
 10
66.88679054240116
 20
31.45983524849454
 30
0.0
 10
66.90206491617184
 20
31.46211705624669
 30
0.0
 10
66.90795695395407
 20
31.46289459644618
 30
0.0
 10
66.92134218923587
 20
31.4624922381294
 30
0.0
 10
66.92454450867054
 20
31.4585773606979
 30
0.0
 10
66.92454450867054
 20
31.44662947701816
 30
0.0
  0
LINE
  5
C2
330
1F
100
AcDbEntity
  8
0
  6
Continuous
 62
     7
370
    25
100
AcDbLine
 10
66.9245446428
 20
31.4466294507
 30
0.0
 11
66.9245446428
 21
28.8375194791
 31
0.0
  0
LINE
  5
C3
330
1F
100
AcDbEntity
  8
0
  6
Continuous
 62
     7
370
    25
100
AcDbLine
 10
66.7245445169
 20
28.8375194791
 30
0.0
 11
66.9245446428
 21
28.8375194791
 31
0.0
  0
LINE
  5
C4
330
1F
100
AcDbEntity
  8
0
  6
Continuous
 62
     7
370
    25
100
AcDbLine
 10
65.2245447367
 20
39.9375197152
 30
0.0
 11
62.615434765
 21
39.9375197152
 31
0.0
  0
SPLINE
  5
C5
330
1F
100
AcDbEntity
  8
0
  6
Continuous
 62
     7
370
    25
100
AcDbSpline
210
0.0
220
0.0
230
1.0
 70
     8
 71
     3
 72
    10
 73
     6
 74
     0
 42
0.000000001
 43
0.00000001
 40
0.0
 40
0.0
 40
0.0
 40
0.0
 40
0.5
 40
0.5
 40
1.0
 40
1.0
 40
1.0
 40
1.0
 10
62.60505257003489
 20
40.0789410632746
 30
0.0
 10
62.60769124056974
 20
40.05605638026182
 30
0.0
 10
62.61028678273381
 20
40.02961094528394
 30
0.0
 10
62.61415853179454
 20
39.97925251275351
 30
0.0
 10
62.61543473869119
 20
39.95533951520095
 30
0.0
 10
62.61543473869119
 20
39.93751970703882
 30
0.0
  0
SPLINE
  5
C6
330
1F
100
AcDbEntity
  8
0
  6
Continuous
 62
     7
370
    25
100
AcDbSpline
210
0.0
220
0.0
230
1.0
 70
     8
 71
     3
 72
    12
 73
     8
 74
     0
 42
0.000000001
 43
0.00000001
 40
0.0
 40
0.0
 40
0.0
 40
0.0
 40
0.25
 40
0.25
 40
0.5
 40
0.5
 40
1.0
 40
1.0
 40
1.0
 40
1.0
 10
62.60505257003489
 20
40.0789410632746
 30
0.0
 10
62.60373323476747
 20
40.09038340478099
 30
0.0
 10
62.60222896721482
 20
40.09976574076945
 30
0.0
 10
62.59994715946267
 20
40.11504011454013
 30
0.0
 10
62.59916961926318
 20
40.12093215232236
 30
0.0
 10
62.59957197757996
 20
40.13431738760416
 30
0.0
 10
62.60348685501145
 20
40.13751970703882
 30
0.0
 10
62.61543473869119
 20
40.13751970703882
 30
0.0
  0
LINE
  5
C7
330
1F
100
AcDbEntity
  8
0
  6
Continuous
 62
     7
370
    25
100
AcDbLine
 10
62.615434765
 20
40.1375198411
 30
0.0
 11
65.4245443969
 21
40.1375198411
 31
0.0
  0
LWPOLYLINE
  5
C8
330
1F
100
AcDbEntity
  8
0
  6
Continuous
 62
     7
370
    25
100
AcDbPolyline
 90
        9
 70
   128
 43
0.0
 10
65.2245447367
 20
39.9375197152
 10
65.2635624959
 20
39.9765379402
 10
65.3010812915
 20
40.0140562701
 10
65.3356585047
 20
40.048633949
 10
65.3659660696
 20
40.0789410482
 10
65.390838436
 20
40.1038134145
 10
65.4093205324
 20
40.122295511
 10
65.42070176
 20
40.1336767385
 10
65.4245443969
 20
40.1375198411
  0
LINE
  5
C9
330
1F
100
AcDbEntity
  8
0
  6
Continuous
 62
     7
370
    25
100
AcDbLine
 10
66.7245445169
 20
35.8284099634
 30
0.0
 11
66.7245445169
 21
38.437519935
 31
0.0
  0
LINE
  5
CA
330
1F
100
AcDbEntity
  8
0
  6
Continuous
 62
     7
370
    25
100
AcDbLine
 10
66.7245445169
 20
35.8284099634
 30
0.0
 11
66.7245445169
 21
33.637519707
 31
0.0
  0
LINE
  5
CB
330
1F
100
AcDbEntity
  8
0
  6
Continuous
 62
     7
370
    25
100
AcDbLine
 10
66.7245445169
 20
33.637519707
 30
0.0
 11
66.7245445169
 21
31.4466294507
 31
0.0
  0
LINE
  5
CC
330
1F
100
AcDbEntity
  8
0
  6
Continuous
 62
     7
370
    25
100
AcDbLine
 10
54.1245445005
 20
28.8375194791
 30
0.0
 11
66.7245445169
 21
28.8375194791
 31
0.0
  0
LINE
  5
CD
330
1F
100
AcDbEntity
  8
0
  6
Continuous
 62
     7
370
    25
100
AcDbLine
 10
54.1245445005
 20
31.4466294507
 30
0.0
 11
54.1245445005
 21
28.8375194791
 31
0.0
  0
LINE
  5
CE
330
1F
100
AcDbEntity
  8
0
  6
Continuous
 62
     7
370
    25
100
AcDbLine
 10
54.1245445005
 20
31.4466294507
 30
0.0
 11
54.1245445005
 21
33.637519707
 31
0.0
  0
LINE
  5
CF
330
1F
100
AcDbEntity
  8
0
  6
Continuous
 62
     7
370
    25
100
AcDbLine
 10
54.1245445005
 20
33.637519707
 30
0.0
 11
54.1245445005
 21
35.8284099634
 31
0.0
  0
LINE
  5
D0
330
1F
100
AcDbEntity
  8
0
  6
Continuous
 62
     7
370
    25
100
AcDbLine
 10
54.4245444565
 20
38.437519935
 30
0.0
 11
54.1245445005
 21
38.437519935
 31
0.0
  0
ARC
  5
D1
330
1F
100
AcDbEntity
  8
0
  6
Continuous
 62
     7
370
    25
100
AcDbCircle
 10
54.4245445087
 20
39.637519707
 30
0.0
 40
1.200000000000003
100
AcDbArc
 50
270.0
 51
0.0
  0
LINE
  5
D2
330
1F
100
AcDbEntity
  8
0
  6
Continuous
 62
     7
370
    25
100
AcDbLine
 10
55.6245442807
 20
39.9375197152
 30
0.0
 11
55.6245442807
 21
39.6375197592
 31
0.0
  0
LINE
  5
D3
330
1F
100
AcDbEntity
  8
0
  6
Continuous
 62
     7
370
    25
100
AcDbLine
 10
58.2336542524
 20
39.9375197152
 30
0.0
 11
55.6245442807
 21
39.9375197152
 31
0.0
  0
LINE
  5
D4
330
1F
100
AcDbEntity
  8
0
  6
Continuous
 62
     7
370
    25
100
AcDbLine
 10
58.2336542524
 20
39.9375197152
 30
0.0
 11
60.4245445087
 21
39.9375197152
 31
0.0
  0
LINE
  5
D5
330
1F
100
AcDbEntity
  8
0
  6
Continuous
 62
     7
370
    25
100
AcDbLine
 10
60.4245445087
 20
39.9375197152
 30
0.0
 11
62.615434765
 21
39.9375197152
 31
0.0
  0
LINE
  5
D6
330
1F
100
AcDbEntity
  8
0
  6
Continuous
 62
     7
370
    25
100
AcDbLine
 10
65.2245447367
 20
39.6375197592
 30
0.0
 11
65.2245447367
 21
39.9375197152
 31
0.0
  0
ARC
  5
D7
330
1F
100
AcDbEntity
  8
0
  6
Continuous
 62
     7
370
    25
100
AcDbCircle
 10
66.4245445087
 20
39.637519707
 30
0.0
 40
1.200000000000003
100
AcDbArc
 50
180.0
 51
270.0
  0
LINE
  5
D8
330
1F
100
AcDbEntity
  8
0
  6
Continuous
 62
     7
370
    25
100
AcDbLine
 10
66.7245445169
 20
38.437519935
 30
0.0
 11
66.4245445608
 21
38.437519935
 31
0.0
  0
LINE
  5
D9
330
1F
100
AcDbEntity
  8
0
  6
Continuous
 62
     7
370
    25
100
AcDbLine
 10
61.6316419422
 20
31.3400351583
 30
0.0
 11
62.7274777602
 21
34.4039439946
 31
0.0
  0
SPLINE
  5
DA
330
1F
100
AcDbEntity
  8
0
  6
Continuous
 62
     7
370
    25
100
AcDbSpline
210
0.0
220
0.0
230
1.0
 70
     8
 71
     3
 72
    10
 73
     6
 74
     0
 42
0.000000001
 43
0.00000001
 40
0.0
 40
0.0
 40
0.0
 40
0.0
 40
0.5000000000000002
 40
0.5000000000000002
 40
1.0
 40
1.0
 40
1.0
 40
1.0
 10
61.06539199370832
 20
31.14321448164945
 30
0.0
 10
61.16535228637512
 20
31.08820522232158
 30
0.0
 10
61.28684060467126
 20
31.07828501074457
 30
0.0
 10
61.50136265832484
 20
31.14980589566806
 30
0.0
 10
61.59316385132941
 20
31.23245200055629
 30
0.0
 10
61.63164197710941
 20
31.34003514487008
 30
0.0
  0
LINE
  5
DB
330
1F
100
AcDbEntity
  8
0
  6
Continuous
 62
     7
370
    25
100
AcDbLine
 10
60.438386436
 20
31.4882625966
 30
0.0
 11
61.065391996
 21
31.1432145676
 31
0.0
  0
LINE
  5
DC
330
1F
100
AcDbEntity
  8
0
  6
Continuous
 62
     7
370
    25
100
AcDbLine
 10
61.4376356919
 20
29.5833603154
 30
0.0
 11
60.438386436
 21
31.4882625966
 31
0.0
  0
SPLINE
  5
DD
330
1F
100
AcDbEntity
  8
0
  6
Continuous
 62
     7
370
    25
100
AcDbSpline
210
0.0
220
0.0
230
1.0
 70
     8
 71
     3
 72
    10
 73
     6
 74
     0
 42
0.000000001
 43
0.00000001
 40
0.0
 40
0.0
 40
0.0
 40
0.0
 40
0.5
 40
0.5
 40
1.0
 40
1.0
 40
1.0
 40
1.0
 10
61.86340226540697
 20
29.50673949404244
 30
0.0
 10
61.80080243968012
 20
29.45117584424246
 30
0.0
 10
61.71341754152565
 20
29.42732907463479
 30
0.0
 10
61.55065994959163
 20
29.45625932731505
 30
0.0
 10
61.47652180445473
 20
29.50923027509199
 30
0.0
 10
61.4376356412459
 20
29.58336027440057
 30
0.0
  0
SPLINE
  5
DE
330
1F
100
AcDbEntity
  8
0
  6
Continuous
 62
     7
370
    25
100
AcDbSpline
210
0.0
220
0.0
230
1.0
 70
     8
 71
     3
 72
    16
 73
    12
 74
     0
 42
0.000000001
 43
0.00000001
 40
0.0
 40
0.0
 40
0.0
 40
0.0
 40
0.5000000000000006
 40
0.5000000000000006
 40
0.6250000000000004
 40
0.6250000000000004
 40
0.7500000000000003
 40
0.7500000000000003
 40
0.8750000000000003
 40
0.8750000000000003
 40
1.0
 40
1.0
 40
1.0
 40
1.0
 10
64.98568675193408
 20
29.50673949404241
 30
0.0
 10
64.5569458437726
 20
29.88729022879944
 30
0.0
 10
63.99258441930357
 20
30.0916236661708
 30
0.0
 10
63.28275546010961
 20
30.09167577233624
 30
0.0
 10
63.13921624988386
 20
30.07889610383581
 30
0.0
 10
62.86057869888678
 20
30.02888300797071
 30
0.0
 10
62.72407145058931
 20
29.99174804773674
 30
0.0
 10
62.45688440370211
 20
29.89233957883357
 30
0.0
 10
62.32767138658213
 20
29.83035686674457
 30
0.0
 10
62.0850903509673
 20
29.68532006817139
 30
0.0
 10
61.97059826506923
 20
29.60188673951849
 30
0.0
 10
61.86340226540697
 20
29.50673949404244
 30
0.0
  0
SPLINE
  5
DF
330
1F
100
AcDbEntity
  8
0
  6
Continuous
 62
     7
370
    25
100
AcDbSpline
210
0.0
220
0.0
230
1.0
 70
     8
 71
     3
 72
    10
 73
     6
 74
     0
 42
0.000000001
 43
0.00000001
 40
0.0
 40
0.0
 40
0.0
 40
0.0
 40
0.5
 40
0.5
 40
1.0
 40
1.0
 40
1.0
 40
1.0
 10
65.41145337609535
 20
29.58336027440079
 30
0.0
 10
65.37257108889615
 20
29.50923766405933
 30
0.0
 10
65.29885697279927
 20
29.45645350536746
 30
0.0
 10
65.13600793565865
 20
29.42727131590805
 30
0.0
 10
65.04827629862915
 20
29.45118496791828
 30
0.0
 10
64.98568675193408
 20
29.5067394940424
 30
0.0
  0
LINE
  5
E0
330
1F
100
AcDbEntity
  8
0
  6
Continuous
 62
     7
370
    25
100
AcDbLine
 10
66.4199503466
 20
31.5058918345
 30
0.0
 11
65.4114532611
 21
29.5833603154
 31
0.0
  0
LINE
  5
E1
330
1F
100
AcDbEntity
  8
0
  6
Continuous
 62
     7
370
    25
100
AcDbLine
 10
65.7895022399
 20
31.1456155172
 30
0.0
 11
66.4199503466
 21
31.5058918345
 31
0.0
  0
SPLINE
  5
E2
330
1F
100
AcDbEntity
  8
0
  6
Continuous
 62
     7
370
    25
100
AcDbSpline
210
0.0
220
0.0
230
1.0
 70
     8
 71
     3
 72
    10
 73
     6
 74
     0
 42
0.000000001
 43
0.00000001
 40
0.0
 40
0.0
 40
0.0
 40
0.0
 40
0.5
 40
0.5
 40
1.0
 40
1.0
 40
1.0
 40
1.0
 10
65.21770159786126
 20
31.33932341295135
 30
0.0
 10
65.25661166357055
 20
31.23053258362725
 30
0.0
 10
65.35018266197622
 20
31.14744733129378
 30
0.0
 10
65.5662951436851
 20
31.07724746986837
 30
0.0
 10
65.68934950346924
 20
31.0883824267372
 30
0.0
 10
65.78950201642093
 20
31.14561561493541
 30
0.0
  0
LINE
  5
E3
330
1F
100
AcDbEntity
  8
0
  6
Continuous
 62
     7
370
    25
100
AcDbLine
 10
64.1216110765
 20
34.4039439946
 30
0.0
 11
65.2177013784
 21
31.339323395
 31
0.0
  0
SPLINE
  5
E4
330
1F
100
AcDbEntity
  8
0
  6
Continuous
 62
     7
370
    25
100
AcDbSpline
210
0.0
220
0.0
230
1.0
 70
     8
 71
     3
 72
    18
 73
    14
 74
     0
 42
0.000000001
 43
0.00000001
 40
0.0
 40
0.0
 40
0.0
 40
0.0
 40
0.1250000000000005
 40
0.1250000000000005
 40
0.2500000000000009
 40
0.2500000000000009
 40
0.5000000000000011
 40
0.5000000000000011
 40
0.6250000000000009
 40
0.6250000000000009
 40
0.7500000000000006
 40
0.7500000000000006
 40
1.0
 40
1.0
 40
1.0
 40
1.0
 10
62.7274778634737
 20
34.40394400000292
 30
0.0
 10
62.75938814438103
 20
34.46926307391447
 30
0.0
 10
62.79929163532301
 20
34.53068789440222
 30
0.0
 10
62.89596287174849
 20
34.63774691006147
 30
0.0
 10
62.95115639530062
 20
34.68359065078379
 30
0.0
 10
63.13706831164772
 20
34.79798423824332
 30
0.0
 10
63.28031285222231
 20
34.83740064885276
 30
0.0
 10
63.49567607904261
 20
34.83757882897054
 30
0.0
 10
63.56874736385981
 20
34.82767046388344
 30
0.0
 10
63.70821909006269
 20
34.78848405608022
 30
0.0
 10
63.77401012732027
 20
34.75981509058531
 30
0.0
 10
63.95925703584901
 20
34.64590974331192
 30
0.0
 10
64.05778637328771
 20
34.53459078346933
 30
0.0
 10
64.12161115386729
 20
34.40394400000323
 30
0.0
  0
LINE
  5
E5
330
1F
100
AcDbEntity
  8
0
  6
Continuous
 62
     7
370
    25
100
AcDbLine
 10
55.6245442807
 20
40.1375198411
 30
0.0
 11
58.2336542524
 21
40.1375198411
 31
0.0
  0
SPLINE
  5
E6
330
1F
100
AcDbEntity
  8
0
  6
Continuous
 62
     7
370
    25
100
AcDbSpline
210
0.0
220
0.0
230
1.0
 70
     8
 71
     3
 72
    12
 73
     8
 74
     0
 42
0.000000001
 43
0.00000001
 40
0.0
 40
0.0
 40
0.0
 40
0.0
 40
0.25
 40
0.25
 40
0.5
 40
0.5
 40
1.0
 40
1.0
 40
1.0
 40
1.0
 10
58.24403644730617
 20
40.0789410632746
 30
0.0
 10
58.2453557825736
 20
40.09038340478099
 30
0.0
 10
58.24686005012625
 20
40.09976574076945
 30
0.0
 10
58.2491418578784
 20
40.11504011454013
 30
0.0
 10
58.24991939807789
 20
40.12093215232236
 30
0.0
 10
58.24951703976111
 20
40.13431738760416
 30
0.0
 10
58.24560216232962
 20
40.13751970703882
 30
0.0
 10
58.23365427864987
 20
40.13751970703882
 30
0.0
  0
SPLINE
  5
E7
330
1F
100
AcDbEntity
  8
0
  6
Continuous
 62
     7
370
    25
100
AcDbSpline
210
0.0
220
0.0
230
1.0
 70
     8
 71
     3
 72
    10
 73
     6
 74
     0
 42
0.000000001
 43
0.00000001
 40
0.0
 40
0.0
 40
0.0
 40
0.0
 40
0.5
 40
0.5
 40
1.0
 40
1.0
 40
1.0
 40
1.0
 10
58.24403644730617
 20
40.0789410632746
 30
0.0
 10
58.24139777677134
 20
40.05605638026181
 30
0.0
 10
58.23880223460726
 20
40.02961094528394
 30
0.0
 10
58.23493048554652
 20
39.97925251275351
 30
0.0
 10
58.23365427864987
 20
39.95533951520095
 30
0.0
 10
58.23365427864987
 20
39.93751970703882
 30
0.0
  0
LINE
  5
E8
330
1F
100
AcDbEntity
  8
0
  6
Continuous
 62
     7
370
    25
100
AcDbLine
 10
55.6245442807
 20
40.1375198411
 30
0.0
 11
55.6245442807
 21
39.9375197152
 31
0.0
  0
SPLINE
  5
E9
330
1F
100
AcDbEntity
  8
0
  6
Continuous
 62
     7
370
    25
100
AcDbSpline
210
0.0
220
0.0
230
1.0
 70
     8
 71
     3
 72
     8
 73
     4
 74
     0
 42
0.000000001
 43
0.00000001
 40
0.0
 40
0.0
 40
0.0
 40
0.0
 40
1.0
 40
1.0
 40
1.0
 40
1.0
 10
66.72454450867053
 20
35.82840993705948
 30
0.0
 10
66.77690438622965
 20
35.82494921417405
 30
0.0
 10
66.82894184042176
 20
35.82148849128861
 30
0.0
 10
66.86596586490631
 20
35.81802776840318
 30
0.0
  0
LINE
  5
EA
330
1F
100
AcDbEntity
  8
0
  6
Continuous
 62
     7
370
    25
100
AcDbLine
 10
66.7245445169
 20
38.437519935
 30
0.0
 11
66.9245446428
 21
38.437519935
 31
0.0
  0
LINE
  5
EB
330
1F
100
AcDbEntity
  8
0
  6
Continuous
 62
     7
370
    25
100
AcDbLine
 10
66.9245446428
 20
38.437519935
 30
0.0
 11
66.9245446428
 21
35.8284099634
 31
0.0
  0
SPLINE
  5
EC
330
1F
100
AcDbEntity
  8
0
  6
Continuous
 62
     7
370
    25
100
AcDbSpline
210
0.0
220
0.0
230
1.0
 70
     8
 71
     3
 72
    13
 73
     9
 74
     0
 42
0.000000001
 43
0.00000001
 40
0.0
 40
0.0
 40
0.0
 40
0.0
 40
0.2842878077881049
 40
0.519827892959309
 40
0.7070197221587997
 40
0.8467888349864454
 40
0.9415879344586823
 40
0.9999999999999999
 40
0.9999999999999999
 40
0.9999999999999999
 40
0.9999999999999999
 10
66.86596586490631
 20
35.81802776840318
 30
0.0
 10
66.87601878106543
 20
35.81688174069972
 30
0.0
 10
66.89440080829958
 20
35.81478619825982
 30
0.0
 10
66.91106136309406
 20
35.81357973927612
 30
0.0
 10
66.91984692176884
 20
35.81390596468729
 30
0.0
 10
66.92344671792446
 20
35.81664085077537
 30
0.0
 10
66.92449879367582
 20
35.8196859751649
 30
0.0
 10
66.92453189045627
 20
35.82600195645816
 30
0.0
 10
66.92454450867054
 20
35.82840993705948
 30
0.0
  0
LINE
  5
ED
330
1F
100
AcDbEntity
  8
0
  6
Continuous
 62
     7
370
    25
100
AcDbLine
 10
53.9245443746
 20
28.8375194791
 30
0.0
 11
53.9245443746
 21
31.4466294507
 31
0.0
  0
SPLINE
  5
EE
330
1F
100
AcDbEntity
  8
0
  6
Continuous
 62
     7
370
    25
100
AcDbSpline
210
0.0
220
0.0
230
1.0
 70
     8
 71
     3
 72
    12
 73
     8
 74
     0
 42
0.000000001
 43
0.00000001
 40
0.0
 40
0.0
 40
0.0
 40
0.0
 40
0.25
 40
0.25
 40
0.5
 40
0.5
 40
1.0
 40
1.0
 40
1.0
 40
1.0
 10
53.98312315243475
 20
31.45701164567446
 30
0.0
 10
53.97168081092836
 20
31.45833098094188
 30
0.0
 10
53.96229847493991
 20
31.45983524849454
 30
0.0
 10
53.94702410116921
 20
31.46211705624669
 30
0.0
 10
53.94113206338699
 20
31.46289459644617
 30
0.0
 10
53.92774682810519
 20
31.46249223812939
 30
0.0
 10
53.92454450867054
 20
31.4585773606979
 30
0.0
 10
53.92454450867054
 20
31.44662947701816
 30
0.0
  0
SPLINE
  5
EF
330
1F
100
AcDbEntity
  8
0
  6
Continuous
 62
     7
370
    25
100
AcDbSpline
210
0.0
220
0.0
230
1.0
 70
     8
 71
     3
 72
    10
 73
     6
 74
     0
 42
0.000000001
 43
0.00000001
 40
0.0
 40
0.0
 40
0.0
 40
0.0
 40
0.5
 40
0.5
 40
1.0
 40
1.0
 40
1.0
 40
1.0
 10
53.98312315243475
 20
31.45701164567446
 30
0.0
 10
54.00600783544753
 20
31.45437297513962
 30
0.0
 10
54.03245327042541
 20
31.45177743297554
 30
0.0
 10
54.08281170295584
 20
31.44790568391481
 30
0.0
 10
54.10672470050839
 20
31.44662947701816
 30
0.0
 10
54.12454450867053
 20
31.44662947701816
 30
0.0
  0
LINE
  5
F0
330
1F
100
AcDbEntity
  8
0
  6
Continuous
 62
     7
370
    25
100
AcDbLine
 10
53.9245443746
 20
28.8375194791
 30
0.0
 11
54.1245445005
 21
28.8375194791
 31
0.0
  0
SPLINE
  5
F1
330
1F
100
AcDbEntity
  8
0
  6
Continuous
 62
     7
370
    25
100
AcDbSpline
210
0.0
220
0.0
230
1.0
 70
    24
 71
     3
 72
    10
 73
     6
 74
     0
 42
0.000000001
 43
0.00000001
 40
0.0
 40
0.0
 40
0.0
 40
0.0
 40
0.5
 40
0.5
 40
1.0
 40
1.0
 40
1.0
 40
1.0
 10
53.92326071636717
 20
33.63751970703882
 30
0.0
 10
53.95600854403672
 20
33.63751970703882
 30
0.0
 10
53.99114471857136
 20
33.63751970703882
 30
0.0
 10
54.06388366957863
 20
33.63751970703882
 30
0.0
 10
54.09030718846648
 20
33.63751970703882
 30
0.0
 10
54.12454450867053
 20
33.63751970703882
 30
0.0
  0
SPLINE
  5
F2
330
1F
100
AcDbEntity
  8
0
  6
Continuous
 62
     7
370
    25
100
AcDbSpline
210
0.0
220
0.0
230
1.0
 70
     8
 71
     3
 72
    12
 73
     8
 74
     0
 42
0.000000001
 43
0.00000001
 40
0.0
 40
0.0
 40
0.0
 40
0.0
 40
0.25
 40
0.25
 40
0.5
 40
0.5
 40
1.0
 40
1.0
 40
1.0
 40
1.0
 10
53.92326071636717
 20
33.63751970703882
 30
0.0
 10
53.93144767328454
 20
33.45633391098386
 30
0.0
 10
53.93746630506505
 20
33.27538792589567
 30
0.0
 10
53.94890314230856
 20
32.91232676352565
 30
0.0
 10
53.95432134777156
 20
32.73021158624381
 30
0.0
 10
53.97527966061872
 20
32.179639044917
 30
0.0
 10
53.98302889743567
 20
31.82053691380789
 30
0.0
 10
53.98312315243475
 20
31.45701164567446
 30
0.0
  0
SPLINE
  5
F3
330
1F
100
AcDbEntity
  8
0
  6
Continuous
 62
     7
370
    25
100
AcDbSpline
210
0.0
220
0.0
230
1.0
 70
     8
 71
     3
 72
    12
 73
     8
 74
     0
 42
0.000000001
 43
0.00000001
 40
0.0
 40
0.0
 40
0.0
 40
0.0
 40
0.25
 40
0.25
 40
0.5
 40
0.5
 40
1.0
 40
1.0
 40
1.0
 40
1.0
 10
66.9258283009739
 20
33.63751970703882
 30
0.0
 10
66.9176413440565
 20
33.81870550309379
 30
0.0
 10
66.911622712276
 20
33.99965148818197
 30
0.0
 10
66.9001858750325
 20
34.36271265055199
 30
0.0
 10
66.8947676695695
 20
34.54482782783383
 30
0.0
 10
66.87380935672233
 20
35.09540036916064
 30
0.0
 10
66.86606011990541
 20
35.45450250026975
 30
0.0
 10
66.86596586490631
 20
35.81802776840318
 30
0.0
  0
SPLINE
  5
F4
330
1F
100
AcDbEntity
  8
0
  6
Continuous
 62
     7
370
    25
100
AcDbSpline
210
0.0
220
0.0
230
1.0
 70
    24
 71
     3
 72
    10
 73
     6
 74
     0
 42
0.000000001
 43
0.00000001
 40
0.0
 40
0.0
 40
0.0
 40
0.0
 40
0.5
 40
0.5
 40
1.0
 40
1.0
 40
1.0
 40
1.0
 10
66.9258283009739
 20
33.63751970703882
 30
0.0
 10
66.89308047330435
 20
33.63751970703882
 30
0.0
 10
66.85794429876971
 20
33.63751970703882
 30
0.0
 10
66.78520534776243
 20
33.63751970703882
 30
0.0
 10
66.7587818288746
 20
33.63751970703882
 30
0.0
 10
66.72454450867053
 20
33.63751970703882
 30
0.0
  0
SPLINE
  5
F5
330
1F
100
AcDbEntity
  8
0
  6
Continuous
 62
     7
370
    25
100
AcDbSpline
210
0.0
220
0.0
230
1.0
 70
     8
 71
     3
 72
    12
 73
     8
 74
     0
 42
0.000000001
 43
0.00000001
 40
0.0
 40
0.0
 40
0.0
 40
0.0
 40
0.25
 40
0.25
 40
0.5
 40
0.5
 40
1.0
 40
1.0
 40
1.0
 40
1.0
 10
60.42454450867054
 20
40.13880349934219
 30
0.0
 10
60.6057303047255
 20
40.1306165424248
 30
0.0
 10
60.78667628981368
 20
40.1245979106443
 30
0.0
 10
61.1497374521837
 20
40.1131610734008
 30
0.0
 10
61.33185262946554
 20
40.10774286793779
 30
0.0
 10
61.88242517079237
 20
40.08678455509062
 30
0.0
 10
62.24152730190146
 20
40.07903531827369
 30
0.0
 10
62.60505257003489
 20
40.0789410632746
 30
0.0
  0
SPLINE
  5
F6
330
1F
100
AcDbEntity
  8
0
  6
Continuous
 62
     7
370
    25
100
AcDbSpline
210
0.0
220
0.0
230
1.0
 70
    24
 71
     3
 72
    10
 73
     6
 74
     0
 42
0.000000001
 43
0.00000001
 40
0.0
 40
0.0
 40
0.0
 40
0.0
 40
0.5
 40
0.5
 40
1.0
 40
1.0
 40
1.0
 40
1.0
 10
60.42454450867054
 20
40.13880349934219
 30
0.0
 10
60.42454450867054
 20
40.10605567167263
 30
0.0
 10
60.42454450867054
 20
40.070919497138
 30
0.0
 10
60.42454450867054
 20
39.99818054613072
 30
0.0
 10
60.42454450867054
 20
39.97175702724288
 30
0.0
 10
60.42454450867054
 20
39.93751970703882
 30
0.0
  0
SPLINE
  5
F7
330
1F
100
AcDbEntity
  8
0
  6
Continuous
 62
     7
370
    25
100
AcDbSpline
210
0.0
220
0.0
230
1.0
 70
     8
 71
     3
 72
    12
 73
     8
 74
     0
 42
0.000000001
 43
0.00000001
 40
0.0
 40
0.0
 40
0.0
 40
0.0
 40
0.25
 40
0.25
 40
0.5
 40
0.5
 40
1.0
 40
1.0
 40
1.0
 40
1.0
 10
60.42454450867054
 20
40.13880349934219
 30
0.0
 10
60.24335871261557
 20
40.1306165424248
 30
0.0
 10
60.06241272752739
 20
40.12459791064429
 30
0.0
 10
59.69935156515736
 20
40.11316107340078
 30
0.0
 10
59.51723638787553
 20
40.10774286793777
 30
0.0
 10
58.96666384654871
 20
40.08678455509062
 30
0.0
 10
58.60756171543961
 20
40.07903531827369
 30
0.0
 10
58.24403644730617
 20
40.0789410632746
 30
0.0
  0
SPLINE
  5
F8
330
1F
100
AcDbEntity
  8
0
  6
Continuous
 62
     7
370
    25
100
AcDbSpline
210
0.0
220
0.0
230
1.0
 70
     8
 71
     3
 72
    12
 73
     8
 74
     0
 42
0.000000001
 43
0.00000001
 40
0.0
 40
0.0
 40
0.0
 40
0.0
 40
0.25
 40
0.25
 40
0.5
 40
0.5
 40
1.0
 40
1.0
 40
1.0
 40
1.0
 10
66.9258283009739
 20
33.63751970703882
 30
0.0
 10
66.9176413440565
 20
33.45633391098386
 30
0.0
 10
66.911622712276
 20
33.27538792589567
 30
0.0
 10
66.90018587503249
 20
32.91232676352565
 30
0.0
 10
66.89476766956949
 20
32.73021158624381
 30
0.0
 10
66.87380935672233
 20
32.179639044917
 30
0.0
 10
66.86606011990541
 20
31.82053691380789
 30
0.0
 10
66.86596586490631
 20
31.45701164567446
 30
0.0
  0
SPLINE
  5
F9
330
1F
100
AcDbEntity
  8
0
  6
Continuous
 62
     7
370
    25
100
AcDbSpline
210
0.0
220
0.0
230
1.0
 70
     8
 71
     3
 72
    12
 73
     8
 74
     0
 42
0.000000001
 43
0.00000001
 40
0.0
 40
0.0
 40
0.0
 40
0.0
 40
0.25
 40
0.25
 40
0.5
 40
0.5
 40
1.0
 40
1.0
 40
1.0
 40
1.0
 10
53.92326071636717
 20
33.63751970703882
 30
0.0
 10
53.93144767328456
 20
33.81870550309378
 30
0.0
 10
53.93746630506507
 20
33.99965148818197
 30
0.0
 10
53.94890314230857
 20
34.36271265055198
 30
0.0
 10
53.95432134777158
 20
34.54482782783382
 30
0.0
 10
53.97527966061872
 20
35.09540036916064
 30
0.0
 10
53.98302889743567
 20
35.45450250026975
 30
0.0
 10
53.98312315243475
 20
35.81802776840318
 30
0.0
  0
SPLINE
  5
FA
330
1F
100
AcDbEntity
  8
0
  6
Continuous
 62
     7
370
    25
100
AcDbSpline
210
0.0
220
0.0
230
1.0
 70
    24
 71
     3
 72
    10
 73
     6
 74
     0
 42
0.000000001
 43
0.00000001
 40
0.0
 40
0.0
 40
0.0
 40
0.0
 40
0.5
 40
0.5
 40
1.0
 40
1.0
 40
1.0
 40
1.0
 10
63.93703377822961
 20
34.32613308977173
 30
0.0
 10
63.93703377822961
 20
34.32613308977173
 30
0.0
 10
63.95706561733397
 20
34.3345777630636
 30
0.0
 10
64.02515435119106
 20
34.36328142373505
 30
0.0
 10
64.07357558893318
 20
34.38369400448012
 30
0.0
 10
64.12161115386729
 20
34.40394400000324
 30
0.0
  0
SPLINE
  5
FB
330
1F
100
AcDbEntity
  8
0
  6
Continuous
 62
     7
370
    25
100
AcDbSpline
210
0.0
220
0.0
230
1.0
 70
     8
 71
     3
 72
    14
 73
    10
 74
     0
 42
0.000000001
 43
0.00000001
 40
0.0
 40
0.0
 40
0.0
 40
0.0
 40
0.25
 40
0.25
 40
0.5
 40
0.5
 40
0.75
 40
0.75
 40
1.0
 40
1.0
 40
1.0
 40
1.0
 10
63.93703377822961
 20
34.32613308977173
 30
0.0
 10
63.89427515558223
 20
34.41365828709466
 30
0.0
 10
63.82110203650454
 20
34.49674152824813
 30
0.0
 10
63.63574453681119
 20
34.60936407128059
 30
0.0
 10
63.52583743466612
 20
34.63751970703876
 30
0.0
 10
63.3232515826746
 20
34.63751970703887
 30
0.0
 10
63.21334448052963
 20
34.60936407128079
 30
0.0
 10
63.02798698083628
 20
34.49674152824825
 30
0.0
 10
62.95481386175864
 20
34.41365828709463
 30
0.0
 10
62.91205523911145
 20
34.3261330897716
 30
0.0
  0
SPLINE
  5
FC
330
1F
100
AcDbEntity
  8
0
  6
Continuous
 62
     7
370
    25
100
AcDbSpline
210
0.0
220
0.0
230
1.0
 70
    24
 71
     3
 72
    10
 73
     6
 74
     0
 42
0.000000001
 43
0.00000001
 40
0.0
 40
0.0
 40
0.0
 40
0.0
 40
0.5
 40
0.5
 40
1.0
 40
1.0
 40
1.0
 40
1.0
 10
62.91205523911145
 20
34.3261330897716
 30
0.0
 10
62.91205523911145
 20
34.32613308977161
 30
0.0
 10
62.89202340000708
 20
34.33457776306344
 30
0.0
 10
62.82393466614997
 20
34.36328142373483
 30
0.0
 10
62.77551342840784
 20
34.38369400447988
 30
0.0
 10
62.72747786347372
 20
34.40394400000292
 30
0.0
  0
LINE
  5
FD
330
1F
100
AcDbEntity
  8
0
  6
Continuous
 62
     7
370
    25
100
AcDbLine
 10
65.0293842285
 20
31.2719699136
 30
0.0
 11
63.9370338853
 21
34.3261330995
 31
0.0
  0
LWPOLYLINE
  5
FE
330
1F
100
AcDbEntity
  8
0
  6
Continuous
 62
     7
370
    25
100
AcDbPolyline
 90
        9
 70
   128
 43
0.0
 10
65.0293842285
 20
31.2719699136
 10
65.0330024167
 20
31.2732639863
 10
65.0437186799
 20
31.2770968443
 10
65.0611213735
 20
31.2833208731
 10
65.0845408767
 20
31.2916971883
 10
65.1130779973
 20
31.3019037853
 10
65.1456356376
 20
31.3135483443
 10
65.1809625655
 20
31.3261833648
 10
65.2177013784
 20
31.339323395
  0
LINE
  5
FF
330
1F
100
AcDbEntity
  8
0
  6
Continuous
 62
     7
370
    25
100
AcDbLine
 10
62.9120551842
 20
34.3261330995
 30
0.0
 11
61.8199595577
 21
31.2726816768
 31
0.0
  0
LWPOLYLINE
  5
100
330
1F
100
AcDbEntity
  8
0
  6
Continuous
 62
     7
370
    25
100
AcDbPolyline
 90
        9
 70
   128
 43
0.0
 10
61.6316419422
 20
31.3400351583
 10
61.6683808715
 20
31.3268951281
 10
61.7037080322
 20
31.3142601075
 10
61.7362655561
 20
31.3026155486
 10
61.7648025603
 20
31.2924089516
 10
61.7882222963
 20
31.2840326364
 10
61.8056247571
 20
31.2778086076
 10
61.8163410203
 20
31.2739757496
 10
61.8199595577
 20
31.2726816768
  0
SPLINE
  5
101
330
1F
100
AcDbEntity
  8
0
  6
Continuous
 62
     7
370
    25
100
AcDbSpline
210
0.0
220
0.0
230
1.0
 70
     8
 71
     3
 72
     8
 73
     4
 74
     0
 42
0.000000001
 43
0.00000001
 40
0.0
 40
0.0
 40
0.0
 40
0.0
 40
1.0
 40
1.0
 40
1.0
 40
1.0
 10
62.54476086030343
 20
40.33751970703882
 30
0.0
 10
62.54162769595379
 20
40.28515782713681
 30
0.0
 10
62.54610772155052
 20
40.23311843152977
 30
0.0
 10
62.55596799555053
 20
40.1960941032561
 30
0.0
  0
SPLINE
  5
102
330
1F
100
AcDbEntity
  8
0
  6
Continuous
 62
     7
370
    25
100
AcDbSpline
210
0.0
220
0.0
230
1.0
 70
     8
 71
     3
 72
    12
 73
     8
 74
     0
 42
0.000000001
 43
0.00000001
 40
0.0
 40
0.0
 40
0.0
 40
0.0
 40
0.25
 40
0.25
 40
0.5
 40
0.5
 40
1.0
 40
1.0
 40
1.0
 40
1.0
 10
60.42454450867054
 20
40.13880349934219
 30
0.0
 10
60.6057303047255
 20
40.14699045625958
 30
0.0
 10
60.78574497330979
 20
40.15874247605581
 30
0.0
 10
61.14343595524154
 20
40.1842284431549
 30
0.0
 10
61.32111226858899
 20
40.19796239045774
 30
0.0
 10
61.85063952533288
 20
40.23441482624953
 30
0.0
 10
62.2069471350362
 20
40.22894555329056
 30
0.0
 10
62.55596799555053
 20
40.1960941032561
 30
0.0
  0
SPLINE
  5
103
330
1F
100
AcDbEntity
  8
0
  6
Continuous
 62
     7
370
    25
100
AcDbSpline
210
0.0
220
0.0
230
1.0
 70
    24
 71
     3
 72
    10
 73
     6
 74
     0
 42
0.000000001
 43
0.00000001
 40
0.0
 40
0.0
 40
0.0
 40
0.0
 40
0.5
 40
0.5
 40
1.0
 40
1.0
 40
1.0
 40
1.0
 10
60.42454450867054
 20
40.13880349934219
 30
0.0
 10
60.42454450867054
 20
40.17155132701174
 30
0.0
 10
60.42454450867054
 20
40.20630835453051
 30
0.0
 10
60.42454450867054
 20
40.27758451242847
 30
0.0
 10
60.42454450867054
 20
40.30358682508938
 30
0.0
 10
60.42454450867054
 20
40.33751970703882
 30
0.0
  0
SPLINE
  5
104
330
1F
100
AcDbEntity
  8
0
  6
Continuous
 62
     7
370
    25
100
AcDbSpline
210
0.0
220
0.0
230
1.0
 70
     8
 71
     3
 72
    12
 73
     8
 74
     0
 42
0.000000001
 43
0.00000001
 40
0.0
 40
0.0
 40
0.0
 40
0.0
 40
0.25
 40
0.25
 40
0.5
 40
0.5
 40
1.0
 40
1.0
 40
1.0
 40
1.0
 10
53.92326071636717
 20
33.63751970703882
 30
0.0
 10
53.91507375944978
 20
33.45633391098386
 30
0.0
 10
53.90332173965353
 20
33.27631924239957
 30
0.0
 10
53.87783577255445
 20
32.91862826046782
 30
0.0
 10
53.86410182525162
 20
32.74095194712037
 30
0.0
 10
53.82764938945983
 20
32.21142469037647
 30
0.0
 10
53.83311866241879
 20
31.85511708067316
 30
0.0
 10
53.86597011245325
 20
31.50609622015882
 30
0.0
  0
SPLINE
  5
105
330
1F
100
AcDbEntity
  8
0
  6
Continuous
 62
     7
370
    25
100
AcDbSpline
210
0.0
220
0.0
230
1.0
 70
     8
 71
     3
 72
    10
 73
     6
 74
     0
 42
0.000000001
 43
0.00000001
 40
0.0
 40
0.0
 40
0.0
 40
0.0
 40
0.5
 40
0.5
 40
1.0
 40
1.0
 40
1.0
 40
1.0
 10
53.86597011245325
 20
31.50609622015882
 30
0.0
 10
53.84308598095689
 20
31.51173376959784
 30
0.0
 10
53.8155548357418
 20
31.51472878772563
 30
0.0
 10
53.76511408846253
 20
31.51742982968891
 30
0.0
 10
53.74236561227801
 20
31.51730335540592
 30
0.0
 10
53.72454450867053
 20
31.51730335540592
 30
0.0
  0
SPLINE
  5
106
330
1F
100
AcDbEntity
  8
0
  6
Continuous
 62
     7
370
    25
100
AcDbSpline
210
0.0
220
0.0
230
1.0
 70
    24
 71
     3
 72
    10
 73
     6
 74
     0
 42
0.000000001
 43
0.00000001
 40
0.0
 40
0.0
 40
0.0
 40
0.0
 40
0.5
 40
0.5
 40
1.0
 40
1.0
 40
1.0
 40
1.0
 10
53.92326071636717
 20
33.63751970703882
 30
0.0
 10
53.89051288869761
 20
33.63751970703882
 30
0.0
 10
53.85575586117884
 20
33.63751970703882
 30
0.0
 10
53.78447970328089
 20
33.63751970703882
 30
0.0
 10
53.75847739061998
 20
33.63751970703882
 30
0.0
 10
53.72454450867053
 20
33.63751970703882
 30
0.0
  0
SPLINE
  5
107
330
1F
100
AcDbEntity
  8
0
  6
Continuous
 62
     7
370
    25
100
AcDbSpline
210
0.0
220
0.0
230
1.0
 70
     8
 71
     3
 72
    12
 73
     8
 74
     0
 42
0.000000001
 43
0.00000001
 40
0.0
 40
0.0
 40
0.0
 40
0.0
 40
0.25
 40
0.25
 40
0.5
 40
0.5
 40
1.0
 40
1.0
 40
1.0
 40
1.0
 10
66.9258283009739
 20
33.63751970703882
 30
0.0
 10
66.93401525789129
 20
33.81870550309379
 30
0.0
 10
66.94576727768752
 20
33.99872017167807
 30
0.0
 10
66.9712532447866
 20
34.35641115360982
 30
0.0
 10
66.98498719208945
 20
34.53408746695727
 30
0.0
 10
67.02143962788124
 20
35.06361472370118
 30
0.0
 10
67.01597035492226
 20
35.41992233340449
 30
0.0
 10
66.98311890488782
 20
35.76894319391883
 30
0.0
  0
SPLINE
  5
108
330
1F
100
AcDbEntity
  8
0
  6
Continuous
 62
     7
370
    25
100
AcDbSpline
210
0.0
220
0.0
230
1.0
 70
     8
 71
     3
 72
    10
 73
     6
 74
     0
 42
0.000000001
 43
0.00000001
 40
0.0
 40
0.0
 40
0.0
 40
0.0
 40
0.5
 40
0.5
 40
1.0
 40
1.0
 40
1.0
 40
1.0
 10
66.98311890488782
 20
35.76894319391883
 30
0.0
 10
67.00600303638419
 20
35.7633056444798
 30
0.0
 10
67.03353418159926
 20
35.76031062635201
 30
0.0
 10
67.08397492887853
 20
35.75760958438872
 30
0.0
 10
67.10672340506305
 20
35.75773605867172
 30
0.0
 10
67.12454450867052
 20
35.75773605867172
 30
0.0
  0
SPLINE
  5
109
330
1F
100
AcDbEntity
  8
0
  6
Continuous
 62
     7
370
    25
100
AcDbSpline
210
0.0
220
0.0
230
1.0
 70
    24
 71
     3
 72
    10
 73
     6
 74
     0
 42
0.000000001
 43
0.00000001
 40
0.0
 40
0.0
 40
0.0
 40
0.0
 40
0.5
 40
0.5
 40
1.0
 40
1.0
 40
1.0
 40
1.0
 10
66.9258283009739
 20
33.63751970703882
 30
0.0
 10
66.95857612864344
 20
33.63751970703882
 30
0.0
 10
66.99333315616222
 20
33.63751970703882
 30
0.0
 10
67.06460931406018
 20
33.63751970703882
 30
0.0
 10
67.09061162672108
 20
33.63751970703882
 30
0.0
 10
67.12454450867052
 20
33.63751970703882
 30
0.0
  0
SPLINE
  5
10A
330
1F
100
AcDbEntity
  8
0
  6
Continuous
 62
     7
370
    25
100
AcDbSpline
210
0.0
220
0.0
230
1.0
 70
     8
 71
     3
 72
    12
 73
     8
 74
     0
 42
0.000000001
 43
0.00000001
 40
0.0
 40
0.0
 40
0.0
 40
0.0
 40
0.25
 40
0.25
 40
0.5
 40
0.5
 40
1.0
 40
1.0
 40
1.0
 40
1.0
 10
60.42454450867054
 20
40.13880349934219
 30
0.0
 10
60.24335871261557
 20
40.14699045625957
 30
0.0
 10
60.06334404403128
 20
40.15874247605581
 30
0.0
 10
59.70565306209954
 20
40.18422844315489
 30
0.0
 10
59.52797674875208
 20
40.19796239045773
 30
0.0
 10
58.99844949200819
 20
40.23441482624952
 30
0.0
 10
58.64214188230488
 20
40.22894555329056
 30
0.0
 10
58.29312102179053
 20
40.1960941032561
 30
0.0
  0
SPLINE
  5
10B
330
1F
100
AcDbEntity
  8
0
  6
Continuous
 62
     7
370
    25
100
AcDbSpline
210
0.0
220
0.0
230
1.0
 70
     8
 71
     3
 72
    10
 73
     6
 74
     0
 42
0.000000001
 43
0.00000001
 40
0.0
 40
0.0
 40
0.0
 40
0.0
 40
0.5
 40
0.5
 40
1.0
 40
1.0
 40
1.0
 40
1.0
 10
58.29312102179053
 20
40.1960941032561
 30
0.0
 10
58.29875857122956
 20
40.21897823475247
 30
0.0
 10
58.30175358935735
 20
40.24650937996756
 30
0.0
 10
58.30445463132062
 20
40.29695012724682
 30
0.0
 10
58.30432815703764
 20
40.31969860343133
 30
0.0
 10
58.30432815703764
 20
40.33751970703882
 30
0.0
  0
SPLINE
  5
10C
330
1F
100
AcDbEntity
  8
0
  6
Continuous
 62
     7
370
    25
100
AcDbSpline
210
0.0
220
0.0
230
1.0
 70
     8
 71
     3
 72
    10
 73
     6
 74
     0
 42
0.000000001
 43
0.00000001
 40
0.0
 40
0.0
 40
0.0
 40
0.0
 40
0.5
 40
0.5
 40
1.0
 40
1.0
 40
1.0
 40
1.0
 10
66.98311890488782
 20
31.50609622015881
 30
0.0
 10
67.00600303638419
 20
31.51173376959784
 30
0.0
 10
67.03353418159926
 20
31.51472878772563
 30
0.0
 10
67.08397492887853
 20
31.51742982968891
 30
0.0
 10
67.10672340506305
 20
31.51730335540592
 30
0.0
 10
67.12454450867052
 20
31.51730335540592
 30
0.0
  0
SPLINE
  5
10D
330
1F
100
AcDbEntity
  8
0
  6
Continuous
 62
     7
370
    25
100
AcDbSpline
210
0.0
220
0.0
230
1.0
 70
     8
 71
     3
 72
    14
 73
    10
 74
     0
 42
0.000000001
 43
0.00000001
 40
0.0
 40
0.0
 40
0.0
 40
0.0
 40
0.25
 40
0.25
 40
0.5
 40
0.5
 40
0.75
 40
0.75
 40
1.0
 40
1.0
 40
1.0
 40
1.0
 10
66.9258283009739
 20
33.63751970703882
 30
0.0
 10
66.93401525789128
 20
33.45633391098386
 30
0.0
 10
66.94576727768751
 20
33.27631924239957
 30
0.0
 10
66.9712532447866
 20
32.91862826046783
 30
0.0
 10
66.98498719208943
 20
32.74095194712037
 30
0.0
 10
67.00928881595064
 20
32.38793377595778
 30
0.0
 10
67.0139969036762
 20
32.2106023307413
 30
0.0
 10
67.00912481065339
 20
31.85693876797041
 30
0.0
 10
66.99954462990505
 20
31.68060665041599
 30
0.0
 10
66.98311890488782
 20
31.50609622015881
 30
0.0
  0
SPLINE
  5
10E
330
1F
100
AcDbEntity
  8
0
  6
Continuous
 62
     7
370
    25
100
AcDbSpline
210
0.0
220
0.0
230
1.0
 70
     8
 71
     3
 72
    10
 73
     6
 74
     0
 42
0.000000001
 43
0.00000001
 40
0.0
 40
0.0
 40
0.0
 40
0.0
 40
0.5
 40
0.5
 40
1.0
 40
1.0
 40
1.0
 40
1.0
 10
53.86597011245325
 20
35.76894319391882
 30
0.0
 10
53.84308598095689
 20
35.7633056444798
 30
0.0
 10
53.8155548357418
 20
35.76031062635201
 30
0.0
 10
53.76511408846253
 20
35.75760958438872
 30
0.0
 10
53.74236561227801
 20
35.75773605867172
 30
0.0
 10
53.72454450867053
 20
35.75773605867172
 30
0.0
  0
SPLINE
  5
10F
330
1F
100
AcDbEntity
  8
0
  6
Continuous
 62
     7
370
    25
100
AcDbSpline
210
0.0
220
0.0
230
1.0
 70
     8
 71
     3
 72
    14
 73
    10
 74
     0
 42
0.000000001
 43
0.00000001
 40
0.0
 40
0.0
 40
0.0
 40
0.0
 40
0.25
 40
0.25
 40
0.5
 40
0.5
 40
0.75
 40
0.75
 40
1.0
 40
1.0
 40
1.0
 40
1.0
 10
53.92326071636717
 20
33.63751970703882
 30
0.0
 10
53.91507375944978
 20
33.81870550309378
 30
0.0
 10
53.90332173965355
 20
33.99872017167807
 30
0.0
 10
53.87783577255446
 20
34.35641115360981
 30
0.0
 10
53.86410182525163
 20
34.53408746695727
 30
0.0
 10
53.83980020139043
 20
34.88710563811986
 30
0.0
 10
53.83509211366487
 20
35.06443708333634
 30
0.0
 10
53.83996420668767
 20
35.41810064610724
 30
0.0
 10
53.84954438743602
 20
35.59443276366165
 30
0.0
 10
53.86597011245325
 20
35.76894319391882
 30
0.0
  0
SPLINE
  5
110
330
1F
100
AcDbEntity
  8
0
  6
Continuous
 62
     7
370
    25
100
AcDbSpline
210
0.0
220
0.0
230
1.0
 70
     8
 71
     3
 72
    13
 73
     9
 74
     0
 42
0.000000001
 43
0.00000001
 40
0.0
 40
0.0
 40
0.0
 40
0.0
 40
0.284282899174241
 40
0.5198370183905274
 40
0.7070414958140503
 40
0.8468107266085059
 40
0.9415978142010789
 40
1.0
 40
1.0
 40
1.0
 40
1.0
 10
62.55596799555053
 20
40.1960941032561
 30
0.0
 10
62.55894755127657
 20
40.18604176287644
 30
0.0
 10
62.56439593867254
 20
40.16766014841428
 30
0.0
 10
62.5753266660606
 20
40.15100189169906
 30
0.0
 10
62.58583399301988
 20
40.14221716511673
 30
0.0
 10
62.59604277322443
 20
40.13861756600759
 30
0.0
 10
62.60459420739962
 20
40.13756541995402
 30
0.0
 10
62.61244260127189
 20
40.13753232443924
 30
0.0
 10
62.61543473869119
 20
40.13751970703882
 30
0.0
  0
SPLINE
  5
111
330
1F
100
AcDbEntity
  8
0
  6
Continuous
 62
     7
370
    25
100
AcDbSpline
210
0.0
220
0.0
230
1.0
 70
     8
 71
     3
 72
    12
 73
     8
 74
     0
 42
0.000000001
 43
0.00000001
 40
0.0
 40
0.0
 40
0.0
 40
0.0
 40
0.25
 40
0.25
 40
0.5
 40
0.5
 40
1.0
 40
1.0
 40
1.0
 40
1.0
 10
66.98311890488782
 20
35.76894319391883
 30
0.0
 10
66.97167683913963
 20
35.77176196863834
 30
0.0
 10
66.9614469598849
 20
35.77529050251585
 30
0.0
 10
66.9445037702122
 20
35.78352130317896
 30
0.0
 10
66.9377904597942
 20
35.78822356996457
 30
0.0
 10
66.92456367557014
 20
35.80372229157172
 30
0.0
 10
66.92454450867054
 20
35.8156387133243
 30
0.0
 10
66.92454450867054
 20
35.82840993705948
 30
0.0
  0
SPLINE
  5
112
330
1F
100
AcDbEntity
  8
0
  6
Continuous
 62
     7
370
    25
100
AcDbSpline
210
0.0
220
0.0
230
1.0
 70
     8
 71
     3
 72
    12
 73
     8
 74
     0
 42
0.000000001
 43
0.00000001
 40
0.0
 40
0.0
 40
0.0
 40
0.0
 40
0.25
 40
0.25
 40
0.5
 40
0.5
 40
1.0
 40
1.0
 40
1.0
 40
1.0
 10
53.86597011245325
 20
31.50609622015882
 30
0.0
 10
53.87741217820144
 20
31.5032774454393
 30
0.0
 10
53.88764205745617
 20
31.49974891156179
 30
0.0
 10
53.90458524712889
 20
31.49151811089867
 30
0.0
 10
53.91129855754686
 20
31.48681584411307
 30
0.0
 10
53.92452534177092
 20
31.47131712250591
 30
0.0
 10
53.92454450867054
 20
31.45940070075333
 30
0.0
 10
53.92454450867054
 20
31.44662947701816
 30
0.0
  0
SPLINE
  5
113
330
1F
100
AcDbEntity
  8
0
  6
Continuous
 62
     7
370
    25
100
AcDbSpline
210
0.0
220
0.0
230
1.0
 70
     8
 71
     3
 72
    12
 73
     8
 74
     0
 42
0.000000001
 43
0.00000001
 40
0.0
 40
0.0
 40
0.0
 40
0.0
 40
0.25
 40
0.25
 40
0.5
 40
0.5
 40
1.0
 40
1.0
 40
1.0
 40
1.0
 10
53.86597011245325
 20
35.76894319391882
 30
0.0
 10
53.87741217820144
 20
35.77176196863834
 30
0.0
 10
53.88764205745617
 20
35.77529050251584
 30
0.0
 10
53.90458524712889
 20
35.78352130317895
 30
0.0
 10
53.91129855754686
 20
35.78822356996456
 30
0.0
 10
53.92452534177092
 20
35.80372229157172
 30
0.0
 10
53.92454450867054
 20
35.8156387133243
 30
0.0
 10
53.92454450867054
 20
35.82840993705948
 30
0.0
  0
SPLINE
  5
114
330
1F
100
AcDbEntity
  8
0
  6
Continuous
 62
     7
370
    25
100
AcDbSpline
210
0.0
220
0.0
230
1.0
 70
     8
 71
     3
 72
    12
 73
     8
 74
     0
 42
0.000000001
 43
0.00000001
 40
0.0
 40
0.0
 40
0.0
 40
0.0
 40
0.25
 40
0.25
 40
0.5
 40
0.5
 40
1.0
 40
1.0
 40
1.0
 40
1.0
 10
58.29312102179053
 20
40.1960941032561
 30
0.0
 10
58.29030224707102
 20
40.18465203750792
 30
0.0
 10
58.28677371319351
 20
40.17442215825318
 30
0.0
 10
58.27854291253039
 20
40.15747896858046
 30
0.0
 10
58.27384064574478
 20
40.15076565816248
 30
0.0
 10
58.25834192413763
 20
40.13753887393843
 30
0.0
 10
58.24642550238505
 20
40.13751970703882
 30
0.0
 10
58.23365427864987
 20
40.13751970703882
 30
0.0
  0
SPLINE
  5
115
330
1F
100
AcDbEntity
  8
0
  6
Continuous
 62
     7
370
    25
100
AcDbSpline
210
0.0
220
0.0
230
1.0
 70
     8
 71
     3
 72
    12
 73
     8
 74
     0
 42
0.000000001
 43
0.00000001
 40
0.0
 40
0.0
 40
0.0
 40
0.0
 40
0.25
 40
0.25
 40
0.5
 40
0.5
 40
1.0
 40
1.0
 40
1.0
 40
1.0
 10
66.98311890488782
 20
31.50609622015881
 30
0.0
 10
66.97167683913963
 20
31.5032774454393
 30
0.0
 10
66.9614469598849
 20
31.49974891156179
 30
0.0
 10
66.94450377021218
 20
31.49151811089868
 30
0.0
 10
66.9377904597942
 20
31.48681584411307
 30
0.0
 10
66.92456367557014
 20
31.47131712250592
 30
0.0
 10
66.92454450867054
 20
31.45940070075334
 30
0.0
 10
66.92454450867054
 20
31.44662947701816
 30
0.0
  0
LINE
  5
116
330
1F
100
AcDbEntity
  8
0
  6
Continuous
 62
     7
370
    25
100
AcDbLine
 10
63.6878853059
 20
31.2729873835
 30
0.0
 11
63.1612035307
 21
31.2729873835
 31
0.0
  0
SPLINE
  5
117
330
1F
100
AcDbEntity
  8
0
  6
Continuous
 62
     7
370
    25
100
AcDbSpline
210
0.0
220
0.0
230
1.0
 70
     8
 71
     3
 72
    10
 73
     6
 74
     0
 42
0.000000001
 43
0.00000001
 40
0.0
 40
0.0
 40
0.0
 40
0.0
 40
0.5
 40
0.5
 40
1.0
 40
1.0
 40
1.0
 40
1.0
 10
63.09194936367102
 20
31.36665703893085
 30
0.0
 10
63.08435764151322
 20
31.34639574205848
 30
0.0
 10
63.08808967550571
 20
31.32029040103097
 30
0.0
 10
63.11409459017941
 20
31.28511749610503
 30
0.0
 10
63.13863180743532
 20
31.27298730746575
 30
0.0
 10
63.16120362001936
 20
31.27298730746575
 30
0.0
  0
LINE
  5
118
330
1F
100
AcDbEntity
  8
0
  6
Continuous
 62
     7
370
    25
100
AcDbLine
 10
63.0919494527
 20
31.3666570141
 30
0.0
 11
63.3552902239
 21
32.0694788965
 31
0.0
  0
SPLINE
  5
119
330
1F
100
AcDbEntity
  8
0
  6
Continuous
 62
     7
370
    25
100
AcDbSpline
210
0.0
220
0.0
230
1.0
 70
     8
 71
     3
 72
    14
 73
    10
 74
     0
 42
0.000000001
 43
0.00000001
 40
0.0
 40
0.0
 40
0.0
 40
0.0
 40
0.25
 40
0.25
 40
0.5
 40
0.5
 40
0.75
 40
0.75
 40
1.0
 40
1.0
 40
1.0
 40
1.0
 10
63.49379876681821
 20
32.06947885554807
 30
0.0
 10
63.48904950418305
 20
32.08215400602662
 30
0.0
 10
63.47960819613522
 20
32.09466772201942
 30
0.0
 10
63.4542042625126
 20
32.11173192375428
 30
0.0
 10
63.43866508339054
 20
32.115997974188
 30
0.0
 10
63.41042393745716
 20
32.115997974188
 30
0.0
 10
63.3948847583351
 20
32.11173192375428
 30
0.0
 10
63.36948082471247
 20
32.09466772201942
 30
0.0
 10
63.36003951666465
 20
32.08215400602662
 30
0.0
 10
63.35529025402948
 20
32.06947885554807
 30
0.0
  0
LINE
  5
11A
330
1F
100
AcDbEntity
  8
0
  6
Continuous
 62
     7
370
    25
100
AcDbLine
 10
63.4937988455
 20
32.0694788965
 30
0.0
 11
63.7571396167
 21
31.3666570141
 31
0.0
  0
SPLINE
  5
11B
330
1F
100
AcDbEntity
  8
0
  6
Continuous
 62
     7
370
    25
100
AcDbSpline
210
0.0
220
0.0
230
1.0
 70
     8
 71
     3
 72
    10
 73
     6
 74
     0
 42
0.000000001
 43
0.00000001
 40
0.0
 40
0.0
 40
0.0
 40
0.0
 40
0.5
 40
0.5
 40
1.0
 40
1.0
 40
1.0
 40
1.0
 10
63.68788539773414
 20
31.27298730746575
 30
0.0
 10
63.71045721027768
 20
31.27298730746575
 30
0.0
 10
63.73499442748425
 20
31.28511749605302
 30
0.0
 10
63.76099934217995
 20
31.32029040086975
 30
0.0
 10
63.76473137623957
 20
31.34639574182221
 30
0.0
 10
63.75713965417452
 20
31.36665703868518
 30
0.0
  0
LINE
  5
11C
330
1F
100
AcDbEntity
  8
0
  6
Continuous
 62
     7
370
    25
100
AcDbLine
 10
55.4245446204
 20
39.6375197592
 30
0.0
 11
55.4245446204
 21
39.9375197152
 31
0.0
  0
LINE
  5
11D
330
1F
100
AcDbEntity
  8
0
  6
Continuous
 62
     7
370
    25
100
AcDbLine
 10
55.4245446204
 20
39.9375197152
 30
0.0
 11
55.6245442807
 21
39.9375197152
 31
0.0
  0
LINE
  5
11E
330
1F
100
AcDbEntity
  8
0
  6
Continuous
 62
     7
370
    25
100
AcDbLine
 10
55.4245446204
 20
39.6375197592
 30
0.0
 11
55.6245442807
 21
39.6375197592
 31
0.0
  0
ARC
  5
11F
330
1F
100
AcDbEntity
  8
0
  6
Continuous
 62
     7
370
    25
100
AcDbCircle
 10
66.7245445087
 20
28.837519707
 30
0.0
 40
0.2000000000000028
100
AcDbArc
 50
270.0
 51
0.0
  0
LINE
  5
120
330
1F
100
AcDbEntity
  8
0
  6
Continuous
 62
     7
370
    25
100
AcDbLine
 10
66.7245445169
 20
28.8375194791
 30
0.0
 11
66.7245445169
 21
28.6375198188
 31
0.0
  0
SPLINE
  5
121
330
1F
100
AcDbEntity
  8
0
  6
Continuous
 62
     7
370
    25
100
AcDbSpline
210
0.0
220
0.0
230
1.0
 70
     8
 71
     3
 72
    14
 73
    10
 74
     0
 42
0.000000001
 43
0.00000001
 40
0.0
 40
0.0
 40
0.0
 40
0.0
 40
0.25
 40
0.25
 40
0.5
 40
0.5
 40
0.75
 40
0.75
 40
1.0
 40
1.0
 40
1.0
 40
1.0
 10
65.88873396146853
 20
30.9719693622201
 30
0.0
 10
65.81624674192474
 20
30.93054579174892
 30
0.0
 10
65.73019341880827
 20
30.90264910738892
 30
0.0
 10
65.553277201682
 20
30.88666601199186
 30
0.0
 10
65.46325762080502
 20
30.89865578817194
 30
0.0
 10
65.30453503954729
 20
30.95406610886781
 30
0.0
 10
65.2276855307919
 20
31.00033061319077
 30
0.0
 10
65.10344960215193
 20
31.1214464303652
 30
0.0
 10
65.05665538230356
 20
31.19572041593217
 30
0.0
 10
65.02938404772523
 20
31.27196986582302
 30
0.0
  0
LWPOLYLINE
  5
122
330
1F
100
AcDbEntity
  8
0
  6
Continuous
 62
     7
370
    25
100
AcDbPolyline
 90
        9
 70
   128
 43
0.0
 10
65.8887337289
 20
30.971969259
 10
65.8868273116
 20
30.975305955
 10
65.8811802371
 20
30.9851872875
 10
65.8720104351
 20
31.0012339755
 10
65.8596694796
 20
31.0228292505
 10
65.8446323454
 20
31.0491428385
 10
65.8274764522
 20
31.0791640217
 10
65.8088611766
 20
31.1117388914
 10
65.7895022399
 20
31.1456155172
  0
LINE
  5
123
330
1F
100
AcDbEntity
  8
0
  6
Continuous
 62
     7
370
    25
100
AcDbLine
 10
54.1245445005
 20
38.6375195953
 30
0.0
 11
54.1245445005
 21
38.437519935
 31
0.0
  0
ARC
  5
124
330
1F
100
AcDbEntity
  8
0
  6
Continuous
 62
     7
370
    25
100
AcDbCircle
 10
54.1245445087
 20
38.437519707
 30
0.0
 40
0.2000000000000028
100
AcDbArc
 50
90.0
 51
180.0
  0
LINE
  5
125
330
1F
100
AcDbEntity
  8
0
  6
Continuous
 62
     7
370
    25
100
AcDbLine
 10
65.2245447367
 20
39.6375197592
 30
0.0
 11
65.4245443969
 21
39.6375197592
 31
0.0
  0
ARC
  5
126
330
1F
100
AcDbEntity
  8
0
  6
Continuous
 62
     7
370
    25
100
AcDbCircle
 10
66.4245445087
 20
39.637519707
 30
0.0
 40
1.0
100
AcDbArc
 50
180.0
 51
270.0
  0
LINE
  5
127
330
1F
100
AcDbEntity
  8
0
  6
Continuous
 62
     7
370
    25
100
AcDbLine
 10
66.4245445608
 20
38.437519935
 30
0.0
 11
66.4245445608
 21
38.6375195953
 31
0.0
  0
SPLINE
  5
128
330
1F
100
AcDbEntity
  8
0
  6
Continuous
 62
     7
370
    25
100
AcDbSpline
210
0.0
220
0.0
230
1.0
 70
     8
 71
     3
 72
    14
 73
    10
 74
     0
 42
0.000000001
 43
0.00000001
 40
0.0
 40
0.0
 40
0.0
 40
0.0
 40
0.25
 40
0.25
 40
0.5000000000000001
 40
0.5000000000000001
 40
0.7500000000000002
 40
0.7500000000000002
 40
1.0
 40
1.0
 40
1.0
 40
1.0
 10
61.73063716851145
 20
29.65631699584777
 30
0.0
 10
61.93724560068263
 20
29.8397027870634
 30
0.0
 10
62.19240781634449
 20
30.00172586835043
 30
0.0
 10
62.77338150766251
 20
30.2284121584042
 30
0.0
 10
63.09851014557579
 20
30.29166535759022
 30
0.0
 10
63.75057887176559
 20
30.29166535759021
 30
0.0
 10
64.07570750967882
 20
30.22841215840418
 30
0.0
 10
64.65668120099674
 20
30.00172586835041
 30
0.0
 10
64.91184341665853
 20
29.83970278706337
 30
0.0
 10
65.11845184882961
 20
29.65631699584773
 30
0.0
  0
LWPOLYLINE
  5
129
330
1F
100
AcDbEntity
  8
0
  6
Continuous
 62
     7
370
    25
100
AcDbPolyline
 90
        9
 70
   128
 43
0.0
 10
65.1184517286
 20
29.6563168662
 10
65.1159008361
 20
29.6534428048
 10
65.1083454817
 20
29.6449309821
 10
65.0960767037
 20
29.6311087581
 10
65.0795657515
 20
29.6125069867
 10
65.0594468555
 20
29.5898404578
 10
65.036493945
 20
29.5639804239
 10
65.0115880511
 20
29.5359206061
 10
64.9856865733
 20
29.5067394758
  0
LWPOLYLINE
  5
12A
330
1F
100
AcDbEntity
  8
0
  6
Continuous
 62
     7
370
    25
100
AcDbPolyline
 90
        9
 70
   128
 43
0.0
 10
61.7306372245
 20
29.6563168662
 10
61.7331882334
 20
29.6534428048
 10
61.740743355
 20
29.6449309821
 10
61.7530121329
 20
29.6311087581
 10
61.7695232016
 20
29.6125069867
 10
61.7896419811
 20
29.5898404578
 10
61.8125952409
 20
29.5639804239
 10
61.8375011348
 20
29.5359206061
 10
61.8634022634
 20
29.5067394758
  0
LINE
  5
12B
330
1F
100
AcDbEntity
  8
0
  6
Continuous
 62
     7
370
    25
100
AcDbLine
 10
65.2343422501
 20
29.6762667271
 30
0.0
 11
65.924852281
 21
30.9926096956
 31
0.0
  0
LWPOLYLINE
  5
12C
330
1F
100
AcDbEntity
  8
0
  6
Continuous
 62
     7
370
    25
100
AcDbPolyline
 90
       10
 70
   128
 43
0.0
 10
65.924852281
 20
30.9926096956
 10
65.9323741078
 20
31.0004074267
 10
65.9547104827
 20
31.0235642968
 10
65.9911829374
 20
31.061376459
 10
66.0406831979
 20
31.112694894
 10
66.1017076439
 20
31.175960335
 10
66.1724015466
 20
31.249250765
 10
66.2506168104
 20
31.3303389261
 10
66.3339776314
 20
31.4167612373
 10
66.4199503466
 20
31.5058918345
  0
LWPOLYLINE
  5
12D
330
1F
100
AcDbEntity
  8
0
  6
Continuous
 62
     7
370
    25
100
AcDbPolyline
 90
        9
 70
   128
 43
0.0
 10
65.2343422501
 20
29.6762667271
 10
65.2377453028
 20
29.6744818474
 10
65.2478240757
 20
29.6691947291
 10
65.264190673
 20
29.660609332
 10
65.2862169175
 20
29.6490553441
 10
65.3130557715
 20
29.6349765408
 10
65.3436757951
 20
29.6189140203
 10
65.376900728
 20
29.6014852497
 10
65.4114532611
 20
29.5833603154
  0
LINE
  5
12E
330
1F
100
AcDbEntity
  8
0
  6
Continuous
 62
     7
370
    25
100
AcDbLine
 10
65.4245443969
 20
40.1375198411
 30
0.0
 11
65.4245443969
 21
39.6375197592
 31
0.0
  0
ARC
  5
12F
330
1F
100
AcDbEntity
  8
0
  6
Continuous
 62
     7
370
    25
100
AcDbCircle
 10
55.6245445087
 20
39.937519707
 30
0.0
 40
0.1999999999999957
100
AcDbArc
 50
90.0
 51
180.0
  0
LINE
  5
130
330
1F
100
AcDbEntity
  8
0
  6
Continuous
 62
     7
370
    25
100
AcDbLine
 10
66.7245445169
 20
28.6375198188
 30
0.0
 11
54.1245445005
 21
28.6375198188
 31
0.0
  0
LINE
  5
131
330
1F
100
AcDbEntity
  8
0
  6
Continuous
 62
     7
370
    25
100
AcDbLine
 10
54.1245445005
 20
28.6375198188
 30
0.0
 11
54.1245445005
 21
28.8375194791
 31
0.0
  0
LINE
  5
132
330
1F
100
AcDbEntity
  8
0
  6
Continuous
 62
     7
370
    25
100
AcDbLine
 10
66.4245445608
 20
38.6375195953
 30
0.0
 11
66.7245445169
 21
38.6375195953
 31
0.0
  0
LINE
  5
133
330
1F
100
AcDbEntity
  8
0
  6
Continuous
 62
     7
370
    25
100
AcDbLine
 10
66.7245445169
 20
38.437519935
 30
0.0
 11
66.7245445169
 21
38.6375195953
 31
0.0
  0
ARC
  5
134
330
1F
100
AcDbEntity
  8
0
  6
Continuous
 62
     7
370
    25
100
AcDbCircle
 10
54.4245445087
 20
39.637519707
 30
0.0
 40
1.0
100
AcDbArc
 50
270.0
 51
0.0
  0
LINE
  5
135
330
1F
100
AcDbEntity
  8
0
  6
Continuous
 62
     7
370
    25
100
AcDbLine
 10
54.4245444565
 20
38.6375195953
 30
0.0
 11
54.4245444565
 21
38.437519935
 31
0.0
  0
LWPOLYLINE
  5
136
330
1F
100
AcDbEntity
  8
0
  6
Continuous
 62
     7
370
    25
100
AcDbPolyline
 90
        9
 70
   128
 43
0.0
 10
61.065391996
 20
31.1432145676
 10
61.0465802696
 20
31.1090308382
 10
61.0284915404
 20
31.0761607392
 10
61.0118208082
 20
31.045867377
 10
60.9972088226
 20
31.0193151376
 10
60.9852170549
 20
30.9975242848
 10
60.9763063352
 20
30.9813320777
 10
60.9708191572
 20
30.9713611054
 10
60.9689664073
 20
30.9679943743
  0
LINE
  5
137
330
1F
100
AcDbEntity
  8
0
  6
Continuous
 62
     7
370
    25
100
AcDbLine
 10
60.9689664073
 20
30.9679943743
 30
0.0
 11
60.9242366139
 21
30.9926096956
 31
0.0
  0
LWPOLYLINE
  5
138
330
1F
100
AcDbEntity
  8
0
  6
Continuous
 62
     7
370
    25
100
AcDbPolyline
 90
        9
 70
   128
 43
0.0
 10
60.438386436
 20
31.4882625966
 10
60.533171107
 20
31.3915654692
 10
60.6243132591
 20
31.2985843188
 10
60.7083103481
 20
31.2128926302
 10
60.7819343953
 20
31.1377830944
 10
60.842356101
 20
31.0761421128
 10
60.8872535034
 20
31.0303389701
 10
60.9149011528
 20
31.0021334002
 10
60.9242366139
 20
30.9926096956
  0
LINE
  5
139
330
1F
100
AcDbEntity
  8
0
  6
Continuous
 62
     7
370
    25
100
AcDbLine
 10
65.924852281
 20
30.9926096956
 30
0.0
 11
65.8887337289
 21
30.971969259
 31
0.0
  0
SPLINE
  5
13A
330
1F
100
AcDbEntity
  8
0
  6
Continuous
 62
     7
370
    25
100
AcDbSpline
210
0.0
220
0.0
230
1.0
 70
     8
 71
     3
 72
    10
 73
     6
 74
     0
 42
0.000000001
 43
0.00000001
 40
0.0
 40
0.0
 40
0.0
 40
0.0
 40
0.5
 40
0.5
 40
1.0
 40
1.0
 40
1.0
 40
1.0
 10
61.61474676235159
 20
29.67626695220515
 30
0.0
 10
61.62456342340516
 20
29.65755312144726
 30
0.0
 10
61.64585046501687
 20
29.64235418364444
 30
0.0
 10
61.68905298168362
 20
29.63491708552226
 30
0.0
 10
61.71457299298645
 20
29.64205842223621
 30
0.0
 10
61.73063716851145
 20
29.65631699584777
 30
0.0
  0
LWPOLYLINE
  5
13B
330
1F
100
AcDbEntity
  8
0
  6
Continuous
 62
     7
370
    25
100
AcDbPolyline
 90
        9
 70
   128
 43
0.0
 10
61.4376356919
 20
29.5833603154
 10
61.4721883415
 20
29.6014852497
 10
61.505413158
 20
29.6189140203
 10
61.536033298
 20
29.6349765408
 10
61.5628721519
 20
29.6490553441
 10
61.5848981637
 20
29.660609332
 10
61.6012649938
 20
29.6691947291
 10
61.6113436502
 20
29.6744818474
 10
61.6147468194
 20
29.6762667271
  0
SPLINE
  5
13C
330
1F
100
AcDbEntity
  8
0
  6
Continuous
 62
     7
370
    25
100
AcDbSpline
210
0.0
220
0.0
230
1.0
 70
     8
 71
     3
 72
    10
 73
     6
 74
     0
 42
0.000000001
 43
0.00000001
 40
0.0
 40
0.0
 40
0.0
 40
0.0
 40
0.5
 40
0.5
 40
1.0
 40
1.0
 40
1.0
 40
1.0
 10
65.11845184882961
 20
29.65631699584773
 30
0.0
 10
65.13451602435462
 20
29.64205842223612
 30
0.0
 10
65.16003603565747
 20
29.63491708552213
 30
0.0
 10
65.20323855232425
 20
29.64235418364433
 30
0.0
 10
65.22452559393598
 20
29.65755312144719
 30
0.0
 10
65.23434225498954
 20
29.67626695220514
 30
0.0
  0
ARC
  5
13D
330
1F
100
AcDbEntity
  8
0
  6
Continuous
 62
     7
370
    25
100
AcDbCircle
 10
66.7245445087
 20
38.437519707
 30
0.0
 40
0.2000000000000028
100
AcDbArc
 50
0.0
 51
90.0
  0
ARC
  5
13E
330
1F
100
AcDbEntity
  8
0
  6
Continuous
 62
     7
370
    25
100
AcDbCircle
 10
54.1245445087
 20
28.837519707
 30
0.0
 40
0.2000000000000028
100
AcDbArc
 50
180.0
 51
270.0
  0
LINE
  5
13F
330
1F
100
AcDbEntity
  8
0
  6
Continuous
 62
     7
370
    25
100
AcDbLine
 10
60.9242366139
 20
30.9926096956
 30
0.0
 11
61.6147468194
 21
29.6762667271
 31
0.0
  0
SPLINE
  5
140
330
1F
100
AcDbEntity
  8
0
  6
Continuous
 62
     7
370
    25
100
AcDbSpline
210
0.0
220
0.0
230
1.0
 70
     8
 71
     3
 72
    14
 73
    10
 74
     0
 42
0.000000001
 43
0.00000001
 40
0.0
 40
0.0
 40
0.0
 40
0.0
 40
0.25
 40
0.25
 40
0.5
 40
0.5
 40
0.75
 40
0.75
 40
1.0
 40
1.0
 40
1.0
 40
1.0
 10
61.81995952724542
 20
31.2726815977417
 30
0.0
 10
61.79292369103472
 20
31.19709059091023
 30
0.0
 10
61.74673163902083
 20
31.12347599541969
 30
0.0
 10
61.6242025019521
 20
31.00303531364952
 30
0.0
 10
61.54842851922945
 20
30.95676273187027
 30
0.0
 10
61.39155682479533
 20
30.90059681567126
 30
0.0
 10
61.30256074662127
 20
30.88787557153558
 30
0.0
 10
61.12714322774687
 20
30.90164024033961
 30
0.0
 10
61.04152794643318
 20
30.92806289553272
 30
0.0
 10
60.96896639449267
 20
30.96799432351717
 30
0.0
  0
LINE
  5
141
330
1F
100
AcDbEntity
  8
0
  6
Continuous
 62
     7
370
    25
100
AcDbLine
 10
54.1245445005
 20
38.6375195953
 30
0.0
 11
54.4245444565
 21
38.6375195953
 31
0.0
  0
ARC
  5
142
330
1F
100
AcDbEntity
  8
0
  6
Continuous
 62
     7
370
    25
100
AcDbCircle
 10
67.104512866
 20
28.8116467205
 30
0.0
 40
0.1818184836971019
100
AcDbArc
 50
83.6747277536
 51
171.8190444576
  0
SPLINE
  5
143
330
1F
100
AcDbEntity
  8
0
  6
Continuous
 62
     7
370
    25
100
AcDbSpline
210
0.0
220
0.0
230
1.0
 70
    24
 71
     3
 72
    12
 73
     8
 74
     0
 42
0.000000001
 43
0.00000001
 40
0.0
 40
0.0
 40
0.0
 40
0.0
 40
0.25
 40
0.25
 40
0.5
 40
0.5
 40
1.0
 40
1.0
 40
1.0
 40
1.0
 10
65.42454450867054
 20
40.33751970703882
 30
0.0
 10
65.42454450867054
 20
40.30033887448677
 30
0.0
 10
65.42454450867054
 20
40.26607879925327
 30
0.0
 10
65.42454450867054
 20
40.21435312980692
 30
0.0
 10
65.42454450867054
 20
40.19499838293137
 30
0.0
 10
65.42454450867054
 20
40.15058906928716
 30
0.0
 10
65.42454450867054
 20
40.13751970703882
 30
0.0
 10
65.42454450867054
 20
40.13751970703882
 30
0.0
  0
ARC
  5
144
330
1F
100
AcDbEntity
  8
0
  6
Continuous
 62
     7
370
    25
100
AcDbCircle
 10
53.7445761513
 20
38.4633926935
 30
0.0
 40
0.1818184836971093
100
AcDbArc
 50
263.6747277536
 51
351.8190444576
  0
ARC
  5
145
330
1F
100
AcDbEntity
  8
0
  6
Continuous
 62
     7
370
    25
100
AcDbCircle
 10
53.7445761513
 20
28.8116467205
 30
0.0
 40
0.1818184836971098
100
AcDbArc
 50
8.1809555424
 51
96.3252722464
  0
ARC
  5
146
330
1F
100
AcDbEntity
  8
0
  6
Continuous
 62
     7
370
    25
100
AcDbCircle
 10
55.5986715222
 20
40.3174880644
 30
0.0
 40
0.1818184836971117
100
AcDbArc
 50
278.1809555424
 51
6.3252722464
  0
ARC
  5
147
330
1F
100
AcDbEntity
  8
0
  6
Continuous
 62
     7
370
    25
100
AcDbCircle
 10
67.104512866
 20
38.4633926935
 30
0.0
 40
0.1818184836971125
100
AcDbArc
 50
188.1809555424
 51
276.3252722464
  0
LINE
  5
148
330
1F
100
AcDbEntity
  8
0
  6
Continuous
 62
     7
370
    25
100
AcDbLine
 10
54.1245445005
 20
38.6697778153
 30
0.0
 11
54.1245445005
 21
38.6375195953
 31
0.0
  0
LINE
  5
149
330
1F
100
AcDbEntity
  8
0
  6
Continuous
 62
     7
370
    25
100
AcDbLine
 10
66.7245445169
 20
28.6375198188
 30
0.0
 11
66.7245445169
 21
28.6052615988
 31
0.0
  0
LINE
  5
14A
330
1F
100
AcDbEntity
  8
0
  6
Continuous
 62
     7
370
    25
100
AcDbLine
 10
54.1245445005
 20
28.6052615988
 30
0.0
 11
54.1245445005
 21
28.6375198188
 31
0.0
  0
LINE
  5
14B
330
1F
100
AcDbEntity
  8
0
  6
Continuous
 62
     7
370
    25
100
AcDbLine
 10
66.7245445169
 20
38.6697778153
 30
0.0
 11
66.7245445169
 21
38.6375195953
 31
0.0
  0
LINE
  5
14C
330
1F
100
AcDbEntity
  8
0
  6
Continuous
 62
     7
370
    25
100
AcDbLine
 10
55.3922864004
 20
39.9375197152
 30
0.0
 11
55.4245446204
 21
39.9375197152
 31
0.0
  0
LINE
  5
14D
330
1F
100
AcDbEntity
  8
0
  6
Continuous
 62
     7
370
    25
100
AcDbLine
 10
55.3922864004
 20
39.6375197592
 30
0.0
 11
55.4245446204
 21
39.6375197592
 31
0.0
  0
ARC
  5
14E
330
1F
100
AcDbEntity
  8
0
  6
Continuous
 62
     7
370
    25
100
AcDbCircle
 10
55.0221019598
 20
39.0314256686
 30
0.0
 40
0.1490119422214765
100
AcDbArc
 50
317.3216122879
 51
15.7343760625
  0
ARC
  5
14F
330
1F
100
AcDbEntity
  8
0
  6
Continuous
 62
     7
370
    25
100
AcDbCircle
 10
55.0306385471
 20
39.0399622559
 30
0.0
 40
0.1490119422214818
100
AcDbArc
 50
254.2656239375
 51
312.6783877121
  0
LINE
  5
150
330
1F
100
AcDbEntity
  8
0
  6
Continuous
 62
     7
370
    25
100
AcDbLine
 10
54.4245444565
 20
38.6697778153
 30
0.0
 11
54.4245444565
 21
38.6375195953
 31
0.0
  0
LINE
  5
151
330
1F
100
AcDbEntity
  8
0
  6
Continuous
 62
     7
370
    25
100
AcDbLine
 10
66.4245445608
 20
38.6697778153
 30
0.0
 11
66.4245445608
 21
38.6375195953
 31
0.0
  0
SPLINE
  5
152
330
1F
100
AcDbEntity
  8
0
  6
Continuous
 62
     7
370
    25
100
AcDbSpline
210
0.0
220
0.0
230
1.0
 70
     8
 71
     3
 72
     8
 73
     4
 74
     0
 42
0.000000001
 43
0.00000001
 40
0.0
 40
0.0
 40
0.0
 40
0.0
 40
1.0
 40
1.0
 40
1.0
 40
1.0
 10
65.67972360717259
 20
38.97025527318085
 30
0.0
 10
65.72242279214095
 20
38.92259314130685
 30
0.0
 10
65.79127306414192
 20
38.89654296144146
 30
0.0
 10
65.8588590837213
 20
38.89653381192665
 30
0.0
  0
ARC
  5
153
330
1F
100
AcDbEntity
  8
0
  6
Continuous
 62
     7
370
    25
100
AcDbCircle
 10
54.9313424687
 20
39.130721747
 30
0.0
 40
0.2414780747458668
100
AcDbArc
 50
284.1145898145
 51
345.8854101855
  0
SPLINE
  5
154
330
1F
100
AcDbEntity
  8
0
  6
Continuous
 62
     8
370
    25
100
AcDbSpline
210
0.0
220
0.0
230
1.0
 70
     8
 71
     3
 72
    34
 73
    30
 74
     0
 42
0.000000001
 43
0.00000001
 40
0.0
 40
0.0
 40
0.0
 40
0.0
 40
0.0270829032766599
 40
0.0610682941182008
 40
0.1019507723650695
 40
0.1474839812243242
 40
0.187872064013973
 40
0.2220934768733864
 40
0.250151460984347
 40
0.2982157574196402
 40
0.3490038536661354
 40
0.4004430425979361
 40
0.450494711484233
 40
0.5005609373880796
 40
0.5396164215048147
 40
0.5812691741313459
 40
0.6255103363874013
 40
0.650560472757527
 40
0.6756020758841366
 40
0.7006346597335095
 40
0.7256578509364633
 40
0.7506711420816486
 40
0.7800555279670839
 40
0.8115785411698586
 40
0.8452427927006666
 40
0.8810515781909936
 40
0.9190087853526957
 40
0.9591189396213431
 40
0.9999999999999999
 40
0.9999999999999999
 40
0.9999999999999999
 40
0.9999999999999999
 10
50.35156908920881
 20
33.64289731046804
 30
0.0
 10
50.35153878756812
 20
33.7367475551242
 30
0.0
 10
50.35147046145524
 20
33.94836719889651
 30
0.0
 10
50.3517406561153
 20
34.30089787640221
 30
0.0
 10
50.35221535396764
 20
34.71477541119526
 30
0.0
 10
50.35289704865976
 20
35.14573763111828
 30
0.0
 10
50.35342892980015
 20
35.54751757847883
 30
0.0
 10
50.35379028368654
 20
35.8847857757144
 30
0.0
 10
50.35401316050173
 20
36.24093356712122
 30
0.0
 10
50.35391621481745
 20
36.64090021606069
 30
0.0
 10
50.3534094616984
 20
37.09673906029585
 30
0.0
 10
50.35248321828632
 20
37.53717660455202
 30
0.0
 10
50.35154254341964
 20
37.95102388209158
 30
0.0
 10
50.35046327507104
 20
38.30689794616731
 30
0.0
 10
50.34979574437097
 20
38.61831037154765
 30
0.0
 10
50.34988991900693
 20
38.89400370613302
 30
0.0
 10
50.35045996078769
 20
39.11732375320422
 30
0.0
 10
50.35115627359072
 20
39.29188260062791
 30
0.0
 10
50.35173419940269
 20
39.42209266448844
 30
0.0
 10
50.35236575501925
 20
39.5431766490765
 30
0.0
 10
50.35302779864316
 20
39.65500227563614
 30
0.0
 10
50.35382059864665
 20
39.76323256596721
 30
0.0
 10
50.35452738736913
 20
39.86887468681396
 30
0.0
 10
50.35492909127287
 20
39.97127028251078
 30
0.0
 10
50.35508036160303
 20
40.06411261272525
 30
0.0
 10
50.35496065666401
 20
40.1439613839545
 30
0.0
 10
50.35456996737291
 20
40.20626821890307
 30
0.0
 10
50.35393317991005
 20
40.2489295928946
 30
0.0
 10
50.35331028654645
 20
40.25529682953746
 30
0.0
 10
50.35299587539312
 20
40.25851075078529
 30
0.0
  0
SPLINE
  5
155
330
1F
100
AcDbEntity
  8
0
  6
Continuous
 62
     8
370
    25
100
AcDbSpline
210
0.0
220
0.0
230
1.0
 70
     8
 71
     3
 72
    23
 73
    19
 74
     0
 42
0.000000001
 43
0.00000001
 40
0.0
 40
0.0
 40
0.0
 40
0.0
 40
0.0002901480650782
 40
0.0835899993219196
 40
0.1668922360496779
 40
0.2501967869721177
 40
0.3335035517885791
 40
0.4168124449701208
 40
0.5001234145695925
 40
0.5834363421511848
 40
0.6667511052183539
 40
0.7500992724832019
 40
0.7917942763473084
 40
0.8334871729099484
 40
0.857255065623385
 40
0.8929296806659354
 40
0.940511040343332
 40
1.0
 40
1.0
 40
1.0
 40
1.0
 10
50.35266898116943
 20
27.01535147155803
 30
0.0
 10
50.35266898135077
 20
27.01531764446815
 30
0.0
 10
50.35266903359425
 20
27.00557225319718
 30
0.0
 10
50.35257898707357
 20
27.0578297816208
 30
0.0
 10
50.35252031168423
 20
27.22195751431924
 30
0.0
 10
50.35244281406805
 20
27.50313718213573
 30
0.0
 10
50.35237562084125
 20
27.88745519389358
 30
0.0
 10
50.35230838475682
 20
28.37077585555491
 30
0.0
 10
50.35224219115874
 20
28.94416391619357
 30
0.0
 10
50.35218863483398
 20
29.5980162419508
 30
0.0
 10
50.35210582716388
 20
30.32104082984295
 30
0.0
 10
50.3521331108652
 20
30.9714075235809
 30
0.0
 10
50.35224027827148
 20
31.51314279055214
 30
0.0
 10
50.35242075583342
 20
31.86924560419506
 30
0.0
 10
50.3524247869853
 20
32.20977975519725
 30
0.0
 10
50.35225821329516
 20
32.57394961512319
 30
0.0
 10
50.35197655883081
 20
33.06511616966741
 30
0.0
 10
50.35171462264321
 20
33.43653475184178
 30
0.0
 10
50.35156908920881
 20
33.64289731046804
 30
0.0
  0
LINE
  5
156
330
1F
100
AcDbEntity
  8
0
  6
Continuous
 62
     8
370
    25
100
AcDbLine
 10
49.4245445683
 20
40.8875194984
 30
0.0
 11
49.4245445683
 21
26.3875199157
 31
0.0
  0
SPLINE
  5
157
330
1F
100
AcDbEntity
  8
0
  6
Continuous
 62
     8
370
    25
100
AcDbSpline
210
0.0
220
0.0
230
1.0
 70
     8
 71
     3
 72
    34
 73
    30
 74
     0
 42
0.000000001
 43
0.00000001
 40
0.0
 40
0.0
 40
0.0
 40
0.0
 40
0.0270829032766599
 40
0.0610682941182008
 40
0.1019507723650695
 40
0.1474839812243242
 40
0.187872064013973
 40
0.2220934768733864
 40
0.250151460984347
 40
0.2982157574196402
 40
0.3490038536661354
 40
0.4004430425979361
 40
0.450494711484233
 40
0.5005609373880796
 40
0.5396164215048147
 40
0.5812691741313459
 40
0.6255103363874013
 40
0.650560472757527
 40
0.6756020758841366
 40
0.7006346597335095
 40
0.7256578509364633
 40
0.7506711420816486
 40
0.7800555279670839
 40
0.8115785411698586
 40
0.8452427927006666
 40
0.8810515781909936
 40
0.9190087853526957
 40
0.9591189396213431
 40
0.9999999999999999
 40
0.9999999999999999
 40
0.9999999999999999
 40
0.9999999999999999
 10
70.49751992813226
 20
33.6321421036096
 30
0.0
 10
70.49755022977295
 20
33.53829185895345
 30
0.0
 10
70.49761855588582
 20
33.32667221518114
 30
0.0
 10
70.49734836122576
 20
32.97414153767542
 30
0.0
 10
70.4968736633734
 20
32.56026400288238
 30
0.0
 10
70.4961919686813
 20
32.12930178295936
 30
0.0
 10
70.49566008754093
 20
31.7275218355988
 30
0.0
 10
70.49529873365454
 20
31.39025363836324
 30
0.0
 10
70.49507585683934
 20
31.03410584695642
 30
0.0
 10
70.49517280252363
 20
30.63413919801694
 30
0.0
 10
70.49567955564267
 20
30.17830035378179
 30
0.0
 10
70.49660579905476
 20
29.73786280952562
 30
0.0
 10
70.49754647392142
 20
29.32401553198605
 30
0.0
 10
70.49862574227004
 20
28.96814146791033
 30
0.0
 10
70.4992932729701
 20
28.65672904252999
 30
0.0
 10
70.49919909833413
 20
28.38103570794461
 30
0.0
 10
70.49862905655338
 20
28.15771566087342
 30
0.0
 10
70.49793274375034
 20
27.98315681344973
 30
0.0
 10
70.49735481793839
 20
27.8529467495892
 30
0.0
 10
70.49672326232181
 20
27.73186276500114
 30
0.0
 10
70.4960612186979
 20
27.6200371384415
 30
0.0
 10
70.49526841869442
 20
27.51180684811042
 30
0.0
 10
70.49456162997193
 20
27.40616472726368
 30
0.0
 10
70.49415992606819
 20
27.30376913156686
 30
0.0
 10
70.49400865573803
 20
27.21092680135238
 30
0.0
 10
70.49412836067707
 20
27.13107803012313
 30
0.0
 10
70.49451904996815
 20
27.06877119517457
 30
0.0
 10
70.49515583743101
 20
27.02610982118303
 30
0.0
 10
70.49577873079461
 20
27.01974258454017
 30
0.0
 10
70.49609314194795
 20
27.01652866329235
 30
0.0
  0
SPLINE
  5
158
330
1F
100
AcDbEntity
  8
0
  6
Continuous
 62
     8
370
    25
100
AcDbSpline
210
0.0
220
0.0
230
1.0
 70
     8
 71
     3
 72
    23
 73
    19
 74
     0
 42
0.000000001
 43
0.00000001
 40
0.0
 40
0.0
 40
0.0
 40
0.0
 40
0.0002901480650782
 40
0.0835899993219196
 40
0.1668922360496779
 40
0.2501967869721177
 40
0.3335035517885791
 40
0.4168124449701208
 40
0.5001234145695925
 40
0.5834363421511848
 40
0.6667511052183539
 40
0.7500992724832019
 40
0.7917942763473084
 40
0.8334871729099484
 40
0.857255065623385
 40
0.8929296806659354
 40
0.940511040343332
 40
1.0
 40
1.0
 40
1.0
 40
1.0
 10
70.49642003617164
 20
40.25968794251961
 30
0.0
 10
70.4964200359903
 20
40.25972176960949
 30
0.0
 10
70.4964199837468
 20
40.26946716088046
 30
0.0
 10
70.4965100302675
 20
40.21720963245684
 30
0.0
 10
70.49656870565683
 20
40.0530818997584
 30
0.0
 10
70.49664620327302
 20
39.77190223194192
 30
0.0
 10
70.49671339649983
 20
39.38758422018405
 30
0.0
 10
70.49678063258425
 20
38.90426355852273
 30
0.0
 10
70.49684682618232
 20
38.33087549788406
 30
0.0
 10
70.49690038250708
 20
37.67702317212684
 30
0.0
 10
70.49698319017718
 20
36.95399858423469
 30
0.0
 10
70.49695590647585
 20
36.30363189049673
 30
0.0
 10
70.49684873906958
 20
35.76189662352549
 30
0.0
 10
70.49666826150765
 20
35.40579380988257
 30
0.0
 10
70.49666423035576
 20
35.06525965888038
 30
0.0
 10
70.49683080404591
 20
34.70108979895445
 30
0.0
 10
70.49711245851026
 20
34.20992324441024
 30
0.0
 10
70.49737439469784
 20
33.83850466223586
 30
0.0
 10
70.49751992813226
 20
33.6321421036096
 30
0.0
  0
LINE
  5
159
330
1F
100
AcDbEntity
  8
0
  6
Continuous
 62
     8
370
    25
100
AcDbLine
 10
71.4245444491
 20
40.8875194984
 30
0.0
 11
71.4245444491
 21
26.3875199157
 31
0.0
  0
SPLINE
  5
15A
330
1F
100
AcDbEntity
  8
0
  6
Continuous
 62
     8
370
    25
100
AcDbSpline
210
0.0
220
0.0
230
1.0
 70
     8
 71
     3
 72
    44
 73
    40
 74
     0
 42
0.000000001
 43
0.00000001
 40
0.0
 40
0.0
 40
0.0
 40
0.0
 40
0.013319266841778
 40
0.0281785706017598
 40
0.044577523960773
 40
0.0625156116251024
 40
0.0819921966009808
 40
0.1030065114652559
 40
0.1276688581776861
 40
0.1504046713435871
 40
0.1720670636343915
 40
0.1860241683009501
 40
0.2060291632260975
 40
0.2280248849287916
 40
0.2500372100407219
 40
0.2782023689944982
 40
0.3063971831501223
 40
0.3346229758651571
 40
0.3628811447245868
 40
0.3815843895483409
 40
0.3923303767434818
 40
0.4076629422313722
 40
0.4275834932458661
 40
0.4597285763056985
 40
0.4849079088099832
 40
0.5078349158389425
 40
0.553652701003839
 40
0.5996150398790793
 40
0.6503019892582732
 40
0.7006097130702148
 40
0.7506757324062934
 40
0.7873037857022783
 40
0.8235520996994391
 40
0.8594246250827848
 40
0.8949252356042638
 40
0.9300576887436522
 40
0.9565858408754644
 40
0.9915674876700641
 40
0.9999999999999999
 40
0.9999999999999999
 40
0.9999999999999999
 40
0.9999999999999999
 10
60.41916690524131
 20
43.71049512650055
 30
0.0
 10
60.37301197314097
 20
43.71051999384557
 30
0.0
 10
60.27536545638754
 20
43.71057260381621
 30
0.0
 10
60.1209673073496
 20
43.7105562338074
 30
0.0
 10
59.95076963924932
 20
43.71047835978914
 30
0.0
 10
59.76497123580677
 20
43.71033166266774
 30
0.0
 10
59.56385087012993
 20
43.71011553134915
 30
0.0
 10
59.34054889573186
 20
43.70982581779689
 30
0.0
 10
59.10749437305907
 20
43.70947051790208
 30
0.0
 10
58.87404386210103
 20
43.70912642936039
 30
0.0
 10
58.67845293699465
 20
43.70884207380676
 30
0.0
 10
58.49347729601753
 20
43.70858387223938
 30
0.0
 10
58.30884627374446
 20
43.70838817793281
 30
0.0
 10
58.09992873129296
 20
43.70823215807211
 30
0.0
 10
57.8673520752354
 20
43.70814062618845
 30
0.0
 10
57.61879353779781
 20
43.70814513908817
 30
0.0
 10
57.35589170392386
 20
43.70827471660512
 30
0.0
 10
57.0985623544115
 20
43.70852868374393
 30
0.0
 10
56.87571404364649
 20
43.70886616402771
 30
0.0
 10
56.70854312935508
 20
43.70919799238231
 30
0.0
 10
56.58077375233988
 20
43.70949993707384
 30
0.0
 10
56.45140285471412
 20
43.70980798390013
 30
0.0
 10
56.26568139183603
 20
43.71026690666889
 30
0.0
 10
56.05954664070551
 20
43.71080633421467
 30
0.0
 10
55.85370533112514
 20
43.7113278310462
 30
0.0
 10
55.62141483620288
 20
43.71183977738669
 30
0.0
 10
55.35324864411434
 20
43.71228564343533
 30
0.0
 10
55.04886748550462
 20
43.71203918090483
 30
0.0
 10
54.76779669182316
 20
43.71097287296629
 30
0.0
 10
54.51536416604529
 20
43.70946188721321
 30
0.0
 10
54.31931331347691
 20
43.70836998531022
 30
0.0
 10
54.16986660703659
 20
43.70757963133833
 30
0.0
 10
54.05738474619861
 20
43.70717821235666
 30
0.0
 10
53.96576226738792
 20
43.70703401952574
 30
0.0
 10
53.89472251820783
 20
43.7071656849647
 30
0.0
 10
53.84738982265127
 20
43.70752147726496
 30
0.0
 10
53.8169634781232
 20
43.70813660686139
 30
0.0
 10
53.8027567642825
 20
43.70866841921917
 30
0.0
 10
53.80436438508724
 20
43.70901811297538
 30
0.0
 10
53.80467663994905
 20
43.70908603544515
 30
0.0
  0
SPLINE
  5
15B
330
1F
100
AcDbEntity
  8
0
  6
Continuous
 62
     8
370
    25
100
AcDbSpline
210
0.0
220
0.0
230
1.0
 70
     8
 71
     3
 72
    28
 73
    24
 74
     0
 42
0.000000001
 43
0.00000001
 40
0.0
 40
0.0
 40
0.0
 40
0.0
 40
0.0005651500465002
 40
0.0800602162702521
 40
0.1562684343414977
 40
0.229189020243823
 40
0.298821267232696
 40
0.3651644696982678
 40
0.428217950329954
 40
0.4879811002629729
 40
0.5444533103531605
 40
0.5976339829366063
 40
0.671209452160541
 40
0.7373823244007301
 40
0.7961497942632269
 40
0.8475093790921854
 40
0.8914588994239416
 40
0.9279964543219402
 40
0.9571204762981534
 40
0.9788296647287424
 40
0.9902450710066488
 40
0.9974886754994858
 40
1.0
 40
1.0
 40
1.0
 40
1.0
 10
67.04677793673154
 20
43.70939523453993
 30
0.0
 10
67.04678976378905
 20
43.70939523381867
 30
0.0
 10
67.04846520695418
 20
43.70939513164407
 30
0.0
 10
67.01169380939197
 20
43.70947968849465
 30
0.0
 10
66.86599087949865
 20
43.70953734069819
 30
0.0
 10
66.63901542069111
 20
43.70961094426357
 30
0.0
 10
66.34648242385222
 20
43.70967703260236
 30
0.0
 10
66.00183071981985
 20
43.70974158136617
 30
0.0
 10
65.61819846163247
 20
43.70980276021136
 30
0.0
 10
65.2076164318825
 20
43.70986219079644
 30
0.0
 10
64.78095702758336
 20
43.70992059890483
 30
0.0
 10
64.28366232599743
 20
43.70998186695278
 30
0.0
 10
63.72035041536936
 20
43.71004984766822
 30
0.0
 10
63.10352551890845
 20
43.71012129452357
 30
0.0
 10
62.53169397540463
 20
43.71018726268524
 30
0.0
 10
62.01744918662008
 20
43.71024761474244
 30
0.0
 10
61.56932028515739
 20
43.71030213053377
 30
0.0
 10
61.1927232436779
 20
43.71035143882241
 30
0.0
 10
60.89079858324762
 20
43.71039355423022
 30
0.0
 10
60.67511904266347
 20
43.7104278148583
 30
0.0
 10
60.53513791137046
 20
43.71045846750707
 30
0.0
 10
60.461711602642
 20
43.71047443242837
 30
0.0
 10
60.42787726990178
 20
43.71049088971134
 30
0.0
 10
60.41916690524131
 20
43.71049512650055
 30
0.0
  0
LINE
  5
15C
330
1F
100
AcDbEntity
  8
0
  6
Continuous
 62
     8
370
    25
100
AcDbLine
 10
67.6745443001
 20
44.6375196474
 30
0.0
 11
53.1745447173
 21
44.6375196474
 31
0.0
  0
SPLINE
  5
15D
330
1F
100
AcDbEntity
  8
0
  6
Continuous
 62
     8
370
    25
100
AcDbSpline
210
0.0
220
0.0
230
1.0
 70
    24
 71
     3
 72
    20
 73
    16
 74
     0
 42
0.000000001
 43
0.00000001
 40
0.0
 40
0.0
 40
0.0
 40
0.0
 40
0.0833038234619481
 40
0.1666076635102581
 40
0.249911489340368
 40
0.3332153018801771
 40
0.4165191492991681
 40
0.4998229424998784
 40
0.5831267938021643
 40
0.666430631792197
 40
0.7497344306744167
 40
0.833038272770876
 40
0.9163421023766766
 40
0.9996459317958752
 40
1.0
 40
1.0
 40
1.0
 40
1.0
 10
51.27859454146501
 20
33.64238579336737
 30
0.0
 10
51.27859454146501
 20
33.38057889629213
 30
0.0
 10
51.27859454146501
 20
32.8569650500141
 30
0.0
 10
51.27859454146501
 20
32.08487746586438
 30
0.0
 10
51.27859454146501
 20
31.33936240942749
 30
0.0
 10
51.27859454146501
 20
30.63316628456133
 30
0.0
 10
51.27859454146501
 20
29.97838104873108
 30
0.0
 10
51.27859454146501
 20
29.38618681258931
 30
0.0
 10
51.27859454146501
 20
28.86679947826461
 30
0.0
 10
51.27859454146501
 20
28.42879686330986
 30
0.0
 10
51.27859454146502
 20
28.08082503799625
 30
0.0
 10
51.27859454146499
 20
27.82454238175842
 30
0.0
 10
51.27859454146507
 20
27.68036142610076
 30
0.0
 10
51.27859454146488
 20
27.62061821323788
 30
0.0
 10
51.27859454146501
 20
27.63766497112485
 30
0.0
 10
51.27859454146501
 20
27.63773711870593
 30
0.0
  0
SPLINE
  5
15E
330
1F
100
AcDbEntity
  8
0
  6
Continuous
 62
     8
370
    25
100
AcDbSpline
210
0.0
220
0.0
230
1.0
 70
    24
 71
     3
 72
    19
 73
    15
 74
     0
 42
0.000000001
 43
0.00000001
 40
0.0
 40
0.0
 40
0.0
 40
0.0
 40
0.0828604653630955
 40
0.1662367987221346
 40
0.2496131178506003
 40
0.3329894236771999
 40
0.4163657644133341
 40
0.4997420508840053
 40
0.5831183955068138
 40
0.6664947268057843
 40
0.7498710189629091
 40
0.8332473543718799
 40
0.916623677279322
 40
1.0
 40
1.0
 40
1.0
 40
1.0
 10
51.27859454146501
 20
39.63720404084009
 30
0.0
 10
51.27859454146501
 20
39.62754896926484
 30
0.0
 10
51.27859454146501
 20
39.60817871611611
 30
0.0
 10
51.27859454146501
 20
39.44965903737477
 30
0.0
 10
51.27859454146501
 20
39.19885071199575
 30
0.0
 10
51.27859454146501
 20
38.85088113462412
 30
0.0
 10
51.27859454146501
 20
38.41424635079725
 30
0.0
 10
51.27859454146501
 20
37.89573667910679
 30
0.0
 10
51.27859454146501
 20
37.3044061814185
 30
0.0
 10
51.27859454146501
 20
36.65032408432265
 30
0.0
 10
51.27859454146501
 20
35.94469496051129
 30
0.0
 10
51.27859454146501
 20
35.19958737645934
 30
0.0
 10
51.27859454146501
 20
34.42775834633331
 30
0.0
 10
51.27859454146501
 20
33.90417664416054
 30
0.0
 10
51.27859454146501
 20
33.64238579336737
 30
0.0
  0
SPLINE
  5
15F
330
1F
100
AcDbEntity
  8
0
  6
Continuous
 62
     8
370
    25
100
AcDbSpline
210
0.0
220
0.0
230
1.0
 70
    24
 71
     3
 72
    20
 73
    16
 74
     0
 42
0.000000001
 43
0.00000001
 40
0.0
 40
0.0
 40
0.0
 40
0.0
 40
0.0833038234619481
 40
0.1666076635102581
 40
0.249911489340368
 40
0.3332153018801771
 40
0.4165191492991681
 40
0.4998229424998784
 40
0.5831267938021643
 40
0.666430631792197
 40
0.7497344306744167
 40
0.833038272770876
 40
0.9163421023766766
 40
0.9996459317958752
 40
1.0
 40
1.0
 40
1.0
 40
1.0
 10
69.57049447587606
 20
33.63265362071027
 30
0.0
 10
69.57049447587606
 20
33.89446051778551
 30
0.0
 10
69.57049447587606
 20
34.41807436406353
 30
0.0
 10
69.57049447587606
 20
35.19016194821327
 30
0.0
 10
69.57049447587606
 20
35.93567700465015
 30
0.0
 10
69.57049447587606
 20
36.64187312951631
 30
0.0
 10
69.57049447587606
 20
37.29665836534655
 30
0.0
 10
69.57049447587606
 20
37.88885260148833
 30
0.0
 10
69.57049447587606
 20
38.40823993581303
 30
0.0
 10
69.57049447587606
 20
38.84624255076778
 30
0.0
 10
69.57049447587605
 20
39.19421437608139
 30
0.0
 10
69.57049447587607
 20
39.45049703231922
 30
0.0
 10
69.57049447587599
 20
39.59467798797687
 30
0.0
 10
69.57049447587619
 20
39.65442120083976
 30
0.0
 10
69.57049447587606
 20
39.63737444295279
 30
0.0
 10
69.57049447587606
 20
39.63730229537171
 30
0.0
  0
SPLINE
  5
160
330
1F
100
AcDbEntity
  8
0
  6
Continuous
 62
     8
370
    25
100
AcDbSpline
210
0.0
220
0.0
230
1.0
 70
    24
 71
     3
 72
    19
 73
    15
 74
     0
 42
0.000000001
 43
0.00000001
 40
0.0
 40
0.0
 40
0.0
 40
0.0
 40
0.0828604653630955
 40
0.1662367987221346
 40
0.2496131178506003
 40
0.3329894236771999
 40
0.4163657644133341
 40
0.4997420508840053
 40
0.5831183955068138
 40
0.6664947268057843
 40
0.7498710189629091
 40
0.8332473543718799
 40
0.916623677279322
 40
1.0
 40
1.0
 40
1.0
 40
1.0
 10
69.57049447587606
 20
27.63783537323755
 30
0.0
 10
69.57049447587606
 20
27.64749044481281
 30
0.0
 10
69.57049447587606
 20
27.66686069796153
 30
0.0
 10
69.57049447587606
 20
27.82538037670287
 30
0.0
 10
69.57049447587606
 20
28.07618870208188
 30
0.0
 10
69.57049447587606
 20
28.42415827945351
 30
0.0
 10
69.57049447587606
 20
28.86079306328038
 30
0.0
 10
69.57049447587606
 20
29.37930273497085
 30
0.0
 10
69.57049447587606
 20
29.97063323265914
 30
0.0
 10
69.57049447587606
 20
30.62471532975499
 30
0.0
 10
69.57049447587606
 20
31.33034445356634
 30
0.0
 10
69.57049447587606
 20
32.0754520376183
 30
0.0
 10
69.57049447587606
 20
32.84728106774433
 30
0.0
 10
69.57049447587606
 20
33.3708627699171
 30
0.0
 10
69.57049447587606
 20
33.63265362071027
 30
0.0
  0
SPLINE
  5
161
330
1F
100
AcDbEntity
  8
0
  6
Continuous
 62
     8
370
    25
100
AcDbSpline
210
0.0
220
0.0
230
1.0
 70
    24
 71
     3
 72
    19
 73
    15
 74
     0
 42
0.000000001
 43
0.00000001
 40
0.0
 40
0.0
 40
0.0
 40
0.0
 40
0.0833763227206779
 40
0.1667526456281201
 40
0.2501289810370909
 40
0.3335052731942157
 40
0.4168816044931862
 40
0.5002579491159946
 40
0.5836342355866659
 40
0.6670105763228
 40
0.7503868821493995
 40
0.8337632012778654
 40
0.9171395346369046
 40
1.0
 40
1.0
 40
1.0
 40
1.0
 10
60.41967842234199
 20
42.78346967424434
 30
0.0
 10
60.15788757154881
 20
42.78346967424434
 30
0.0
 10
59.63430586937604
 20
42.78346967424434
 30
0.0
 10
58.86247683925001
 20
42.78346967424434
 30
0.0
 10
58.11736925519805
 20
42.78346967424434
 30
0.0
 10
57.4117401313867
 20
42.78346967424434
 30
0.0
 10
56.75765803429085
 20
42.78346967424434
 30
0.0
 10
56.16632753660257
 20
42.78346967424434
 30
0.0
 10
55.6478178649121
 20
42.78346967424434
 30
0.0
 10
55.21118308108522
 20
42.78346967424434
 30
0.0
 10
54.8632135037136
 20
42.78346967424434
 30
0.0
 10
54.61240517833458
 20
42.78346967424434
 30
0.0
 10
54.45388549959324
 20
42.78346967424434
 30
0.0
 10
54.43451524644452
 20
42.78346967424434
 30
0.0
 10
54.42486017486927
 20
42.78346967424434
 30
0.0
  0
SPLINE
  5
162
330
1F
100
AcDbEntity
  8
0
  6
Continuous
 62
     8
370
    25
100
AcDbSpline
210
0.0
220
0.0
230
1.0
 70
    24
 71
     3
 72
    20
 73
    16
 74
     0
 42
0.000000001
 43
0.00000001
 40
0.0
 40
0.0
 40
0.0
 40
0.0
 40
0.0003540682041247
 40
0.0836578976233233
 40
0.1669617272291239
 40
0.2502655693255832
 40
0.3335693682078029
 40
0.4168732061978356
 40
0.5001770575001214
 40
0.5834808507008317
 40
0.6667846981198228
 40
0.7500885106596319
 40
0.8333923364897418
 40
0.9166961765380518
 40
0.9999999999999999
 40
0.9999999999999999
 40
0.9999999999999999
 40
0.9999999999999999
 10
66.42432709700343
 20
42.78346967424434
 30
0.0
 10
66.4243992445845
 20
42.78346967424434
 30
0.0
 10
66.44144600247151
 20
42.78346967424428
 30
0.0
 10
66.38170278960857
 20
42.78346967424437
 30
0.0
 10
66.23752183395094
 20
42.78346967424433
 30
0.0
 10
65.9812391777131
 20
42.78346967424434
 30
0.0
 10
65.6332673523995
 20
42.78346967424434
 30
0.0
 10
65.19526473744475
 20
42.78346967424434
 30
0.0
 10
64.67587740312004
 20
42.78346967424434
 30
0.0
 10
64.08368316697826
 20
42.78346967424434
 30
0.0
 10
63.42889793114801
 20
42.78346967424434
 30
0.0
 10
62.72270180628187
 20
42.78346967424434
 30
0.0
 10
61.97718674984498
 20
42.78346967424434
 30
0.0
 10
61.20509916569524
 20
42.78346967424434
 30
0.0
 10
60.68148531941722
 20
42.78346967424434
 30
0.0
 10
60.41967842234199
 20
42.78346967424434
 30
0.0
  0
LWPOLYLINE
  5
163
330
1F
100
AcDbEntity
  8
0
  6
Continuous
 62
     8
370
    25
100
AcDbPolyline
 90
        9
 70
   128
 43
0.0
 10
54.9902297883
 20
38.8965339075
 10
54.8026874988
 20
39.0780267912
 10
54.6403467982
 20
39.235130665
 10
54.5039355151
 20
39.367141449
 10
54.3940655283
 20
39.4734672877
 10
54.3112290419
 20
39.5536313439
 10
54.2557976536
 20
39.6072745929
 10
54.2280195608
 20
39.6341567534
 10
54.2245443306
 20
39.6375197592
  0
LWPOLYLINE
  5
164
330
1F
100
AcDbEntity
  8
0
  6
Continuous
 62
     8
370
    25
100
AcDbPolyline
 90
        9
 70
   128
 43
0.0
 10
66.6245446867
 20
39.6375197592
 10
66.6210694566
 20
39.6341567534
 10
66.5932913638
 20
39.6072745929
 10
66.5378599755
 20
39.5536313439
 10
66.4550234891
 20
39.4734672877
 10
66.3451535023
 20
39.367141449
 10
66.2087422191
 20
39.235130665
 10
66.0464015185
 20
39.0780267912
 10
65.858859229
 20
38.8965339075
  0
LWPOLYLINE
  5
165
330
1F
100
AcDbEntity
  8
0
  6
Continuous
 62
     8
370
    25
100
AcDbPolyline
 90
        9
 70
   128
 43
0.0
 10
54.4245444565
 20
39.8375198851
 10
54.4279074623
 20
39.8340446549
 10
54.4547896228
 20
39.8062665621
 10
54.5084328718
 20
39.7508351738
 10
54.588596928
 20
39.6679986874
 10
54.6949227667
 20
39.5581287007
 10
54.8269335507
 20
39.4217174175
 10
54.9840374245
 20
39.2593767169
 10
55.1655303083
 20
39.0718344274
  0
LWPOLYLINE
  5
166
330
1F
100
AcDbEntity
  8
0
  6
Continuous
 62
     8
370
    25
100
AcDbPolyline
 90
        9
 70
   128
 43
0.0
 10
65.6359359949
 20
39.0226242739
 10
65.8260603762
 20
39.2190858396
 10
65.9911810747
 20
39.3897111202
 10
66.1305344059
 20
39.5337094228
 10
66.2434744976
 20
39.6504143859
 10
66.3294793434
 20
39.7392858426
 10
66.3881503373
 20
39.7999121482
 10
66.4192155331
 20
39.8320134404
 10
66.4245445608
 20
39.8375198851
  0
LINE
  5
167
330
1F
100
AcDbEntity
  8
0
  6
CENTERX2
 62
     7
370
    18
100
AcDbLine
 10
37.9245445087
 20
33.637519707
 30
0.0
 11
82.9245445087
 21
33.637519707
 31
0.0
  0
LINE
  5
168
330
1F
100
AcDbEntity
  8
0
  6
CENTERX2
 62
     7
370
    18
100
AcDbLine
 10
60.4245445087
 20
56.137519707
 30
0.0
 11
60.4245445087
 21
26.2221065155
 31
0.0
  0
ARC
  5
169
330
1F
100
AcDbEntity
  8
0
  6
Continuous
 62
     7
370
    25
100
AcDbCircle
 10
103.2649630058
 20
44.637519707
 30
0.0
 40
1.0
100
AcDbArc
 50
180.0
 51
247.9510506537
  0
ARC
  5
16A
330
1F
100
AcDbEntity
  8
0
  6
Continuous
 62
     7
370
    25
100
AcDbCircle
 10
115.7649630058
 20
44.637519707
 30
0.0
 40
1.0
100
AcDbArc
 50
291.6057871575
 51
0.0
  0
LINE
  5
16B
330
1F
100
AcDbEntity
  8
0
  6
Continuous
 62
     7
370
    25
100
AcDbLine
 10
116.7649627972
 20
55.1375204372
 30
0.0
 11
116.2649631809
 21
55.6375195878
 31
0.0
  0
LINE
  5
16C
330
1F
100
AcDbEntity
  8
0
  6
Continuous
 62
     7
370
    25
100
AcDbLine
 10
102.7649628307
 20
55.6375195878
 30
0.0
 11
102.2649632144
 21
55.1375204372
 31
0.0
  0
LINE
  5
16D
330
1F
100
AcDbEntity
  8
0
  6
Continuous
 62
     7
370
    25
100
AcDbLine
 10
116.7649627972
 20
44.6375196474
 30
0.0
 11
116.7649627972
 21
55.1375204372
 31
0.0
  0
LINE
  5
16E
330
1F
100
AcDbEntity
  8
0
  6
Continuous
 62
     7
370
    25
100
AcDbLine
 10
102.2649632144
 20
55.1375204372
 30
0.0
 11
102.2649632144
 21
44.6375196474
 31
0.0
  0
SPLINE
  5
16F
330
1F
100
AcDbEntity
  8
0
  6
Continuous
 62
     7
370
    25
100
AcDbSpline
210
0.0
220
0.0
230
1.0
 70
     8
 71
     3
 72
    11
 73
     7
 74
     0
 42
0.000000001
 43
0.00000001
 40
0.0
 40
0.0
 40
0.0
 40
0.0
 40
0.2500907897024823
 40
0.5000509169085089
 40
0.7499732838271033
 40
1.0
 40
1.0
 40
1.0
 40
1.0
 10
115.5125644366435
 20
42.78346967424434
 30
0.0
 10
115.521201647016
 20
42.88219602327402
 30
0.0
 10
115.5384715551619
 20
43.0795971407404
 30
0.0
 10
115.6717250017335
 20
43.348983111988
 30
0.0
 10
115.8709047185694
 20
43.5740130687917
 30
0.0
 10
116.0471704304764
 20
43.66445526869452
 30
0.0
 10
116.1353216814987
 20
43.70968580718321
 30
0.0
  0
LINE
  5
170
330
1F
100
AcDbEntity
  8
0
  6
Continuous
 62
     7
370
    25
100
AcDbLine
 10
103.5149629536
 20
42.7834696742
 30
0.0
 11
103.5149629536
 21
40.3375195014
 31
0.0
  0
LINE
  5
171
330
1F
100
AcDbEntity
  8
0
  6
Continuous
 62
     7
370
    25
100
AcDbLine
 10
115.5149630579
 20
40.3375195014
 30
0.0
 11
115.5149630579
 21
42.7834696742
 31
0.0
  0
CIRCLE
  5
172
330
1F
100
AcDbEntity
  8
0
  6
Continuous
 62
     7
370
    25
100
AcDbCircle
 10
109.5149630058
 20
33.637519707
 30
0.0
 40
4.618423633796667
  0
CIRCLE
  5
173
330
1F
100
AcDbEntity
  8
0
  6
Continuous
 62
     7
370
    25
100
AcDbCircle
 10
109.5149630058
 20
33.637519707
 30
0.0
 40
5.0
  0
CIRCLE
  5
174
330
1F
100
AcDbEntity
  8
0
  6
Continuous
 62
     7
370
    25
100
AcDbCircle
 10
109.5149630058
 20
33.637519707
 30
0.0
 40
7.249999999999996
  0
CIRCLE
  5
175
330
1F
100
AcDbEntity
  8
0
  6
Continuous
 62
     7
370
    25
100
AcDbCircle
 10
109.5149630058
 20
33.637519707
 30
0.0
 40
6.749999999999986
  0
CIRCLE
  5
176
330
1F
100
AcDbEntity
  8
0
  6
Continuous
 62
     7
370
    25
100
AcDbCircle
 10
109.5149630058
 20
33.637519707
 30
0.0
 40
4.342497099879523
  0
CIRCLE
  5
177
330
1F
100
AcDbEntity
  8
0
  6
Continuous
 62
     7
370
    25
100
AcDbCircle
 10
109.5149630058
 20
33.637519707
 30
0.0
 40
4.282999999999987
  0
CIRCLE
  5
178
330
1F
100
AcDbEntity
  8
0
  6
Continuous
 62
     7
370
    25
100
AcDbCircle
 10
109.5149630058
 20
33.637519707
 30
0.0
 40
2.0
  0
LINE
  5
179
330
1F
100
AcDbEntity
  8
0
  6
Continuous
 62
     7
370
    25
100
AcDbLine
 10
109.5149630058
 20
55.1375204372
 30
0.0
 11
102.2649632144
 21
55.1375204372
 31
0.0
  0
LINE
  5
17A
330
1F
100
AcDbEntity
  8
0
  6
Continuous
 62
     7
370
    25
100
AcDbLine
 10
116.7649627972
 20
55.1375204372
 30
0.0
 11
109.5149630058
 21
55.1375204372
 31
0.0
  0
LINE
  5
17B
330
1F
100
AcDbEntity
  8
0
  6
Continuous
 62
     7
370
    25
100
AcDbLine
 10
109.5149630058
 20
55.6375195878
 30
0.0
 11
116.2649631809
 21
55.6375195878
 31
0.0
  0
LINE
  5
17C
330
1F
100
AcDbEntity
  8
0
  6
Continuous
 62
     7
370
    25
100
AcDbLine
 10
102.7649628307
 20
55.6375195878
 30
0.0
 11
109.5149630058
 21
55.6375195878
 31
0.0
  0
SPLINE
  5
17D
330
1F
100
AcDbEntity
  8
0
  6
Continuous
 62
     7
370
    25
100
AcDbSpline
210
0.0
220
0.0
230
1.0
 70
     8
 71
     3
 72
     9
 73
     5
 74
     0
 42
0.000000001
 43
0.00000001
 40
0.0018135121066271
 40
0.0018135121066271
 40
0.0018135121066271
 40
0.0018135121066271
 40
0.5018135121066271
 40
1.0
 40
1.0
 40
1.0
 40
1.0
 10
103.5128604260311
 20
42.7834700852649
 30
0.0
 10
103.5129022883667
 20
42.98120334398144
 30
0.0
 10
103.3922038810976
 20
43.37550693598237
 30
0.0
 10
103.0721947571832
 20
43.63540101308116
 30
0.0
 10
102.8896359805712
 20
43.70968585940645
 30
0.0
  0
LINE
  5
17E
330
1F
100
AcDbEntity
  8
0
  6
Continuous
 62
     7
370
    25
100
AcDbLine
 10
115.314962932
 20
38.437519935
 30
0.0
 11
115.5149630579
 21
38.437519935
 31
0.0
  0
LINE
  5
17F
330
1F
100
AcDbEntity
  8
0
  6
Continuous
 62
     7
370
    25
100
AcDbLine
 10
115.5149630579
 20
38.437519935
 30
0.0
 11
115.5149630579
 21
37.7072247351
 31
0.0
  0
LINE
  5
180
330
1F
100
AcDbEntity
  8
0
  6
Continuous
 62
     7
370
    25
100
AcDbLine
 10
103.5149629536
 20
28.8375194791
 30
0.0
 11
103.5149629536
 21
29.567814679
 31
0.0
  0
LINE
  5
181
330
1F
100
AcDbEntity
  8
0
  6
Continuous
 62
     7
370
    25
100
AcDbLine
 10
103.5149629536
 20
28.8375194791
 30
0.0
 11
103.7149630795
 21
28.8375194791
 31
0.0
  0
LINE
  5
182
330
1F
100
AcDbEntity
  8
0
  6
Continuous
 62
     7
370
    25
100
AcDbLine
 10
103.5149629536
 20
37.7072247351
 30
0.0
 11
103.5149629536
 21
38.437519935
 31
0.0
  0
LINE
  5
183
330
1F
100
AcDbEntity
  8
0
  6
Continuous
 62
     7
370
    25
100
AcDbLine
 10
103.5149629536
 20
38.437519935
 30
0.0
 11
103.7149630795
 21
38.437519935
 31
0.0
  0
LINE
  5
184
330
1F
100
AcDbEntity
  8
0
  6
Continuous
 62
     7
370
    25
100
AcDbLine
 10
115.5149630579
 20
29.567814679
 30
0.0
 11
115.5149630579
 21
28.8375194791
 31
0.0
  0
LINE
  5
185
330
1F
100
AcDbEntity
  8
0
  6
Continuous
 62
     7
370
    25
100
AcDbLine
 10
115.5149630579
 20
28.8375194791
 30
0.0
 11
115.314962932
 21
28.8375194791
 31
0.0
  0
LINE
  5
186
330
1F
100
AcDbEntity
  8
0
  6
Continuous
 62
     7
370
    25
100
AcDbLine
 10
103.7149630795
 20
28.6375198188
 30
0.0
 11
103.7149630795
 21
28.8375194791
 31
0.0
  0
ARC
  5
187
330
1F
100
AcDbEntity
  8
0
  6
Continuous
 62
     7
370
    25
100
AcDbCircle
 10
103.7149630058
 20
28.837519707
 30
0.0
 40
0.2000000000000171
100
AcDbArc
 50
180.0
 51
270.0
  0
LINE
  5
188
330
1F
100
AcDbEntity
  8
0
  6
Continuous
 62
     7
370
    25
100
AcDbLine
 10
115.314962932
 20
38.437519935
 30
0.0
 11
115.314962932
 21
38.6375195953
 31
0.0
  0
ARC
  5
189
330
1F
100
AcDbEntity
  8
0
  6
Continuous
 62
     7
370
    25
100
AcDbCircle
 10
115.3149630058
 20
38.437519707
 30
0.0
 40
0.2000000000000028
100
AcDbArc
 50
0.0
 51
90.0
  0
LINE
  5
18A
330
1F
100
AcDbEntity
  8
0
  6
Continuous
 62
     7
370
    25
100
AcDbLine
 10
115.314962932
 20
28.6375198188
 30
0.0
 11
114.764962935
 21
28.6375198188
 31
0.0
  0
LINE
  5
18B
330
1F
100
AcDbEntity
  8
0
  6
Continuous
 62
     7
370
    25
100
AcDbLine
 10
115.314962932
 20
28.8375194791
 30
0.0
 11
115.314962932
 21
28.6375198188
 31
0.0
  0
LINE
  5
18C
330
1F
100
AcDbEntity
  8
0
  6
Continuous
 62
     7
370
    25
100
AcDbLine
 10
104.2649630766
 20
28.6375198188
 30
0.0
 11
103.7149630795
 21
28.6375198188
 31
0.0
  0
LINE
  5
18D
330
1F
100
AcDbEntity
  8
0
  6
Continuous
 62
     7
370
    25
100
AcDbLine
 10
103.7149630795
 20
38.437519935
 30
0.0
 11
103.7149630795
 21
38.6375195953
 31
0.0
  0
LINE
  5
18E
330
1F
100
AcDbEntity
  8
0
  6
Continuous
 62
     7
370
    25
100
AcDbLine
 10
103.7149630795
 20
38.6375195953
 30
0.0
 11
104.2649630766
 21
38.6375195953
 31
0.0
  0
ARC
  5
18F
330
1F
100
AcDbEntity
  8
0
  6
Continuous
 62
     7
370
    25
100
AcDbCircle
 10
103.7149630058
 20
38.437519707
 30
0.0
 40
0.2000000000000171
100
AcDbArc
 50
90.0
 51
180.0
  0
LINE
  5
190
330
1F
100
AcDbEntity
  8
0
  6
Continuous
 62
     7
370
    25
100
AcDbLine
 10
114.764962935
 20
38.6375195953
 30
0.0
 11
115.314962932
 21
38.6375195953
 31
0.0
  0
ARC
  5
191
330
1F
100
AcDbEntity
  8
0
  6
Continuous
 62
     7
370
    25
100
AcDbCircle
 10
115.3149630058
 20
28.837519707
 30
0.0
 40
0.2000000000000028
100
AcDbArc
 50
270.0
 51
0.0
  0
SPLINE
  5
192
330
1F
100
AcDbEntity
  8
0
  6
Continuous
 62
     7
370
    25
100
AcDbSpline
210
0.0
220
0.0
230
1.0
 70
    24
 71
     3
 72
    14
 73
    10
 74
     0
 42
0.000000001
 43
0.00000001
 40
0.0
 40
0.0
 40
0.0
 40
0.0
 40
0.25
 40
0.25
 40
0.5
 40
0.5
 40
0.75
 40
0.75
 40
1.0
 40
1.0
 40
1.0
 40
1.0
 10
115.5149630057803
 20
40.33751970703882
 30
0.0
 10
115.5149630057803
 20
40.33751970703882
 30
0.0
 10
115.5069975871465
 20
40.33751970703882
 30
0.0
 10
115.4750644104011
 20
40.33751970703882
 30
0.0
 10
115.4510964193571
 20
40.33751970703882
 30
0.0
 10
115.3869466061974
 20
40.33751970703882
 30
0.0
 10
115.3467643046949
 20
40.33751970703882
 30
0.0
 10
115.2498450083753
 20
40.33751970703882
 30
0.0
 10
115.1931072609453
 20
40.33751970703882
 30
0.0
 10
115.1278662315868
 20
40.33751970703882
 30
0.0
  0
LINE
  5
193
330
1F
100
AcDbEntity
  8
0
  6
Continuous
 62
     7
370
    25
100
AcDbLine
 10
113.3126566495
 20
40.3375195014
 30
0.0
 11
115.1278662804
 21
40.3375195014
 31
0.0
  0
LINE
  5
194
330
1F
100
AcDbEntity
  8
0
  6
Continuous
 62
     7
370
    25
100
AcDbLine
 10
106.1983382172
 20
40.0844181563
 30
0.0
 11
106.1983382172
 21
40.3375195014
 31
0.0
  0
LINE
  5
195
330
1F
100
AcDbEntity
  8
0
  6
Continuous
 62
     7
370
    25
100
AcDbLine
 10
103.9020597312
 20
40.3375195014
 30
0.0
 11
106.1983382172
 21
40.3375195014
 31
0.0
  0
SPLINE
  5
196
330
1F
100
AcDbEntity
  8
0
  6
Continuous
 62
     7
370
    25
100
AcDbSpline
210
0.0
220
0.0
230
1.0
 70
    24
 71
     3
 72
    14
 73
    10
 74
     0
 42
0.000000001
 43
0.00000001
 40
0.0
 40
0.0
 40
0.0
 40
0.0
 40
0.25
 40
0.25
 40
0.5
 40
0.5
 40
0.75
 40
0.75
 40
1.0
 40
1.0
 40
1.0
 40
1.0
 10
103.5149630057803
 20
40.33751970703882
 30
0.0
 10
103.5149630057803
 20
40.33751970703882
 30
0.0
 10
103.5229284244142
 20
40.33751970703882
 30
0.0
 10
103.5548616011596
 20
40.33751970703882
 30
0.0
 10
103.5788295922035
 20
40.33751970703882
 30
0.0
 10
103.6429794053633
 20
40.33751970703882
 30
0.0
 10
103.6831617068658
 20
40.33751970703882
 30
0.0
 10
103.7800810031854
 20
40.33751970703882
 30
0.0
 10
103.8368187506154
 20
40.33751970703882
 30
0.0
 10
103.9020597799739
 20
40.33751970703882
 30
0.0
  0
LINE
  5
197
330
1F
100
AcDbEntity
  8
0
  6
Continuous
 62
     7
370
    25
100
AcDbLine
 10
115.314962932
 20
38.6375195953
 30
0.0
 11
115.314962932
 21
39.6375197592
 31
0.0
  0
LINE
  5
198
330
1F
100
AcDbEntity
  8
0
  6
Continuous
 62
     7
370
    25
100
AcDbLine
 10
103.7149630795
 20
39.6375197592
 30
0.0
 11
103.7149630795
 21
38.6375195953
 31
0.0
  0
LINE
  5
199
330
1F
100
AcDbEntity
  8
0
  6
Continuous
 62
     7
370
    25
100
AcDbLine
 10
115.314962932
 20
39.6375197592
 30
0.0
 11
115.5149630579
 21
39.6375197592
 31
0.0
  0
LINE
  5
19A
330
1F
100
AcDbEntity
  8
0
  6
Continuous
 62
     7
370
    25
100
AcDbLine
 10
115.5149630579
 20
39.6375197592
 30
0.0
 11
115.5149630579
 21
38.437519935
 31
0.0
  0
LINE
  5
19B
330
1F
100
AcDbEntity
  8
0
  6
Continuous
 62
     7
370
    25
100
AcDbLine
 10
103.5149629536
 20
39.6375197592
 30
0.0
 11
103.7149630795
 21
39.6375197592
 31
0.0
  0
LINE
  5
19C
330
1F
100
AcDbEntity
  8
0
  6
Continuous
 62
     7
370
    25
100
AcDbLine
 10
103.5149629536
 20
38.437519935
 30
0.0
 11
103.5149629536
 21
39.6375197592
 31
0.0
  0
LWPOLYLINE
  5
19D
330
1F
100
AcDbEntity
  8
0
  6
Continuous
 62
     7
370
    25
100
AcDbPolyline
 90
        9
 70
   128
 43
0.0
 10
113.3126566495
 20
40.3375195014
 10
113.3150890312
 20
40.2985017421
 10
113.3222925785
 20
40.2609829466
 10
113.3339909214
 20
40.2264057333
 10
113.3497339982
 20
40.1960981684
 10
113.3689169149
 20
40.1712258021
 10
113.3908025298
 20
40.1527437056
 10
113.4145498584
 20
40.1413624781
 10
113.4392462048
 20
40.1375198411
  0
SPLINE
  5
19E
330
1F
100
AcDbEntity
  8
0
  6
Continuous
 62
     7
370
    25
100
AcDbSpline
210
0.0
220
0.0
230
1.0
 70
     8
 71
     3
 72
     8
 73
     4
 74
     0
 42
0.000000001
 43
0.00000001
 40
0.0
 40
0.0
 40
0.0
 40
0.0
 40
1.0
 40
1.0
 40
1.0
 40
1.0
 10
103.9020597799739
 20
40.33751970703882
 30
0.0
 10
103.9008762594286
 20
40.28515782713681
 30
0.0
 10
103.879528531361
 20
40.23311843152977
 30
0.0
 10
103.8436791500759
 20
40.1960941032561
 30
0.0
  0
SPLINE
  5
19F
330
1F
100
AcDbEntity
  8
0
  6
Continuous
 62
     7
370
    25
100
AcDbSpline
210
0.0
220
0.0
230
1.0
 70
     8
 71
     3
 72
    12
 73
     8
 74
     0
 42
0.000000001
 43
0.00000001
 40
0.0
 40
0.0
 40
0.0
 40
0.0
 40
0.25
 40
0.25
 40
0.5
 40
0.5
 40
1.0
 40
1.0
 40
1.0
 40
1.0
 10
106.1983382154249
 20
40.33751970703882
 30
0.0
 10
106.1983382154249
 20
40.30033887448677
 30
0.0
 10
106.1786563269092
 20
40.26607879925327
 30
0.0
 10
106.1270359012101
 20
40.21435312980692
 30
0.0
 10
106.09503412453
 20
40.19499838293137
 30
0.0
 10
105.9954723908668
 20
40.15058906928716
 30
0.0
 10
105.9222490408059
 20
40.13751970703882
 30
0.0
 10
105.8489024498157
 20
40.13751970703882
 30
0.0
  0
SPLINE
  5
1A0
330
1F
100
AcDbEntity
  8
0
  6
Continuous
 62
     7
370
    25
100
AcDbSpline
210
0.0
220
0.0
230
1.0
 70
     8
 71
     3
 72
    13
 73
     9
 74
     0
 42
0.000000001
 43
0.00000001
 40
0.0
 40
0.0
 40
0.0
 40
0.0
 40
0.284282899174241
 40
0.5198370183905274
 40
0.7070414958140503
 40
0.8468107266085059
 40
0.9415978142010789
 40
1.0
 40
1.0
 40
1.0
 40
1.0
 10
103.8436791500759
 20
40.1960941032561
 30
0.0
 10
103.8325566056805
 20
40.18604176287644
 30
0.0
 10
103.8122180262857
 20
40.16766014841428
 30
0.0
 10
103.7796820458016
 20
40.15100189169906
 30
0.0
 10
103.7525743871602
 20
40.14221716511673
 30
0.0
 10
103.7331165284572
 20
40.13861756600759
 30
0.0
 10
103.718989816891
 20
40.13756541995402
 30
0.0
 10
103.7160744616565
 20
40.13753232443924
 30
0.0
 10
103.7149630057803
 20
40.13751970703882
 30
0.0
  0
LINE
  5
1A1
330
1F
100
AcDbEntity
  8
0
  6
Continuous
 62
     7
370
    25
100
AcDbLine
 10
103.7149630795
 20
40.1375198411
 30
0.0
 11
103.7149630795
 21
39.6375197592
 31
0.0
  0
LINE
  5
1A2
330
1F
100
AcDbEntity
  8
0
  6
Continuous
 62
     7
370
    25
100
AcDbLine
 10
103.7149630795
 20
40.1375198411
 30
0.0
 11
105.8489024948
 21
40.1375198411
 31
0.0
  0
LINE
  5
1A3
330
1F
100
AcDbEntity
  8
0
  6
Continuous
 62
     7
370
    25
100
AcDbLine
 10
115.314962932
 20
39.6375197592
 30
0.0
 11
115.314962932
 21
39.9375197152
 31
0.0
  0
LINE
  5
1A4
330
1F
100
AcDbEntity
  8
0
  6
Continuous
 62
     7
370
    25
100
AcDbLine
 10
115.314962932
 20
39.9375197152
 30
0.0
 11
115.5149630579
 21
39.9375197152
 31
0.0
  0
LINE
  5
1A5
330
1F
100
AcDbEntity
  8
0
  6
Continuous
 62
     7
370
    25
100
AcDbLine
 10
115.5149630579
 20
39.9375197152
 30
0.0
 11
115.5149630579
 21
39.6375197592
 31
0.0
  0
ARC
  5
1A6
330
1F
100
AcDbEntity
  8
0
  6
Continuous
 62
     7
370
    25
100
AcDbCircle
 10
103.7149630058
 20
39.937519707
 30
0.0
 40
0.2000000000000171
100
AcDbArc
 50
90.0
 51
180.0
  0
LINE
  5
1A7
330
1F
100
AcDbEntity
  8
0
  6
Continuous
 62
     7
370
    25
100
AcDbLine
 10
103.5149629536
 20
39.6375197592
 30
0.0
 11
103.5149629536
 21
39.9375197152
 31
0.0
  0
LINE
  5
1A8
330
1F
100
AcDbEntity
  8
0
  6
Continuous
 62
     7
370
    25
100
AcDbLine
 10
113.4392462048
 20
40.1375198411
 30
0.0
 11
115.314962932
 21
40.1375198411
 31
0.0
  0
LINE
  5
1A9
330
1F
100
AcDbEntity
  8
0
  6
Continuous
 62
     7
370
    25
100
AcDbLine
 10
115.314962932
 20
40.1375198411
 30
0.0
 11
115.314962932
 21
39.9375197152
 31
0.0
  0
ARC
  5
1AA
330
1F
100
AcDbEntity
  8
0
  6
Continuous
 62
     7
370
    25
100
AcDbCircle
 10
115.3149630058
 20
39.937519707
 30
0.0
 40
0.2000000000000028
100
AcDbArc
 50
0.0
 51
90.0
  0
SPLINE
  5
1AB
330
1F
100
AcDbEntity
  8
0
  6
Continuous
 62
     7
370
    25
100
AcDbSpline
210
0.0
220
0.0
230
1.0
 70
     8
 71
     3
 72
    10
 73
     6
 74
     0
 42
0.000000001
 43
0.00000001
 40
0.0
 40
0.0
 40
0.0
 40
0.0
 40
0.5
 40
0.5
 40
1.0
 40
1.0
 40
1.0
 40
1.0
 10
115.1862468614847
 20
40.1960941032561
 30
0.0
 10
115.1639172207499
 20
40.21897823475247
 30
0.0
 10
115.1481811681175
 20
40.24650937996756
 30
0.0
 10
115.1304213372192
 20
40.29695012724682
 30
0.0
 10
115.1278662315868
 20
40.31969860343134
 30
0.0
 10
115.1278662315868
 20
40.33751970703882
 30
0.0
  0
SPLINE
  5
1AC
330
1F
100
AcDbEntity
  8
0
  6
Continuous
 62
     7
370
    25
100
AcDbSpline
210
0.0
220
0.0
230
1.0
 70
     8
 71
     3
 72
    12
 73
     8
 74
     0
 42
0.000000001
 43
0.00000001
 40
0.0
 40
0.0
 40
0.0
 40
0.0
 40
0.25
 40
0.25
 40
0.5
 40
0.5
 40
1.0
 40
1.0
 40
1.0
 40
1.0
 10
115.1862468614847
 20
40.1960941032561
 30
0.0
 10
115.1974116818522
 20
40.18465203750792
 30
0.0
 10
115.2104942959819
 20
40.17442215825318
 30
0.0
 10
115.2377634708348
 20
40.15747896858047
 30
0.0
 10
115.251950031558
 20
40.15076565816248
 30
0.0
 10
115.2920681722205
 20
40.13753887393844
 30
0.0
 10
115.3149630057803
 20
40.13751970703882
 30
0.0
 10
115.3149630057803
 20
40.13751970703882
 30
0.0
  0
SPLINE
  5
1AD
330
1F
100
AcDbEntity
  8
0
  6
Continuous
 62
     7
370
    25
100
AcDbSpline
210
0.0
220
0.0
230
1.0
 70
     8
 71
     3
 72
    12
 73
     8
 74
     0
 42
0.000000001
 43
0.00000001
 40
0.0
 40
0.0
 40
0.0
 40
0.0
 40
0.25
 40
0.25
 40
0.5
 40
0.5
 40
1.0
 40
1.0
 40
1.0
 40
1.0
 10
103.5157917834233
 20
40.13880349934219
 30
0.0
 10
103.5157981803533
 20
40.1306165424248
 30
0.0
 10
103.5227035719699
 20
40.1245979106443
 30
0.0
 10
103.539922755364
 20
40.1131610734008
 30
0.0
 10
103.5502365471415
 20
40.10774286793779
 30
0.0
 10
103.5707061388969
 20
40.08678455509062
 30
0.0
 10
103.5736359045406
 20
40.07903531827369
 30
0.0
 10
103.5735416495415
 20
40.0789410632746
 30
0.0
  0
LINE
  5
1AE
330
1F
100
AcDbEntity
  8
0
  6
Continuous
 62
     7
370
    25
100
AcDbLine
 10
103.5146616708
 20
39.9840355525
 30
0.0
 11
103.5143343109
 21
40.0345546799
 31
0.0
  0
LINE
  5
1AF
330
1F
100
AcDbEntity
  8
0
  6
Continuous
 62
     7
370
    25
100
AcDbLine
 10
115.5152643408
 20
39.9840355525
 30
0.0
 11
115.5155917007
 21
40.0345546799
 31
0.0
  0
SPLINE
  5
1B0
330
1F
100
AcDbEntity
  8
0
  6
Continuous
 62
     7
370
    25
100
AcDbSpline
210
0.0
220
0.0
230
1.0
 70
     8
 71
     3
 72
    12
 73
     8
 74
     0
 42
0.000000001
 43
0.00000001
 40
0.0
 40
0.0
 40
0.0
 40
0.0
 40
0.25
 40
0.25
 40
0.5
 40
0.5
 40
1.0
 40
1.0
 40
1.0
 40
1.0
 10
115.5141342281374
 20
40.13880349934219
 30
0.0
 10
115.5141278312074
 20
40.1306165424248
 30
0.0
 10
115.5072224395908
 20
40.1245979106443
 30
0.0
 10
115.4900032561967
 20
40.11316107340079
 30
0.0
 10
115.4796894644192
 20
40.10774286793778
 30
0.0
 10
115.4592198726638
 20
40.08678455509062
 30
0.0
 10
115.4562901070201
 20
40.07903531827369
 30
0.0
 10
115.4563843620192
 20
40.0789410632746
 30
0.0
  0
SPLINE
  5
1B1
330
1F
100
AcDbEntity
  8
0
  6
Continuous
 62
     7
370
    25
100
AcDbSpline
210
0.0
220
0.0
230
1.0
 70
     8
 71
     3
 72
    12
 73
     8
 74
     0
 42
0.000000001
 43
0.00000001
 40
0.0
 40
0.0
 40
0.0
 40
0.0
 40
0.25
 40
0.25
 40
0.5
 40
0.5
 40
1.0
 40
1.0
 40
1.0
 40
1.0
 10
103.5157917834233
 20
40.13880349934219
 30
0.0
 10
103.5157853864933
 20
40.14699045625958
 30
0.0
 10
103.5226768929002
 20
40.15874247605581
 30
0.0
 10
103.5518107928064
 20
40.1842284431549
 30
0.0
 10
103.5740531863058
 20
40.19796239045774
 30
0.0
 10
103.6661393180707
 20
40.23441482624953
 30
0.0
 10
103.7476045955485
 20
40.22894555329056
 30
0.0
 10
103.8436791500759
 20
40.1960941032561
 30
0.0
  0
SPLINE
  5
1B2
330
1F
100
AcDbEntity
  8
0
  6
Continuous
 62
     7
370
    25
100
AcDbSpline
210
0.0
220
0.0
230
1.0
 70
     8
 71
     3
 72
    12
 73
     8
 74
     0
 42
0.000000001
 43
0.00000001
 40
0.0
 40
0.0
 40
0.0
 40
0.0
 40
0.25
 40
0.25
 40
0.5
 40
0.5
 40
1.0
 40
1.0
 40
1.0
 40
1.0
 10
115.5141342281374
 20
40.13880349934219
 30
0.0
 10
115.5141406250674
 20
40.14699045625958
 30
0.0
 10
115.5072491186605
 20
40.15874247605581
 30
0.0
 10
115.4781152187542
 20
40.18422844315489
 30
0.0
 10
115.4558728252549
 20
40.19796239045773
 30
0.0
 10
115.36378669349
 20
40.23441482624952
 30
0.0
 10
115.2823214160122
 20
40.22894555329056
 30
0.0
 10
115.1862468614847
 20
40.1960941032561
 30
0.0
  0
SPLINE
  5
1B3
330
1F
100
AcDbEntity
  8
0
  6
Continuous
 62
     7
370
    25
100
AcDbSpline
210
0.0
220
0.0
230
1.0
 70
     8
 71
     3
 72
    10
 73
     6
 74
     0
 42
0.000000001
 43
0.00000001
 40
0.0
 40
0.0
 40
0.0
 40
0.0
 40
0.5
 40
0.5
 40
1.0
 40
1.0
 40
1.0
 40
1.0
 10
115.5141342281374
 20
40.13880349934219
 30
0.0
 10
115.5141598158573
 20
40.17155132701174
 30
0.0
 10
115.5144448197928
 20
40.20630835453051
 30
0.0
 10
115.5114373842
 20
40.27758451242847
 30
0.0
 10
115.5149630057803
 20
40.30358682508938
 30
0.0
 10
115.5149630057803
 20
40.33751970703882
 30
0.0
  0
SPLINE
  5
1B4
330
1F
100
AcDbEntity
  8
0
  6
Continuous
 62
     7
370
    25
100
AcDbSpline
210
0.0
220
0.0
230
1.0
 70
     8
 71
     3
 72
    10
 73
     6
 74
     0
 42
0.000000001
 43
0.00000001
 40
0.0
 40
0.0
 40
0.0
 40
0.0
 40
0.5
 40
0.5
 40
1.0
 40
1.0
 40
1.0
 40
1.0
 10
103.5157917834233
 20
40.13880349934219
 30
0.0
 10
103.5157661957034
 20
40.17155132701174
 30
0.0
 10
103.5154811917678
 20
40.20630835453051
 30
0.0
 10
103.5184886273607
 20
40.27758451242847
 30
0.0
 10
103.5149630057803
 20
40.30358682508938
 30
0.0
 10
103.5149630057803
 20
40.33751970703882
 30
0.0
  0
SPLINE
  5
1B5
330
1F
100
AcDbEntity
  8
0
  6
Continuous
 62
     8
370
    25
100
AcDbSpline
210
0.0
220
0.0
230
1.0
 70
     8
 71
     3
 72
    48
 73
    44
 74
     0
 42
0.000000001
 43
0.00000001
 40
0.0
 40
0.0
 40
0.0
 40
0.0
 40
0.0087362799816988
 40
0.0281170459772675
 40
0.0497313322586104
 40
0.0755991975999553
 40
0.1002935199444022
 40
0.1257982516720855
 40
0.1674253939777847
 40
0.2090491868432355
 40
0.2506702163580502
 40
0.2922890258687971
 40
0.3339062206955977
 40
0.3755223846315167
 40
0.4104869161507582
 40
0.4454514615360319
 40
0.4762240487219241
 40
0.4802553673739826
 40
0.4842866989907738
 40
0.4883180374809885
 40
0.4923493880171024
 40
0.496380748394268
 40
0.5005495893118603
 40
0.5402758841023422
 40
0.5783596329482683
 40
0.6148004440508935
 40
0.6495979642267696
 40
0.6827518408594865
 40
0.7142617354747058
 40
0.7441273438027044
 40
0.7723483614341421
 40
0.798924489696739
 40
0.835692567498085
 40
0.8687613245244323
 40
0.8981293588283116
 40
0.9237954297450793
 40
0.9457584481251806
 40
0.9640174640082019
 40
0.9785716940689075
 40
0.9894204883428598
 40
0.9951251416816319
 40
0.998745008688449
 40
1.0
 40
1.0
 40
1.0
 40
1.0
 10
116.1327652010313
 20
43.70889883960766
 30
0.0
 10
116.1335064017957
 20
43.70882823497217
 30
0.0
 10
116.1358918995148
 20
43.70860099937689
 30
0.0
 10
116.1127158075279
 20
43.70837710446841
 30
0.0
 10
116.058973333099
 20
43.70847986449088
 30
0.0
 10
115.9627823494086
 20
43.70889747953071
 30
0.0
 10
115.8216014522984
 20
43.70954192773015
 30
0.0
 10
115.6035389678318
 20
43.71053715362518
 30
0.0
 10
115.267039945924
 20
43.70982906486763
 30
0.0
 10
114.7840299009251
 20
43.70978263079013
 30
0.0
 10
114.2104857454474
 20
43.70957996230894
 30
0.0
 10
113.5567927160342
 20
43.7094647711545
 30
0.0
 10
112.8339947652249
 20
43.70937381934289
 30
0.0
 10
112.095907714218
 20
43.70932472012731
 30
0.0
 10
111.3639209043694
 20
43.70930907426042
 30
0.0
 10
110.6816229158081
 20
43.70931916469917
 30
0.0
 10
110.2002714427926
 20
43.70934442309698
 30
0.0
 10
109.9313820967842
 20
43.70936135834727
 30
0.0
 10
109.8475750946681
 20
43.7093687238104
 30
0.0
 10
109.7637149626437
 20
43.70937310355831
 30
0.0
 10
109.6798146377666
 20
43.70938174673557
 30
0.0
 10
109.5949321938248
 20
43.70938756313218
 30
0.0
 10
109.2623057193303
 20
43.70941727435492
 30
0.0
 10
108.6927237252785
 20
43.7094688057121
 30
0.0
 10
107.9115953980517
 20
43.70954007176572
 30
0.0
 10
107.1857396991208
 20
43.70961026095356
 30
0.0
 10
106.5213264253411
 20
43.70967720300274
 30
0.0
 10
105.9217448958209
 20
43.70974153902678
 30
0.0
 10
105.3881822981214
 20
43.70980277068862
 30
0.0
 10
104.9199338764979
 20
43.70986218821757
 30
0.0
 10
104.5147527472181
 20
43.70992059952868
 30
0.0
 10
104.1179644073509
 20
43.70998186671822
 30
0.0
 10
103.7538302795243
 20
43.71004984773187
 30
0.0
 10
103.4451389217344
 20
43.71012129450924
 30
0.0
 10
103.2260636053611
 20
43.7101872626884
 30
0.0
 10
103.0785503179958
 20
43.71024761474177
 30
0.0
 10
102.9856089124162
 20
43.71030213053391
 30
0.0
 10
102.9320382450489
 20
43.71035143882239
 30
0.0
 10
102.904865993514
 20
43.71039355423022
 30
0.0
 10
102.8940907445554
 20
43.7104278148583
 30
0.0
 10
102.8907448229306
 20
43.71045846750707
 30
0.0
 10
102.8900343803142
 20
43.71047443242837
 30
0.0
 10
102.8899780511442
 20
43.71049088971134
 30
0.0
 10
102.8899635496727
 20
43.71049512650055
 30
0.0
  0
LINE
  5
1B6
330
1F
100
AcDbEntity
  8
0
  6
Continuous
 62
     8
370
    25
100
AcDbLine
 10
116.7649627972
 20
44.6375196474
 30
0.0
 11
102.2649632144
 21
44.6375196474
 31
0.0
  0
LINE
  5
1B7
330
1F
100
AcDbEntity
  8
0
  6
Continuous
 62
     8
370
    25
100
AcDbLine
 10
103.5149648163
 20
42.7834696742
 30
0.0
 11
115.5149611953
 21
42.7834696742
 31
0.0
  0
LINE
  5
1B8
330
1F
100
AcDbEntity
  8
0
  6
Continuous
 62
     8
370
    25
100
AcDbLine
 10
103.7149630795
 20
29.2875196459
 30
0.0
 11
103.7149630795
 21
28.8375194791
 31
0.0
  0
LINE
  5
1B9
330
1F
100
AcDbEntity
  8
0
  6
Continuous
 62
     8
370
    25
100
AcDbLine
 10
103.7149630795
 20
28.8375194791
 30
0.0
 11
104.0815018426
 21
28.8375194791
 31
0.0
  0
LINE
  5
1BA
330
1F
100
AcDbEntity
  8
0
  6
Continuous
 62
     8
370
    25
100
AcDbLine
 10
115.314962932
 20
28.8375194791
 30
0.0
 11
115.314962932
 21
29.2875196459
 31
0.0
  0
LINE
  5
1BB
330
1F
100
AcDbEntity
  8
0
  6
Continuous
 62
     8
370
    25
100
AcDbLine
 10
114.948424169
 20
28.8375194791
 30
0.0
 11
115.314962932
 21
28.8375194791
 31
0.0
  0
LINE
  5
1BC
330
1F
100
AcDbEntity
  8
0
  6
Continuous
 62
     8
370
    25
100
AcDbLine
 10
115.314962932
 20
37.9875197681
 30
0.0
 11
115.314962932
 21
38.437519935
 31
0.0
  0
LINE
  5
1BD
330
1F
100
AcDbEntity
  8
0
  6
Continuous
 62
     8
370
    25
100
AcDbLine
 10
115.314962932
 20
38.437519935
 30
0.0
 11
114.948424169
 21
38.437519935
 31
0.0
  0
LINE
  5
1BE
330
1F
100
AcDbEntity
  8
0
  6
Continuous
 62
     8
370
    25
100
AcDbLine
 10
103.7149630795
 20
38.437519935
 30
0.0
 11
103.7149630795
 21
37.9875197681
 31
0.0
  0
LINE
  5
1BF
330
1F
100
AcDbEntity
  8
0
  6
Continuous
 62
     8
370
    25
100
AcDbLine
 10
104.0815018426
 20
38.437519935
 30
0.0
 11
103.7149630795
 21
38.437519935
 31
0.0
  0
SPLINE
  5
1C0
330
1F
100
AcDbEntity
  8
0
  6
Continuous
 62
     8
370
    25
100
AcDbSpline
210
0.0
220
0.0
230
1.0
 70
     8
 71
     3
 72
    11
 73
     7
 74
     0
 42
0.000000001
 43
0.00000001
 40
0.0
 40
0.0
 40
0.0
 40
0.0
 40
0.0329360764370519
 40
0.2435592271345444
 40
0.5971873512547256
 40
1.0
 40
1.0
 40
1.0
 40
1.0
 10
112.8228030941627
 20
40.07808935369533
 30
0.0
 10
112.8257270021635
 20
40.0847575755653
 30
0.0
 10
112.8473490303447
 20
40.1340684571487
 30
0.0
 10
112.9406903834669
 20
40.21990436889366
 30
0.0
 10
113.1041721245083
 20
40.31637697975165
 30
0.0
 10
113.2402132974518
 20
40.330172984249
 30
0.0
 10
113.3126566494993
 20
40.3375195014028
 30
0.0
  0
LINE
  5
1C1
330
1F
100
AcDbEntity
  8
0
  6
Continuous
 62
     8
370
    25
100
AcDbLine
 10
113.5846680339
 20
39.6375197592
 30
0.0
 11
115.314962932
 21
39.6375197592
 31
0.0
  0
LINE
  5
1C2
330
1F
100
AcDbEntity
  8
0
  6
Continuous
 62
     8
370
    25
100
AcDbLine
 10
103.7149630795
 20
39.6375197592
 30
0.0
 11
105.4452579777
 21
39.6375197592
 31
0.0
  0
SPLINE
  5
1C3
330
1F
100
AcDbEntity
  8
0
  6
Continuous
 62
     8
370
    25
100
AcDbSpline
210
0.0
220
0.0
230
1.0
 70
     8
 71
     3
 72
    11
 73
     7
 74
     0
 42
0.000000001
 43
0.00000001
 40
0.0
 40
0.0
 40
0.0
 40
0.0
 40
0.0144383052780494
 40
0.2070618625724267
 40
0.57025953657849
 40
1.0
 40
1.0
 40
1.0
 40
1.0
 10
112.9370395868263
 20
40.01199013094586
 30
0.0
 10
112.9388232553131
 20
40.01390795246724
 30
0.0
 10
112.9644031077937
 20
40.04141171337628
 30
0.0
 10
113.062494403737
 20
40.07905273883136
 30
0.0
 10
113.2270972205373
 20
40.1280451700544
 30
0.0
 10
113.3646812269277
 20
40.13418973498381
 30
0.0
 10
113.4392462047926
 20
40.13751984114927
 30
0.0
  0
LINE
  5
1C4
330
1F
100
AcDbEntity
  8
0
  6
Continuous
 62
     8
370
    25
100
AcDbLine
 10
115.314962932
 20
39.9375197152
 30
0.0
 11
113.1027896266
 21
39.9375197152
 31
0.0
  0
SPLINE
  5
1C5
330
1F
100
AcDbEntity
  8
0
  6
Continuous
 62
     8
370
    25
100
AcDbSpline
210
0.0
220
0.0
230
1.0
 70
     8
 71
     3
 72
     9
 73
     5
 74
     0
 42
0.000000001
 43
0.00000001
 40
0.0
 40
0.0
 40
0.0
 40
0.0
 40
0.1250039728915086
 40
1.0
 40
1.0
 40
1.0
 40
1.0
 10
103.5143343108884
 20
40.03455467994493
 30
0.0
 10
103.5142998709874
 20
40.03889902241747
 30
0.0
 10
103.5140243605356
 20
40.07365265761836
 30
0.0
 10
103.5149670132967
 20
40.10839993748353
 30
0.0
 10
103.5157918307177
 20
40.13880366931838
 30
0.0
  0
SPLINE
  5
1C6
330
1F
100
AcDbEntity
  8
0
  6
Continuous
 62
     8
370
    25
100
AcDbSpline
210
0.0
220
0.0
230
1.0
 70
     8
 71
     3
 72
     9
 73
     5
 74
     0
 42
0.000000001
 43
0.00000001
 40
0.0
 40
0.0
 40
0.0
 40
0.0
 40
0.1250039728915086
 40
1.0
 40
1.0
 40
1.0
 40
1.0
 10
115.5155917006723
 20
40.03455467994493
 30
0.0
 10
115.5156261405733
 20
40.03889902241747
 30
0.0
 10
115.5159016510251
 20
40.07365265761836
 30
0.0
 10
115.5149589982639
 20
40.10839993748353
 30
0.0
 10
115.514134180843
 20
40.13880366931838
 30
0.0
  0
INSERT
  5
1D2
330
1F
100
AcDbEntity
  8
0
  6
Continuous
 62
     7
370
    18
100
AcDbBlockReference
  2
SW_CENTERMARKSYMBOL_0
 10
109.5149630058
 20
33.637519707
 30
0.0
  0
ARC
  5
1D3
330
1F
100
AcDbEntity
  8
0
  6
Continuous
 62
     7
370
    18
100
AcDbCircle
 10
109.5149630058
 20
33.637519707
 30
0.0
 40
4.929555000000006
100
AcDbArc
 50
75.0
 51
345.0
  0
ARC
  5
1D4
330
1F
100
AcDbEntity
  8
0
  6
Continuous
 62
     7
370
    18
100
AcDbCircle
 10
109.5149630058
 20
33.637519707
 30
0.0
 40
4.929555000000006
100
AcDbArc
 50
75.0
 51
345.0
  0
SPLINE
  5
1D5
330
1F
100
AcDbEntity
  8
0
  6
Continuous
 62
     7
370
    25
100
AcDbSpline
210
0.0
220
0.0
230
1.0
 70
     8
 71
     3
 72
    11
 73
     7
 74
     0
 42
0.000000001
 43
0.00000001
 40
0.0
 40
0.0
 40
0.0
 40
0.0
 40
0.2500907897024823
 40
0.5000509169085089
 40
0.7499732838271033
 40
1.0
 40
1.0
 40
1.0
 40
1.0
 10
51.27859454146501
 20
88.77913784704815
 30
0.0
 10
51.17986819243534
 20
88.78777505742065
 30
0.0
 10
50.98246707496895
 20
88.80504496556658
 30
0.0
 10
50.71308110372136
 20
88.93829841213814
 30
0.0
 10
50.48805114691765
 20
89.13747812897407
 30
0.0
 10
50.39760894701483
 20
89.313743840881
 30
0.0
 10
50.35237840852615
 20
89.40189509190331
 30
0.0
  0
ARC
  5
1D6
330
1F
100
AcDbEntity
  8
0
  6
Continuous
 62
     7
370
    25
100
AcDbCircle
 10
71.4245445087
 20
89.0315364162
 30
0.0
 40
1.0
100
AcDbArc
 50
90.0
 51
158.2193181213
  0
ARC
  5
1D7
330
1F
100
AcDbEntity
  8
0
  6
Continuous
 62
     7
370
    25
100
AcDbCircle
 10
71.4245445087
 20
76.5315364162
 30
0.0
 40
1.0
100
AcDbArc
 50
202.032971336
 51
270.0
  0
ARC
  5
1D8
330
1F
100
AcDbEntity
  8
0
  6
Continuous
 62
     7
370
    25
100
AcDbCircle
 10
49.4245445087
 20
76.5315364162
 30
0.0
 40
1.0
100
AcDbArc
 50
270.0
 51
337.9687016856
  0
ARC
  5
1D9
330
1F
100
AcDbEntity
  8
0
  6
Continuous
 62
     7
370
    25
100
AcDbCircle
 10
49.4245445087
 20
89.0315364162
 30
0.0
 40
1.000000000000007
100
AcDbArc
 50
21.7631321332
 51
90.0
  0
LINE
  5
1DA
330
1F
100
AcDbEntity
  8
0
  6
Continuous
 62
     7
370
    25
100
AcDbLine
 10
81.9245452388
 20
90.0315362076
 30
0.0
 11
71.4245444491
 21
90.0315362076
 31
0.0
  0
LINE
  5
1DB
330
1F
100
AcDbEntity
  8
0
  6
Continuous
 62
     7
370
    25
100
AcDbLine
 10
71.4245444491
 20
75.5315366248
 30
0.0
 11
81.9245452388
 21
75.5315366248
 31
0.0
  0
LINE
  5
1DC
330
1F
100
AcDbEntity
  8
0
  6
Continuous
 62
     7
370
    25
100
AcDbLine
 10
81.9245452388
 20
75.5315366248
 30
0.0
 11
82.4245443895
 21
76.0315362411
 31
0.0
  0
LINE
  5
1DD
330
1F
100
AcDbEntity
  8
0
  6
Continuous
 62
     7
370
    25
100
AcDbLine
 10
82.4245443895
 20
89.5315365913
 30
0.0
 11
81.9245452388
 21
90.0315362076
 31
0.0
  0
LINE
  5
1DE
330
1F
100
AcDbEntity
  8
0
  6
Continuous
 62
     7
370
    25
100
AcDbLine
 10
38.9245437785
 20
75.5315366248
 30
0.0
 11
49.4245445683
 21
75.5315366248
 31
0.0
  0
LINE
  5
1DF
330
1F
100
AcDbEntity
  8
0
  6
Continuous
 62
     7
370
    25
100
AcDbLine
 10
49.4245445683
 20
90.0315362076
 30
0.0
 11
38.9245437785
 21
90.0315362076
 31
0.0
  0
LINE
  5
1E0
330
1F
100
AcDbEntity
  8
0
  6
Continuous
 62
     7
370
    25
100
AcDbLine
 10
38.9245437785
 20
90.0315362076
 30
0.0
 11
38.4245446279
 21
89.5315365913
 31
0.0
  0
LINE
  5
1E1
330
1F
100
AcDbEntity
  8
0
  6
Continuous
 62
     7
370
    25
100
AcDbLine
 10
38.4245446279
 20
76.0315362411
 30
0.0
 11
38.9245437785
 21
75.5315366248
 31
0.0
  0
SPLINE
  5
1E2
330
1F
100
AcDbEntity
  8
0
  6
Continuous
 62
     7
370
    25
100
AcDbSpline
210
0.0
220
0.0
230
1.0
 70
     8
 71
     3
 72
    11
 73
     7
 74
     0
 42
0.000000001
 43
0.00000001
 40
0.0
 40
0.0
 40
0.0
 40
0.0
 40
0.2500267161728967
 40
0.4999490830914911
 40
0.7499092102975177
 40
1.0
 40
1.0
 40
1.0
 40
1.0
 10
70.49671060881492
 20
89.40189509190331
 30
0.0
 10
70.45148007032623
 20
89.313743840881
 30
0.0
 10
70.36103787042342
 20
89.13747812897407
 30
0.0
 10
70.13600791361971
 20
88.93829841213814
 30
0.0
 10
69.86662194237212
 20
88.80504496556658
 30
0.0
 10
69.66922082490574
 20
88.78777505742065
 30
0.0
 10
69.57049447587606
 20
88.77913784704815
 30
0.0
  0
LINE
  5
1E3
330
1F
100
AcDbEntity
  8
0
  6
Continuous
 62
     7
370
    25
100
AcDbLine
 10
53.7245447143
 20
88.7815364683
 30
0.0
 11
51.2785945415
 21
88.7815364683
 31
0.0
  0
LINE
  5
1E4
330
1F
100
AcDbEntity
  8
0
  6
Continuous
 62
     7
370
    25
100
AcDbLine
 10
69.5704944759
 20
88.7815364683
 30
0.0
 11
67.924544341
 21
88.7815364683
 31
0.0
  0
LINE
  5
1E5
330
1F
100
AcDbEntity
  8
0
  6
Continuous
 62
     7
370
    25
100
AcDbLine
 10
67.124544303
 20
76.781536364
 30
0.0
 11
69.5704944759
 21
76.781536364
 31
0.0
  0
LINE
  5
1E6
330
1F
100
AcDbEntity
  8
0
  6
Continuous
 62
     7
370
    25
100
AcDbLine
 10
51.2785945415
 20
76.781536364
 30
0.0
 11
53.7245447143
 21
76.781536364
 31
0.0
  0
ARC
  5
1E7
330
1F
100
AcDbEntity
  8
0
  6
Continuous
 62
     7
370
    25
100
AcDbCircle
 10
67.1745445087
 20
88.8315364162
 30
0.0
 40
0.25
100
AcDbArc
 50
90.0
 51
180.0
  0
ARC
  5
1E8
330
1F
100
AcDbEntity
  8
0
  6
Continuous
 62
     7
370
    25
100
AcDbCircle
 10
67.6745445087
 20
88.8315364162
 30
0.0
 40
0.25
100
AcDbArc
 50
0.0
 51
90.0
  0
LINE
  5
1E9
330
1F
100
AcDbEntity
  8
0
  6
Continuous
 62
     7
370
    25
100
AcDbLine
 10
67.924544341
 20
88.7815364683
 30
0.0
 11
67.924544341
 21
88.8315363834
 31
0.0
  0
LINE
  5
1EA
330
1F
100
AcDbEntity
  8
0
  6
Continuous
 62
     7
370
    25
100
AcDbLine
 10
66.9245446428
 20
88.8315363834
 30
0.0
 11
66.9245446428
 21
88.7815364683
 31
0.0
  0
CIRCLE
  5
1EB
330
1F
100
AcDbEntity
  8
0
  6
Continuous
 62
     7
370
    25
100
AcDbCircle
 10
60.4245445087
 20
82.7815364162
 30
0.0
 40
4.999999999999986
  0
CIRCLE
  5
1EC
330
1F
100
AcDbEntity
  8
0
  6
Continuous
 62
     7
370
    25
100
AcDbCircle
 10
60.4245445087
 20
82.7815364162
 30
0.0
 40
6.749999999999986
  0
CIRCLE
  5
1ED
330
1F
100
AcDbEntity
  8
0
  6
Continuous
 62
     7
370
    25
100
AcDbCircle
 10
60.4245445087
 20
82.7815364162
 30
0.0
 40
7.25
  0
CIRCLE
  5
1EE
330
1F
100
AcDbEntity
  8
0
  6
Continuous
 62
     7
370
    25
100
AcDbCircle
 10
60.4245445087
 20
82.7815364162
 30
0.0
 40
4.61842363379666
  0
CIRCLE
  5
1EF
330
1F
100
AcDbEntity
  8
0
  6
Continuous
 62
     7
370
    25
100
AcDbCircle
 10
60.4245445087
 20
82.7815364162
 30
0.0
 40
4.34249709987953
  0
CIRCLE
  5
1F0
330
1F
100
AcDbEntity
  8
0
  6
Continuous
 62
     7
370
    25
100
AcDbCircle
 10
60.4245445087
 20
82.7815364162
 30
0.0
 40
4.282999999999994
  0
CIRCLE
  5
1F1
330
1F
100
AcDbEntity
  8
0
  6
Continuous
 62
     7
370
    25
100
AcDbCircle
 10
60.4245445087
 20
82.7815364162
 30
0.0
 40
2.0
  0
LINE
  5
1F2
330
1F
100
AcDbEntity
  8
0
  6
Continuous
 62
     7
370
    25
100
AcDbLine
 10
50.3532762035
 20
89.4021144184
 30
0.0
 11
50.3532976239
 21
89.4022191922
 31
0.0
  0
SPLINE
  5
1F3
330
1F
100
AcDbEntity
  8
0
  6
Continuous
 62
     7
370
    25
100
AcDbSpline
210
0.0
220
0.0
230
1.0
 70
     8
 71
     3
 72
     9
 73
     5
 74
     0
 42
0.000000001
 43
0.00000001
 40
0.001813512106624
 40
0.001813512106624
 40
0.001813512106624
 40
0.001813512106624
 40
0.501813512106624
 40
1.0
 40
1.0
 40
1.0
 40
1.0
 10
51.27859413044445
 20
76.77943383643573
 30
0.0
 10
51.08086087172791
 20
76.77947569877136
 30
0.0
 10
50.68655727972697
 20
76.65877729150223
 30
0.0
 10
50.42666320262818
 20
76.33876816758787
 30
0.0
 10
50.35237835630291
 20
76.15620939097589
 30
0.0
  0
LINE
  5
1F4
330
1F
100
AcDbEntity
  8
0
  6
Continuous
 62
     7
370
    25
100
AcDbLine
 10
81.9245452388
 20
75.5315366248
 30
0.0
 11
81.9245452388
 21
90.0315362076
 31
0.0
  0
LINE
  5
1F5
330
1F
100
AcDbEntity
  8
0
  6
Continuous
 62
     7
370
    25
100
AcDbLine
 10
82.4245443895
 20
89.5315365913
 30
0.0
 11
82.4245443895
 21
76.0315362411
 31
0.0
  0
LINE
  5
1F6
330
1F
100
AcDbEntity
  8
0
  6
Continuous
 62
     7
370
    25
100
AcDbLine
 10
38.9245437785
 20
82.7815364162
 30
0.0
 11
38.9245437785
 21
75.5315366248
 31
0.0
  0
LINE
  5
1F7
330
1F
100
AcDbEntity
  8
0
  6
Continuous
 62
     7
370
    25
100
AcDbLine
 10
38.9245437785
 20
90.0315362076
 30
0.0
 11
38.9245437785
 21
82.7815364162
 31
0.0
  0
LINE
  5
1F8
330
1F
100
AcDbEntity
  8
0
  6
Continuous
 62
     7
370
    25
100
AcDbLine
 10
38.4245446279
 20
76.0315362411
 30
0.0
 11
38.4245446279
 21
89.5315365913
 31
0.0
  0
SPLINE
  5
1F9
330
1F
100
AcDbEntity
  8
0
  6
Continuous
 62
     7
370
    25
100
AcDbSpline
210
0.0
220
0.0
230
1.0
 70
     8
 71
     3
 72
     9
 73
     5
 74
     0
 42
0.000000001
 43
0.00000001
 40
0.001813512106624
 40
0.001813512106624
 40
0.001813512106624
 40
0.001813512106624
 40
0.501813512106624
 40
1.0
 40
1.0
 40
1.0
 40
1.0
 10
69.57049488689663
 20
76.77943383643573
 30
0.0
 10
69.76822814561316
 20
76.77947569877136
 30
0.0
 10
70.16253173761409
 20
76.65877729150223
 30
0.0
 10
70.4224258147129
 20
76.33876816758787
 30
0.0
 10
70.49671066103816
 20
76.15620939097589
 30
0.0
  0
LINE
  5
1FA
330
1F
100
AcDbEntity
  8
0
  6
Continuous
 62
     7
370
    25
100
AcDbLine
 10
64.4942495368
 20
88.7815364683
 30
0.0
 11
65.2245447367
 21
88.7815364683
 31
0.0
  0
LINE
  5
1FB
330
1F
100
AcDbEntity
  8
0
  6
Continuous
 62
     7
370
    25
100
AcDbLine
 10
65.2245447367
 20
88.5815363424
 30
0.0
 11
65.2245447367
 21
88.7815364683
 31
0.0
  0
LINE
  5
1FC
330
1F
100
AcDbEntity
  8
0
  6
Continuous
 62
     7
370
    25
100
AcDbLine
 10
55.6245442807
 20
88.5815363424
 30
0.0
 11
55.6245442807
 21
88.7815364683
 31
0.0
  0
LINE
  5
1FD
330
1F
100
AcDbEntity
  8
0
  6
Continuous
 62
     7
370
    25
100
AcDbLine
 10
55.6245442807
 20
88.7815364683
 30
0.0
 11
56.3548394806
 21
88.7815364683
 31
0.0
  0
LINE
  5
1FE
330
1F
100
AcDbEntity
  8
0
  6
Continuous
 62
     7
370
    25
100
AcDbLine
 10
65.4245443969
 20
76.9815364899
 30
0.0
 11
65.4245443969
 21
77.531536487
 31
0.0
  0
LINE
  5
1FF
330
1F
100
AcDbEntity
  8
0
  6
Continuous
 62
     7
370
    25
100
AcDbLine
 10
65.2245447367
 20
76.781536364
 30
0.0
 11
64.4942495368
 21
76.781536364
 31
0.0
  0
ARC
  5
200
330
1F
100
AcDbEntity
  8
0
  6
Continuous
 62
     7
370
    25
100
AcDbCircle
 10
65.2245445087
 20
76.9815364162
 30
0.0
 40
0.2000000000000028
100
AcDbArc
 50
270.0
 51
0.0
  0
LINE
  5
201
330
1F
100
AcDbEntity
  8
0
  6
Continuous
 62
     7
370
    25
100
AcDbLine
 10
56.3548394806
 20
76.781536364
 30
0.0
 11
55.6245442807
 21
76.781536364
 31
0.0
  0
LINE
  5
202
330
1F
100
AcDbEntity
  8
0
  6
Continuous
 62
     7
370
    25
100
AcDbLine
 10
55.6245442807
 20
76.9815364899
 30
0.0
 11
55.6245442807
 21
76.781536364
 31
0.0
  0
ARC
  5
203
330
1F
100
AcDbEntity
  8
0
  6
Continuous
 62
     7
370
    25
100
AcDbCircle
 10
65.2245445087
 20
88.5815364162
 30
0.0
 40
0.2000000000000028
100
AcDbArc
 50
0.0
 51
90.0
  0
LINE
  5
204
330
1F
100
AcDbEntity
  8
0
  6
Continuous
 62
     7
370
    25
100
AcDbLine
 10
65.2245447367
 20
88.5815363424
 30
0.0
 11
65.4245443969
 21
88.5815363424
 31
0.0
  0
LINE
  5
205
330
1F
100
AcDbEntity
  8
0
  6
Continuous
 62
     7
370
    25
100
AcDbLine
 10
65.4245443969
 20
88.5815363424
 30
0.0
 11
65.4245443969
 21
88.0315363454
 31
0.0
  0
LINE
  5
206
330
1F
100
AcDbEntity
  8
0
  6
Continuous
 62
     7
370
    25
100
AcDbLine
 10
55.6245442807
 20
88.5815363424
 30
0.0
 11
55.4245446204
 21
88.5815363424
 31
0.0
  0
ARC
  5
207
330
1F
100
AcDbEntity
  8
0
  6
Continuous
 62
     7
370
    25
100
AcDbCircle
 10
55.6245445087
 20
88.5815364162
 30
0.0
 40
0.1999999999999957
100
AcDbArc
 50
90.0
 51
180.0
  0
LINE
  5
208
330
1F
100
AcDbEntity
  8
0
  6
Continuous
 62
     7
370
    25
100
AcDbLine
 10
55.4245446204
 20
88.0315363454
 30
0.0
 11
55.4245446204
 21
88.5815363424
 31
0.0
  0
LINE
  5
209
330
1F
100
AcDbEntity
  8
0
  6
Continuous
 62
     7
370
    25
100
AcDbLine
 10
55.6245442807
 20
76.9815364899
 30
0.0
 11
55.4245446204
 21
76.9815364899
 31
0.0
  0
LINE
  5
20A
330
1F
100
AcDbEntity
  8
0
  6
Continuous
 62
     7
370
    25
100
AcDbLine
 10
55.4245446204
 20
76.9815364899
 30
0.0
 11
55.4245446204
 21
77.531536487
 31
0.0
  0
ARC
  5
20B
330
1F
100
AcDbEntity
  8
0
  6
Continuous
 62
     7
370
    25
100
AcDbCircle
 10
55.6245445087
 20
76.9815364162
 30
0.0
 40
0.2000000000000028
100
AcDbArc
 50
180.0
 51
270.0
  0
SPLINE
  5
20C
330
1F
100
AcDbEntity
  8
0
  6
Continuous
 62
     7
370
    25
100
AcDbSpline
210
0.0
220
0.0
230
1.0
 70
    24
 71
     3
 72
    14
 73
    10
 74
     0
 42
0.000000001
 43
0.00000001
 40
0.0
 40
0.0
 40
0.0
 40
0.0
 40
0.25
 40
0.25
 40
0.5
 40
0.5
 40
0.75
 40
0.75
 40
1.0
 40
1.0
 40
1.0
 40
1.0
 10
53.72454450867053
 20
88.78153641618499
 30
0.0
 10
53.72454450867053
 20
88.78153641618499
 30
0.0
 10
53.72454450867053
 20
88.77357099755119
 30
0.0
 10
53.72454450867053
 20
88.74163782080578
 30
0.0
 10
53.72454450867053
 20
88.7176698297618
 30
0.0
 10
53.72454450867053
 20
88.65352001660206
 30
0.0
 10
53.72454450867053
 20
88.61333771509952
 30
0.0
 10
53.72454450867053
 20
88.51641841877993
 30
0.0
 10
53.72454450867053
 20
88.45968067134991
 30
0.0
 10
53.72454450867053
 20
88.39443964199145
 30
0.0
  0
LINE
  5
20D
330
1F
100
AcDbEntity
  8
0
  6
Continuous
 62
     7
370
    25
100
AcDbLine
 10
53.7245447143
 20
86.5792300599
 30
0.0
 11
53.7245447143
 21
88.3944396908
 31
0.0
  0
LINE
  5
20E
330
1F
100
AcDbEntity
  8
0
  6
Continuous
 62
     7
370
    25
100
AcDbLine
 10
53.7245447143
 20
77.1686331416
 30
0.0
 11
53.7245447143
 21
78.9838427725
 31
0.0
  0
SPLINE
  5
20F
330
1F
100
AcDbEntity
  8
0
  6
Continuous
 62
     7
370
    25
100
AcDbSpline
210
0.0
220
0.0
230
1.0
 70
    24
 71
     3
 72
    14
 73
    10
 74
     0
 42
0.000000001
 43
0.00000001
 40
0.0
 40
0.0
 40
0.0
 40
0.0
 40
0.25
 40
0.25
 40
0.5
 40
0.5
 40
0.75
 40
0.75
 40
1.0
 40
1.0
 40
1.0
 40
1.0
 10
53.72454450867053
 20
76.781536416185
 30
0.0
 10
53.72454450867053
 20
76.781536416185
 30
0.0
 10
53.72454450867053
 20
76.78950183481882
 30
0.0
 10
53.72454450867053
 20
76.82143501156423
 30
0.0
 10
53.72454450867053
 20
76.84540300260821
 30
0.0
 10
53.72454450867053
 20
76.90955281576795
 30
0.0
 10
53.72454450867053
 20
76.94973511727049
 30
0.0
 10
53.72454450867053
 20
77.04665441359008
 30
0.0
 10
53.72454450867053
 20
77.1033921610201
 30
0.0
 10
53.72454450867053
 20
77.16863319037854
 30
0.0
  0
SPLINE
  5
210
330
1F
100
AcDbEntity
  8
0
  6
Continuous
 62
     7
370
    25
100
AcDbSpline
210
0.0
220
0.0
230
1.0
 70
    24
 71
     3
 72
    14
 73
    10
 74
     0
 42
0.000000001
 43
0.00000001
 40
0.0
 40
0.0
 40
0.0
 40
0.0
 40
0.25
 40
0.25
 40
0.5
 40
0.5
 40
0.75
 40
0.75
 40
1.0
 40
1.0
 40
1.0
 40
1.0
 10
67.12454450867052
 20
76.781536416185
 30
0.0
 10
67.12454450867052
 20
76.781536416185
 30
0.0
 10
67.12454450867052
 20
76.78950183481882
 30
0.0
 10
67.12454450867052
 20
76.82143501156423
 30
0.0
 10
67.12454450867052
 20
76.84540300260821
 30
0.0
 10
67.12454450867052
 20
76.90955281576795
 30
0.0
 10
67.12454450867052
 20
76.94973511727049
 30
0.0
 10
67.12454450867052
 20
77.04665441359008
 30
0.0
 10
67.12454450867052
 20
77.1033921610201
 30
0.0
 10
67.12454450867052
 20
77.16863319037854
 30
0.0
  0
LINE
  5
211
330
1F
100
AcDbEntity
  8
0
  6
Continuous
 62
     7
370
    25
100
AcDbLine
 10
67.124544303
 20
78.9838427725
 30
0.0
 11
67.124544303
 21
77.1686331416
 31
0.0
  0
LINE
  5
212
330
1F
100
AcDbEntity
  8
0
  6
Continuous
 62
     7
370
    25
100
AcDbLine
 10
67.124544303
 20
88.3944396908
 30
0.0
 11
67.124544303
 21
86.5792300599
 31
0.0
  0
SPLINE
  5
213
330
1F
100
AcDbEntity
  8
0
  6
Continuous
 62
     7
370
    25
100
AcDbSpline
210
0.0
220
0.0
230
1.0
 70
    24
 71
     3
 72
    14
 73
    10
 74
     0
 42
0.000000001
 43
0.00000001
 40
0.0
 40
0.0
 40
0.0
 40
0.0
 40
0.25
 40
0.25
 40
0.5
 40
0.5
 40
0.75
 40
0.75
 40
1.0
 40
1.0
 40
1.0
 40
1.0
 10
67.12454450867052
 20
88.78153641618499
 30
0.0
 10
67.12454450867052
 20
88.78153641618499
 30
0.0
 10
67.12454450867052
 20
88.77357099755119
 30
0.0
 10
67.12454450867052
 20
88.74163782080578
 30
0.0
 10
67.12454450867052
 20
88.7176698297618
 30
0.0
 10
67.12454450867052
 20
88.65352001660206
 30
0.0
 10
67.12454450867052
 20
88.61333771509952
 30
0.0
 10
67.12454450867052
 20
88.51641841877993
 30
0.0
 10
67.12454450867052
 20
88.45968067134991
 30
0.0
 10
67.12454450867052
 20
88.39443964199145
 30
0.0
  0
LINE
  5
214
330
1F
100
AcDbEntity
  8
0
  6
Continuous
 62
     7
370
    25
100
AcDbLine
 10
55.4245446204
 20
88.5815363424
 30
0.0
 11
54.4245444565
 21
88.5815363424
 31
0.0
  0
LINE
  5
215
330
1F
100
AcDbEntity
  8
0
  6
Continuous
 62
     7
370
    25
100
AcDbLine
 10
54.4245444565
 20
88.5815363424
 30
0.0
 11
54.4245444565
 21
88.7815364683
 31
0.0
  0
LINE
  5
216
330
1F
100
AcDbEntity
  8
0
  6
Continuous
 62
     7
370
    25
100
AcDbLine
 10
54.4245444565
 20
88.7815364683
 30
0.0
 11
55.6245442807
 21
88.7815364683
 31
0.0
  0
LINE
  5
217
330
1F
100
AcDbEntity
  8
0
  6
Continuous
 62
     7
370
    25
100
AcDbLine
 10
66.4245445608
 20
88.5815363424
 30
0.0
 11
65.4245443969
 21
88.5815363424
 31
0.0
  0
LINE
  5
218
330
1F
100
AcDbEntity
  8
0
  6
Continuous
 62
     7
370
    25
100
AcDbLine
 10
66.4245445608
 20
88.5815363424
 30
0.0
 11
66.4245445608
 21
88.7815364683
 31
0.0
  0
LINE
  5
219
330
1F
100
AcDbEntity
  8
0
  6
Continuous
 62
     7
370
    25
100
AcDbLine
 10
65.2245447367
 20
88.7815364683
 30
0.0
 11
66.4245445608
 21
88.7815364683
 31
0.0
  0
LINE
  5
21A
330
1F
100
AcDbEntity
  8
0
  6
Continuous
 62
     7
370
    25
100
AcDbLine
 10
54.4245444565
 20
76.9815364899
 30
0.0
 11
55.4245446204
 21
76.9815364899
 31
0.0
  0
LINE
  5
21B
330
1F
100
AcDbEntity
  8
0
  6
Continuous
 62
     7
370
    25
100
AcDbLine
 10
65.4245443969
 20
76.9815364899
 30
0.0
 11
66.4245445608
 21
76.9815364899
 31
0.0
  0
LINE
  5
21C
330
1F
100
AcDbEntity
  8
0
  6
Continuous
 62
     7
370
    25
100
AcDbLine
 10
54.4245444565
 20
76.9815364899
 30
0.0
 11
54.4245444565
 21
76.781536364
 31
0.0
  0
LINE
  5
21D
330
1F
100
AcDbEntity
  8
0
  6
Continuous
 62
     7
370
    25
100
AcDbLine
 10
55.6245442807
 20
76.781536364
 30
0.0
 11
54.4245444565
 21
76.781536364
 31
0.0
  0
LINE
  5
21E
330
1F
100
AcDbEntity
  8
0
  6
Continuous
 62
     7
370
    25
100
AcDbLine
 10
66.4245445608
 20
76.781536364
 30
0.0
 11
66.4245445608
 21
76.9815364899
 31
0.0
  0
LINE
  5
21F
330
1F
100
AcDbEntity
  8
0
  6
Continuous
 62
     7
370
    25
100
AcDbLine
 10
66.4245445608
 20
76.781536364
 30
0.0
 11
65.2245447367
 21
76.781536364
 31
0.0
  0
LWPOLYLINE
  5
220
330
1F
100
AcDbEntity
  8
0
  6
Continuous
 62
     7
370
    25
100
AcDbPolyline
 90
        9
 70
   128
 43
0.0
 10
67.124544303
 20
86.5792300599
 10
67.0855265438
 20
86.5816624416
 10
67.0480077482
 20
86.5888659889
 10
67.013430535
 20
86.6005643318
 10
66.9831229701
 20
86.6163074086
 10
66.9582506037
 20
86.6354903253
 10
66.9397685072
 20
86.6573759402
 10
66.9283872797
 20
86.6811232688
 10
66.9245446428
 20
86.7058196152
  0
LWPOLYLINE
  5
221
330
1F
100
AcDbEntity
  8
0
  6
Continuous
 62
     7
370
    25
100
AcDbPolyline
 90
        9
 70
   128
 43
0.0
 10
53.7245447143
 20
78.9838427725
 10
53.7635624736
 20
78.9814103907
 10
53.8010812691
 20
78.9742068434
 10
53.8356584824
 20
78.9625085006
 10
53.8659660473
 20
78.9467654238
 10
53.8908384136
 20
78.9275825071
 10
53.9093205101
 20
78.9056968922
 10
53.9207017376
 20
78.8819495635
 10
53.9245443746
 20
78.8572532172
  0
LWPOLYLINE
  5
222
330
1F
100
AcDbEntity
  8
0
  6
Continuous
 62
     7
370
    25
100
AcDbPolyline
 90
        9
 70
   128
 43
0.0
 10
53.9245443746
 20
86.7058196152
 10
53.9207017376
 20
86.6811232688
 10
53.9093205101
 20
86.6573759402
 10
53.8908384136
 20
86.6354903253
 10
53.8659660473
 20
86.6163074086
 10
53.8356584824
 20
86.6005643318
 10
53.8010812691
 20
86.5888659889
 10
53.7635624736
 20
86.5816624416
 10
53.7245447143
 20
86.5792300599
  0
LWPOLYLINE
  5
223
330
1F
100
AcDbEntity
  8
0
  6
Continuous
 62
     7
370
    25
100
AcDbPolyline
 90
        9
 70
   128
 43
0.0
 10
66.9245446428
 20
78.8572532172
 10
66.9283872797
 20
78.8819495635
 10
66.9397685072
 20
78.9056968922
 10
66.9582506037
 20
78.9275825071
 10
66.9831229701
 20
78.9467654238
 10
67.013430535
 20
78.9625085006
 10
67.0480077482
 20
78.9742068434
 10
67.0855265438
 20
78.9814103907
 10
67.124544303
 20
78.9838427725
  0
LINE
  5
224
330
1F
100
AcDbEntity
  8
0
  6
Continuous
 62
     7
370
    25
100
AcDbLine
 10
54.4245444565
 20
88.5815363424
 30
0.0
 11
54.1245445005
 21
88.5815363424
 31
0.0
  0
LINE
  5
225
330
1F
100
AcDbEntity
  8
0
  6
Continuous
 62
     7
370
    25
100
AcDbLine
 10
54.1245445005
 20
88.5815363424
 30
0.0
 11
54.1245445005
 21
88.7815364683
 31
0.0
  0
LINE
  5
226
330
1F
100
AcDbEntity
  8
0
  6
Continuous
 62
     7
370
    25
100
AcDbLine
 10
54.1245445005
 20
88.7815364683
 30
0.0
 11
54.4245444565
 21
88.7815364683
 31
0.0
  0
LINE
  5
227
330
1F
100
AcDbEntity
  8
0
  6
Continuous
 62
     7
370
    25
100
AcDbLine
 10
66.9245446428
 20
88.5815363424
 30
0.0
 11
66.7245445169
 21
88.5815363424
 31
0.0
  0
LINE
  5
228
330
1F
100
AcDbEntity
  8
0
  6
Continuous
 62
     7
370
    25
100
AcDbLine
 10
66.7245445169
 20
88.7815364683
 30
0.0
 11
66.7245445169
 21
88.5815363424
 31
0.0
  0
ARC
  5
229
330
1F
100
AcDbEntity
  8
0
  6
Continuous
 62
     7
370
    25
100
AcDbCircle
 10
66.7245445087
 20
88.5815364162
 30
0.0
 40
0.2000000000000028
100
AcDbArc
 50
0.0
 51
90.0
  0
LINE
  5
22A
330
1F
100
AcDbEntity
  8
0
  6
Continuous
 62
     7
370
    25
100
AcDbLine
 10
66.7245445169
 20
88.5815363424
 30
0.0
 11
66.4245445608
 21
88.5815363424
 31
0.0
  0
LINE
  5
22B
330
1F
100
AcDbEntity
  8
0
  6
Continuous
 62
     7
370
    25
100
AcDbLine
 10
66.4245445608
 20
88.7815364683
 30
0.0
 11
66.7245445169
 21
88.7815364683
 31
0.0
  0
LINE
  5
22C
330
1F
100
AcDbEntity
  8
0
  6
Continuous
 62
     7
370
    25
100
AcDbLine
 10
66.9245446428
 20
88.5815363424
 30
0.0
 11
66.9245446428
 21
86.7058196152
 31
0.0
  0
LINE
  5
22D
330
1F
100
AcDbEntity
  8
0
  6
Continuous
 62
     7
370
    25
100
AcDbLine
 10
54.1245445005
 20
88.5815363424
 30
0.0
 11
53.9245443746
 21
88.5815363424
 31
0.0
  0
ARC
  5
22E
330
1F
100
AcDbEntity
  8
0
  6
Continuous
 62
     7
370
    25
100
AcDbCircle
 10
54.1245445087
 20
88.5815364162
 30
0.0
 40
0.1999999999999957
100
AcDbArc
 50
90.0
 51
180.0
  0
LINE
  5
22F
330
1F
100
AcDbEntity
  8
0
  6
Continuous
 62
     7
370
    25
100
AcDbLine
 10
53.9245443746
 20
86.7058196152
 30
0.0
 11
53.9245443746
 21
88.5815363424
 31
0.0
  0
LINE
  5
230
330
1F
100
AcDbEntity
  8
0
  6
Continuous
 62
     7
370
    25
100
AcDbLine
 10
66.9245446428
 20
78.8572532172
 30
0.0
 11
66.9245446428
 21
76.9815364899
 31
0.0
  0
LINE
  5
231
330
1F
100
AcDbEntity
  8
0
  6
Continuous
 62
     7
370
    25
100
AcDbLine
 10
66.9245446428
 20
76.9815364899
 30
0.0
 11
66.7245445169
 21
76.9815364899
 31
0.0
  0
LINE
  5
232
330
1F
100
AcDbEntity
  8
0
  6
Continuous
 62
     7
370
    25
100
AcDbLine
 10
66.4245445608
 20
76.9815364899
 30
0.0
 11
66.7245445169
 21
76.9815364899
 31
0.0
  0
LINE
  5
233
330
1F
100
AcDbEntity
  8
0
  6
Continuous
 62
     7
370
    25
100
AcDbLine
 10
54.1245445005
 20
76.9815364899
 30
0.0
 11
54.4245444565
 21
76.9815364899
 31
0.0
  0
LINE
  5
234
330
1F
100
AcDbEntity
  8
0
  6
Continuous
 62
     7
370
    25
100
AcDbLine
 10
54.1245445005
 20
76.9815364899
 30
0.0
 11
53.9245443746
 21
76.9815364899
 31
0.0
  0
LINE
  5
235
330
1F
100
AcDbEntity
  8
0
  6
Continuous
 62
     7
370
    25
100
AcDbLine
 10
53.9245443746
 20
76.9815364899
 30
0.0
 11
53.9245443746
 21
78.8572532172
 31
0.0
  0
LINE
  5
236
330
1F
100
AcDbEntity
  8
0
  6
Continuous
 62
     7
370
    25
100
AcDbLine
 10
66.7245445169
 20
76.781536364
 30
0.0
 11
66.7245445169
 21
76.9815364899
 31
0.0
  0
ARC
  5
237
330
1F
100
AcDbEntity
  8
0
  6
Continuous
 62
     7
370
    25
100
AcDbCircle
 10
66.7245445087
 20
76.9815364162
 30
0.0
 40
0.2000000000000028
100
AcDbArc
 50
270.0
 51
0.0
  0
LINE
  5
238
330
1F
100
AcDbEntity
  8
0
  6
Continuous
 62
     7
370
    25
100
AcDbLine
 10
66.7245445169
 20
76.781536364
 30
0.0
 11
66.4245445608
 21
76.781536364
 31
0.0
  0
LINE
  5
239
330
1F
100
AcDbEntity
  8
0
  6
Continuous
 62
     7
370
    25
100
AcDbLine
 10
54.1245445005
 20
76.9815364899
 30
0.0
 11
54.1245445005
 21
76.781536364
 31
0.0
  0
ARC
  5
23A
330
1F
100
AcDbEntity
  8
0
  6
Continuous
 62
     7
370
    25
100
AcDbCircle
 10
54.1245445087
 20
76.9815364162
 30
0.0
 40
0.2000000000000028
100
AcDbArc
 50
180.0
 51
270.0
  0
LINE
  5
23B
330
1F
100
AcDbEntity
  8
0
  6
Continuous
 62
     7
370
    25
100
AcDbLine
 10
54.4245444565
 20
76.781536364
 30
0.0
 11
54.1245445005
 21
76.781536364
 31
0.0
  0
SPLINE
  5
23C
330
1F
100
AcDbEntity
  8
0
  6
Continuous
 62
     7
370
    25
100
AcDbSpline
210
0.0
220
0.0
230
1.0
 70
     8
 71
     3
 72
    14
 73
    10
 74
     0
 42
0.000000001
 43
0.00000001
 40
0.0
 40
0.0
 40
0.0
 40
0.0
 40
0.0484762997290651
 40
0.1220108450216317
 40
0.2276037384067111
 40
0.3675059195106766
 40
0.5426256501523746
 40
0.7533872704160025
 40
1.0
 40
1.0
 40
1.0
 40
1.0
 10
53.92454450867054
 20
88.581536416185
 30
0.0
 10
53.92453747299292
 20
88.58075003858573
 30
0.0
 10
53.92451976477312
 20
88.5787707910786
 30
0.0
 10
53.92391051437072
 20
88.56836191161365
 30
0.0
 10
53.92184195227094
 20
88.55390701711134
 30
0.0
 10
53.91690815606412
 20
88.53358163433549
 30
0.0
 10
53.90723055344281
 20
88.50878507686487
 30
0.0
 10
53.89109372476335
 20
88.48013899778046
 30
0.0
 10
53.87477112995745
 20
88.46239025656325
 30
0.0
 10
53.86597011245325
 20
88.45282027188941
 30
0.0
  0
SPLINE
  5
23D
330
1F
100
AcDbEntity
  8
0
  6
Continuous
 62
     7
370
    25
100
AcDbSpline
210
0.0
220
0.0
230
1.0
 70
     8
 71
     3
 72
     8
 73
     4
 74
     0
 42
0.000000001
 43
0.00000001
 40
0.0
 40
0.0
 40
0.0
 40
0.0
 40
1.0
 40
1.0
 40
1.0
 40
1.0
 10
53.86597011245325
 20
88.45282027188941
 30
0.0
 10
53.82894578417958
 20
88.41697089060432
 30
0.0
 10
53.77690638857254
 20
88.39562316253674
 30
0.0
 10
53.72454450867053
 20
88.39443964199145
 30
0.0
  0
SPLINE
  5
23E
330
1F
100
AcDbEntity
  8
0
  6
Continuous
 62
     7
370
    25
100
AcDbSpline
210
0.0
220
0.0
230
1.0
 70
     8
 71
     3
 72
     8
 73
     4
 74
     0
 42
0.000000001
 43
0.00000001
 40
0.0
 40
0.0
 40
0.0
 40
0.0
 40
1.0
 40
1.0
 40
1.0
 40
1.0
 10
67.12454450867052
 20
88.39443964199145
 30
0.0
 10
67.07218262876852
 20
88.39562316253674
 30
0.0
 10
67.02014323316148
 20
88.41697089060432
 30
0.0
 10
66.98311890488782
 20
88.45282027188941
 30
0.0
  0
SPLINE
  5
23F
330
1F
100
AcDbEntity
  8
0
  6
Continuous
 62
     7
370
    25
100
AcDbSpline
210
0.0
220
0.0
230
1.0
 70
     8
 71
     3
 72
    13
 73
     9
 74
     0
 42
0.000000001
 43
0.00000001
 40
0.0
 40
0.0
 40
0.0
 40
0.0
 40
0.2842828991742481
 40
0.5198370183905306
 40
0.7070414958140518
 40
0.8468107266085061
 40
0.941597814201084
 40
1.0
 40
1.0
 40
1.0
 40
1.0
 10
66.98311890488782
 20
88.45282027188941
 30
0.0
 10
66.97306656450816
 20
88.46394281628486
 30
0.0
 10
66.95468495004599
 20
88.48428139567966
 30
0.0
 10
66.93802669333078
 20
88.51681737616376
 30
0.0
 10
66.92924196674845
 20
88.54392503480517
 30
0.0
 10
66.9256423676393
 20
88.56338289350812
 30
0.0
 10
66.92459022158573
 20
88.57750960507435
 30
0.0
 10
66.92455712607095
 20
88.58042496030885
 30
0.0
 10
66.92454450867054
 20
88.581536416185
 30
0.0
  0
SPLINE
  5
240
330
1F
100
AcDbEntity
  8
0
  6
Continuous
 62
     7
370
    25
100
AcDbSpline
210
0.0
220
0.0
230
1.0
 70
     8
 71
     3
 72
    12
 73
     8
 74
     0
 42
0.000000001
 43
0.00000001
 40
0.0
 40
0.0
 40
0.0
 40
0.0
 40
0.25
 40
0.25
 40
0.5
 40
0.5
 40
1.0
 40
1.0
 40
1.0
 40
1.0
 10
66.98311890488782
 20
77.1102525604806
 30
0.0
 10
66.97167683913963
 20
77.09908774011319
 30
0.0
 10
66.9614469598849
 20
77.08600512598343
 30
0.0
 10
66.9445037702122
 20
77.05873595113052
 30
0.0
 10
66.9377904597942
 20
77.04454939040735
 30
0.0
 10
66.92456367557014
 20
77.00443124974481
 30
0.0
 10
66.92454450867054
 20
76.98153641618501
 30
0.0
 10
66.92454450867054
 20
76.98153641618501
 30
0.0
  0
SPLINE
  5
241
330
1F
100
AcDbEntity
  8
0
  6
Continuous
 62
     7
370
    25
100
AcDbSpline
210
0.0
220
0.0
230
1.0
 70
     8
 71
     3
 72
    10
 73
     6
 74
     0
 42
0.000000001
 43
0.00000001
 40
0.0
 40
0.0
 40
0.0
 40
0.0
 40
0.5
 40
0.5
 40
1.0
 40
1.0
 40
1.0
 40
1.0
 10
66.98311890488782
 20
77.1102525604806
 30
0.0
 10
67.00600303638419
 20
77.13258220121543
 30
0.0
 10
67.03353418159926
 20
77.14831825384785
 30
0.0
 10
67.08397492887853
 20
77.16607808474615
 30
0.0
 10
67.10672340506305
 20
77.16863319037854
 30
0.0
 10
67.12454450867052
 20
77.16863319037854
 30
0.0
  0
SPLINE
  5
242
330
1F
100
AcDbEntity
  8
0
  6
Continuous
 62
     7
370
    25
100
AcDbSpline
210
0.0
220
0.0
230
1.0
 70
     8
 71
     3
 72
    12
 73
     8
 74
     0
 42
0.000000001
 43
0.00000001
 40
0.0
 40
0.0
 40
0.0
 40
0.0
 40
0.25
 40
0.25
 40
0.5
 40
0.5
 40
1.0
 40
1.0
 40
1.0
 40
1.0
 10
53.86597011245325
 20
77.1102525604806
 30
0.0
 10
53.87741217820144
 20
77.09908774011319
 30
0.0
 10
53.88764205745617
 20
77.08600512598343
 30
0.0
 10
53.90458524712889
 20
77.05873595113052
 30
0.0
 10
53.91129855754686
 20
77.04454939040735
 30
0.0
 10
53.92452534177092
 20
77.00443124974481
 30
0.0
 10
53.92454450867054
 20
76.98153641618501
 30
0.0
 10
53.92454450867054
 20
76.98153641618501
 30
0.0
  0
SPLINE
  5
243
330
1F
100
AcDbEntity
  8
0
  6
Continuous
 62
     7
370
    25
100
AcDbSpline
210
0.0
220
0.0
230
1.0
 70
     8
 71
     3
 72
    10
 73
     6
 74
     0
 42
0.000000001
 43
0.00000001
 40
0.0
 40
0.0
 40
0.0
 40
0.0
 40
0.5
 40
0.5
 40
1.0
 40
1.0
 40
1.0
 40
1.0
 10
53.86597011245325
 20
77.1102525604806
 30
0.0
 10
53.84308598095689
 20
77.13258220121543
 30
0.0
 10
53.8155548357418
 20
77.14831825384785
 30
0.0
 10
53.76511408846253
 20
77.16607808474615
 30
0.0
 10
53.74236561227801
 20
77.16863319037854
 30
0.0
 10
53.72454450867053
 20
77.16863319037854
 30
0.0
  0
SPLINE
  5
244
330
1F
100
AcDbEntity
  8
0
  6
Continuous
 62
     7
370
    25
100
AcDbSpline
210
0.0
220
0.0
230
1.0
 70
     8
 71
     3
 72
    12
 73
     8
 74
     0
 42
0.000000001
 43
0.00000001
 40
0.0
 40
0.0
 40
0.0
 40
0.0
 40
0.25
 40
0.25
 40
0.5
 40
0.5
 40
1.0
 40
1.0
 40
1.0
 40
1.0
 10
66.9258283009739
 20
88.78070763854207
 30
0.0
 10
66.9176413440565
 20
88.78070124161208
 30
0.0
 10
66.911622712276
 20
88.77379584999548
 30
0.0
 10
66.9001858750325
 20
88.75657666660135
 30
0.0
 10
66.8947676695695
 20
88.74626287482383
 30
0.0
 10
66.87380935672233
 20
88.72579328306847
 30
0.0
 10
66.86606011990541
 20
88.72286351742476
 30
0.0
 10
66.86596586490631
 20
88.72295777242384
 30
0.0
  0
SPLINE
  5
245
330
1F
100
AcDbEntity
  8
0
  6
Continuous
 62
     7
370
    25
100
AcDbSpline
210
0.0
220
0.0
230
1.0
 70
     8
 71
     3
 72
     9
 73
     5
 74
     0
 42
0.000000001
 43
0.00000001
 40
0.0
 40
0.0
 40
0.0
 40
0.0
 40
0.4105980787743589
 40
1.0
 40
1.0
 40
1.0
 40
1.0
 10
66.77106035417792
 20
88.78183775119196
 30
0.0
 10
66.79224490259995
 20
88.78207663833099
 30
0.0
 10
66.84383927071111
 20
88.78265844119707
 30
0.0
 10
66.8954242091361
 20
88.78143102985237
 30
0.0
 10
66.9258284709501
 20
88.78070759124766
 30
0.0
  0
SPLINE
  5
246
330
1F
100
AcDbEntity
  8
0
  6
Continuous
 62
     7
370
    25
100
AcDbSpline
210
0.0
220
0.0
230
1.0
 70
     8
 71
     3
 72
    12
 73
     8
 74
     0
 42
0.000000001
 43
0.00000001
 40
0.0
 40
0.0
 40
0.0
 40
0.0
 40
0.25
 40
0.25
 40
0.5
 40
0.5
 40
1.0
 40
1.0
 40
1.0
 40
1.0
 10
66.9258283009739
 20
88.78070763854207
 30
0.0
 10
66.93401525789129
 20
88.78071403547204
 30
0.0
 10
66.94576727768752
 20
88.77382252906514
 30
0.0
 10
66.9712532447866
 20
88.74468862915889
 30
0.0
 10
66.98498719208945
 20
88.72244623565953
 30
0.0
 10
67.02143962788124
 20
88.63036010389462
 30
0.0
 10
67.01597035492226
 20
88.54889482641684
 30
0.0
 10
66.98311890488782
 20
88.45282027188941
 30
0.0
  0
SPLINE
  5
247
330
1F
100
AcDbEntity
  8
0
  6
Continuous
 62
     7
370
    25
100
AcDbSpline
210
0.0
220
0.0
230
1.0
 70
     8
 71
     3
 72
     9
 73
     5
 74
     0
 42
0.000000001
 43
0.00000001
 40
0.0
 40
0.0
 40
0.0
 40
0.0
 40
0.4105980787743589
 40
1.0
 40
1.0
 40
1.0
 40
1.0
 10
54.07802866316315
 20
88.78183775119196
 30
0.0
 10
54.05684411474112
 20
88.78207663833099
 30
0.0
 10
54.00524974662996
 20
88.78265844119707
 30
0.0
 10
53.95366480820498
 20
88.78143102985237
 30
0.0
 10
53.92326054639098
 20
88.78070759124766
 30
0.0
  0
SPLINE
  5
248
330
1F
100
AcDbEntity
  8
0
  6
Continuous
 62
     7
370
    25
100
AcDbSpline
210
0.0
220
0.0
230
1.0
 70
     8
 71
     3
 72
    12
 73
     8
 74
     0
 42
0.000000001
 43
0.00000001
 40
0.0
 40
0.0
 40
0.0
 40
0.0
 40
0.25
 40
0.25
 40
0.5
 40
0.5
 40
1.0
 40
1.0
 40
1.0
 40
1.0
 10
53.92326071636717
 20
88.78070763854205
 30
0.0
 10
53.93144767328455
 20
88.78070124161208
 30
0.0
 10
53.93746630506506
 20
88.77379584999547
 30
0.0
 10
53.94890314230856
 20
88.75657666660133
 30
0.0
 10
53.95432134777157
 20
88.74626287482381
 30
0.0
 10
53.97527966061872
 20
88.72579328306847
 30
0.0
 10
53.98302889743567
 20
88.72286351742476
 30
0.0
 10
53.98312315243475
 20
88.72295777242384
 30
0.0
  0
SPLINE
  5
249
330
1F
100
AcDbEntity
  8
0
  6
Continuous
 62
     7
370
    25
100
AcDbSpline
210
0.0
220
0.0
230
1.0
 70
     8
 71
     3
 72
    14
 73
    10
 74
     0
 42
0.000000001
 43
0.00000001
 40
0.0
 40
0.0
 40
0.0
 40
0.0
 40
0.25
 40
0.25
 40
0.5
 40
0.5
 40
0.75
 40
0.75
 40
1.0
 40
1.0
 40
1.0
 40
1.0
 10
53.92326071636717
 20
88.78070763854205
 30
0.0
 10
53.91507375944978
 20
88.78071403547204
 30
0.0
 10
53.90332173965353
 20
88.77382252906514
 30
0.0
 10
53.87783577255446
 20
88.74468862915889
 30
0.0
 10
53.86410182525162
 20
88.72244623565952
 30
0.0
 10
53.83980020139043
 20
88.66105548114957
 30
0.0
 10
53.83509211366487
 20
88.62534147315267
 30
0.0
 10
53.83996420668767
 20
88.54524250715443
 30
0.0
 10
53.84954438743602
 20
88.50085754915312
 30
0.0
 10
53.86597011245325
 20
88.45282027188941
 30
0.0
  0
SPLINE
  5
24A
330
1F
100
AcDbEntity
  8
0
  6
Continuous
 62
     7
370
    25
100
AcDbSpline
210
0.0
220
0.0
230
1.0
 70
     8
 71
     3
 72
    12
 73
     8
 74
     0
 42
0.000000001
 43
0.00000001
 40
0.0
 40
0.0
 40
0.0
 40
0.0
 40
0.25
 40
0.25
 40
0.5
 40
0.5
 40
1.0
 40
1.0
 40
1.0
 40
1.0
 10
66.9258283009739
 20
76.78236519382794
 30
0.0
 10
66.9176413440565
 20
76.78237159075792
 30
0.0
 10
66.911622712276
 20
76.78927698237453
 30
0.0
 10
66.9001858750325
 20
76.80649616576865
 30
0.0
 10
66.8947676695695
 20
76.81680995754617
 30
0.0
 10
66.87380935672233
 20
76.83727954930154
 30
0.0
 10
66.86606011990541
 20
76.84020931494526
 30
0.0
 10
66.86596586490631
 20
76.84011505994616
 30
0.0
  0
SPLINE
  5
24B
330
1F
100
AcDbEntity
  8
0
  6
Continuous
 62
     7
370
    25
100
AcDbSpline
210
0.0
220
0.0
230
1.0
 70
     8
 71
     3
 72
    12
 73
     8
 74
     0
 42
0.000000001
 43
0.00000001
 40
0.0
 40
0.0
 40
0.0
 40
0.0
 40
0.25
 40
0.25
 40
0.5
 40
0.5
 40
1.0
 40
1.0
 40
1.0
 40
1.0
 10
66.9258283009739
 20
76.78236519382794
 30
0.0
 10
66.93401525789129
 20
76.78235879689795
 30
0.0
 10
66.94576727768752
 20
76.78925030330485
 30
0.0
 10
66.9712532447866
 20
76.81838420321111
 30
0.0
 10
66.98498719208945
 20
76.84062659671046
 30
0.0
 10
67.02143962788124
 20
76.93271272847538
 30
0.0
 10
67.01597035492226
 20
77.01417800595317
 30
0.0
 10
66.98311890488782
 20
77.1102525604806
 30
0.0
  0
SPLINE
  5
24C
330
1F
100
AcDbEntity
  8
0
  6
Continuous
 62
     7
370
    25
100
AcDbSpline
210
0.0
220
0.0
230
1.0
 70
     8
 71
     3
 72
    12
 73
     8
 74
     0
 42
0.000000001
 43
0.00000001
 40
0.0
 40
0.0
 40
0.0
 40
0.0
 40
0.25
 40
0.25
 40
0.5
 40
0.5
 40
1.0
 40
1.0
 40
1.0
 40
1.0
 10
53.92326071636717
 20
76.78236519382794
 30
0.0
 10
53.93144767328456
 20
76.78237159075793
 30
0.0
 10
53.93746630506507
 20
76.78927698237453
 30
0.0
 10
53.94890314230857
 20
76.80649616576866
 30
0.0
 10
53.95432134777158
 20
76.8168099575462
 30
0.0
 10
53.97527966061872
 20
76.83727954930154
 30
0.0
 10
53.98302889743567
 20
76.84020931494526
 30
0.0
 10
53.98312315243475
 20
76.84011505994616
 30
0.0
  0
SPLINE
  5
24D
330
1F
100
AcDbEntity
  8
0
  6
Continuous
 62
     7
370
    25
100
AcDbSpline
210
0.0
220
0.0
230
1.0
 70
     8
 71
     3
 72
    14
 73
    10
 74
     0
 42
0.000000001
 43
0.00000001
 40
0.0
 40
0.0
 40
0.0
 40
0.0
 40
0.25
 40
0.25
 40
0.5
 40
0.5
 40
0.75
 40
0.75
 40
1.0
 40
1.0
 40
1.0
 40
1.0
 10
53.92326071636717
 20
76.78236519382794
 30
0.0
 10
53.91507375944978
 20
76.78235879689797
 30
0.0
 10
53.90332173965355
 20
76.78925030330487
 30
0.0
 10
53.87783577255446
 20
76.81838420321112
 30
0.0
 10
53.86410182525163
 20
76.84062659671048
 30
0.0
 10
53.83980020139043
 20
76.90201735122042
 30
0.0
 10
53.83509211366487
 20
76.93773135921735
 30
0.0
 10
53.83996420668767
 20
77.01783032521558
 30
0.0
 10
53.84954438743602
 20
77.06221528321689
 30
0.0
 10
53.86597011245325
 20
77.1102525604806
 30
0.0
  0
SPLINE
  5
24E
330
1F
100
AcDbEntity
  8
0
  6
Continuous
 62
     7
370
    25
100
AcDbSpline
210
0.0
220
0.0
230
1.0
 70
     8
 71
     3
 72
     9
 73
     5
 74
     0
 42
0.000000001
 43
0.00000001
 40
0.0
 40
0.0
 40
0.0
 40
0.0
 40
0.4105980787743589
 40
1.0
 40
1.0
 40
1.0
 40
1.0
 10
66.77106035417792
 20
76.78123508117805
 30
0.0
 10
66.79224490259995
 20
76.780996194039
 30
0.0
 10
66.84383927071111
 20
76.78041439117293
 30
0.0
 10
66.8954242091361
 20
76.78164180251764
 30
0.0
 10
66.9258284709501
 20
76.78236524112235
 30
0.0
  0
SPLINE
  5
24F
330
1F
100
AcDbEntity
  8
0
  6
Continuous
 62
     7
370
    25
100
AcDbSpline
210
0.0
220
0.0
230
1.0
 70
     8
 71
     3
 72
     9
 73
     5
 74
     0
 42
0.000000001
 43
0.00000001
 40
0.0
 40
0.0
 40
0.0
 40
0.0
 40
0.4105980787743589
 40
1.0
 40
1.0
 40
1.0
 40
1.0
 10
54.07802866316315
 20
76.78123508117805
 30
0.0
 10
54.05684411474112
 20
76.780996194039
 30
0.0
 10
54.00524974662996
 20
76.78041439117293
 30
0.0
 10
53.95366480820498
 20
76.78164180251764
 30
0.0
 10
53.92326054639098
 20
76.78236524112235
 30
0.0
  0
SPLINE
  5
250
330
1F
100
AcDbEntity
  8
0
  6
Continuous
 62
     7
370
    25
100
AcDbSpline
210
0.0
220
0.0
230
1.0
 70
     8
 71
     3
 72
     9
 73
     5
 74
     0
 42
0.000000001
 43
0.00000001
 40
0.0
 40
0.0
 40
0.0
 40
0.0
 40
0.1239257456654217
 40
1.0
 40
1.0
 40
1.0
 40
1.0
 10
67.02896173587915
 20
88.78016556150924
 30
0.0
 10
67.02470172989177
 20
88.78009849553489
 30
0.0
 10
66.99032625799529
 20
88.77955731683166
 30
0.0
 10
66.95594713526272
 20
88.78017044523708
 30
0.0
 10
66.9258284709501
 20
88.78070759124766
 30
0.0
  0
SPLINE
  5
251
330
1F
100
AcDbEntity
  8
0
  6
Continuous
 62
     7
370
    25
100
AcDbSpline
210
0.0
220
0.0
230
1.0
 70
     8
 71
     3
 72
    10
 73
     6
 74
     0
 42
0.000000001
 43
0.00000001
 40
0.0
 40
0.0
 40
0.0
 40
0.0
 40
0.5
 40
0.5
 40
1.0
 40
1.0
 40
1.0
 40
1.0
 10
53.92326071636717
 20
88.78070763854205
 30
0.0
 10
53.89051288869761
 20
88.78073322626197
 30
0.0
 10
53.85575586117884
 20
88.7810182301975
 30
0.0
 10
53.78447970328089
 20
88.77801079460468
 30
0.0
 10
53.75847739061998
 20
88.78153641618499
 30
0.0
 10
53.72454450867053
 20
88.78153641618499
 30
0.0
  0
SPLINE
  5
252
330
1F
100
AcDbEntity
  8
0
  6
Continuous
 62
     7
370
    25
100
AcDbSpline
210
0.0
220
0.0
230
1.0
 70
     8
 71
     3
 72
    10
 73
     6
 74
     0
 42
0.000000001
 43
0.00000001
 40
0.0
 40
0.0
 40
0.0
 40
0.0
 40
0.5
 40
0.5
 40
1.0
 40
1.0
 40
1.0
 40
1.0
 10
66.9258283009739
 20
76.78236519382794
 30
0.0
 10
66.95857612864344
 20
76.78233960610804
 30
0.0
 10
66.99333315616222
 20
76.7820546021725
 30
0.0
 10
67.06460931406018
 20
76.78506203776533
 30
0.0
 10
67.09061162672108
 20
76.781536416185
 30
0.0
 10
67.12454450867052
 20
76.781536416185
 30
0.0
  0
SPLINE
  5
253
330
1F
100
AcDbEntity
  8
0
  6
Continuous
 62
     7
370
    25
100
AcDbSpline
210
0.0
220
0.0
230
1.0
 70
     8
 71
     3
 72
    10
 73
     6
 74
     0
 42
0.000000001
 43
0.00000001
 40
0.0
 40
0.0
 40
0.0
 40
0.0
 40
0.5
 40
0.5
 40
1.0
 40
1.0
 40
1.0
 40
1.0
 10
53.92326071636717
 20
76.78236519382794
 30
0.0
 10
53.89051288869761
 20
76.78233960610804
 30
0.0
 10
53.85575586117884
 20
76.78205460217251
 30
0.0
 10
53.78447970328089
 20
76.78506203776531
 30
0.0
 10
53.75847739061998
 20
76.781536416185
 30
0.0
 10
53.72454450867053
 20
76.781536416185
 30
0.0
  0
SPLINE
  5
254
330
1F
100
AcDbEntity
  8
0
  6
Continuous
 62
     7
370
    25
100
AcDbSpline
210
0.0
220
0.0
230
1.0
 70
     8
 71
     3
 72
    10
 73
     6
 74
     0
 42
0.000000001
 43
0.00000001
 40
0.0
 40
0.0
 40
0.0
 40
0.0
 40
0.5
 40
0.5
 40
1.0
 40
1.0
 40
1.0
 40
1.0
 10
59.92454450867054
 20
80.8450447430813
 30
0.0
 10
60.08805201909682
 20
80.85250745787427
 30
0.0
 10
60.25330574729602
 20
80.85732176244575
 30
0.0
 10
60.58843678634345
 20
80.85745314197317
 30
0.0
 10
60.75874104105701
 20
80.85261224861827
 30
0.0
 10
60.92454450867052
 20
80.8450447430813
 30
0.0
  0
SPLINE
  5
255
330
1F
100
AcDbEntity
  8
0
  6
Continuous
 62
     7
370
    25
100
AcDbSpline
210
0.0
220
0.0
230
1.0
 70
     8
 71
     3
 72
    10
 73
     6
 74
     0
 42
0.000000001
 43
0.00000001
 40
0.0
 40
0.0
 40
0.0
 40
0.0
 40
0.5
 40
0.5
 40
1.0
 40
1.0
 40
1.0
 40
1.0
 10
60.92454450867052
 20
84.71802808928872
 30
0.0
 10
60.76103699824424
 20
84.71056537449573
 30
0.0
 10
60.59578327004505
 20
84.70575106992426
 30
0.0
 10
60.26065223099761
 20
84.70561969039684
 30
0.0
 10
60.09034797628405
 20
84.71046058375174
 30
0.0
 10
59.92454450867054
 20
84.71802808928872
 30
0.0
  0
LINE
  5
256
330
1F
100
AcDbEntity
  8
0
  6
Continuous
 62
     7
370
    25
100
AcDbLine
 10
67.1745446838
 20
89.0815364244
 30
0.0
 11
67.6745443001
 21
89.0815364244
 31
0.0
  0
LINE
  5
257
330
1F
100
AcDbEntity
  8
0
  6
Continuous
 62
     7
370
    25
100
AcDbLine
 10
66.9245446428
 20
88.7815364683
 30
0.0
 11
67.924544341
 21
88.7815364683
 31
0.0
  0
SPLINE
  5
258
330
1F
100
AcDbEntity
  8
0
  6
Continuous
 62
     8
370
    25
100
AcDbSpline
210
0.0
220
0.0
230
1.0
 70
     8
 71
     3
 72
    73
 73
    69
 74
     0
 42
0.000000001
 43
0.00000001
 40
0.0
 40
0.0
 40
0.0
 40
0.0
 40
0.0135492290850524
 40
0.0305516841524866
 40
0.0510046635717525
 40
0.0737843438560024
 40
0.0939899835702133
 40
0.1111105174254572
 40
0.1251475669434012
 40
0.1491935178727053
 40
0.1746021509061693
 40
0.2003365172577599
 40
0.2253767251299368
 40
0.2504242156912537
 40
0.2699631733842168
 40
0.2908015111944122
 40
0.3129347971376832
 40
0.325467059016089
 40
0.3379950518222296
 40
0.3505185323996695
 40
0.3630373139565966
 40
0.3755511426416217
 40
0.3902517739520195
 40
0.4060223330745937
 40
0.4228641262645
 40
0.4407788022838938
 40
0.4597683061051443
 40
0.4798349017456143
 40
0.5009811686305099
 40
0.5181220415535536
 40
0.5329396612271562
 40
0.5454317763283641
 40
0.5555965937317207
 40
0.5634328007944637
 40
0.5733247996065434
 40
0.5845109941921022
 40
0.5969904008578651
 40
0.6107617370310507
 40
0.6258234128510156
 40
0.6445909666368084
 40
0.6606167925482226
 40
0.6739034219419934
 40
0.6844528726837239
 40
0.6959315939795735
 40
0.7051169769443154
 40
0.7143084002034208
 40
0.7235061949161942
 40
0.7327106187768622
 40
0.7419220195687861
 40
0.7511406500735026
 40
0.761245526622434
 40
0.7750444557101621
 40
0.7925402035955165
 40
0.8137366692508905
 40
0.8316336395255429
 40
0.8480000794800212
 40
0.8628334029571063
 40
0.876131570522242
 40
0.8895059530564948
 40
0.9060696495795155
 40
0.9258200306757899
 40
0.9492204624214697
 40
0.9611010699746457
 40
0.971682807382382
 40
0.9809662087174668
 40
0.9889517259404531
 40
0.9956397361058287
 40
1.0
 40
1.0
 40
1.0
 40
1.0
 10
50.35156908920881
 20
76.15653696007739
 30
0.0
 10
50.35153878756812
 20
76.15770988166346
 30
0.0
 10
50.35147046145525
 20
76.16035466164385
 30
0.0
 10
50.3517406561153
 20
76.18666167670759
 30
0.0
 10
50.35221535396764
 20
76.24109228456469
 30
0.0
 10
50.35289704865976
 20
76.32873901210951
 30
0.0
 10
50.35342892980014
 20
76.43870384661851
 30
0.0
 10
50.35379028368654
 20
76.5524007357371
 30
0.0
 10
50.35401316050172
 20
76.69175128922323
 30
0.0
 10
50.35391621481745
 20
76.87552815354108
 30
0.0
 10
50.3534094616984
 20
77.12839348605155
 30
0.0
 10
50.35248321828632
 20
77.41998845708106
 30
0.0
 10
50.35154254341965
 20
77.74411382130239
 30
0.0
 10
50.35046327507098
 20
78.0703110898678
 30
0.0
 10
50.34979574437111
 20
78.39989422852733
 30
0.0
 10
50.34988991900629
 20
78.73416394958696
 30
0.0
 10
50.35045996078975
 20
79.04750840013605
 30
0.0
 10
50.35115627358665
 20
79.32394501385161
 30
0.0
 10
50.35173419941817
 20
79.5494252536073
 30
0.0
 10
50.35236575496141
 20
79.7798251510745
 30
0.0
 10
50.35302779885889
 20
80.01475251733312
 30
0.0
 10
50.35382059778245
 20
80.26784450735236
 30
0.0
 10
50.3545273913484
 20
80.54628847067688
 30
0.0
 10
50.35492907484139
 20
80.85769893211494
 30
0.0
 10
50.35508042917751
 20
81.1952619236213
 30
0.0
 10
50.3549603803154
 20
81.55905347506382
 30
0.0
 10
50.35457109177715
 20
81.94884529119877
 30
0.0
 10
50.35392119929495
 20
82.36399837187444
 30
0.0
 10
50.35304055003915
 20
82.76818641490489
 30
0.0
 10
50.3521710910373
 20
83.13606666778406
 30
0.0
 10
50.35151288381873
 20
83.44320656325229
 30
0.0
 10
50.35101147709424
 20
83.70104102934607
 30
0.0
 10
50.35067426269814
 20
83.90978866269876
 30
0.0
 10
50.35046293909843
 20
84.09976732790817
 30
0.0
 10
50.35046930384523
 20
84.29551549376917
 30
0.0
 10
50.35065974853829
 20
84.52084078434885
 30
0.0
 10
50.35104548462575
 20
84.76956578920851
 30
0.0
 10
50.35161713333781
 20
85.04036679516793
 30
0.0
 10
50.35244148726754
 20
85.3470984531958
 30
0.0
 10
50.35334076032796
 20
85.66119931052701
 30
0.0
 10
50.35413539009476
 20
85.95610878546591
 30
0.0
 10
50.35473846095351
 20
86.1944835297573
 30
0.0
 10
50.35520367747787
 20
86.40095945542639
 30
0.0
 10
50.35546834330231
 20
86.57955650994835
 30
0.0
 10
50.35562262952405
 20
86.746641174027
 30
0.0
 10
50.3556844573518
 20
86.89777795788957
 30
0.0
 10
50.35566338549626
 20
87.04571202991798
 30
0.0
 10
50.35556273647496
 20
87.19032662295467
 30
0.0
 10
50.35537712629426
 20
87.33151076603565
 30
0.0
 10
50.35511100025929
 20
87.47350232877137
 30
0.0
 10
50.35465498172705
 20
87.63367614102448
 30
0.0
 10
50.3539671190208
 20
87.82627367002473
 30
0.0
 10
50.35302411902722
 20
88.05711396944452
 30
0.0
 10
50.35190948869181
 20
88.28737315301481
 30
0.0
 10
50.35088128468749
 20
88.49333349985588
 30
0.0
 10
50.35020090452086
 20
88.65947069104142
 30
0.0
 10
50.34979128547335
 20
88.79623440706732
 30
0.0
 10
50.34967646680119
 20
88.91171823483877
 30
0.0
 10
50.34987244199092
 20
89.01972764607176
 30
0.0
 10
50.35026250508362
 20
89.12829141971514
 30
0.0
 10
50.35087698502146
 20
89.23587685234833
 30
0.0
 10
50.35155366682211
 20
89.30964986972127
 30
0.0
 10
50.35208585834607
 20
89.35381792467278
 30
0.0
 10
50.35244454273229
 20
89.37671832208166
 30
0.0
 10
50.35274190516879
 20
89.39088525210724
 30
0.0
 10
50.35298347270025
 20
89.39852628923828
 30
0.0
 10
50.35316018031527
 20
89.4018636299565
 30
0.0
 10
50.35324337158327
 20
89.40204345098348
 30
0.0
 10
50.35327620348808
 20
89.40211441836964
 30
0.0
  0
LINE
  5
259
330
1F
100
AcDbEntity
  8
0
  6
Continuous
 62
     8
370
    25
100
AcDbLine
 10
51.2785945415
 20
88.7801022316
 30
0.0
 11
51.2785945415
 21
76.7815382267
 31
0.0
  0
SPLINE
  5
25A
330
1F
100
AcDbEntity
  8
0
  6
Continuous
 62
     8
370
    25
100
AcDbSpline
210
0.0
220
0.0
230
1.0
 70
     8
 71
     3
 72
    50
 73
    46
 74
     0
 42
0.000000001
 43
0.00000001
 40
0.0
 40
0.0
 40
0.0
 40
0.0
 40
0.0010283531841097
 40
0.0355554655206709
 40
0.07088988920272
 40
0.0800382774901052
 40
0.0891870122148684
 40
0.0983361536056596
 40
0.1074857710201483
 40
0.1166359202700575
 40
0.1257866678569167
 40
0.1381306367004574
 40
0.1544700420569427
 40
0.1748034552906974
 40
0.1977084945745143
 40
0.2085764977062658
 40
0.218633989949825
 40
0.2278810472940682
 40
0.2363177835902349
 40
0.2439442512452608
 40
0.2507605049111499
 40
0.2862630744515917
 40
0.3205408036148091
 40
0.3535939558414207
 40
0.385422761881991
 40
0.4100078406419588
 40
0.4338092279289983
 40
0.4568270365368042
 40
0.4790613432825968
 40
0.5005352446570611
 40
0.5421526596976102
 40
0.5837712665426069
 40
0.6253910295817515
 40
0.6670118987038598
 40
0.7086338311778417
 40
0.7502568010503963
 40
0.7918807491498421
 40
0.833505614275716
 40
0.87514716846331
 40
0.8959783975081194
 40
0.9168085737246413
 40
0.9286832438563374
 40
0.9465066281509844
 40
0.9702787377527435
 40
1.0
 40
1.0
 40
1.0
 40
1.0
 10
70.495812813853
 20
89.40211441836964
 30
0.0
 10
70.49580500416081
 20
89.40215736017163
 30
0.0
 10
70.495534982883
 20
89.40364207941363
 30
0.0
 10
70.49534463170872
 20
89.37369382941658
 30
0.0
 10
70.49567744958723
 20
89.2853697813748
 30
0.0
 10
70.49603666799709
 20
89.19967469252332
 30
0.0
 10
70.4962352584065
 20
89.15057740148663
 30
0.0
 10
70.49645289586024
 20
89.09623625667354
 30
0.0
 10
70.49669134019305
 20
89.03671279308837
 30
0.0
 10
70.49693926800468
 20
88.9720236362427
 30
0.0
 10
70.49727521707298
 20
88.89421680904682
 30
0.0
 10
70.49751219439482
 20
88.78953683799743
 30
0.0
 10
70.49754573214716
 20
88.63934940136964
 30
0.0
 10
70.49744341516512
 20
88.4353675947822
 30
0.0
 10
70.49722619487368
 20
88.22802760180355
 30
0.0
 10
70.49707462034932
 20
88.04701475083938
 30
0.0
 10
70.49697602875051
 20
87.91694979251145
 30
0.0
 10
70.49689450806454
 20
87.79286132676681
 30
0.0
 10
70.4968303513789
 20
87.67597741226496
 30
0.0
 10
70.49678020767031
 20
87.56737509184047
 30
0.0
 10
70.49670742284029
 20
87.32470630451564
 30
0.0
 10
70.4966304882241
 20
86.92724025925287
 30
0.0
 10
70.49652905556509
 20
86.34493626901813
 30
0.0
 10
70.4964536759268
 20
85.74435030719448
 30
0.0
 10
70.49640485893539
 20
85.17422368316566
 30
0.0
 10
70.49637581838924
 20
84.64572404987057
 30
0.0
 10
70.49636478395038
 20
84.16468526926519
 30
0.0
 10
70.49636716989039
 20
83.6921709135621
 30
0.0
 10
70.49638399551986
 20
83.23106563778607
 30
0.0
 10
70.49643004861333
 20
82.63880622482505
 30
0.0
 10
70.49649888023163
 20
81.91135063192615
 30
0.0
 10
70.49657169342566
 20
81.05908987879137
 30
0.0
 10
70.49664540267038
 20
80.23620300491922
 30
0.0
 10
70.4967136110291
 20
79.45687966706049
 30
0.0
 10
70.49678057509865
 20
78.73444392596193
 30
0.0
 10
70.49684684158784
 20
78.08127510049626
 30
0.0
 10
70.4969003783725
 20
77.50857488987977
 30
0.0
 10
70.49698319131019
 20
77.02604234052055
 30
0.0
 10
70.49695590633488
 20
76.7061397211441
 30
0.0
 10
70.49684873909656
 20
76.50312584550402
 30
0.0
 10
70.49666826150386
 20
76.395987962701
 30
0.0
 10
70.49666423035697
 20
76.3118331490887
 30
0.0
 10
70.49683080404542
 20
76.23974087597753
 30
0.0
 10
70.49711245851044
 20
76.17240794428889
 30
0.0
 10
70.49737439469791
 20
76.16220550250378
 30
0.0
 10
70.49751992813226
 20
76.15653696007739
 30
0.0
  0
LINE
  5
25B
330
1F
100
AcDbEntity
  8
0
  6
Continuous
 62
     8
370
    25
100
AcDbLine
 10
71.4245444491
 20
90.0315362076
 30
0.0
 11
71.4245444491
 21
75.5315366248
 31
0.0
  0
LINE
  5
25C
330
1F
100
AcDbEntity
  8
0
  6
Continuous
 62
     8
370
    25
100
AcDbLine
 10
49.4245445683
 20
90.0315362076
 30
0.0
 11
49.4245445683
 21
75.5315366248
 31
0.0
  0
SPLINE
  5
25D
330
1F
100
AcDbEntity
  8
0
  6
Continuous
 62
     8
370
    25
100
AcDbSpline
210
0.0
220
0.0
230
1.0
 70
    24
 71
     3
 72
    32
 73
    28
 74
     0
 42
0.000000001
 43
0.00000001
 40
0.0
 40
0.0
 40
0.0
 40
0.0
 40
0.0416176797032943
 40
0.0832353676929536
 40
0.1248530485793556
 40
0.1664707228260686
 40
0.2080884144980396
 40
0.2497060790831502
 40
0.2913237726951729
 40
0.3329414596565394
 40
0.3745591270800701
 40
0.4161768160929624
 40
0.4577944988656582
 40
0.4994121815451297
 40
0.541029861248424
 40
0.5826475492380834
 40
0.6242652301244853
 40
0.6658829043711982
 40
0.7075005960431693
 40
0.7491182606282799
 40
0.7907359542403026
 40
0.8323536412016692
 40
0.8739713086251997
 40
0.9155889976380921
 40
0.9572066804107879
 40
0.9988243630902593
 40
1.0
 40
1.0
 40
1.0
 40
1.0
 10
69.57049447587606
 20
76.78153822667609
 30
0.0
 10
69.57049447587606
 20
76.79123273708045
 30
0.0
 10
69.57049447587606
 20
76.81062175981943
 30
0.0
 10
69.57049447587606
 20
76.96937780686383
 30
0.0
 10
69.57049447587606
 20
77.22021057710718
 30
0.0
 10
69.57049447587606
 20
77.56817360406284
 30
0.0
 10
69.57049447587606
 20
78.00481014469253
 30
0.0
 10
69.57049447587606
 20
78.5233193395892
 30
0.0
 10
69.57049447587606
 20
79.1146499876505
 30
0.0
 10
69.57049447587606
 20
79.76873196004836
 30
0.0
 10
69.57049447587606
 20
80.47436143227858
 30
0.0
 10
69.57049447587606
 20
81.21946774735252
 30
0.0
 10
69.57049447587606
 20
81.99130150497143
 30
0.0
 10
69.57049447587606
 20
82.7766563982237
 30
0.0
 10
69.57049447587606
 20
83.56209480176192
 30
0.0
 10
69.57049447587606
 20
84.33417765606387
 30
0.0
 10
69.57049447587606
 20
85.07969399042676
 30
0.0
 10
69.57049447587606
 20
85.78588973343604
 30
0.0
 10
69.57049447587606
 20
86.440675218768
 30
0.0
 10
69.57049447587606
 20
87.03286883876007
 30
0.0
 10
69.57049447587606
 20
87.55225838818306
 30
0.0
 10
69.57049447587606
 20
87.99025275889592
 30
0.0
 10
69.57049447587606
 20
88.33825534606929
 30
0.0
 10
69.57049447587606
 20
88.59442319906665
 30
0.0
 10
69.57049447587606
 20
88.73903260580128
 30
0.0
 10
69.57049447587607
 20
88.79841010525807
 30
0.0
 10
69.57049447587606
 20
88.78059174539835
 30
0.0
 10
69.57049447587606
 20
88.78010223157416
 30
0.0
  0
LINE
  5
25E
330
1F
100
AcDbEntity
  8
0
  6
Continuous
 62
     8
370
    25
100
AcDbLine
 10
65.2245447367
 20
88.5815363424
 30
0.0
 11
64.7745445698
 21
88.5815363424
 31
0.0
  0
LINE
  5
25F
330
1F
100
AcDbEntity
  8
0
  6
Continuous
 62
     8
370
    25
100
AcDbLine
 10
65.2245447367
 20
88.2149975794
 30
0.0
 11
65.2245447367
 21
88.5815363424
 31
0.0
  0
LINE
  5
260
330
1F
100
AcDbEntity
  8
0
  6
Continuous
 62
     8
370
    25
100
AcDbLine
 10
56.0745444476
 20
88.5815363424
 30
0.0
 11
55.6245442807
 21
88.5815363424
 31
0.0
  0
LINE
  5
261
330
1F
100
AcDbEntity
  8
0
  6
Continuous
 62
     8
370
    25
100
AcDbLine
 10
55.6245442807
 20
88.5815363424
 30
0.0
 11
55.6245442807
 21
88.2149975794
 31
0.0
  0
LINE
  5
262
330
1F
100
AcDbEntity
  8
0
  6
Continuous
 62
     8
370
    25
100
AcDbLine
 10
64.7745445698
 20
76.9815364899
 30
0.0
 11
65.4245443969
 21
76.9815364899
 31
0.0
  0
LINE
  5
263
330
1F
100
AcDbEntity
  8
0
  6
Continuous
 62
     8
370
    25
100
AcDbLine
 10
55.6245442807
 20
77.348075253
 30
0.0
 11
55.6245442807
 21
76.9815364899
 31
0.0
  0
LINE
  5
264
330
1F
100
AcDbEntity
  8
0
  6
Continuous
 62
     8
370
    25
100
AcDbLine
 10
55.6245442807
 20
76.9815364899
 30
0.0
 11
56.0745444476
 21
76.9815364899
 31
0.0
  0
SPLINE
  5
265
330
1F
100
AcDbEntity
  8
0
  6
Continuous
 62
     8
370
    25
100
AcDbSpline
210
0.0
220
0.0
230
1.0
 70
     8
 71
     3
 72
    11
 73
     7
 74
     0
 42
0.000000001
 43
0.00000001
 40
0.0
 40
0.0
 40
0.0
 40
0.0
 40
0.0329360764370519
 40
0.2435592271345444
 40
0.5971873512547256
 40
1.0
 40
1.0
 40
1.0
 40
1.0
 10
53.98397486201402
 20
86.08937650456737
 30
0.0
 10
53.97730664014406
 20
86.0923004125682
 30
0.0
 10
53.92799575856065
 20
86.11392244074936
 30
0.0
 10
53.84215984681569
 20
86.20726379387158
 30
0.0
 10
53.74568723595771
 20
86.37074553491298
 30
0.0
 10
53.73189123146035
 20
86.50678670785646
 30
0.0
 10
53.72454471430656
 20
86.57923005990396
 30
0.0
  0
SPLINE
  5
266
330
1F
100
AcDbEntity
  8
0
  6
Continuous
 62
     8
370
    25
100
AcDbSpline
210
0.0
220
0.0
230
1.0
 70
     8
 71
     3
 72
    11
 73
     7
 74
     0
 42
0.000000001
 43
0.00000001
 40
0.0
 40
0.0
 40
0.0
 40
0.0
 40
0.4763216060414355
 40
0.7609115335185063
 40
0.9510317413508387
 40
1.0
 40
1.0
 40
1.0
 40
1.0
 10
53.72454471430656
 20
78.98384277246605
 30
0.0
 10
53.73479442157572
 20
79.07105832461426
 30
0.0
 10
53.75116806572157
 20
79.21038292944014
 30
0.0
 10
53.85495482239615
 20
79.37056296863334
 30
0.0
 10
53.93301468627343
 20
79.451325251321
 30
0.0
 10
53.98198984321525
 20
79.47303193457114
 30
0.0
 10
53.99202055773613
 20
79.47747773028622
 30
0.0
  0
SPLINE
  5
267
330
1F
100
AcDbEntity
  8
0
  6
Continuous
 62
     8
370
    25
100
AcDbSpline
210
0.0
220
0.0
230
1.0
 70
     8
 71
     3
 72
    11
 73
     7
 74
     0
 42
0.000000001
 43
0.00000001
 40
0.0
 40
0.0
 40
0.0
 40
0.0
 40
0.0418059662486992
 40
0.250497285871793
 40
0.6008819403320895
 40
1.0
 40
1.0
 40
1.0
 40
1.0
 10
66.85956533542749
 20
79.47624628901194
 30
0.0
 10
66.86813333764638
 20
79.47253008741659
 30
0.0
 10
66.9194719740603
 20
79.4502629687032
 30
0.0
 10
67.00713161493074
 20
79.35604179077762
 30
0.0
 10
67.1033311321083
 20
79.19224607130627
 30
0.0
 10
67.1171732369589
 20
79.05625790038212
 30
0.0
 10
67.12454430303451
 20
78.98384277246605
 30
0.0
  0
SPLINE
  5
268
330
1F
100
AcDbEntity
  8
0
  6
Continuous
 62
     8
370
    25
100
AcDbSpline
210
0.0
220
0.0
230
1.0
 70
     8
 71
     3
 72
    11
 73
     7
 74
     0
 42
0.000000001
 43
0.00000001
 40
0.0
 40
0.0
 40
0.0
 40
0.0
 40
0.4766899494261856
 40
0.7614999526164365
 40
0.9517671819568722
 40
0.9999999999999999
 40
0.9999999999999999
 40
0.9999999999999999
 40
0.9999999999999999
 10
67.12454430303451
 20
86.57923005990396
 30
0.0
 10
67.11429706002423
 20
86.49201168967512
 30
0.0
 10
67.09792735246869
 20
86.35268258303783
 30
0.0
 10
66.99412193638746
 20
86.1925238823949
 30
0.0
 10
66.9162102455243
 20
86.11184303871916
 30
0.0
 10
66.8674047225719
 20
86.09019380399049
 30
0.0
 10
66.85753458655354
 20
86.08581559270333
 30
0.0
  0
LINE
  5
269
330
1F
100
AcDbEntity
  8
0
  6
Continuous
 62
     8
370
    25
100
AcDbLine
 10
54.4245444565
 20
86.8512414443
 30
0.0
 11
54.4245444565
 21
88.5815363424
 31
0.0
  0
LINE
  5
26A
330
1F
100
AcDbEntity
  8
0
  6
Continuous
 62
     8
370
    25
100
AcDbLine
 10
66.4245445608
 20
88.5815363424
 30
0.0
 11
66.4245445608
 21
86.8512414443
 31
0.0
  0
LINE
  5
26B
330
1F
100
AcDbEntity
  8
0
  6
Continuous
 62
     8
370
    25
100
AcDbLine
 10
54.4245444565
 20
76.9815364899
 30
0.0
 11
54.4245444565
 21
78.7118313881
 31
0.0
  0
LINE
  5
26C
330
1F
100
AcDbEntity
  8
0
  6
Continuous
 62
     8
370
    25
100
AcDbLine
 10
66.4245445608
 20
78.7118313881
 30
0.0
 11
66.4245445608
 21
76.9815364899
 31
0.0
  0
SPLINE
  5
26D
330
1F
100
AcDbEntity
  8
0
  6
Continuous
 62
     8
370
    25
100
AcDbSpline
210
0.0
220
0.0
230
1.0
 70
     8
 71
     3
 72
    11
 73
     7
 74
     0
 42
0.000000001
 43
0.00000001
 40
0.0
 40
0.0
 40
0.0
 40
0.0
 40
0.5145322907193379
 40
0.8075513622589925
 40
0.9831176322191947
 40
1.0
 40
1.0
 40
1.0
 40
1.0
 10
66.92454464278099
 20
86.70581961519729
 30
0.0
 10
66.91999565145697
 20
86.6163923880352
 30
0.0
 10
66.91285607206248
 20
86.47603758344786
 30
0.0
 10
66.85981307053382
 20
86.31247083265583
 30
0.0
 10
66.82647268151912
 20
86.22995838012044
 30
0.0
 10
66.80123793882794
 20
86.20587857688906
 30
0.0
 10
66.79902424580332
 20
86.20376619979452
 30
0.0
  0
SPLINE
  5
26E
330
1F
100
AcDbEntity
  8
0
  6
Continuous
 62
     8
370
    25
100
AcDbSpline
210
0.0
220
0.0
230
1.0
 70
     8
 71
     3
 72
    11
 73
     7
 74
     0
 42
0.000000001
 43
0.00000001
 40
0.0
 40
0.0
 40
0.0
 40
0.0
 40
0.0231377173358205
 40
0.1975868998258365
 40
0.4887415589506419
 40
1.0
 40
1.0
 40
1.0
 40
1.0
 10
54.05254860884425
 20
79.3617355218501
 30
0.0
 10
54.04948121984432
 20
79.35883200589994
 30
0.0
 10
54.02328693826255
 20
79.33403713496003
 30
0.0
 10
53.98911137494773
 20
79.25072012938524
 30
0.0
 10
53.93632657674495
 20
79.08696804026108
 30
0.0
 10
53.92912980564551
 20
78.94665428787621
 30
0.0
 10
53.92454437456009
 20
78.85725321717273
 30
0.0
  0
SPLINE
  5
26F
330
1F
100
AcDbEntity
  8
0
  6
Continuous
 62
     8
370
    25
100
AcDbSpline
210
0.0
220
0.0
230
1.0
 70
     8
 71
     3
 72
    11
 73
     7
 74
     0
 42
0.000000001
 43
0.00000001
 40
0.0
 40
0.0
 40
0.0
 40
0.0
 40
0.0144383052780494
 40
0.2070618625724267
 40
0.57025953657849
 40
1.0
 40
1.0
 40
1.0
 40
1.0
 10
54.05007408476349
 20
86.20361299723099
 30
0.0
 10
54.04815626324211
 20
86.20539666571776
 30
0.0
 10
54.02065250233307
 20
86.2309765181984
 30
0.0
 10
53.98301147687799
 20
86.32906781414162
 30
0.0
 10
53.93401904565495
 20
86.49367063094198
 30
0.0
 10
53.92787448072555
 20
86.63125463733232
 30
0.0
 10
53.92454437456009
 20
86.70581961519729
 30
0.0
  0
SPLINE
  5
270
330
1F
100
AcDbEntity
  8
0
  6
Continuous
 62
     8
370
    25
100
AcDbSpline
210
0.0
220
0.0
230
1.0
 70
     8
 71
     3
 72
    11
 73
     7
 74
     0
 42
0.000000001
 43
0.00000001
 40
0.0
 40
0.0
 40
0.0
 40
0.0
 40
0.4270796493947383
 40
0.7880285208147201
 40
0.9794594153119878
 40
1.0
 40
1.0
 40
1.0
 40
1.0
 10
66.92454464278099
 20
78.85725321717273
 30
0.0
 10
66.92118732348644
 20
78.93179843606245
 30
0.0
 10
66.91499254609226
 20
79.0693459840637
 30
0.0
 10
66.86628317461897
 20
79.23415432557866
 30
0.0
 10
66.82777798080991
 20
79.33298843376858
 30
0.0
 10
66.79931910221195
 20
79.35924561539561
 30
0.0
 10
66.79656136325475
 20
79.36179000422071
 30
0.0
  0
LINE
  5
271
330
1F
100
AcDbEntity
  8
0
  6
Continuous
 62
     8
370
    25
100
AcDbLine
 10
66.7245445169
 20
86.369363037
 30
0.0
 11
66.7245445169
 21
88.5815363424
 31
0.0
  0
LINE
  5
272
330
1F
100
AcDbEntity
  8
0
  6
Continuous
 62
     8
370
    25
100
AcDbLine
 10
54.1245445005
 20
88.5815363424
 30
0.0
 11
54.1245445005
 21
86.369363037
 31
0.0
  0
LINE
  5
273
330
1F
100
AcDbEntity
  8
0
  6
Continuous
 62
     8
370
    25
100
AcDbLine
 10
66.7245445169
 20
76.9815364899
 30
0.0
 11
66.7245445169
 21
79.1937097954
 31
0.0
  0
LINE
  5
274
330
1F
100
AcDbEntity
  8
0
  6
Continuous
 62
     8
370
    25
100
AcDbLine
 10
54.1245445005
 20
79.1937097954
 30
0.0
 11
54.1245445005
 21
76.9815364899
 31
0.0
  0
LINE
  5
275
330
1F
100
AcDbEntity
  8
0
  6
Continuous
 62
     8
370
    25
100
AcDbLine
 10
67.924544341
 20
88.8315363834
 30
0.0
 11
66.9245446428
 21
88.8315363834
 31
0.0
  0
INSERT
  5
281
330
1F
100
AcDbEntity
  8
0
  6
Continuous
 62
     7
370
    18
100
AcDbBlockReference
  2
SW_CENTERMARKSYMBOL_1
 10
60.4245445087
 20
82.7815364162
 30
0.0
  0
ARC
  5
282
330
1F
100
AcDbEntity
  8
0
  6
Continuous
 62
     7
370
    18
100
AcDbCircle
 10
60.4245445087
 20
82.7815364162
 30
0.0
 40
4.929555000000006
100
AcDbArc
 50
75.0
 51
345.0
  0
ENDSEC
  0
SECTION
  2
OBJECTS
  0
DICTIONARY
  5
C
330
0
100
AcDbDictionary
281
     1
  3
ACAD_GROUP
350
D
  3
ACAD_LAYOUT
350
1A
  3
ACAD_MLINESTYLE
350
17
  3
ACAD_PLOTSETTINGS
350
19
  3
ACAD_PLOTSTYLENAME
350
E
  3
ACAD_SCALELIST
350
47
  0
DICTIONARY
  5
D
102
{ACAD_REACTORS
330
C
102
}
330
C
100
AcDbDictionary
281
     1
  0
DICTIONARY
  5
1A
102
{ACAD_REACTORS
330
C
102
}
330
C
100
AcDbDictionary
281
     1
  3
Layout1
350
1E
  3
Layout2
350
26
  3
Model
350
22
  0
DICTIONARY
  5
17
102
{ACAD_REACTORS
330
C
102
}
330
C
100
AcDbDictionary
281
     1
  3
Standard
350
18
  0
DICTIONARY
  5
19
102
{ACAD_REACTORS
330
C
102
}
330
C
100
AcDbDictionary
281
     1
  0
ACDBDICTIONARYWDFLT
  5
E
102
{ACAD_REACTORS
330
C
102
}
330
C
100
AcDbDictionary
281
     1
  3
Normal
350
F
100
AcDbDictionaryWithDefault
340
F
  0
DICTIONARY
  5
47
102
{ACAD_REACTORS
330
C
102
}
330
C
100
AcDbDictionary
281
     1
  3
A0
350
48
  3
A1
350
49
  3
A2
350
4A
  3
A3
350
4B
  3
A4
350
4C
  3
A5
350
4D
  3
A6
350
4E
  3
A7
350
4F
  3
A8
350
50
  3
A9
350
51
  3
B0
350
52
  3
B1
350
53
  3
B2
350
54
  3
B3
350
55
  3
B4
350
56
  3
B5
350
57
  3
B6
350
58
  3
B7
350
59
  3
B8
350
5A
  3
B9
350
5B
  3
C0
350
5C
  3
C1
350
5D
  3
C2
350
5E
  3
C3
350
5F
  3
C4
350
60
  3
C5
350
61
  3
C6
350
62
  3
C7
350
63
  3
C8
350
64
  3
C9
350
65
  3
D0
350
66
  3
D1
350
67
  3
D2
350
68
  0
LAYOUT
  5
1E
102
{ACAD_REACTORS
330
1A
102
}
330
1A
100
AcDbPlotSettings
  1

  2
none_device
  4

  6

 40
0.0
 41
0.0
 42
0.0
 43
0.0
 44
0.0
 45
0.0
 46
0.0
 47
0.0
 48
0.0
 49
0.0
140
0.0
141
0.0
142
1.0
143
1.0
 70
   688
 72
     1
 73
     0
 74
     5
  7

 75
    16
147
1.0
148
0.0
149
0.0
100
AcDbLayout
  1
Layout1
 70
     1
 71
     1
 10
0.0
 20
0.0
 11
420.0
 21
297.0
 12
0.0
 22
0.0
 32
0.0
 14
1.0000000000E+20
 24
1.0000000000E+20
 34
1.0000000000E+20
 15
-1.0000000000E+20
 25
-1.0000000000E+20
 35
-1.0000000000E+20
146
0.0
 13
0.0
 23
0.0
 33
0.0
 16
1.0
 26
0.0
 36
0.0
 17
0.0
 27
1.0
 37
0.0
 76
     0
330
1B
  0
LAYOUT
  5
26
102
{ACAD_REACTORS
330
1A
102
}
330
1A
100
AcDbPlotSettings
  1

  2
none_device
  4

  6

 40
0.0
 41
0.0
 42
0.0
 43
0.0
 44
0.0
 45
0.0
 46
0.0
 47
0.0
 48
0.0
 49
0.0
140
0.0
141
0.0
142
1.0
143
1.0
 70
   688
 72
     1
 73
     0
 74
     5
  7

 75
    16
147
1.0
148
0.0
149
0.0
100
AcDbLayout
  1
Layout2
 70
     1
 71
     2
 10
0.0
 20
0.0
 11
0.0
 21
0.0
 12
0.0
 22
0.0
 32
0.0
 14
0.0
 24
0.0
 34
0.0
 15
0.0
 25
0.0
 35
0.0
146
0.0
 13
0.0
 23
0.0
 33
0.0
 16
1.0
 26
0.0
 36
0.0
 17
0.0
 27
1.0
 37
0.0
 76
     0
330
23
  0
LAYOUT
  5
22
102
{ACAD_REACTORS
330
1A
102
}
330
1A
100
AcDbPlotSettings
  1

  2
none_device
  4
Letter_(8.50_x_11.00_Inches)
  6

 40
6.35
 41
6.35
 42
6.35000508
 43
6.35000508
 44
215.9
 45
279.4
 46
0.0
 47
0.0
 48
0.0
 49
0.0
140
0.0
141
0.0
142
1.0
143
1.0
 70
  1712
 72
     1
 73
     0
 74
     0
  7

 75
     0
147
1.0
148
0.0
149
0.0
100
AcDbLayout
  1
Model
 70
     1
 71
     0
 10
0.0
 20
0.0
 11
215.9
 21
139.7
 12
0.0
 22
0.0
 32
0.0
 14
0.0
 24
0.0
 34
0.0
 15
215.9
 25
139.7
 35
0.0
146
0.0
 13
0.0
 23
0.0
 33
0.0
 16
1.0
 26
0.0
 36
0.0
 17
0.0
 27
1.0
 37
0.0
 76
     0
330
1F
331
29
  0
MLINESTYLE
  5
18
102
{ACAD_REACTORS
330
17
102
}
330
17
100
AcDbMlineStyle
  2
Standard
 70
     0
  3

 62
   256
 51
90.0
 52
90.0
 71
     2
 49
0.5
 62
   256
  6
BYLAYER
 49
-0.5
 62
   256
  6
BYLAYER
  0
ACDBPLACEHOLDER
  5
F
102
{ACAD_REACTORS
330
E
102
}
330
E
  0
SCALE
  5
48
102
{ACAD_REACTORS
330
47
102
}
330
47
100
AcDbScale
 70
     0
300
1:1
140
1.0
141
1.0
290
     1
  0
SCALE
  5
49
102
{ACAD_REACTORS
330
47
102
}
330
47
100
AcDbScale
 70
     0
300
1:2
140
1.0
141
2.0
290
     0
  0
SCALE
  5
4A
102
{ACAD_REACTORS
330
47
102
}
330
47
100
AcDbScale
 70
     0
300
1:4
140
1.0
141
4.0
290
     0
  0
SCALE
  5
4B
102
{ACAD_REACTORS
330
47
102
}
330
47
100
AcDbScale
 70
     0
300
1:5
140
1.0
141
5.0
290
     0
  0
SCALE
  5
4C
102
{ACAD_REACTORS
330
47
102
}
330
47
100
AcDbScale
 70
     0
300
1:8
140
1.0
141
8.0
290
     0
  0
SCALE
  5
4D
102
{ACAD_REACTORS
330
47
102
}
330
47
100
AcDbScale
 70
     0
300
1:10
140
1.0
141
10.0
290
     0
  0
SCALE
  5
4E
102
{ACAD_REACTORS
330
47
102
}
330
47
100
AcDbScale
 70
     0
300
1:16
140
1.0
141
16.0
290
     0
  0
SCALE
  5
4F
102
{ACAD_REACTORS
330
47
102
}
330
47
100
AcDbScale
 70
     0
300
1:20
140
1.0
141
20.0
290
     0
  0
SCALE
  5
50
102
{ACAD_REACTORS
330
47
102
}
330
47
100
AcDbScale
 70
     0
300
1:30
140
1.0
141
30.0
290
     0
  0
SCALE
  5
51
102
{ACAD_REACTORS
330
47
102
}
330
47
100
AcDbScale
 70
     0
300
1:40
140
1.0
141
40.0
290
     0
  0
SCALE
  5
52
102
{ACAD_REACTORS
330
47
102
}
330
47
100
AcDbScale
 70
     0
300
1:50
140
1.0
141
50.0
290
     0
  0
SCALE
  5
53
102
{ACAD_REACTORS
330
47
102
}
330
47
100
AcDbScale
 70
     0
300
1:100
140
1.0
141
100.0
290
     0
  0
SCALE
  5
54
102
{ACAD_REACTORS
330
47
102
}
330
47
100
AcDbScale
 70
     0
300
2:1
140
2.0
141
1.0
290
     0
  0
SCALE
  5
55
102
{ACAD_REACTORS
330
47
102
}
330
47
100
AcDbScale
 70
     0
300
4:1
140
4.0
141
1.0
290
     0
  0
SCALE
  5
56
102
{ACAD_REACTORS
330
47
102
}
330
47
100
AcDbScale
 70
     0
300
8:1
140
8.0
141
1.0
290
     0
  0
SCALE
  5
57
102
{ACAD_REACTORS
330
47
102
}
330
47
100
AcDbScale
 70
     0
300
10:1
140
10.0
141
1.0
290
     0
  0
SCALE
  5
58
102
{ACAD_REACTORS
330
47
102
}
330
47
100
AcDbScale
 70
     0
300
100:1
140
100.0
141
1.0
290
     0
  0
SCALE
  5
59
102
{ACAD_REACTORS
330
47
102
}
330
47
100
AcDbScale
 70
     0
300
1/128" = 1'-0"
140
0.0078125
141
12.0
290
     0
  0
SCALE
  5
5A
102
{ACAD_REACTORS
330
47
102
}
330
47
100
AcDbScale
 70
     0
300
1/64" = 1'-0"
140
0.015625
141
12.0
290
     0
  0
SCALE
  5
5B
102
{ACAD_REACTORS
330
47
102
}
330
47
100
AcDbScale
 70
     0
300
1/32" = 1'-0"
140
0.03125
141
12.0
290
     0
  0
SCALE
  5
5C
102
{ACAD_REACTORS
330
47
102
}
330
47
100
AcDbScale
 70
     0
300
1/16" = 1'-0"
140
0.0625
141
12.0
290
     0
  0
SCALE
  5
5D
102
{ACAD_REACTORS
330
47
102
}
330
47
100
AcDbScale
 70
     0
300
3/32" = 1'-0"
140
0.09375
141
12.0
290
     0
  0
SCALE
  5
5E
102
{ACAD_REACTORS
330
47
102
}
330
47
100
AcDbScale
 70
     0
300
1/8" = 1'-0"
140
0.125
141
12.0
290
     0
  0
SCALE
  5
5F
102
{ACAD_REACTORS
330
47
102
}
330
47
100
AcDbScale
 70
     0
300
3/16" = 1'-0"
140
0.1875
141
12.0
290
     0
  0
SCALE
  5
60
102
{ACAD_REACTORS
330
47
102
}
330
47
100
AcDbScale
 70
     0
300
1/4" = 1'-0"
140
0.25
141
12.0
290
     0
  0
SCALE
  5
61
102
{ACAD_REACTORS
330
47
102
}
330
47
100
AcDbScale
 70
     0
300
3/8" = 1'-0"
140
0.375
141
12.0
290
     0
  0
SCALE
  5
62
102
{ACAD_REACTORS
330
47
102
}
330
47
100
AcDbScale
 70
     0
300
1/2" = 1'-0"
140
0.5
141
12.0
290
     0
  0
SCALE
  5
63
102
{ACAD_REACTORS
330
47
102
}
330
47
100
AcDbScale
 70
     0
300
3/4" = 1'-0"
140
0.75
141
12.0
290
     0
  0
SCALE
  5
64
102
{ACAD_REACTORS
330
47
102
}
330
47
100
AcDbScale
 70
     0
300
1" = 1'-0"
140
1.0
141
12.0
290
     0
  0
SCALE
  5
65
102
{ACAD_REACTORS
330
47
102
}
330
47
100
AcDbScale
 70
     0
300
1-1/2" = 1'-0"
140
1.5
141
12.0
290
     0
  0
SCALE
  5
66
102
{ACAD_REACTORS
330
47
102
}
330
47
100
AcDbScale
 70
     0
300
3" = 1'-0"
140
3.0
141
12.0
290
     0
  0
SCALE
  5
67
102
{ACAD_REACTORS
330
47
102
}
330
47
100
AcDbScale
 70
     0
300
6" = 1'-0"
140
6.0
141
12.0
290
     0
  0
SCALE
  5
68
102
{ACAD_REACTORS
330
47
102
}
330
47
100
AcDbScale
 70
     0
300
1'-0" = 1'-0"
140
12.0
141
12.0
290
     0
  0
ENDSEC
  0
EOF
