  0
SECTION
  2
HEADER
  9
$ACADVER
  1
AC1015
  9
$ACADMAINTVER
 70
     6
  9
$DWGCODEPAGE
  3
DOS932
  9
$INSBASE
 10
0.0
 20
0.0
 30
0.0
  9
$EXTMIN
 10
0.0
 20
0.0
 30
0.0
  9
$EXTMAX
 10
431.8
 20
279.4
 30
0.0
  9
$LIMMIN
 10
0.0
 20
0.0
  9
$LIMMAX
 10
431.8
 20
279.4
  9
$ORTHOMODE
 70
     0
  9
$REGENMODE
 70
     1
  9
$FILLMODE
 70
     1
  9
$QTEXTMODE
 70
     0
  9
$MIRRTEXT
 70
     1
  9
$LTSCALE
 40
1.0
  9
$ATTMODE
 70
     1
  9
$TEXTSIZE
 40
3.5
  9
$TRACEWID
 40
1.0
  9
$TEXTSTYLE
  7
Standard
  9
$CLAYER
  8
0
  9
$CELTYPE
  6
ByLayer
  9
$CECOLOR
 62
   256
  9
$CELTSCALE
 40
1.0
  9
$DISPSILH
 70
     0
  9
$DIMSCALE
 40
1.0
  9
$DIMASZ
 40
3.556
  9
$DIMEXO
 40
1.0
  9
$DIMDLI
 40
3.75
  9
$DIMRND
 40
0.0
  9
$DIMDLE
 40
0.0
  9
$DIMEXE
 40
1.0
  9
$DIMTP
 40
0.0
  9
$DIMTM
 40
0.0
  9
$DIMTXT
 40
3.5
  9
$DIMCEN
 40
2.5
  9
$DIMTSZ
 40
0.0
  9
$DIMTOL
 70
     0
  9
$DIMLIM
 70
     0
  9
$DIMTIH
 70
     1
  9
$DIMTOH
 70
     1
  9
$DIMSE1
 70
     0
  9
$DIMSE2
 70
     0
  9
$DIMTAD
 70
     1
  9
$DIMZIN
 70
     0
  9
$DIMBLK
  1

  9
$DIMASO
 70
     1
  9
$DIMSHO
 70
     1
  9
$DIMPOST
  1

  9
$DIMAPOST
  1

  9
$DIMALT
 70
     0
  9
$DIMALTD
 70
     3
  9
$DIMALTF
 40
0.0393700787
  9
$DIMLFAC
 40
1.0
  9
$DIMTOFL
 70
     1
  9
$DIMTVP
 40
0.0
  9
$DIMTIX
 70
     0
  9
$DIMSOXD
 70
     0
  9
$DIMSAH
 70
     0
  9
$DIMBLK1
  1

  9
$DIMBLK2
  1

  9
$DIMSTYLE
  2
ISO-25
  9
$DIMCLRD
 70
     0
  9
$DIMCLRE
 70
     0
  9
$DIMCLRT
 70
     0
  9
$DIMTFAC
 40
1.0
  9
$DIMGAP
 40
1.524
  9
$DIMJUST
 70
     0
  9
$DIMSD1
 70
     0
  9
$DIMSD2
 70
     0
  9
$DIMTOLJ
 70
     0
  9
$DIMTZIN
 70
     0
  9
$DIMALTZ
 70
     0
  9
$DIMALTTZ
 70
     0
  9
$DIMUPT
 70
     0
  9
$DIMDEC
 70
     3
  9
$DIMTDEC
 70
     3
  9
$DIMALTU
 70
     2
  9
$DIMALTTD
 70
     3
  9
$DIMTXSTY
  7
Standard
  9
$DIMAUNIT
 70
     0
  9
$DIMADEC
 70
     2
  9
$DIMALTRND
 40
0.0
  9
$DIMAZIN
 70
     0
  9
$DIMDSEP
 70
    44
  9
$DIMATFIT
 70
     3
  9
$DIMFRAC
 70
     0
  9
$DIMLDRBLK
  1

  9
$DIMLUNIT
 70
     2
  9
$DIMLWD
 70
    -2
  9
$DIMLWE
 70
    -2
  9
$DIMTMOVE
 70
     0
  9
$LUNITS
 70
     2
  9
$LUPREC
 70
     3
  9
$SKETCHINC
 40
1.0
  9
$FILLETRAD
 40
0.0
  9
$AUNITS
 70
     0
  9
$AUPREC
 70
     2
  9
$MENU
  1
.
  9
$ELEVATION
 40
0.0
  9
$PELEVATION
 40
0.0
  9
$THICKNESS
 40
0.0
  9
$LIMCHECK
 70
     0
  9
$CHAMFERA
 40
0.0
  9
$CHAMFERB
 40
0.0
  9
$CHAMFERC
 40
0.0
  9
$CHAMFERD
 40
0.0
  9
$SKPOLY
 70
     0
  9
$TDCREATE
 40
2460279.743240776
  9
$TDUCREATE
 40
2460279.368240776
  9
$TDUPDATE
 40
2460279.743241227
  9
$TDUUPDATE
 40
2460279.368241227
  9
$TDINDWG
 40
0.0000000116
  9
$TDUSRTIMER
 40
0.0000000116
  9
$USRTIMER
 70
     1
  9
$ANGBASE
 50
0.0
  9
$ANGDIR
 70
     0
  9
$PDMODE
 70
     0
  9
$PDSIZE
 40
-1.0
  9
$PLINEWID
 40
0.0
  9
$SPLFRAME
 70
     0
  9
$SPLINETYPE
 70
     6
  9
$SPLINESEGS
 70
     8
  9
$HANDSEED
  5
2B5
  9
$SURFTAB1
 70
     6
  9
$SURFTAB2
 70
     6
  9
$SURFTYPE
 70
     6
  9
$SURFU
 70
     6
  9
$SURFV
 70
     6
  9
$UCSBASE
  2

  9
$UCSNAME
  2

  9
$UCSORG
 10
0.0
 20
0.0
 30
0.0
  9
$UCSXDIR
 10
1.0
 20
0.0
 30
0.0
  9
$UCSYDIR
 10
0.0
 20
1.0
 30
0.0
  9
$UCSORTHOREF
  2

  9
$UCSORTHOVIEW
 70
     0
  9
$UCSORGTOP
 10
0.0
 20
0.0
 30
0.0
  9
$UCSORGBOTTOM
 10
0.0
 20
0.0
 30
0.0
  9
$UCSORGLEFT
 10
0.0
 20
0.0
 30
0.0
  9
$UCSORGRIGHT
 10
0.0
 20
0.0
 30
0.0
  9
$UCSORGFRONT
 10
0.0
 20
0.0
 30
0.0
  9
$UCSORGBACK
 10
0.0
 20
0.0
 30
0.0
  9
$PUCSBASE
  2

  9
$PUCSNAME
  2

  9
$PUCSORG
 10
0.0
 20
0.0
 30
0.0
  9
$PUCSXDIR
 10
1.0
 20
0.0
 30
0.0
  9
$PUCSYDIR
 10
0.0
 20
1.0
 30
0.0
  9
$PUCSORTHOREF
  2

  9
$PUCSORTHOVIEW
 70
     0
  9
$PUCSORGTOP
 10
0.0
 20
0.0
 30
0.0
  9
$PUCSORGBOTTOM
 10
0.0
 20
0.0
 30
0.0
  9
$PUCSORGLEFT
 10
0.0
 20
0.0
 30
0.0
  9
$PUCSORGRIGHT
 10
0.0
 20
0.0
 30
0.0
  9
$PUCSORGFRONT
 10
0.0
 20
0.0
 30
0.0
  9
$PUCSORGBACK
 10
0.0
 20
0.0
 30
0.0
  9
$USERI1
 70
     0
  9
$USERI2
 70
     0
  9
$USERI3
 70
     0
  9
$USERI4
 70
     0
  9
$USERI5
 70
     0
  9
$USERR1
 40
0.0
  9
$USERR2
 40
0.0
  9
$USERR3
 40
0.0
  9
$USERR4
 40
0.0
  9
$USERR5
 40
0.0
  9
$WORLDVIEW
 70
     1
  9
$SHADEDGE
 70
     3
  9
$SHADEDIF
 70
    70
  9
$TILEMODE
 70
     1
  9
$MAXACTVP
 70
    64
  9
$PINSBASE
 10
0.0
 20
0.0
 30
0.0
  9
$PLIMCHECK
 70
     0
  9
$PEXTMIN
 10
1.0000000000E+20
 20
1.0000000000E+20
 30
1.0000000000E+20
  9
$PEXTMAX
 10
-1.0000000000E+20
 20
-1.0000000000E+20
 30
-1.0000000000E+20
  9
$PLIMMIN
 10
0.0
 20
0.0
  9
$PLIMMAX
 10
420.0
 20
297.0
  9
$UNITMODE
 70
     0
  9
$VISRETAIN
 70
     1
  9
$PLINEGEN
 70
     0
  9
$PSLTSCALE
 70
     1
  9
$TREEDEPTH
 70
  3020
  9
$CMLSTYLE
  2
Standard
  9
$CMLJUST
 70
     0
  9
$CMLSCALE
 40
20.0
  9
$PROXYGRAPHICS
 70
     1
  9
$MEASUREMENT
 70
     1
  9
$CELWEIGHT
370
    -1
  9
$ENDCAPS
280
     0
  9
$JOINSTYLE
280
     0
  9
$LWDISPLAY
290
     1
  9
$INSUNITS
 70
     4
  9
$HYPERLINKBASE
  1

  9
$STYLESHEET
  1

  9
$XEDIT
290
     1
  9
$CEPSNTYPE
380
     0
  9
$PSTYLEMODE
290
     1
  9
$FINGERPRINTGUID
  2
{298e8f17-0968-4a79-93bd-563c211b1fcc}
  9
$VERSIONGUID
  2
{FAEB1C32-E019-11D5-929B-00C0DF256EC4}
  9
$EXTNAMES
290
     1
  9
$PSVPSCALE
 40
0.0
  9
$OLESTARTUP
290
     0
  0
ENDSEC
  0
SECTION
  2
CLASSES
  0
CLASS
  1
ACDBDICTIONARYWDFLT
  2
AcDbDictionaryWithDefault
  3
ObjectDBX Classes
 90
        0
280
     0
281
     0
  0
CLASS
  1
VISUALSTYLE
  2
AcDbVisualStyle
  3
ObjectDBX Classes
 90
     4095
280
     0
281
     0
  0
CLASS
  1
MATERIAL
  2
AcDbMaterial
  3
ObjectDBX Classes
 90
     1153
280
     0
281
     0
  0
CLASS
  1
SCALE
  2
AcDbScale
  3
ObjectDBX Classes
 90
     1153
280
     0
281
     0
  0
CLASS
  1
TABLESTYLE
  2
AcDbTableStyle
  3
ObjectDBX Classes
 90
     4095
280
     0
281
     0
  0
CLASS
  1
MLEADERSTYLE
  2
AcDbMLeaderStyle
  3
ACDB_MLEADERSTYLE_CLASS
 90
     4095
280
     0
281
     0
  0
CLASS
  1
SUN
  2
AcDbSun
  3
SCENEOE
 90
     1153
280
     0
281
     0
  0
CLASS
  1
ACDBPLACEHOLDER
  2
AcDbPlaceHolder
  3
ObjectDBX Classes
 90
        0
280
     0
281
     0
  0
CLASS
  1
LAYOUT
  2
AcDbLayout
  3
ObjectDBX Classes
 90
        0
280
     0
281
     0
  0
ENDSEC
  0
SECTION
  2
TABLES
  0
TABLE
  2
VPORT
  5
8
330
0
100
AcDbSymbolTable
 70
     1
  0
VPORT
  5
29
330
8
100
AcDbSymbolTableRecord
100
AcDbViewportTableRecord
  2
*Active
 70
     0
 10
0.0
 20
0.0
 11
1.0
 21
1.0
 12
215.9
 22
139.7
 13
0.0
 23
0.0
 14
10.0
 24
10.0
 15
10.0
 25
10.0
 16
0.0
 26
0.0
 36
1.0
 17
0.0
 27
0.0
 37
0.0
 40
279.4
 41
1.5454545455
 42
50.0
 43
0.0
 44
0.0
 50
0.0
 51
0.0
 71
     0
 72
  2000
 73
     1
 74
     3
 75
     0
 76
     0
 77
     0
 78
     0
281
     0
 65
     1
110
0.0
120
0.0
130
0.0
111
1.0
121
0.0
131
0.0
112
0.0
122
1.0
132
0.0
 79
     0
146
0.0
  0
ENDTAB
  0
TABLE
  2
LTYPE
  5
5
330
0
100
AcDbSymbolTable
 70
     6
  0
LTYPE
  5
14
330
5
100
AcDbSymbolTableRecord
100
AcDbLinetypeTableRecord
  2
ByBlock
 70
     0
  3

 72
    65
 73
     0
 40
0.0
  0
LTYPE
  5
15
330
5
100
AcDbSymbolTableRecord
100
AcDbLinetypeTableRecord
  2
ByLayer
 70
     0
  3

 72
    65
 73
     0
 40
0.0
  0
LTYPE
  5
16
330
5
100
AcDbSymbolTableRecord
100
AcDbLinetypeTableRecord
  2
Continuous
 70
     0
  3
Solid line
 72
    65
 73
     0
 40
0.0
  0
LTYPE
  5
5E
330
5
100
AcDbSymbolTableRecord
100
AcDbLinetypeTableRecord
  2
HIDDEN
 70
     0
  3
Hidden __ __ __ __ __ __ __ __ __ __ __ __ __ __
 72
    65
 73
     2
 40
1.905
 49
1.27
 74
     0
 49
-0.635
 74
     0
  0
LTYPE
  5
5F
330
5
100
AcDbSymbolTableRecord
100
AcDbLinetypeTableRecord
  2
PHANTOM
 70
     0
  3
Phantom ______  __  __  ______  __  __  ______
 72
    65
 73
     6
 40
12.7
 49
6.35
 74
     0
 49
-1.27
 74
     0
 49
1.27
 74
     0
 49
-1.27
 74
     0
 49
1.27
 74
     0
 49
-1.27
 74
     0
  0
LTYPE
  5
60
330
5
100
AcDbSymbolTableRecord
100
AcDbLinetypeTableRecord
  2
CENTER
 70
     0
  3
Center ____ _ ____ _ ____ _ ____ _ ____ _ ____
 72
    65
 73
     4
 40
10.16
 49
6.35
 74
     0
 49
-1.27
 74
     0
 49
1.27
 74
     0
 49
-1.27
 74
     0
  0
LTYPE
  5
61
330
5
100
AcDbSymbolTableRecord
100
AcDbLinetypeTableRecord
  2
CENTERX2
 70
     0
  3
Center (2x) ________  __  ________  __  _____
 72
    65
 73
     4
 40
20.32
 49
12.7
 74
     0
 49
-2.54
 74
     0
 49
2.54
 74
     0
 49
-2.54
 74
     0
  0
LTYPE
  5
62
330
5
100
AcDbSymbolTableRecord
100
AcDbLinetypeTableRecord
  2
DOT2
 70
     0
  3
Dot (.5x) ........................................
 72
    65
 73
     2
 40
0.635
 49
0.0
 74
     0
 49
-0.635
 74
     0
  0
ENDTAB
  0
TABLE
  2
LAYER
  5
2
330
0
100
AcDbSymbolTable
 70
     1
  0
LAYER
  5
10
330
2
100
AcDbSymbolTableRecord
100
AcDbLayerTableRecord
  2
0
 70
     0
 62
     7
  6
Continuous
370
    -3
390
F
  0
ENDTAB
  0
TABLE
  2
STYLE
  5
3
330
0
100
AcDbSymbolTable
 70
     2
  0
STYLE
  5
11
330
3
100
AcDbSymbolTableRecord
100
AcDbTextStyleTableRecord
  2
Standard
 70
     0
 40
0.0
 41
1.0
 50
0.0
 71
     0
 42
3.5
  3
txt
  4
bigfont
  0
STYLE
  5
2A6
330
3
100
AcDbSymbolTableRecord
100
AcDbTextStyleTableRecord
  2
SLDTEXTSTYLE0
 70
     0
 40
0.0
 41
0.75
 50
0.0
 71
     0
 42
3.5
  3
TXT
  4
bigfont
  0
ENDTAB
  0
TABLE
  2
VIEW
  5
6
330
0
100
AcDbSymbolTable
 70
     0
  0
ENDTAB
  0
TABLE
  2
UCS
  5
7
330
0
100
AcDbSymbolTable
 70
     0
  0
ENDTAB
  0
TABLE
  2
APPID
  5
9
330
0
100
AcDbSymbolTable
 70
     1
  0
APPID
  5
12
330
9
100
AcDbSymbolTableRecord
100
AcDbRegAppTableRecord
  2
ACAD
 70
     0
  0
ENDTAB
  0
TABLE
  2
DIMSTYLE
  5
A
330
0
100
AcDbSymbolTable
 70
     1
100
AcDbDimStyleTable
  0
DIMSTYLE
105
27
330
A
100
AcDbSymbolTableRecord
100
AcDbDimStyleTableRecord
  2
ISO-25
 70
     0
 41
2.5
 42
0.625
 43
3.75
 44
1.25
 73
     0
 74
     0
 77
     1
 78
     8
140
2.5
141
2.5
143
0.0393700787
147
0.625
171
     3
172
     1
178
     0
271
     2
272
     2
274
     3
278
    44
283
     0
284
     8
340
11
  0
ENDTAB
  0
TABLE
  2
BLOCK_RECORD
  5
1
330
0
100
AcDbSymbolTable
 70
     3
  0
BLOCK_RECORD
  5
1F
330
1
100
AcDbSymbolTableRecord
100
AcDbBlockTableRecord
  2
*Model_Space
340
22
  0
BLOCK_RECORD
  5
1B
330
1
100
AcDbSymbolTableRecord
100
AcDbBlockTableRecord
  2
*Paper_Space
340
1E
  0
BLOCK_RECORD
  5
23
330
1
100
AcDbSymbolTableRecord
100
AcDbBlockTableRecord
  2
*Paper_Space0
340
26
  0
BLOCK_RECORD
  5
203
330
1
100
AcDbSymbolTableRecord
100
AcDbBlockTableRecord
  2
SW_CENTERMARKSYMBOL_0
340
0
102
{BLKREFS
331
20E
102
}
  0
BLOCK_RECORD
  5
2A8
330
1
100
AcDbSymbolTableRecord
100
AcDbBlockTableRecord
  2
SW_CENTERMARKSYMBOL_1
340
0
102
{BLKREFS
331
2B3
102
}
  0
ENDTAB
  0
ENDSEC
  0
SECTION
  2
BLOCKS
  0
BLOCK
  5
20
330
1F
100
AcDbEntity
  8
0
100
AcDbBlockBegin
  2
*Model_Space
 70
     0
 10
0.0
 20
0.0
 30
0.0
  3
*Model_Space
  1

  0
ENDBLK
  5
21
330
1F
100
AcDbEntity
  8
0
100
AcDbBlockEnd
  0
BLOCK
  5
1C
330
1B
100
AcDbEntity
 67
     1
  8
0
100
AcDbBlockBegin
  2
*Paper_Space
 70
     0
 10
0.0
 20
0.0
 30
0.0
  3
*Paper_Space
  1

  0
ENDBLK
  5
1D
330
1B
100
AcDbEntity
 67
     1
  8
0
100
AcDbBlockEnd
  0
BLOCK
  5
24
330
23
100
AcDbEntity
  8
0
100
AcDbBlockBegin
  2
*Paper_Space0
 70
     0
 10
0.0
 20
0.0
 30
0.0
  3
*Paper_Space0
  1

  0
ENDBLK
  5
25
330
23
100
AcDbEntity
  8
0
100
AcDbBlockEnd
  0
BLOCK
  5
204
330
203
100
AcDbEntity
  8
0
100
AcDbBlockBegin
  2
SW_CENTERMARKSYMBOL_0
 70
     0
 10
0.0
 20
0.0
 30
0.0
  3
SW_CENTERMARKSYMBOL_0
  1

  0
LINE
  5
206
330
203
100
AcDbEntity
  8
0
  6
Continuous
 62
     0
370
    18
100
AcDbLine
 10
0.0
 20
0.0
 30
0.0
 11
0.0
 21
2.5
 31
0.0
  0
LINE
  5
207
330
203
100
AcDbEntity
  8
0
  6
Continuous
 62
     0
370
    18
100
AcDbLine
 10
0.0
 20
0.0
 30
0.0
 11
-2.5
 21
0.0
 31
0.0
  0
LINE
  5
208
330
203
100
AcDbEntity
  8
0
  6
Continuous
 62
     0
370
    18
100
AcDbLine
 10
0.0
 20
0.0
 30
0.0
 11
0.0
 21
-2.5
 31
0.0
  0
LINE
  5
209
330
203
100
AcDbEntity
  8
0
  6
Continuous
 62
     0
370
    18
100
AcDbLine
 10
0.0
 20
0.0
 30
0.0
 11
2.5
 21
0.0
 31
0.0
  0
LINE
  5
20A
330
203
100
AcDbEntity
  8
0
  6
Continuous
 62
     0
370
    18
100
AcDbLine
 10
0.0
 20
5.0
 30
0.0
 11
0.0
 21
39.3494128433
 31
0.0
  0
LINE
  5
20B
330
203
100
AcDbEntity
  8
0
  6
Continuous
 62
     0
370
    18
100
AcDbLine
 10
-5.0
 20
0.0
 30
0.0
 11
-14.05
 21
0.0
 31
0.0
  0
LINE
  5
20C
330
203
100
AcDbEntity
  8
0
  6
Continuous
 62
     0
370
    18
100
AcDbLine
 10
0.0
 20
-5.0
 30
0.0
 11
0.0
 21
-17.0226081892
 31
0.0
  0
LINE
  5
20D
330
203
100
AcDbEntity
  8
0
  6
Continuous
 62
     0
370
    18
100
AcDbLine
 10
5.0
 20
0.0
 30
0.0
 11
14.05
 21
0.0
 31
0.0
  0
ENDBLK
  5
205
330
203
100
AcDbEntity
  8
0
100
AcDbBlockEnd
  0
BLOCK
  5
2A9
330
2A8
100
AcDbEntity
  8
0
100
AcDbBlockBegin
  2
SW_CENTERMARKSYMBOL_1
 70
     0
 10
0.0
 20
0.0
 30
0.0
  3
SW_CENTERMARKSYMBOL_1
  1

  0
LINE
  5
2AB
330
2A8
100
AcDbEntity
  8
0
  6
Continuous
 62
     0
370
    18
100
AcDbLine
 10
0.0
 20
0.0
 30
0.0
 11
0.0
 21
2.5
 31
0.0
  0
LINE
  5
2AC
330
2A8
100
AcDbEntity
  8
0
  6
Continuous
 62
     0
370
    18
100
AcDbLine
 10
0.0
 20
0.0
 30
0.0
 11
-2.5
 21
0.0
 31
0.0
  0
LINE
  5
2AD
330
2A8
100
AcDbEntity
  8
0
  6
Continuous
 62
     0
370
    18
100
AcDbLine
 10
0.0
 20
0.0
 30
0.0
 11
0.0
 21
-2.5
 31
0.0
  0
LINE
  5
2AE
330
2A8
100
AcDbEntity
  8
0
  6
Continuous
 62
     0
370
    18
100
AcDbLine
 10
0.0
 20
0.0
 30
0.0
 11
2.5
 21
0.0
 31
0.0
  0
LINE
  5
2AF
330
2A8
100
AcDbEntity
  8
0
  6
Continuous
 62
     0
370
    18
100
AcDbLine
 10
0.0
 20
5.0
 30
0.0
 11
0.0
 21
14.05
 31
0.0
  0
LINE
  5
2B0
330
2A8
100
AcDbEntity
  8
0
  6
Continuous
 62
     0
370
    18
100
AcDbLine
 10
-5.0
 20
0.0
 30
0.0
 11
-39.056216442
 21
0.0
 31
0.0
  0
LINE
  5
2B1
330
2A8
100
AcDbEntity
  8
0
  6
Continuous
 62
     0
370
    18
100
AcDbLine
 10
0.0
 20
-5.0
 30
0.0
 11
0.0
 21
-14.05
 31
0.0
  0
LINE
  5
2B2
330
2A8
100
AcDbEntity
  8
0
  6
Continuous
 62
     0
370
    18
100
AcDbLine
 10
5.0
 20
0.0
 30
0.0
 11
39.2692649267
 21
0.0
 31
0.0
  0
ENDBLK
  5
2AA
330
2A8
100
AcDbEntity
  8
0
100
AcDbBlockEnd
  0
ENDSEC
  0
SECTION
  2
ENTITIES
  0
LINE
  5
63
330
1F
100
AcDbEntity
  8
0
  6
Continuous
 62
     7
370
    25
100
AcDbLine
 10
67.3905758927
 20
38.6377603416
 30
0.0
 11
66.1744415556
 21
36.531353881
 31
0.0
  0
LINE
  5
64
330
1F
100
AcDbEntity
  8
0
  6
Continuous
 62
     7
370
    25
100
AcDbLine
 10
66.1744415556
 20
13.031353881
 30
0.0
 11
67.3905758927
 21
10.9249474205
 31
0.0
  0
LINE
  5
65
330
1F
100
AcDbEntity
  8
0
  6
Continuous
 62
     7
370
    25
100
AcDbLine
 10
83.9744415556
 20
13.031353881
 30
0.0
 11
84.1744415556
 21
13.231353881
 31
0.0
  0
LINE
  5
66
330
1F
100
AcDbEntity
  8
0
  6
Continuous
 62
     7
370
    25
100
AcDbLine
 10
84.1744415556
 20
36.331353881
 30
0.0
 11
83.9744415556
 21
36.531353881
 31
0.0
  0
LINE
  5
67
330
1F
100
AcDbEntity
  8
0
  6
Continuous
 62
     7
370
    25
100
AcDbLine
 10
83.9744415556
 20
36.531353881
 30
0.0
 11
82.8961293921
 21
36.531353881
 31
0.0
  0
LINE
  5
68
330
1F
100
AcDbEntity
  8
0
  6
Continuous
 62
     7
370
    25
100
AcDbLine
 10
82.8961293921
 20
13.031353881
 30
0.0
 11
83.9744415556
 21
13.031353881
 31
0.0
  0
LINE
  5
69
330
1F
100
AcDbEntity
  8
0
  6
Continuous
 62
     7
370
    25
100
AcDbLine
 10
80.9583072186
 20
10.9249474205
 30
0.0
 11
81.8135976374
 21
12.406353881
 31
0.0
  0
ARC
  5
6A
330
1F
100
AcDbEntity
  8
0
  6
Continuous
 62
     7
370
    25
100
AcDbCircle
 10
82.8961293921
 20
11.781353881
 30
0.0
 40
1.250000000000017
100
AcDbArc
 50
90.0
 51
150.0
  0
LINE
  5
6B
330
1F
100
AcDbEntity
  8
0
  6
Continuous
 62
     7
370
    25
100
AcDbLine
 10
81.8135976374
 20
37.156353881
 30
0.0
 11
80.9583072186
 21
38.6377603416
 31
0.0
  0
ARC
  5
6C
330
1F
100
AcDbEntity
  8
0
  6
Continuous
 62
     7
370
    25
100
AcDbCircle
 10
82.8961293921
 20
37.781353881
 30
0.0
 40
1.250000000000016
100
AcDbArc
 50
210.0
 51
270.0
  0
LINE
  5
6D
330
1F
100
AcDbEntity
  8
0
  6
Continuous
 62
     7
370
    25
100
AcDbLine
 10
28.8391383931
 20
10.9249474205
 30
0.0
 11
30.0552727301
 21
13.031353881
 31
0.0
  0
LINE
  5
6E
330
1F
100
AcDbEntity
  8
0
  6
Continuous
 62
     7
370
    25
100
AcDbLine
 10
30.0552727301
 20
36.531353881
 30
0.0
 11
28.8391383931
 21
38.6377603416
 31
0.0
  0
LINE
  5
6F
330
1F
100
AcDbEntity
  8
0
  6
Continuous
 62
     7
370
    25
100
AcDbLine
 10
12.2552727301
 20
13.031353881
 30
0.0
 11
13.3335848936
 21
13.031353881
 31
0.0
  0
LINE
  5
70
330
1F
100
AcDbEntity
  8
0
  6
Continuous
 62
     7
370
    25
100
AcDbLine
 10
13.3335848936
 20
36.531353881
 30
0.0
 11
12.2552727301
 21
36.531353881
 31
0.0
  0
LINE
  5
71
330
1F
100
AcDbEntity
  8
0
  6
Continuous
 62
     7
370
    25
100
AcDbLine
 10
12.2552727301
 20
36.531353881
 30
0.0
 11
12.0552727301
 21
36.331353881
 31
0.0
  0
LINE
  5
72
330
1F
100
AcDbEntity
  8
0
  6
Continuous
 62
     7
370
    25
100
AcDbLine
 10
12.0552727301
 20
13.231353881
 30
0.0
 11
12.2552727301
 21
13.031353881
 31
0.0
  0
LINE
  5
73
330
1F
100
AcDbEntity
  8
0
  6
Continuous
 62
     7
370
    25
100
AcDbLine
 10
14.4161166483
 20
12.406353881
 30
0.0
 11
15.2714070671
 21
10.9249474205
 31
0.0
  0
ARC
  5
74
330
1F
100
AcDbEntity
  8
0
  6
Continuous
 62
     7
370
    25
100
AcDbCircle
 10
13.3335848936
 20
11.781353881
 30
0.0
 40
1.250000000000002
100
AcDbArc
 50
30.0
 51
90.0
  0
ARC
  5
75
330
1F
100
AcDbEntity
  8
0
  6
Continuous
 62
     7
370
    25
100
AcDbCircle
 10
13.3335848936
 20
37.781353881
 30
0.0
 40
1.25
100
AcDbArc
 50
270.0
 51
330.0
  0
LINE
  5
76
330
1F
100
AcDbEntity
  8
0
  6
Continuous
 62
     7
370
    25
100
AcDbLine
 10
15.2714070671
 20
38.6377603416
 30
0.0
 11
14.4161166483
 21
37.156353881
 31
0.0
  0
LINE
  5
77
330
1F
100
AcDbEntity
  8
0
  6
Continuous
 62
     7
370
    25
100
AcDbLine
 10
34.2584506823
 20
44.0570726308
 30
0.0
 11
36.3648571429
 21
42.8409382938
 31
0.0
  0
LINE
  5
78
330
1F
100
AcDbEntity
  8
0
  6
Continuous
 62
     7
370
    25
100
AcDbLine
 10
59.8648571429
 20
42.8409382938
 30
0.0
 11
61.9712636034
 21
44.0570726308
 31
0.0
  0
LINE
  5
79
330
1F
100
AcDbEntity
  8
0
  6
Continuous
 62
     7
370
    25
100
AcDbLine
 10
59.8648571429
 20
60.6409382938
 30
0.0
 11
59.6648571429
 21
60.8409382938
 31
0.0
  0
LINE
  5
7A
330
1F
100
AcDbEntity
  8
0
  6
Continuous
 62
     7
370
    25
100
AcDbLine
 10
36.5648571429
 20
60.8409382938
 30
0.0
 11
36.3648571429
 21
60.6409382938
 31
0.0
  0
LINE
  5
7B
330
1F
100
AcDbEntity
  8
0
  6
Continuous
 62
     7
370
    25
100
AcDbLine
 10
36.3648571429
 20
60.6409382938
 30
0.0
 11
36.3648571429
 21
59.5626261303
 31
0.0
  0
LINE
  5
7C
330
1F
100
AcDbEntity
  8
0
  6
Continuous
 62
     7
370
    25
100
AcDbLine
 10
59.8648571429
 20
59.5626261303
 30
0.0
 11
59.8648571429
 21
60.6409382938
 31
0.0
  0
ARC
  5
7D
330
1F
100
AcDbEntity
  8
0
  6
Continuous
 62
     7
370
    25
100
AcDbCircle
 10
61.1148571429
 20
59.5626261303
 30
0.0
 40
1.25
100
AcDbArc
 50
180.0
 51
240.0
  0
LINE
  5
7E
330
1F
100
AcDbEntity
  8
0
  6
Continuous
 62
     7
370
    25
100
AcDbLine
 10
61.9712636034
 20
57.6248039568
 30
0.0
 11
60.4898571429
 21
58.4800943756
 31
0.0
  0
ARC
  5
7F
330
1F
100
AcDbEntity
  8
0
  6
Continuous
 62
     7
370
    25
100
AcDbCircle
 10
35.1148571429
 20
59.5626261303
 30
0.0
 40
1.25
100
AcDbArc
 50
300.0
 51
0.0
  0
LINE
  5
80
330
1F
100
AcDbEntity
  8
0
  6
Continuous
 62
     7
370
    25
100
AcDbLine
 10
35.7398571429
 20
58.4800943756
 30
0.0
 11
34.2584506823
 21
57.6248039568
 31
0.0
  0
LINE
  5
81
330
1F
100
AcDbEntity
  8
0
  6
Continuous
 62
     7
370
    25
100
AcDbLine
 10
37.6373571429
 20
42.8409382938
 30
0.0
 11
37.6373571429
 21
39.8075758006
 31
0.0
  0
LINE
  5
82
330
1F
100
AcDbEntity
  8
0
  6
Continuous
 62
     7
370
    25
100
AcDbLine
 10
58.5923571429
 20
39.8075758006
 30
0.0
 11
58.5923571429
 21
42.8409382938
 31
0.0
  0
ARC
  5
83
330
1F
100
AcDbEntity
  8
0
  6
Continuous
 62
     7
370
    25
100
AcDbCircle
 10
64.1148571429
 20
35.031353881
 30
0.0
 40
0.9999999999999929
100
AcDbArc
 50
166.8500691589
 51
180.0
  0
ARC
  5
84
330
1F
100
AcDbEntity
  8
0
  6
Continuous
 62
     7
370
    25
100
AcDbCircle
 10
64.1148571429
 20
14.531353881
 30
0.0
 40
0.9999999999999929
100
AcDbArc
 50
180.0
 51
193.1499308411
  0
LINE
  5
85
330
1F
100
AcDbEntity
  8
0
  6
Continuous
 62
     7
370
    25
100
AcDbLine
 10
30.0552727301
 20
14.303853881
 30
0.0
 11
33.0886352233
 21
14.303853881
 31
0.0
  0
LINE
  5
86
330
1F
100
AcDbEntity
  8
0
  6
Continuous
 62
     7
370
    25
100
AcDbLine
 10
33.0886352233
 20
35.258853881
 30
0.0
 11
30.0552727301
 21
35.258853881
 31
0.0
  0
ARC
  5
87
330
1F
100
AcDbEntity
  8
0
  6
Continuous
 62
     7
370
    25
100
AcDbCircle
 10
37.8648571429
 20
40.781353881
 30
0.0
 40
1.0
100
AcDbArc
 50
256.8500691589
 51
270.0
  0
ARC
  5
88
330
1F
100
AcDbEntity
  8
0
  6
Continuous
 62
     7
370
    25
100
AcDbCircle
 10
58.3648571429
 20
40.781353881
 30
0.0
 40
1.0
100
AcDbArc
 50
270.0
 51
283.1499308411
  0
LINE
  5
89
330
1F
100
AcDbEntity
  8
0
  6
Continuous
 62
     7
370
    25
100
AcDbLine
 10
66.1744415556
 20
35.258853881
 30
0.0
 11
63.1410790624
 21
35.258853881
 31
0.0
  0
LINE
  5
8A
330
1F
100
AcDbEntity
  8
0
  6
Continuous
 62
     7
370
    25
100
AcDbLine
 10
63.1410790624
 20
14.303853881
 30
0.0
 11
66.1744415556
 21
14.303853881
 31
0.0
  0
ARC
  5
8B
330
1F
100
AcDbEntity
  8
0
  6
Continuous
 62
     7
370
    25
100
AcDbCircle
 10
32.1148571429
 20
14.531353881
 30
0.0
 40
1.0
100
AcDbArc
 50
346.8500691589
 51
0.0
  0
ARC
  5
8C
330
1F
100
AcDbEntity
  8
0
  6
Continuous
 62
     7
370
    25
100
AcDbCircle
 10
32.1148571429
 20
35.031353881
 30
0.0
 40
1.0
100
AcDbArc
 50
0.0
 51
13.1499308411
  0
ARC
  5
8D
330
1F
100
AcDbEntity
  8
0
  6
Continuous
 62
     7
370
    25
100
AcDbCircle
 10
34.1148571429
 20
15.281353881
 30
0.0
 40
1.0
100
AcDbArc
 50
90.0
 51
180.0
  0
ARC
  5
8E
330
1F
100
AcDbEntity
  8
0
  6
Continuous
 62
     7
370
    25
100
AcDbCircle
 10
34.1148571429
 20
34.281353881
 30
0.0
 40
1.0
100
AcDbArc
 50
180.0
 51
270.0
  0
ARC
  5
8F
330
1F
100
AcDbEntity
  8
0
  6
Continuous
 62
     7
370
    25
100
AcDbCircle
 10
62.1148571429
 20
34.281353881
 30
0.0
 40
1.0
100
AcDbArc
 50
270.0
 51
0.0
  0
ARC
  5
90
330
1F
100
AcDbEntity
  8
0
  6
Continuous
 62
     7
370
    25
100
AcDbCircle
 10
62.1148571429
 20
15.281353881
 30
0.0
 40
1.0
100
AcDbArc
 50
0.0
 51
90.0
  0
ARC
  5
91
330
1F
100
AcDbEntity
  8
0
  6
Continuous
 62
     7
370
    25
100
AcDbCircle
 10
38.6148571429
 20
38.781353881
 30
0.0
 40
1.0
100
AcDbArc
 50
0.0
 51
90.0
  0
ARC
  5
92
330
1F
100
AcDbEntity
  8
0
  6
Continuous
 62
     7
370
    25
100
AcDbCircle
 10
57.6148571429
 20
38.781353881
 30
0.0
 40
1.0
100
AcDbArc
 50
90.0
 51
180.0
  0
LINE
  5
93
330
1F
100
AcDbEntity
  8
0
  6
Continuous
 62
     7
370
    25
100
AcDbLine
 10
39.1148571429
 20
33.281353881
 30
0.0
 11
34.1148571429
 21
33.281353881
 31
0.0
  0
LINE
  5
94
330
1F
100
AcDbEntity
  8
0
  6
Continuous
 62
     7
370
    25
100
AcDbLine
 10
62.1148571429
 20
33.281353881
 30
0.0
 11
57.1148571429
 21
33.281353881
 31
0.0
  0
LINE
  5
95
330
1F
100
AcDbEntity
  8
0
  6
Continuous
 62
     7
370
    25
100
AcDbLine
 10
34.1148571429
 20
16.281353881
 30
0.0
 11
62.1148571429
 21
16.281353881
 31
0.0
  0
LINE
  5
96
330
1F
100
AcDbEntity
  8
0
  6
Continuous
 62
     7
370
    25
100
AcDbLine
 10
56.6148571429
 20
33.781353881
 30
0.0
 11
56.6148571429
 21
38.781353881
 31
0.0
  0
LINE
  5
97
330
1F
100
AcDbEntity
  8
0
  6
Continuous
 62
     7
370
    25
100
AcDbLine
 10
39.6148571429
 20
38.781353881
 30
0.0
 11
39.6148571429
 21
33.781353881
 31
0.0
  0
ARC
  5
98
330
1F
100
AcDbEntity
  8
0
  6
Continuous
 62
     7
370
    25
100
AcDbCircle
 10
57.1148571429
 20
33.781353881
 30
0.0
 40
0.5000000000000059
100
AcDbArc
 50
182.2722682801
 51
267.5603395309
  0
ARC
  5
99
330
1F
100
AcDbEntity
  8
0
  6
Continuous
 62
     7
370
    25
100
AcDbCircle
 10
39.1148571429
 20
33.781353881
 30
0.0
 40
0.4999999999999951
100
AcDbArc
 50
272.2722682801
 51
357.5603395309
  0
SPLINE
  5
9A
330
1F
100
AcDbEntity
  8
0
  6
Continuous
 62
     7
370
    25
100
AcDbSpline
210
0.0
220
0.0
230
1.0
 70
     8
 71
     3
 72
    10
 73
     6
 74
     0
 42
0.00000001
 43
0.00000001
 40
0.0
 40
0.0
 40
0.0
 40
0.0
 40
0.2896830214237579
 40
0.5812913727325433
 40
1.0
 40
1.0
 40
1.0
 40
1.0
 10
81.81359763739445
 20
15.90072236342074
 30
0.0
 10
81.882199669613
 20
15.60984292083094
 30
0.0
 10
82.01985968601497
 20
15.02615075395257
 30
0.0
 10
82.0604635374492
 20
14.01305132474844
 30
0.0
 10
81.9051499295622
 20
13.29855054753671
 30
0.0
 10
81.81359763739445
 20
12.87737570780881
 30
0.0
  0
SPLINE
  5
9B
330
1F
100
AcDbEntity
  8
0
  6
Continuous
 62
     7
370
    25
100
AcDbSpline
210
0.0
220
0.0
230
1.0
 70
     8
 71
     3
 72
     9
 73
     5
 74
     0
 42
0.00000001
 43
0.00000001
 40
0.0
 40
0.0
 40
0.0
 40
0.0
 40
0.4986680494787146
 40
1.0
 40
1.0
 40
1.0
 40
1.0
 10
81.81359763739445
 20
12.87737570780881
 30
0.0
 10
81.70579074681017
 20
12.54907635774251
 30
0.0
 10
81.48960105770337
 20
11.89072387173605
 30
0.0
 10
81.13571940021728
 20
11.24744411543452
 30
0.0
 10
80.95830721861607
 20
10.92494742047702
 30
0.0
  0
LINE
  5
9C
330
1F
100
AcDbEntity
  8
0
  6
Continuous
 62
     7
370
    25
100
AcDbLine
 10
80.9583072186
 20
10.9249474205
 30
0.0
 11
67.3905758927
 21
10.9249474205
 31
0.0
  0
SPLINE
  5
9D
330
1F
100
AcDbEntity
  8
0
  6
Continuous
 62
     7
370
    25
100
AcDbSpline
210
0.0
220
0.0
230
1.0
 70
     8
 71
     3
 72
    15
 73
    11
 74
     0
 42
0.00000001
 43
0.00000001
 40
0.0
 40
0.0
 40
0.0
 40
0.0
 40
0.1323065044264402
 40
0.2645755999739298
 40
0.3998036789671093
 40
0.5350073556765894
 40
0.6501969475405023
 40
0.7654045076453768
 40
0.8826909144168968
 40
1.0
 40
1.0
 40
1.0
 40
1.0
 10
67.39057589265987
 20
10.92494742047702
 30
0.0
 10
67.22741681074216
 20
11.22427624324762
 30
0.0
 10
66.90114477916883
 20
11.82284925534057
 30
0.0
 10
66.55009007614895
 20
12.74459903213335
 30
0.0
 10
66.3390132906198
 20
13.68372414588392
 30
0.0
 10
66.29721598033423
 20
14.58882504392711
 30
0.0
 10
66.40567461303498
 20
15.44502174871167
 30
0.0
 10
66.62790052209586
 20
16.25305425752115
 30
0.0
 10
66.95387829538214
 20
17.0574333266311
 30
0.0
 10
67.2450006457756
 20
17.58789444913574
 30
0.0
 10
67.39057589265987
 20
17.85315065075253
 30
0.0
  0
LINE
  5
9E
330
1F
100
AcDbEntity
  8
0
  6
Continuous
 62
     7
370
    25
100
AcDbLine
 10
80.9583072186
 20
17.8531506508
 30
0.0
 11
67.3905758927
 21
17.8531506508
 31
0.0
  0
SPLINE
  5
9F
330
1F
100
AcDbEntity
  8
0
  6
Continuous
 62
     7
370
    25
100
AcDbSpline
210
0.0
220
0.0
230
1.0
 70
     8
 71
     3
 72
     9
 73
     5
 74
     0
 42
0.00000001
 43
0.00000001
 40
0.0
 40
0.0
 40
0.0
 40
0.0
 40
0.4988470384231428
 40
1.0
 40
1.0
 40
1.0
 40
1.0
 10
80.95830721861607
 20
17.85315065075253
 30
0.0
 10
81.1348832189546
 20
17.53226033081827
 30
0.0
 10
81.48885144315548
 20
16.8889963736971
 30
0.0
 10
81.70518262495447
 20
16.23065306320711
 30
0.0
 10
81.81359763739445
 20
15.90072236342074
 30
0.0
  0
SPLINE
  5
A0
330
1F
100
AcDbEntity
  8
0
  6
Continuous
 62
     7
370
    25
100
AcDbSpline
210
0.0
220
0.0
230
1.0
 70
     8
 71
     3
 72
     9
 73
     5
 74
     0
 42
0.00000001
 43
0.00000001
 40
0.0
 40
0.0
 40
0.0
 40
0.0
 40
0.4986680494787147
 40
1.0
 40
1.0
 40
1.0
 40
1.0
 10
81.81359763739445
 20
21.75800722541606
 30
0.0
 10
81.70579074681017
 20
21.10140852528346
 30
0.0
 10
81.48960105770338
 20
19.78470355327057
 30
0.0
 10
81.13571940021728
 20
18.49814404066753
 30
0.0
 10
80.95830721861607
 20
17.85315065075253
 30
0.0
  0
LINE
  5
A1
330
1F
100
AcDbEntity
  8
0
  6
Continuous
 62
     7
370
    25
100
AcDbLine
 10
81.8135976374
 20
15.9007223634
 30
0.0
 11
81.8135976374
 21
21.7580072254
 31
0.0
  0
SPLINE
  5
A2
330
1F
100
AcDbEntity
  8
0
  6
Continuous
 62
     7
370
    25
100
AcDbSpline
210
0.0
220
0.0
230
1.0
 70
     8
 71
     3
 72
    15
 73
    11
 74
     0
 42
0.00000001
 43
0.00000001
 40
0.0
 40
0.0
 40
0.0
 40
0.0
 40
0.1323065044264402
 40
0.2645755999739297
 40
0.399803678967109
 40
0.5350073556765891
 40
0.6501969475405018
 40
0.7654045076453763
 40
0.8826909144168965
 40
0.9999999999999999
 40
0.9999999999999999
 40
0.9999999999999999
 40
0.9999999999999999
 10
67.39057589265987
 20
31.70955711130356
 30
0.0
 10
67.22741681074214
 20
32.00888593407416
 30
0.0
 10
66.90114477916883
 20
32.60745894616711
 30
0.0
 10
66.55009007614893
 20
33.52920872295989
 30
0.0
 10
66.3390132906198
 20
34.46833383671046
 30
0.0
 10
66.29721598033423
 20
35.37343473475365
 30
0.0
 10
66.40567461303499
 20
36.2296314395382
 30
0.0
 10
66.62790052209584
 20
37.03766394834769
 30
0.0
 10
66.95387829538214
 20
37.84204301745764
 30
0.0
 10
67.2450006457756
 20
38.37250413996228
 30
0.0
 10
67.39057589265987
 20
38.63776034157907
 30
0.0
  0
SPLINE
  5
A3
330
1F
100
AcDbEntity
  8
0
  6
Continuous
 62
     7
370
    25
100
AcDbSpline
210
0.0
220
0.0
230
1.0
 70
     8
 71
     3
 72
    14
 73
    10
 74
     0
 42
0.00000001
 43
0.00000001
 40
0.0
 40
0.0
 40
0.0
 40
0.0
 40
0.1849616675901325
 40
0.3715529357653711
 40
0.4966600563761461
 40
0.6217665387009521
 40
0.7502083078289149
 40
0.8786852004145195
 40
1.0
 40
1.0
 40
1.0
 40
1.0
 10
67.39057589265987
 20
17.85315065075253
 30
0.0
 10
67.16724331264594
 20
18.69153820902518
 30
0.0
 10
66.71861048597773
 20
20.37569992017306
 30
0.0
 10
66.38657766242252
 20
22.68715160789691
 30
0.0
 10
66.29471387567118
 20
24.73472768715604
 30
0.0
 10
66.3649828118769
 20
26.51087976116264
 30
0.0
 10
66.5877902231799
 20
28.28964708609664
 30
0.0
 10
66.9307077143985
 20
30.03120488289614
 30
0.0
 10
67.2402448768443
 20
31.16090337242838
 30
0.0
 10
67.39057589265987
 20
31.70955711130356
 30
0.0
  0
LINE
  5
A4
330
1F
100
AcDbEntity
  8
0
  6
Continuous
 62
     7
370
    25
100
AcDbLine
 10
66.1744415556
 20
13.031353881
 30
0.0
 11
66.1744415556
 21
36.531353881
 31
0.0
  0
SPLINE
  5
A5
330
1F
100
AcDbEntity
  8
0
  6
Continuous
 62
     7
370
    25
100
AcDbSpline
210
0.0
220
0.0
230
1.0
 70
     8
 71
     3
 72
    10
 73
     6
 74
     0
 42
0.00000001
 43
0.00000001
 40
0.0
 40
0.0
 40
0.0
 40
0.0
 40
0.3910406133635748
 40
0.7869660949554501
 40
1.0
 40
1.0
 40
1.0
 40
1.0
 10
81.81359763739445
 20
27.80470053664004
 30
0.0
 10
81.90040015807679
 20
27.0183461025114
 30
0.0
 10
82.0750895340628
 20
25.4358141170121
 30
0.0
 10
82.01710407969733
 20
23.40715925078792
 30
0.0
 10
81.86633988303596
 20
22.18541374993725
 30
0.0
 10
81.81359763739445
 20
21.75800722541606
 30
0.0
  0
LINE
  5
A6
330
1F
100
AcDbEntity
  8
0
  6
Continuous
 62
     7
370
    25
100
AcDbLine
 10
80.9583072186
 20
31.7095571113
 30
0.0
 11
67.3905758927
 21
31.7095571113
 31
0.0
  0
SPLINE
  5
A7
330
1F
100
AcDbEntity
  8
0
  6
Continuous
 62
     7
370
    25
100
AcDbSpline
210
0.0
220
0.0
230
1.0
 70
     8
 71
     3
 72
     9
 73
     5
 74
     0
 42
0.00000001
 43
0.00000001
 40
0.0
 40
0.0
 40
0.0
 40
0.0
 40
0.4060341230684889
 40
1.0
 40
1.0
 40
1.0
 40
1.0
 10
80.95830721861607
 20
31.70955711130356
 30
0.0
 10
81.10331659576836
 20
31.18766282437835
 30
0.0
 10
81.46045253315312
 20
29.90231694511787
 30
0.0
 10
81.68200376542991
 20
28.58634372458954
 30
0.0
 10
81.81359763739445
 20
27.80470053664004
 30
0.0
  0
ARC
  5
A8
330
1F
100
AcDbEntity
  8
0
  6
Continuous
 62
     7
370
    25
100
AcDbCircle
 10
82.7852361802
 20
18.7832113186
 30
0.0
 40
3.129455566915805
100
AcDbArc
 50
87.9692814554
 51
108.0882596308
  0
LINE
  5
A9
330
1F
100
AcDbEntity
  8
0
  6
Continuous
 62
     7
370
    25
100
AcDbLine
 10
82.8961293921
 20
21.910701501
 30
0.0
 11
82.8961293921
 21
16.3492391067
 31
0.0
  0
ARC
  5
AA
330
1F
100
AcDbEntity
  8
0
  6
Continuous
 62
     7
370
    25
100
AcDbCircle
 10
82.8389308206
 20
14.956644797
 30
0.0
 40
1.393768484391434
100
AcDbArc
 50
87.647990046
 51
137.3626177873
  0
SPLINE
  5
AB
330
1F
100
AcDbEntity
  8
0
  6
Continuous
 62
     7
370
    25
100
AcDbSpline
210
0.0
220
0.0
230
1.0
 70
     8
 71
     3
 72
     9
 73
     5
 74
     0
 42
0.00000001
 43
0.00000001
 40
0.0
 40
0.0
 40
0.0
 40
0.0
 40
0.4986680494787149
 40
1.0
 40
1.0
 40
1.0
 40
1.0
 10
81.81359763739445
 20
33.66198539863534
 30
0.0
 10
81.70579074681015
 20
33.33368604856904
 30
0.0
 10
81.48960105770337
 20
32.67533356256259
 30
0.0
 10
81.1357194002173
 20
32.03205380626106
 30
0.0
 10
80.95830721861607
 20
31.70955711130356
 30
0.0
  0
LINE
  5
AC
330
1F
100
AcDbEntity
  8
0
  6
Continuous
 62
     7
370
    25
100
AcDbLine
 10
81.8135976374
 20
27.8047005366
 30
0.0
 11
81.8135976374
 21
33.6619853986
 31
0.0
  0
SPLINE
  5
AD
330
1F
100
AcDbEntity
  8
0
  6
Continuous
 62
     7
370
    25
100
AcDbSpline
210
0.0
220
0.0
230
1.0
 70
     8
 71
     3
 72
    11
 73
     7
 74
     0
 42
0.00000001
 43
0.00000001
 40
0.0
 40
0.0
 40
0.0
 40
0.0
 40
0.2219160281998818
 40
0.4466603017989558
 40
0.7206213487801929
 40
1.0
 40
1.0
 40
1.0
 40
1.0
 10
82.89612939212502
 20
27.65200626110408
 30
0.0
 10
82.88319752254056
 20
27.23255420873896
 30
0.0
 10
82.85716897102822
 20
26.38830432819022
 30
0.0
 10
82.75067552823403
 20
24.99773225116298
 30
0.0
 10
82.8310127542877
 20
23.48727753903212
 30
0.0
 10
82.87428263149627
 20
22.43964587616679
 30
0.0
 10
82.89612939212502
 20
21.91070150095202
 30
0.0
  0
ARC
  5
AE
330
1F
100
AcDbEntity
  8
0
  6
Continuous
 62
     7
370
    25
100
AcDbCircle
 10
82.7852361802
 20
30.7794964435
 30
0.0
 40
3.129455566915819
100
AcDbArc
 50
251.9117403692
 51
272.0307185446
  0
LINE
  5
AF
330
1F
100
AcDbEntity
  8
0
  6
Continuous
 62
     7
370
    25
100
AcDbLine
 10
82.8961293921
 20
33.2134686553
 30
0.0
 11
82.8961293921
 21
27.6520062611
 31
0.0
  0
ARC
  5
B0
330
1F
100
AcDbEntity
  8
0
  6
Continuous
 62
     7
370
    25
100
AcDbCircle
 10
82.8389308206
 20
34.6060629651
 30
0.0
 40
1.39376848439466
100
AcDbArc
 50
222.6373822128
 51
272.3520099539
  0
SPLINE
  5
B1
330
1F
100
AcDbEntity
  8
0
  6
Continuous
 62
     7
370
    25
100
AcDbSpline
210
0.0
220
0.0
230
1.0
 70
     8
 71
     3
 72
    10
 73
     6
 74
     0
 42
0.00000001
 43
0.00000001
 40
0.0
 40
0.0
 40
0.0
 40
0.0
 40
0.2896830214237566
 40
0.5812913727325408
 40
1.0
 40
1.0
 40
1.0
 40
1.0
 10
81.81359763739445
 20
36.68533205424729
 30
0.0
 10
81.882199669613
 20
36.39445261165748
 30
0.0
 10
82.01985968601497
 20
35.81076044477911
 30
0.0
 10
82.0604635374492
 20
34.79766101557498
 30
0.0
 10
81.90514992956219
 20
34.08316023836324
 30
0.0
 10
81.81359763739445
 20
33.66198539863534
 30
0.0
  0
LINE
  5
B2
330
1F
100
AcDbEntity
  8
0
  6
Continuous
 62
     7
370
    25
100
AcDbLine
 10
80.9583072186
 20
38.6377603416
 30
0.0
 11
67.3905758927
 21
38.6377603416
 31
0.0
  0
SPLINE
  5
B3
330
1F
100
AcDbEntity
  8
0
  6
Continuous
 62
     7
370
    25
100
AcDbSpline
210
0.0
220
0.0
230
1.0
 70
     8
 71
     3
 72
     9
 73
     5
 74
     0
 42
0.00000001
 43
0.00000001
 40
0.0
 40
0.0
 40
0.0
 40
0.0
 40
0.498847038423143
 40
1.0
 40
1.0
 40
1.0
 40
1.0
 10
80.95830721861607
 20
38.63776034157907
 30
0.0
 10
81.1348832189546
 20
38.31687002164482
 30
0.0
 10
81.48885144315548
 20
37.67360606452363
 30
0.0
 10
81.70518262495449
 20
37.01526275403366
 30
0.0
 10
81.81359763739445
 20
36.68533205424729
 30
0.0
  0
LINE
  5
B4
330
1F
100
AcDbEntity
  8
0
  6
Continuous
 62
     7
370
    25
100
AcDbLine
 10
84.1744415556
 20
24.781353881
 30
0.0
 11
84.1744415556
 21
13.231353881
 31
0.0
  0
LINE
  5
B5
330
1F
100
AcDbEntity
  8
0
  6
Continuous
 62
     7
370
    25
100
AcDbLine
 10
84.1744415556
 20
36.331353881
 30
0.0
 11
84.1744415556
 21
24.781353881
 31
0.0
  0
LINE
  5
B6
330
1F
100
AcDbEntity
  8
0
  6
Continuous
 62
     7
370
    25
100
AcDbLine
 10
83.9744415556
 20
24.781353881
 30
0.0
 11
83.9744415556
 21
36.531353881
 31
0.0
  0
LINE
  5
B7
330
1F
100
AcDbEntity
  8
0
  6
Continuous
 62
     7
370
    25
100
AcDbLine
 10
83.9744415556
 20
13.031353881
 30
0.0
 11
83.9744415556
 21
24.781353881
 31
0.0
  0
SPLINE
  5
B8
330
1F
100
AcDbEntity
  8
0
  6
Continuous
 62
     7
370
    25
100
AcDbSpline
210
0.0
220
0.0
230
1.0
 70
     8
 71
     3
 72
    11
 73
     7
 74
     0
 42
0.00000001
 43
0.00000001
 40
0.0
 40
0.0
 40
0.0
 40
0.0
 40
0.2219160282077401
 40
0.4466603018149352
 40
0.7206213487884543
 40
0.9999999999999999
 40
0.9999999999999999
 40
0.9999999999999999
 40
0.9999999999999999
 10
82.89612939212502
 20
36.08412103539784
 30
0.0
 10
82.88319752253953
 20
35.95386993198508
 30
0.0
 10
82.8571689710251
 20
35.69170771850311
 30
0.0
 10
82.75067552823224
 20
35.08588953579913
 30
0.0
 10
82.83101275429213
 20
34.28910705721468
 30
0.0
 10
82.87428263149776
 20
33.57434746402098
 30
0.0
 10
82.89612939212502
 20
33.21346865532183
 30
0.0
  0
SPLINE
  5
B9
330
1F
100
AcDbEntity
  8
0
  6
Continuous
 62
     7
370
    25
100
AcDbSpline
210
0.0
220
0.0
230
1.0
 70
     8
 71
     3
 72
    11
 73
     7
 74
     0
 42
0.00000001
 43
0.00000001
 40
0.0
 40
0.0
 40
0.0
 40
0.0
 40
0.2219160282077373
 40
0.4466603018149289
 40
0.7206213487884515
 40
1.0
 40
1.0
 40
1.0
 40
1.0
 10
82.89612939212502
 20
16.34923910673425
 30
0.0
 10
82.88319752253953
 20
16.06003815776692
 30
0.0
 10
82.8571689710251
 20
15.47795049066977
 30
0.0
 10
82.75067552823224
 20
14.69319659632924
 30
0.0
 10
82.83101275429216
 20
13.97952436279926
 30
0.0
 10
82.87428263149776
 20
13.64665229315812
 30
0.0
 10
82.89612939212502
 20
13.47858672665827
 30
0.0
  0
ARC
  5
BA
330
1F
100
AcDbEntity
  8
0
  6
Continuous
 62
     7
370
    25
100
AcDbCircle
 10
82.8873226778
 20
37.343464715
 30
0.0
 40
1.259374472359705
100
AcDbArc
 50
211.5059393155
 51
270.400668494
  0
ARC
  5
BB
330
1F
100
AcDbEntity
  8
0
  6
Continuous
 62
     7
370
    25
100
AcDbCircle
 10
82.8873226778
 20
12.219243047
 30
0.0
 40
1.259374472359703
100
AcDbArc
 50
89.599331506
 51
148.4940606845
  0
LINE
  5
BC
330
1F
100
AcDbEntity
  8
0
  6
Continuous
 62
     7
370
    25
100
AcDbLine
 10
14.4161166483
 20
21.7580072254
 30
0.0
 11
14.4161166483
 21
15.9007223634
 31
0.0
  0
ARC
  5
BD
330
1F
100
AcDbEntity
  8
0
  6
Continuous
 62
     7
370
    25
100
AcDbCircle
 10
13.3907834651
 20
14.956644797
 30
0.0
 40
1.393768484391396
100
AcDbArc
 50
42.6373822127
 51
92.352009954
  0
LINE
  5
BE
330
1F
100
AcDbEntity
  8
0
  6
Continuous
 62
     7
370
    25
100
AcDbLine
 10
13.3335848936
 20
16.3492391067
 30
0.0
 11
13.3335848936
 21
21.910701501
 31
0.0
  0
ARC
  5
BF
330
1F
100
AcDbEntity
  8
0
  6
Continuous
 62
     7
370
    25
100
AcDbCircle
 10
13.4444781055
 20
18.7832113186
 30
0.0
 40
3.129455566915634
100
AcDbArc
 50
71.9117403692
 51
92.0307185446
  0
SPLINE
  5
C0
330
1F
100
AcDbEntity
  8
0
  6
Continuous
 62
     7
370
    25
100
AcDbSpline
210
0.0
220
0.0
230
1.0
 70
     8
 71
     3
 72
    10
 73
     6
 74
     0
 42
0.00000001
 43
0.00000001
 40
0.0
 40
0.0
 40
0.0
 40
0.0
 40
0.2896830214237572
 40
0.5812913727325419
 40
1.0
 40
1.0
 40
1.0
 40
1.0
 10
14.41611664831988
 20
33.66198539863534
 30
0.0
 10
14.34751461610133
 20
33.95286484122514
 30
0.0
 10
14.20985459969937
 20
34.53655700810351
 30
0.0
 10
14.16925074826515
 20
35.54965643730765
 30
0.0
 10
14.32456435615214
 20
36.26415721451939
 30
0.0
 10
14.41611664831987
 20
36.68533205424729
 30
0.0
  0
SPLINE
  5
C1
330
1F
100
AcDbEntity
  8
0
  6
Continuous
 62
     7
370
    25
100
AcDbSpline
210
0.0
220
0.0
230
1.0
 70
     8
 71
     3
 72
     9
 73
     5
 74
     0
 42
0.00000001
 43
0.00000001
 40
0.0
 40
0.0
 40
0.0
 40
0.0
 40
0.4986680494787148
 40
1.0
 40
1.0
 40
1.0
 40
1.0
 10
14.41611664831988
 20
36.68533205424729
 30
0.0
 10
14.52392353890418
 20
37.01363140431359
 30
0.0
 10
14.74011322801097
 20
37.67198389032004
 30
0.0
 10
15.09399488549706
 20
38.31526364662157
 30
0.0
 10
15.27140706709826
 20
38.63776034157907
 30
0.0
  0
LINE
  5
C2
330
1F
100
AcDbEntity
  8
0
  6
Continuous
 62
     7
370
    25
100
AcDbLine
 10
15.2714070671
 20
38.6377603416
 30
0.0
 11
28.8391383931
 21
38.6377603416
 31
0.0
  0
SPLINE
  5
C3
330
1F
100
AcDbEntity
  8
0
  6
Continuous
 62
     7
370
    25
100
AcDbSpline
210
0.0
220
0.0
230
1.0
 70
     8
 71
     3
 72
    15
 73
    11
 74
     0
 42
0.00000001
 43
0.00000001
 40
0.0
 40
0.0
 40
0.0
 40
0.0
 40
0.1323065044264402
 40
0.2645755999739296
 40
0.399803678967109
 40
0.5350073556765891
 40
0.650196947540502
 40
0.7654045076453764
 40
0.8826909144168966
 40
1.0
 40
1.0
 40
1.0
 40
1.0
 10
28.83913839305448
 20
38.63776034157907
 30
0.0
 10
29.0022974749722
 20
38.33843151880847
 30
0.0
 10
29.3285695065455
 20
37.73985850671553
 30
0.0
 10
29.6796242095654
 20
36.81810872992273
 30
0.0
 10
29.89070099509454
 20
35.87898361617217
 30
0.0
 10
29.93249830538012
 20
34.97388271812898
 30
0.0
 10
29.82403967267935
 20
34.11768601334443
 30
0.0
 10
29.60181376361849
 20
33.30965350453493
 30
0.0
 10
29.27583599033219
 20
32.50527443542499
 30
0.0
 10
28.98471363993874
 20
31.97481331292034
 30
0.0
 10
28.83913839305448
 20
31.70955711130356
 30
0.0
  0
LINE
  5
C4
330
1F
100
AcDbEntity
  8
0
  6
Continuous
 62
     7
370
    25
100
AcDbLine
 10
15.2714070671
 20
31.7095571113
 30
0.0
 11
28.8391383931
 21
31.7095571113
 31
0.0
  0
SPLINE
  5
C5
330
1F
100
AcDbEntity
  8
0
  6
Continuous
 62
     7
370
    25
100
AcDbSpline
210
0.0
220
0.0
230
1.0
 70
     8
 71
     3
 72
     9
 73
     5
 74
     0
 42
0.00000001
 43
0.00000001
 40
0.0
 40
0.0
 40
0.0
 40
0.0
 40
0.4988470384231431
 40
1.0
 40
1.0
 40
1.0
 40
1.0
 10
15.27140706709826
 20
31.70955711130356
 30
0.0
 10
15.09483106675973
 20
32.0304474312378
 30
0.0
 10
14.74086284255882
 20
32.67371138835899
 30
0.0
 10
14.52453166075986
 20
33.33205469884897
 30
0.0
 10
14.41611664831988
 20
33.66198539863534
 30
0.0
  0
SPLINE
  5
C6
330
1F
100
AcDbEntity
  8
0
  6
Continuous
 62
     7
370
    25
100
AcDbSpline
210
0.0
220
0.0
230
1.0
 70
     8
 71
     3
 72
    15
 73
    11
 74
     0
 42
0.00000001
 43
0.00000001
 40
0.0
 40
0.0
 40
0.0
 40
0.0
 40
0.1323065044264403
 40
0.2645755999739298
 40
0.3998036789671092
 40
0.5350073556765891
 40
0.6501969475405018
 40
0.7654045076453763
 40
0.8826909144168966
 40
0.9999999999999999
 40
0.9999999999999999
 40
0.9999999999999999
 40
0.9999999999999999
 10
28.83913839305448
 20
17.85315065075253
 30
0.0
 10
29.0022974749722
 20
17.55382182798193
 30
0.0
 10
29.3285695065455
 20
16.95524881588899
 30
0.0
 10
29.67962420956541
 20
16.0334990390962
 30
0.0
 10
29.89070099509453
 20
15.09437392534564
 30
0.0
 10
29.93249830538012
 20
14.18927302730244
 30
0.0
 10
29.82403967267935
 20
13.33307632251789
 30
0.0
 10
29.60181376361849
 20
12.5250438137084
 30
0.0
 10
29.27583599033219
 20
11.72066474459846
 30
0.0
 10
28.98471363993874
 20
11.19020362209381
 30
0.0
 10
28.83913839305448
 20
10.92494742047702
 30
0.0
  0
SPLINE
  5
C7
330
1F
100
AcDbEntity
  8
0
  6
Continuous
 62
     7
370
    25
100
AcDbSpline
210
0.0
220
0.0
230
1.0
 70
     8
 71
     3
 72
    14
 73
    10
 74
     0
 42
0.00000001
 43
0.00000001
 40
0.0
 40
0.0
 40
0.0
 40
0.0
 40
0.121314867642298
 40
0.2465737848541125
 40
0.3718008293836808
 40
0.5001234647862596
 40
0.6284461178609372
 40
0.8132558656183411
 40
0.9999999999999999
 40
0.9999999999999999
 40
0.9999999999999999
 40
0.9999999999999999
 10
28.83913839305448
 20
31.70955711130356
 30
0.0
 10
28.98948020536116
 20
31.16090534317437
 30
0.0
 10
29.29505157021306
 20
30.04576467110602
 30
0.0
 10
29.63356107314256
 20
28.33418803214051
 30
0.0
 10
29.85958960139059
 20
26.57116535831363
 30
0.0
 10
29.93626617319264
 20
24.78004529945867
 30
0.0
 10
29.845700810529
 20
22.71044830122943
 30
0.0
 10
29.51281341883688
 20
20.38395859560098
 30
0.0
 10
29.06447478297806
 20
18.69967620692815
 30
0.0
 10
28.83913839305448
 20
17.85315065075253
 30
0.0
  0
LINE
  5
C8
330
1F
100
AcDbEntity
  8
0
  6
Continuous
 62
     7
370
    25
100
AcDbLine
 10
30.0552727301
 20
24.781353881
 30
0.0
 11
30.0552727301
 21
13.031353881
 31
0.0
  0
LINE
  5
C9
330
1F
100
AcDbEntity
  8
0
  6
Continuous
 62
     7
370
    25
100
AcDbLine
 10
30.0552727301
 20
36.531353881
 30
0.0
 11
30.0552727301
 21
24.781353881
 31
0.0
  0
SPLINE
  5
CA
330
1F
100
AcDbEntity
  8
0
  6
Continuous
 62
     7
370
    25
100
AcDbSpline
210
0.0
220
0.0
230
1.0
 70
     8
 71
     3
 72
     9
 73
     5
 74
     0
 42
0.00000001
 43
0.00000001
 40
0.0
 40
0.0
 40
0.0
 40
0.0
 40
0.5939658769315151
 40
1.0
 40
1.0
 40
1.0
 40
1.0
 10
14.41611664831988
 20
27.80470053664
 30
0.0
 10
14.54771052028443
 20
28.58634372458951
 30
0.0
 10
14.76926175256122
 20
29.90231694511786
 30
0.0
 10
15.12639768994599
 20
31.18766282437834
 30
0.0
 10
15.27140706709826
 20
31.70955711130356
 30
0.0
  0
LINE
  5
CB
330
1F
100
AcDbEntity
  8
0
  6
Continuous
 62
     7
370
    25
100
AcDbLine
 10
14.4161166483
 20
33.6619853986
 30
0.0
 11
14.4161166483
 21
27.8047005366
 31
0.0
  0
SPLINE
  5
CC
330
1F
100
AcDbEntity
  8
0
  6
Continuous
 62
     7
370
    25
100
AcDbSpline
210
0.0
220
0.0
230
1.0
 70
     8
 71
     3
 72
     9
 73
     5
 74
     0
 42
0.00000001
 43
0.00000001
 40
0.0
 40
0.0
 40
0.0
 40
0.0
 40
0.4986680494787146
 40
1.0
 40
1.0
 40
1.0
 40
1.0
 10
14.41611664831988
 20
15.90072236342075
 30
0.0
 10
14.52392353890418
 20
16.22902171348705
 30
0.0
 10
14.74011322801097
 20
16.8873741994935
 30
0.0
 10
15.09399488549706
 20
17.53065395579503
 30
0.0
 10
15.27140706709826
 20
17.85315065075253
 30
0.0
  0
SPLINE
  5
CD
330
1F
100
AcDbEntity
  8
0
  6
Continuous
 62
     7
370
    25
100
AcDbSpline
210
0.0
220
0.0
230
1.0
 70
     8
 71
     3
 72
     9
 73
     5
 74
     0
 42
0.00000001
 43
0.00000001
 40
0.0
 40
0.0
 40
0.0
 40
0.0
 40
0.4988470384231428
 40
1.0
 40
1.0
 40
1.0
 40
1.0
 10
15.27140706709826
 20
17.85315065075253
 30
0.0
 10
15.09483106675974
 20
18.49493129062103
 30
0.0
 10
14.74086284255884
 20
19.78145920486339
 30
0.0
 10
14.52453166075986
 20
21.09814582584336
 30
0.0
 10
14.41611664831988
 20
21.75800722541609
 30
0.0
  0
SPLINE
  5
CE
330
1F
100
AcDbEntity
  8
0
  6
Continuous
 62
     7
370
    25
100
AcDbSpline
210
0.0
220
0.0
230
1.0
 70
     8
 71
     3
 72
    10
 73
     6
 74
     0
 42
0.00000001
 43
0.00000001
 40
0.0
 40
0.0
 40
0.0
 40
0.0
 40
0.2130338126352573
 40
0.6040068415968868
 40
1.0
 40
1.0
 40
1.0
 40
1.0
 10
14.41611664831988
 20
21.75800722541609
 30
0.0
 10
14.36337355106568
 20
22.18541411481682
 30
0.0
 10
14.21383301008547
 20
23.39722496376259
 30
0.0
 10
14.15433570793533
 20
25.42568592634305
 30
0.0
 10
14.3284860279072
 20
27.00833038851192
 30
0.0
 10
14.41611664831988
 20
27.80470053664
 30
0.0
  0
LINE
  5
CF
330
1F
100
AcDbEntity
  8
0
  6
Continuous
 62
     7
370
    25
100
AcDbLine
 10
15.2714070671
 20
17.8531506508
 30
0.0
 11
28.8391383931
 21
17.8531506508
 31
0.0
  0
LINE
  5
D0
330
1F
100
AcDbEntity
  8
0
  6
Continuous
 62
     7
370
    25
100
AcDbLine
 10
13.3335848936
 20
27.6520062611
 30
0.0
 11
13.3335848936
 21
33.2134686553
 31
0.0
  0
ARC
  5
D1
330
1F
100
AcDbEntity
  8
0
  6
Continuous
 62
     7
370
    25
100
AcDbCircle
 10
13.3907834651
 20
34.6060629651
 30
0.0
 40
1.393768484391447
100
AcDbArc
 50
267.647990046
 51
317.3626177873
  0
ARC
  5
D2
330
1F
100
AcDbEntity
  8
0
  6
Continuous
 62
     7
370
    25
100
AcDbCircle
 10
13.4444781055
 20
30.7794964435
 30
0.0
 40
3.129455566919774
100
AcDbArc
 50
267.9692814554
 51
288.0882596308
  0
SPLINE
  5
D3
330
1F
100
AcDbEntity
  8
0
  6
Continuous
 62
     7
370
    25
100
AcDbSpline
210
0.0
220
0.0
230
1.0
 70
     8
 71
     3
 72
    11
 73
     7
 74
     0
 42
0.00000001
 43
0.00000001
 40
0.0
 40
0.0
 40
0.0
 40
0.0
 40
0.2219160282079469
 40
0.446660301815356
 40
0.720621348788672
 40
0.9999999999999999
 40
0.9999999999999999
 40
0.9999999999999999
 40
0.9999999999999999
 10
13.33358489358933
 20
21.91070150095204
 30
0.0
 10
13.34651676317484
 20
22.33015355333252
 30
0.0
 10
13.37254531468932
 20
23.17440343391245
 30
0.0
 10
13.47903875748215
 20
24.56497551095744
 30
0.0
 10
13.39870153142207
 20
26.07543022307143
 30
0.0
 10
13.35543165421653
 20
27.12306188590546
 30
0.0
 10
13.33358489358934
 20
27.65200626110405
 30
0.0
  0
SPLINE
  5
D4
330
1F
100
AcDbEntity
  8
0
  6
Continuous
 62
     7
370
    25
100
AcDbSpline
210
0.0
220
0.0
230
1.0
 70
     8
 71
     3
 72
    10
 73
     6
 74
     0
 42
0.00000001
 43
0.00000001
 40
0.0
 40
0.0
 40
0.0
 40
0.0
 40
0.2896830214237568
 40
0.5812913727325414
 40
0.9999999999999999
 40
0.9999999999999999
 40
0.9999999999999999
 40
0.9999999999999999
 10
14.41611664831988
 20
12.8773757078088
 30
0.0
 10
14.34751461610134
 20
13.16825515039861
 30
0.0
 10
14.20985459969939
 20
13.75194731727698
 30
0.0
 10
14.16925074826515
 20
14.76504674648111
 30
0.0
 10
14.32456435615215
 20
15.47954752369285
 30
0.0
 10
14.41611664831988
 20
15.90072236342075
 30
0.0
  0
LINE
  5
D5
330
1F
100
AcDbEntity
  8
0
  6
Continuous
 62
     7
370
    25
100
AcDbLine
 10
15.2714070671
 20
10.9249474205
 30
0.0
 11
28.8391383931
 21
10.9249474205
 31
0.0
  0
SPLINE
  5
D6
330
1F
100
AcDbEntity
  8
0
  6
Continuous
 62
     7
370
    25
100
AcDbSpline
210
0.0
220
0.0
230
1.0
 70
     8
 71
     3
 72
     9
 73
     5
 74
     0
 42
0.00000001
 43
0.00000001
 40
0.0
 40
0.0
 40
0.0
 40
0.0
 40
0.4988470384231428
 40
1.0
 40
1.0
 40
1.0
 40
1.0
 10
15.27140706709826
 20
10.92494742047702
 30
0.0
 10
15.09483106675974
 20
11.24583774041127
 30
0.0
 10
14.74086284255884
 20
11.88910169753246
 30
0.0
 10
14.52453166075986
 20
12.54744500802243
 30
0.0
 10
14.41611664831988
 20
12.8773757078088
 30
0.0
  0
LINE
  5
D7
330
1F
100
AcDbEntity
  8
0
  6
Continuous
 62
     7
370
    25
100
AcDbLine
 10
12.2552727301
 20
36.531353881
 30
0.0
 11
12.2552727301
 21
13.031353881
 31
0.0
  0
SPLINE
  5
D8
330
1F
100
AcDbEntity
  8
0
  6
Continuous
 62
     7
370
    25
100
AcDbSpline
210
0.0
220
0.0
230
1.0
 70
     8
 71
     3
 72
    11
 73
     7
 74
     0
 42
0.00000001
 43
0.00000001
 40
0.0
 40
0.0
 40
0.0
 40
0.0
 40
0.2219160282077385
 40
0.4466603018149319
 40
0.7206213487884529
 40
0.9999999999999999
 40
0.9999999999999999
 40
0.9999999999999999
 40
0.9999999999999999
 10
13.33358489358934
 20
33.21346865532183
 30
0.0
 10
13.34651676317482
 20
33.50266960428916
 30
0.0
 10
13.37254531468925
 20
34.08475727138632
 30
0.0
 10
13.4790387574821
 20
34.86951116572686
 30
0.0
 10
13.3987015314222
 20
35.58318339925683
 30
0.0
 10
13.35543165421658
 20
35.91605546889797
 30
0.0
 10
13.33358489358934
 20
36.08412103539784
 30
0.0
  0
SPLINE
  5
D9
330
1F
100
AcDbEntity
  8
0
  6
Continuous
 62
     7
370
    25
100
AcDbSpline
210
0.0
220
0.0
230
1.0
 70
     8
 71
     3
 72
    11
 73
     7
 74
     0
 42
0.00000001
 43
0.00000001
 40
0.0
 40
0.0
 40
0.0
 40
0.0
 40
0.221916028207736
 40
0.4466603018149273
 40
0.7206213487884506
 40
1.0
 40
1.0
 40
1.0
 40
1.0
 10
13.33358489358934
 20
13.47858672665826
 30
0.0
 10
13.34651676317482
 20
13.60883783007101
 30
0.0
 10
13.37254531468925
 20
13.87100004355298
 30
0.0
 10
13.47903875748211
 20
14.47681822625696
 30
0.0
 10
13.39870153142218
 20
15.2736007048414
 30
0.0
 10
13.35543165421657
 20
15.9883602980351
 30
0.0
 10
13.33358489358934
 20
16.34923910673425
 30
0.0
  0
LINE
  5
DA
330
1F
100
AcDbEntity
  8
0
  6
Continuous
 62
     7
370
    25
100
AcDbLine
 10
12.0552727301
 20
13.231353881
 30
0.0
 11
12.0552727301
 21
36.331353881
 31
0.0
  0
ARC
  5
DB
330
1F
100
AcDbEntity
  8
0
  6
Continuous
 62
     7
370
    25
100
AcDbCircle
 10
13.3423916079
 20
37.343464715
 30
0.0
 40
1.259374472362006
100
AcDbArc
 50
269.599331506
 51
328.4940606845
  0
ARC
  5
DC
330
1F
100
AcDbEntity
  8
0
  6
Continuous
 62
     7
370
    25
100
AcDbCircle
 10
13.3423916079
 20
12.219243047
 30
0.0
 40
1.259374472359712
100
AcDbArc
 50
31.5059393155
 51
90.400668494
  0
SPLINE
  5
DD
330
1F
100
AcDbEntity
  8
0
  6
Continuous
 62
     7
370
    25
100
AcDbSpline
210
0.0
220
0.0
230
1.0
 70
     8
 71
     3
 72
    10
 73
     6
 74
     0
 42
0.00000001
 43
0.00000001
 40
0.0
 40
0.0
 40
0.0
 40
0.0
 40
0.2896830214237579
 40
0.5812913727325433
 40
1.0
 40
1.0
 40
1.0
 40
1.0
 10
56.99548866046448
 20
58.48009437556534
 30
0.0
 10
57.28636810305429
 20
58.54869640778389
 30
0.0
 10
57.87006026993265
 20
58.68635642418583
 30
0.0
 10
58.88315969913679
 20
58.72696027562008
 30
0.0
 10
59.59766047634852
 20
58.57164666773308
 30
0.0
 10
60.01883531607641
 20
58.48009437556534
 30
0.0
  0
SPLINE
  5
DE
330
1F
100
AcDbEntity
  8
0
  6
Continuous
 62
     7
370
    25
100
AcDbSpline
210
0.0
220
0.0
230
1.0
 70
     8
 71
     3
 72
     9
 73
     5
 74
     0
 42
0.00000001
 43
0.00000001
 40
0.0
 40
0.0
 40
0.0
 40
0.0
 40
0.4986680494787146
 40
1.0
 40
1.0
 40
1.0
 40
1.0
 10
60.01883531607641
 20
58.48009437556534
 30
0.0
 10
60.34713466614272
 20
58.37228748498104
 30
0.0
 10
61.00548715214917
 20
58.15609779587425
 30
0.0
 10
61.6487669084507
 20
57.80221613838817
 30
0.0
 10
61.9712636034082
 20
57.62480395678696
 30
0.0
  0
LINE
  5
DF
330
1F
100
AcDbEntity
  8
0
  6
Continuous
 62
     7
370
    25
100
AcDbLine
 10
61.9712636034
 20
57.6248039568
 30
0.0
 11
61.9712636034
 21
44.0570726308
 31
0.0
  0
SPLINE
  5
E0
330
1F
100
AcDbEntity
  8
0
  6
Continuous
 62
     7
370
    25
100
AcDbSpline
210
0.0
220
0.0
230
1.0
 70
     8
 71
     3
 72
    15
 73
    11
 74
     0
 42
0.00000001
 43
0.00000001
 40
0.0
 40
0.0
 40
0.0
 40
0.0
 40
0.1323065044264403
 40
0.2645755999739298
 40
0.3998036789671093
 40
0.5350073556765895
 40
0.6501969475405023
 40
0.7654045076453767
 40
0.8826909144168968
 40
1.0
 40
1.0
 40
1.0
 40
1.0
 10
61.9712636034082
 20
44.05707263083074
 30
0.0
 10
61.67193478063759
 20
43.89391354891302
 30
0.0
 10
61.07336176854466
 20
43.56764151733972
 30
0.0
 10
60.15161199175187
 20
43.21658681431982
 30
0.0
 10
59.21248687800131
 20
43.00551002879069
 30
0.0
 10
58.30738597995811
 20
42.9637127185051
 30
0.0
 10
57.45118927517355
 20
43.07217135120586
 30
0.0
 10
56.64315676636407
 20
43.29439726026673
 30
0.0
 10
55.83877769725412
 20
43.62037503355302
 30
0.0
 10
55.30831657474948
 20
43.91149738394648
 30
0.0
 10
55.04306037313269
 20
44.05707263083074
 30
0.0
  0
LINE
  5
E1
330
1F
100
AcDbEntity
  8
0
  6
Continuous
 62
     7
370
    25
100
AcDbLine
 10
55.0430603731
 20
57.6248039568
 30
0.0
 11
55.0430603731
 21
44.0570726308
 31
0.0
  0
SPLINE
  5
E2
330
1F
100
AcDbEntity
  8
0
  6
Continuous
 62
     7
370
    25
100
AcDbSpline
210
0.0
220
0.0
230
1.0
 70
     8
 71
     3
 72
     9
 73
     5
 74
     0
 42
0.00000001
 43
0.00000001
 40
0.0
 40
0.0
 40
0.0
 40
0.0
 40
0.4988470384231428
 40
1.0
 40
1.0
 40
1.0
 40
1.0
 10
55.0430603731327
 20
57.62480395678696
 30
0.0
 10
55.36395069306695
 20
57.80137995712548
 30
0.0
 10
56.00721465018813
 20
58.15534818132637
 30
0.0
 10
56.66555796067811
 20
58.37167936312536
 30
0.0
 10
56.99548866046448
 20
58.48009437556534
 30
0.0
  0
SPLINE
  5
E3
330
1F
100
AcDbEntity
  8
0
  6
Continuous
 62
     7
370
    25
100
AcDbSpline
210
0.0
220
0.0
230
1.0
 70
     8
 71
     3
 72
     9
 73
     5
 74
     0
 42
0.00000001
 43
0.00000001
 40
0.0
 40
0.0
 40
0.0
 40
0.0
 40
0.4986680494787147
 40
1.0
 40
1.0
 40
1.0
 40
1.0
 10
51.13820379846916
 20
58.48009437556534
 30
0.0
 10
51.79480249860176
 20
58.37228748498105
 30
0.0
 10
53.11150747061466
 20
58.15609779587426
 30
0.0
 10
54.3980669832177
 20
57.80221613838817
 30
0.0
 10
55.0430603731327
 20
57.62480395678696
 30
0.0
  0
LINE
  5
E4
330
1F
100
AcDbEntity
  8
0
  6
Continuous
 62
     7
370
    25
100
AcDbLine
 10
56.9954886605
 20
58.4800943756
 30
0.0
 11
51.1382037985
 21
58.4800943756
 31
0.0
  0
SPLINE
  5
E5
330
1F
100
AcDbEntity
  8
0
  6
Continuous
 62
     7
370
    25
100
AcDbSpline
210
0.0
220
0.0
230
1.0
 70
     8
 71
     3
 72
    15
 73
    11
 74
     0
 42
0.00000001
 43
0.00000001
 40
0.0
 40
0.0
 40
0.0
 40
0.0
 40
0.1323065044264402
 40
0.2645755999739297
 40
0.3998036789671091
 40
0.5350073556765892
 40
0.650196947540502
 40
0.7654045076453766
 40
0.8826909144168967
 40
1.0
 40
1.0
 40
1.0
 40
1.0
 10
41.18665391258165
 20
44.05707263083075
 30
0.0
 10
40.88732508981105
 20
43.89391354891302
 30
0.0
 10
40.28875207771811
 20
43.56764151733972
 30
0.0
 10
39.36700230092532
 20
43.21658681431982
 30
0.0
 10
38.42787718717477
 20
43.00551002879069
 30
0.0
 10
37.52277628913157
 20
42.96371271850511
 30
0.0
 10
36.66657958434702
 20
43.07217135120588
 30
0.0
 10
35.85854707553752
 20
43.29439726026673
 30
0.0
 10
35.05416800642759
 20
43.62037503355303
 30
0.0
 10
34.52370688392293
 20
43.9114973839465
 30
0.0
 10
34.25845068230615
 20
44.05707263083075
 30
0.0
  0
SPLINE
  5
E6
330
1F
100
AcDbEntity
  8
0
  6
Continuous
 62
     7
370
    25
100
AcDbSpline
210
0.0
220
0.0
230
1.0
 70
     8
 71
     3
 72
    14
 73
    10
 74
     0
 42
0.00000001
 43
0.00000001
 40
0.0
 40
0.0
 40
0.0
 40
0.0
 40
0.1849616675901326
 40
0.3715529357653712
 40
0.4966600563761462
 40
0.6217665387009522
 40
0.750208307828915
 40
0.8786852004145196
 40
1.0
 40
1.0
 40
1.0
 40
1.0
 10
55.04306037313269
 20
44.05707263083075
 30
0.0
 10
54.20467281486004
 20
43.83374005081682
 30
0.0
 10
52.52051110371217
 20
43.38510722414861
 30
0.0
 10
50.20905941598831
 20
43.05307440059341
 30
0.0
 10
48.16148333672918
 20
42.96121061384206
 30
0.0
 10
46.38533126272258
 20
43.03147955004779
 30
0.0
 10
44.60656393778857
 20
43.25428696135078
 30
0.0
 10
42.86500614098908
 20
43.59720445256938
 30
0.0
 10
41.73530765145684
 20
43.90674161501518
 30
0.0
 10
41.18665391258165
 20
44.05707263083075
 30
0.0
  0
LINE
  5
E7
330
1F
100
AcDbEntity
  8
0
  6
Continuous
 62
     7
370
    25
100
AcDbLine
 10
59.8648571429
 20
42.8409382938
 30
0.0
 11
36.3648571429
 21
42.8409382938
 31
0.0
  0
SPLINE
  5
E8
330
1F
100
AcDbEntity
  8
0
  6
Continuous
 62
     7
370
    25
100
AcDbSpline
210
0.0
220
0.0
230
1.0
 70
     8
 71
     3
 72
    10
 73
     6
 74
     0
 42
0.00000001
 43
0.00000001
 40
0.0
 40
0.0
 40
0.0
 40
0.0
 40
0.3910406133635748
 40
0.78696609495545
 40
1.0
 40
1.0
 40
1.0
 40
1.0
 10
45.09151048724518
 20
58.48009437556534
 30
0.0
 10
45.87786492137383
 20
58.56689689624768
 30
0.0
 10
47.46039690687314
 20
58.74158627223368
 30
0.0
 10
49.4890517730973
 20
58.68360081786823
 30
0.0
 10
50.71079727394797
 20
58.53283662120684
 30
0.0
 10
51.13820379846916
 20
58.48009437556534
 30
0.0
  0
LINE
  5
E9
330
1F
100
AcDbEntity
  8
0
  6
Continuous
 62
     7
370
    25
100
AcDbLine
 10
41.1866539126
 20
57.6248039568
 30
0.0
 11
41.1866539126
 21
44.0570726308
 31
0.0
  0
SPLINE
  5
EA
330
1F
100
AcDbEntity
  8
0
  6
Continuous
 62
     7
370
    25
100
AcDbSpline
210
0.0
220
0.0
230
1.0
 70
     8
 71
     3
 72
     9
 73
     5
 74
     0
 42
0.00000001
 43
0.00000001
 40
0.0
 40
0.0
 40
0.0
 40
0.0
 40
0.4060341230684891
 40
1.0
 40
1.0
 40
1.0
 40
1.0
 10
41.18665391258166
 20
57.62480395678697
 30
0.0
 10
41.70854819950688
 20
57.76981333393924
 30
0.0
 10
42.99389407876735
 20
58.12694927132402
 30
0.0
 10
44.30986729929568
 20
58.3485005036008
 30
0.0
 10
45.09151048724518
 20
58.48009437556534
 30
0.0
  0
LINE
  5
EB
330
1F
100
AcDbEntity
  8
0
  6
Continuous
 62
     7
370
    25
100
AcDbLine
 10
39.6827423686
 20
59.5626261303
 30
0.0
 11
45.2442047628
 21
59.5626261303
 31
0.0
  0
ARC
  5
EC
330
1F
100
AcDbEntity
  8
0
  6
Continuous
 62
     7
370
    25
100
AcDbCircle
 10
42.1167145804
 20
59.4517329184
 30
0.0
 40
3.129455566915295
100
AcDbArc
 50
341.9117403692
 51
2.0307185446
  0
LINE
  5
ED
330
1F
100
AcDbEntity
  8
0
  6
Continuous
 62
     7
370
    25
100
AcDbLine
 10
45.0915104872
 20
58.4800943756
 30
0.0
 11
39.2342256252
 21
58.4800943756
 31
0.0
  0
ARC
  5
EE
330
1F
100
AcDbEntity
  8
0
  6
Continuous
 62
     7
370
    25
100
AcDbCircle
 10
38.2901480588
 20
59.5054275588
 30
0.0
 40
1.393768484394664
100
AcDbArc
 50
312.6373822128
 51
2.3520099539
  0
ARC
  5
EF
330
1F
100
AcDbEntity
  8
0
  6
Continuous
 62
     7
370
    25
100
AcDbCircle
 10
54.1129997053
 20
59.4517329184
 30
0.0
 40
3.129455566915867
100
AcDbArc
 50
177.9692814554
 51
198.0882596308
  0
LINE
  5
F0
330
1F
100
AcDbEntity
  8
0
  6
Continuous
 62
     7
370
    25
100
AcDbLine
 10
50.9855095229
 20
59.5626261303
 30
0.0
 11
56.5469719172
 21
59.5626261303
 31
0.0
  0
ARC
  5
F1
330
1F
100
AcDbEntity
  8
0
  6
Continuous
 62
     7
370
    25
100
AcDbCircle
 10
57.9395662269
 20
59.5054275588
 30
0.0
 40
1.393768484391391
100
AcDbArc
 50
177.647990046
 51
227.3626177873
  0
SPLINE
  5
F2
330
1F
100
AcDbEntity
  8
0
  6
Continuous
 62
     7
370
    25
100
AcDbSpline
210
0.0
220
0.0
230
1.0
 70
     8
 71
     3
 72
     9
 73
     5
 74
     0
 42
0.00000001
 43
0.00000001
 40
0.0
 40
0.0
 40
0.0
 40
0.0
 40
0.4986680494787149
 40
1.0
 40
1.0
 40
1.0
 40
1.0
 10
39.23422562524989
 20
58.48009437556534
 30
0.0
 10
39.56252497531619
 20
58.37228748498104
 30
0.0
 10
40.22087746132264
 20
58.15609779587426
 30
0.0
 10
40.86415721762416
 20
57.80221613838818
 30
0.0
 10
41.18665391258166
 20
57.62480395678697
 30
0.0
  0
SPLINE
  5
F3
330
1F
100
AcDbEntity
  8
0
  6
Continuous
 62
     7
370
    25
100
AcDbSpline
210
0.0
220
0.0
230
1.0
 70
     8
 71
     3
 72
    11
 73
     7
 74
     0
 42
0.00000001
 43
0.00000001
 40
0.0
 40
0.0
 40
0.0
 40
0.0
 40
0.2219160281998819
 40
0.4466603017989558
 40
0.720621348780193
 40
1.0
 40
1.0
 40
1.0
 40
1.0
 10
45.24420476278114
 20
59.56262613029589
 30
0.0
 10
45.66365681514628
 20
59.54969426071144
 30
0.0
 10
46.50790669569501
 20
59.52366570919909
 30
0.0
 10
47.89847877272225
 20
59.4171722664049
 30
0.0
 10
49.4089334848531
 20
59.49750949245858
 30
0.0
 10
50.45656514771844
 20
59.54077936966715
 30
0.0
 10
50.98550952293321
 20
59.56262613029589
 30
0.0
  0
SPLINE
  5
F4
330
1F
100
AcDbEntity
  8
0
  6
Continuous
 62
     7
370
    25
100
AcDbSpline
210
0.0
220
0.0
230
1.0
 70
     8
 71
     3
 72
    10
 73
     6
 74
     0
 42
0.00000001
 43
0.00000001
 40
0.0
 40
0.0
 40
0.0
 40
0.0
 40
0.2896830214237566
 40
0.5812913727325407
 40
1.0
 40
1.0
 40
1.0
 40
1.0
 10
36.21087896963793
 20
58.48009437556535
 30
0.0
 10
36.50175841222774
 20
58.5486964077839
 30
0.0
 10
37.0854505791061
 20
58.68635642418586
 30
0.0
 10
38.09855000831025
 20
58.72696027562007
 30
0.0
 10
38.81305078552198
 20
58.57164666773308
 30
0.0
 10
39.23422562524989
 20
58.48009437556534
 30
0.0
  0
LINE
  5
F5
330
1F
100
AcDbEntity
  8
0
  6
Continuous
 62
     7
370
    25
100
AcDbLine
 10
34.2584506823
 20
57.6248039568
 30
0.0
 11
34.2584506823
 21
44.0570726308
 31
0.0
  0
SPLINE
  5
F6
330
1F
100
AcDbEntity
  8
0
  6
Continuous
 62
     7
370
    25
100
AcDbSpline
210
0.0
220
0.0
230
1.0
 70
     8
 71
     3
 72
     9
 73
     5
 74
     0
 42
0.00000001
 43
0.00000001
 40
0.0
 40
0.0
 40
0.0
 40
0.0
 40
0.4988470384231432
 40
1.0
 40
1.0
 40
1.0
 40
1.0
 10
34.25845068230616
 20
57.62480395678697
 30
0.0
 10
34.57934100224041
 20
57.80137995712549
 30
0.0
 10
35.22260495936159
 20
58.15534818132638
 30
0.0
 10
35.88094826985157
 20
58.37167936312537
 30
0.0
 10
36.21087896963793
 20
58.48009437556535
 30
0.0
  0
LINE
  5
F7
330
1F
100
AcDbEntity
  8
0
  6
Continuous
 62
     7
370
    25
100
AcDbLine
 10
48.1148571429
 20
60.8409382938
 30
0.0
 11
59.6648571429
 21
60.8409382938
 31
0.0
  0
LINE
  5
F8
330
1F
100
AcDbEntity
  8
0
  6
Continuous
 62
     7
370
    25
100
AcDbLine
 10
36.5648571429
 20
60.8409382938
 30
0.0
 11
48.1148571429
 21
60.8409382938
 31
0.0
  0
LINE
  5
F9
330
1F
100
AcDbEntity
  8
0
  6
Continuous
 62
     7
370
    25
100
AcDbLine
 10
48.1148571429
 20
60.6409382938
 30
0.0
 11
36.3648571429
 21
60.6409382938
 31
0.0
  0
LINE
  5
FA
330
1F
100
AcDbEntity
  8
0
  6
Continuous
 62
     7
370
    25
100
AcDbLine
 10
59.8648571429
 20
60.6409382938
 30
0.0
 11
48.1148571429
 21
60.6409382938
 31
0.0
  0
SPLINE
  5
FB
330
1F
100
AcDbEntity
  8
0
  6
Continuous
 62
     7
370
    25
100
AcDbSpline
210
0.0
220
0.0
230
1.0
 70
     8
 71
     3
 72
    11
 73
     7
 74
     0
 42
0.00000001
 43
0.00000001
 40
0.0
 40
0.0
 40
0.0
 40
0.0
 40
0.2219160282077402
 40
0.4466603018149352
 40
0.7206213487884544
 40
1.0
 40
1.0
 40
1.0
 40
1.0
 10
36.81208998848739
 20
59.56262613029589
 30
0.0
 10
36.94234109190015
 20
59.54969426071041
 30
0.0
 10
37.20450330538213
 20
59.52366570919598
 30
0.0
 10
37.8103214880861
 20
59.41717226640313
 30
0.0
 10
38.60710396667054
 20
59.49750949246303
 30
0.0
 10
39.32186355986425
 20
59.54077936966866
 30
0.0
 10
39.6827423685634
 20
59.56262613029589
 30
0.0
  0
SPLINE
  5
FC
330
1F
100
AcDbEntity
  8
0
  6
Continuous
 62
     7
370
    25
100
AcDbSpline
210
0.0
220
0.0
230
1.0
 70
     8
 71
     3
 72
    11
 73
     7
 74
     0
 42
0.00000001
 43
0.00000001
 40
0.0
 40
0.0
 40
0.0
 40
0.0
 40
0.2219160282077373
 40
0.4466603018149289
 40
0.7206213487884515
 40
1.0
 40
1.0
 40
1.0
 40
1.0
 10
56.54697191715098
 20
59.56262613029589
 30
0.0
 10
56.8361728661183
 20
59.54969426071041
 30
0.0
 10
57.41826053321546
 20
59.52366570919598
 30
0.0
 10
58.20301442755598
 20
59.4171722664031
 30
0.0
 10
58.91668666108597
 20
59.49750949246303
 30
0.0
 10
59.2495587307271
 20
59.54077936966865
 30
0.0
 10
59.41762429722696
 20
59.56262613029589
 30
0.0
  0
ARC
  5
FD
330
1F
100
AcDbEntity
  8
0
  6
Continuous
 62
     7
370
    25
100
AcDbCircle
 10
35.5527463089
 20
59.553819416
 30
0.0
 40
1.259374472359674
100
AcDbArc
 50
301.5059393155
 51
0.400668494
  0
ARC
  5
FE
330
1F
100
AcDbEntity
  8
0
  6
Continuous
 62
     7
370
    25
100
AcDbCircle
 10
60.6769679769
 20
59.553819416
 30
0.0
 40
1.259374472359725
100
AcDbArc
 50
179.599331506
 51
238.4940606845
  0
LINE
  5
FF
330
1F
100
AcDbEntity
  8
0
  6
Continuous
 62
     7
370
    25
100
AcDbLine
 10
58.5923571429
 20
39.8075758006
 30
0.0
 11
37.6373571429
 21
39.8075758006
 31
0.0
  0
LINE
  5
100
330
1F
100
AcDbEntity
  8
0
  6
Continuous
 62
     7
370
    25
100
AcDbLine
 10
63.1410790624
 20
14.303853881
 30
0.0
 11
63.1410790624
 21
35.258853881
 31
0.0
  0
LINE
  5
101
330
1F
100
AcDbEntity
  8
0
  6
Continuous
 62
     7
370
    25
100
AcDbLine
 10
63.1148571429
 20
14.531353881
 30
0.0
 11
63.1148571429
 21
35.031353881
 31
0.0
  0
LINE
  5
102
330
1F
100
AcDbEntity
  8
0
  6
Continuous
 62
     7
370
    25
100
AcDbLine
 10
33.0886352233
 20
24.781353881
 30
0.0
 11
33.0886352233
 21
14.303853881
 31
0.0
  0
LINE
  5
103
330
1F
100
AcDbEntity
  8
0
  6
Continuous
 62
     7
370
    25
100
AcDbLine
 10
33.0886352233
 20
35.258853881
 30
0.0
 11
33.0886352233
 21
24.781353881
 31
0.0
  0
LINE
  5
104
330
1F
100
AcDbEntity
  8
0
  6
Continuous
 62
     7
370
    25
100
AcDbLine
 10
58.3648571264
 20
39.781353881
 30
0.0
 11
37.8648571429
 21
39.781353881
 31
0.0
  0
LINE
  5
105
330
1F
100
AcDbEntity
  8
0
  6
Continuous
 62
     7
370
    25
100
AcDbLine
 10
33.1148571429
 20
24.781353881
 30
0.0
 11
33.1148571429
 21
14.531353881
 31
0.0
  0
LINE
  5
106
330
1F
100
AcDbEntity
  8
0
  6
Continuous
 62
     7
370
    25
100
AcDbLine
 10
33.1148571429
 20
35.031353881
 30
0.0
 11
33.1148571429
 21
24.781353881
 31
0.0
  0
ARC
  5
107
330
1F
100
AcDbEntity
  8
0
  6
Continuous
 62
     7
370
    25
100
AcDbCircle
 10
57.1315462575
 20
20.9776386645
 30
0.0
 40
1.103908707247728
100
AcDbArc
 50
98.7690175889
 51
122.4606888392
  0
SPLINE
  5
108
330
1F
100
AcDbEntity
  8
0
  6
Continuous
 62
     7
370
    25
100
AcDbSpline
210
0.0
220
0.0
230
1.0
 70
     8
 71
     3
 72
    12
 73
     8
 74
     0
 42
0.00000001
 43
0.00000001
 40
0.0
 40
0.0
 40
0.0
 40
0.0
 40
0.2500000000000002
 40
0.2500000000000002
 40
0.5000000000000001
 40
0.5000000000000001
 40
1.0
 40
1.0
 40
1.0
 40
1.0
 10
56.53905546730453
 20
21.90907255775911
 30
0.0
 10
56.51678862515061
 20
22.1464851158794
 30
0.0
 10
56.50975059249619
 20
22.384595130046
 30
0.0
 10
56.50887547101175
 20
22.86229325730804
 30
0.0
 10
56.51553946496084
 20
23.10191611392464
 30
0.0
 10
56.54619181437909
 20
23.82063186806063
 30
0.0
 10
56.58080049722989
 20
24.30144883269954
 30
0.0
 10
56.61485714285717
 20
24.78135388102805
 30
0.0
  0
SPLINE
  5
109
330
1F
100
AcDbEntity
  8
0
  6
Continuous
 62
     7
370
    25
100
AcDbSpline
210
0.0
220
0.0
230
1.0
 70
     8
 71
     3
 72
    12
 73
     8
 74
     0
 42
0.00000001
 43
0.00000001
 40
0.0
 40
0.0
 40
0.0
 40
0.0
 40
0.2499999999999999
 40
0.2499999999999999
 40
0.5
 40
0.5
 40
1.0
 40
1.0
 40
1.0
 40
1.0
 10
56.9632537917519
 20
22.06864374238517
 30
0.0
 10
56.9151456831075
 20
22.2848813269234
 30
0.0
 10
56.87893262564329
 20
22.50464692231705
 30
0.0
 10
56.81382841599041
 20
22.94908990843374
 30
0.0
 10
56.78558823570211
 20
23.17384993240999
 30
0.0
 10
56.70632340442913
 20
23.85481383750817
 30
0.0
 10
56.66045802123141
 20
24.32119676460245
 30
0.0
 10
56.61485714285717
 20
24.78135388102805
 30
0.0
  0
SPLINE
  5
10A
330
1F
100
AcDbEntity
  8
0
  6
Continuous
 62
     7
370
    25
100
AcDbSpline
210
0.0
220
0.0
230
1.0
 70
     8
 71
     3
 72
    16
 73
    12
 74
     0
 42
0.00000001
 43
0.00000001
 40
0.0
 40
0.0
 40
0.0
 40
0.0
 40
0.2500000000000001
 40
0.2500000000000001
 40
0.5000000000000001
 40
0.5000000000000001
 40
0.7500000000000002
 40
0.7500000000000002
 40
0.8750000000000001
 40
0.8750000000000001
 40
1.0
 40
1.0
 40
1.0
 40
1.0
 10
56.11485714285717
 20
21.90907255775903
 30
0.0
 10
56.11485714285717
 20
22.15536789002283
 30
0.0
 10
56.13478892854432
 20
22.39888782479681
 30
0.0
 10
56.19539547514789
 20
22.88157379817208
 30
0.0
 10
56.23650598259306
 20
23.12101426694677
 30
0.0
 10
56.33088243899227
 20
23.59775534660986
 30
0.0
 10
56.38424780084856
 20
23.83503845673676
 30
0.0
 10
56.46855496078315
 20
24.19021334205153
 30
0.0
 10
56.49737983762501
 20
24.30847778248557
 30
0.0
 10
56.55573891619053
 20
24.54488179298667
 30
0.0
 10
56.58499003740861
 20
24.66188426454312
 30
0.0
 10
56.61485714285717
 20
24.78135388102805
 30
0.0
  0
LINE
  5
10B
330
1F
100
AcDbEntity
  8
0
  6
Continuous
 62
     7
370
    25
100
AcDbLine
 10
56.5390554673
 20
21.9090725578
 30
0.0
 11
56.1148571429
 21
21.9090725578
 31
0.0
  0
ARC
  5
10C
330
1F
100
AcDbEntity
  8
0
  6
Continuous
 62
     7
370
    25
100
AcDbCircle
 10
39.0981680282
 20
28.5850690975
 30
0.0
 40
1.103908707247827
100
AcDbArc
 50
278.7690175889
 51
302.4606888392
  0
SPLINE
  5
10D
330
1F
100
AcDbEntity
  8
0
  6
Continuous
 62
     7
370
    25
100
AcDbSpline
210
0.0
220
0.0
230
1.0
 70
     8
 71
     3
 72
    12
 73
     8
 74
     0
 42
0.00000001
 43
0.00000001
 40
0.0
 40
0.0
 40
0.0
 40
0.0
 40
0.2500000000000002
 40
0.2500000000000002
 40
0.5000000000000001
 40
0.5000000000000001
 40
1.0
 40
1.0
 40
1.0
 40
1.0
 10
39.69065881840981
 20
27.65363520429698
 30
0.0
 10
39.71292566056372
 20
27.41622264617676
 30
0.0
 10
39.71996369321815
 20
27.17811263201023
 30
0.0
 10
39.72083881470258
 20
26.70041450474834
 30
0.0
 10
39.71417482075351
 20
26.46079164813181
 30
0.0
 10
39.68352247133527
 20
25.74207589399604
 30
0.0
 10
39.64891378821073
 20
25.26125892937583
 30
0.0
 10
39.61485714285717
 20
24.78135388102805
 30
0.0
  0
SPLINE
  5
10E
330
1F
100
AcDbEntity
  8
0
  6
Continuous
 62
     7
370
    25
100
AcDbSpline
210
0.0
220
0.0
230
1.0
 70
     8
 71
     3
 72
    12
 73
     8
 74
     0
 42
0.00000001
 43
0.00000001
 40
0.0
 40
0.0
 40
0.0
 40
0.0
 40
0.2499999999999998
 40
0.2499999999999998
 40
0.4999999999999999
 40
0.4999999999999999
 40
1.0
 40
1.0
 40
1.0
 40
1.0
 10
39.26646049396244
 20
27.49406401967089
 30
0.0
 10
39.31445806580142
 20
27.27832327885569
 30
0.0
 10
39.35069663970052
 20
27.05861745858033
 30
0.0
 10
39.41590159492682
 20
26.61353426266455
 30
0.0
 10
39.44426865218696
 20
26.38773291397634
 30
0.0
 10
39.52372542767635
 20
25.70481830249731
 30
0.0
 10
39.56917140752685
 20
25.24236730980753
 30
0.0
 10
39.61485714285717
 20
24.78135388102805
 30
0.0
  0
SPLINE
  5
10F
330
1F
100
AcDbEntity
  8
0
  6
Continuous
 62
     7
370
    25
100
AcDbSpline
210
0.0
220
0.0
230
1.0
 70
     8
 71
     3
 72
    16
 73
    12
 74
     0
 42
0.00000001
 43
0.00000001
 40
0.0
 40
0.0
 40
0.0
 40
0.0
 40
0.2499999999999999
 40
0.2499999999999999
 40
0.5
 40
0.5
 40
0.7500000000000001
 40
0.7500000000000001
 40
0.875
 40
0.875
 40
1.0
 40
1.0
 40
1.0
 40
1.0
 10
40.11485714285717
 20
27.65363520429706
 30
0.0
 10
40.11485714285717
 20
27.40733987203329
 30
0.0
 10
40.09492535717001
 20
27.16381993725926
 30
0.0
 10
40.03431881056645
 20
26.68113396388398
 30
0.0
 10
39.99320830312126
 20
26.4416934951093
 30
0.0
 10
39.89883184672206
 20
25.96495241544621
 30
0.0
 10
39.84546648486577
 20
25.72766930531931
 30
0.0
 10
39.76115932493118
 20
25.37249442000455
 30
0.0
 10
39.73233444808933
 20
25.2542299795705
 30
0.0
 10
39.67397536952382
 20
25.01782596906941
 30
0.0
 10
39.64472424830574
 20
24.90082349751295
 30
0.0
 10
39.61485714285717
 20
24.78135388102805
 30
0.0
  0
LINE
  5
110
330
1F
100
AcDbEntity
  8
0
  6
Continuous
 62
     7
370
    25
100
AcDbLine
 10
39.6906588184
 20
27.6536352043
 30
0.0
 11
40.1148571429
 21
27.6536352043
 31
0.0
  0
SPLINE
  5
111
330
1F
100
AcDbEntity
  8
0
  6
Continuous
 62
     7
370
    25
100
AcDbSpline
210
0.0
220
0.0
230
1.0
 70
     8
 71
     3
 72
    16
 73
    12
 74
     0
 42
0.00000001
 43
0.00000001
 40
0.0
 40
0.0
 40
0.0
 40
0.0
 40
0.2500000000000002
 40
0.2500000000000002
 40
0.5000000000000002
 40
0.5000000000000002
 40
0.7500000000000002
 40
0.7500000000000002
 40
0.8750000000000001
 40
0.8750000000000001
 40
1.0
 40
1.0
 40
1.0
 40
1.0
 10
50.98713846612619
 20
32.28135388102804
 30
0.0
 10
50.74084313386241
 20
32.28135388102805
 30
0.0
 10
50.49732319908839
 20
32.3012856667152
 30
0.0
 10
50.01463722571311
 20
32.36189221331877
 30
0.0
 10
49.77519675693843
 20
32.40300272076394
 30
0.0
 10
49.29845567727534
 20
32.49737917716315
 30
0.0
 10
49.06117256714843
 20
32.55074453901944
 30
0.0
 10
48.70599768183367
 20
32.63505169895403
 30
0.0
 10
48.58773324139963
 20
32.66387657579589
 30
0.0
 10
48.35132923089854
 20
32.7222356543614
 30
0.0
 10
48.23432675934207
 20
32.75148677557947
 30
0.0
 10
48.11485714285718
 20
32.78135388102804
 30
0.0
  0
SPLINE
  5
112
330
1F
100
AcDbEntity
  8
0
  6
Continuous
 62
     7
370
    25
100
AcDbSpline
210
0.0
220
0.0
230
1.0
 70
     8
 71
     3
 72
    12
 73
     8
 74
     0
 42
0.00000001
 43
0.00000001
 40
0.0
 40
0.0
 40
0.0
 40
0.0
 40
0.2500000000000002
 40
0.2500000000000002
 40
0.5000000000000001
 40
0.5000000000000001
 40
1.0
 40
1.0
 40
1.0
 40
1.0
 10
50.98713846612619
 20
32.70555220547541
 30
0.0
 10
50.74972590800596
 20
32.6832853633215
 30
0.0
 10
50.51161589383944
 20
32.67624733066707
 30
0.0
 10
50.03391776657754
 20
32.67537220918263
 30
0.0
 10
49.79429490996099
 20
32.6820362031317
 30
0.0
 10
49.0755791558252
 20
32.71268855254993
 30
0.0
 10
48.59476219120496
 20
32.74729723567435
 30
0.0
 10
48.11485714285718
 20
32.78135388102804
 30
0.0
  0
LINE
  5
113
330
1F
100
AcDbEntity
  8
0
  6
Continuous
 62
     7
370
    25
100
AcDbLine
 10
50.9871384661
 20
32.281353881
 30
0.0
 11
50.9871384661
 21
32.7055522055
 31
0.0
  0
ARC
  5
114
330
1F
100
AcDbEntity
  8
0
  6
Continuous
 62
     7
370
    25
100
AcDbCircle
 10
51.9185723594
 20
33.2980429957
 30
0.0
 40
1.103908707245933
100
AcDbArc
 50
188.7690175889
 51
212.4606888392
  0
SPLINE
  5
115
330
1F
100
AcDbEntity
  8
0
  6
Continuous
 62
     7
370
    25
100
AcDbSpline
210
0.0
220
0.0
230
1.0
 70
     8
 71
     3
 72
    12
 73
     8
 74
     0
 42
0.00000001
 43
0.00000001
 40
0.0
 40
0.0
 40
0.0
 40
0.0
 40
0.2500000000000002
 40
0.2500000000000002
 40
0.5000000000000001
 40
0.5000000000000001
 40
1.0
 40
1.0
 40
1.0
 40
1.0
 10
50.82756728150011
 20
33.1297505299228
 30
0.0
 10
50.6118265406849
 20
33.08175295808381
 30
0.0
 10
50.39212072040954
 20
33.04551438418471
 30
0.0
 10
49.94703752449374
 20
32.98030942895841
 30
0.0
 10
49.72123617580552
 20
32.95194237169825
 30
0.0
 10
49.03832156432647
 20
32.87248559620887
 30
0.0
 10
48.57587057163666
 20
32.82703961635854
 30
0.0
 10
48.11485714285718
 20
32.78135388102804
 30
0.0
  0
LINE
  5
116
330
1F
100
AcDbEntity
  8
0
  6
Continuous
 62
     7
370
    25
100
AcDbLine
 10
45.2425758196
 20
32.281353881
 30
0.0
 11
45.2425758196
 21
32.7055522055
 31
0.0
  0
SPLINE
  5
117
330
1F
100
AcDbEntity
  8
0
  6
Continuous
 62
     7
370
    25
100
AcDbSpline
210
0.0
220
0.0
230
1.0
 70
     8
 71
     3
 72
    12
 73
     8
 74
     0
 42
0.00000001
 43
0.00000001
 40
0.0
 40
0.0
 40
0.0
 40
0.0
 40
0.2500000000000001
 40
0.2500000000000001
 40
0.5000000000000002
 40
0.5000000000000002
 40
1.0
 40
1.0
 40
1.0
 40
1.0
 10
45.24257581958818
 20
32.70555220547541
 30
0.0
 10
45.47998837769061
 20
32.68328536332317
 30
0.0
 10
45.71809839183925
 20
32.67624733066823
 30
0.0
 10
46.19579651906512
 20
32.67537220918166
 30
0.0
 10
46.43541937566364
 20
32.68203620312899
 30
0.0
 10
47.15413512974539
 20
32.71268855254156
 30
0.0
 10
47.63495209454864
 20
32.74729723565328
 30
0.0
 10
48.11485714285718
 20
32.78135388102804
 30
0.0
  0
SPLINE
  5
118
330
1F
100
AcDbEntity
  8
0
  6
Continuous
 62
     7
370
    25
100
AcDbSpline
210
0.0
220
0.0
230
1.0
 70
     8
 71
     3
 72
    16
 73
    12
 74
     0
 42
0.00000001
 43
0.00000001
 40
0.0
 40
0.0
 40
0.0
 40
0.0
 40
0.2500000000000003
 40
0.2500000000000003
 40
0.5000000000000006
 40
0.5000000000000006
 40
0.7500000000000006
 40
0.7500000000000006
 40
0.8750000000000003
 40
0.8750000000000003
 40
1.0
 40
1.0
 40
1.0
 40
1.0
 10
45.24257581958815
 20
32.28135388102804
 30
0.0
 10
45.48887115185196
 20
32.28135388102805
 30
0.0
 10
45.73239108662594
 20
32.3012856667152
 30
0.0
 10
46.21507706000121
 20
32.36189221331877
 30
0.0
 10
46.4545175287759
 20
32.40300272076394
 30
0.0
 10
46.93125860843899
 20
32.49737917716315
 30
0.0
 10
47.1685417185659
 20
32.55074453901944
 30
0.0
 10
47.52371660388066
 20
32.63505169895403
 30
0.0
 10
47.6419810443147
 20
32.66387657579588
 30
0.0
 10
47.87838505481579
 20
32.7222356543614
 30
0.0
 10
47.99538752637225
 20
32.75148677557949
 30
0.0
 10
48.11485714285718
 20
32.78135388102804
 30
0.0
  0
ARC
  5
119
330
1F
100
AcDbEntity
  8
0
  6
Continuous
 62
     7
370
    25
100
AcDbCircle
 10
44.3111419264
 20
33.2980429957
 30
0.0
 40
1.103908707245945
100
AcDbArc
 50
327.5393111608
 51
351.2309824111
  0
SPLINE
  5
11A
330
1F
100
AcDbEntity
  8
0
  6
Continuous
 62
     7
370
    25
100
AcDbSpline
210
0.0
220
0.0
230
1.0
 70
     8
 71
     3
 72
    12
 73
     8
 74
     0
 42
0.00000001
 43
0.00000001
 40
0.0
 40
0.0
 40
0.0
 40
0.0
 40
0.2499999999999999
 40
0.2499999999999999
 40
0.4999999999999998
 40
0.4999999999999998
 40
1.0
 40
1.0
 40
1.0
 40
1.0
 10
45.40214700421432
 20
33.12975052992277
 30
0.0
 10
45.61838458867928
 20
33.08164242129468
 30
0.0
 10
45.83815018399733
 20
33.04542936383929
 30
0.0
 10
46.28259316995994
 20
32.98032515420233
 30
0.0
 10
46.5073531938576
 20
32.95208497392043
 30
0.0
 10
47.18831709871588
 20
32.87282014266626
 30
0.0
 10
47.65470002659305
 20
32.82695475937454
 30
0.0
 10
48.11485714285718
 20
32.78135388102804
 30
0.0
  0
ARC
  5
11B
330
1F
100
AcDbEntity
  8
0
  6
Continuous
 62
     7
370
    25
100
AcDbCircle
 10
57.1315462575
 20
28.5850690975
 30
0.0
 40
1.103908707246472
100
AcDbArc
 50
237.5393111608
 51
261.2309824111
  0
SPLINE
  5
11C
330
1F
100
AcDbEntity
  8
0
  6
Continuous
 62
     7
370
    25
100
AcDbSpline
210
0.0
220
0.0
230
1.0
 70
     8
 71
     3
 72
    12
 73
     8
 74
     0
 42
0.00000001
 43
0.00000001
 40
0.0
 40
0.0
 40
0.0
 40
0.0
 40
0.2499999999999999
 40
0.2499999999999999
 40
0.5
 40
0.5
 40
1.0
 40
1.0
 40
1.0
 40
1.0
 10
56.96325379175191
 20
27.49406401967097
 30
0.0
 10
56.9152956360801
 20
27.27850044767447
 30
0.0
 10
56.87901322098579
 20
27.05863043605272
 30
0.0
 10
56.81369134394969
 20
26.61266269443842
 30
0.0
 10
56.78533082799519
 20
26.3867694685645
 30
0.0
 10
56.70607442143305
 20
25.70550706974906
 30
0.0
 10
56.66060364430609
 20
25.24298049907853
 30
0.0
 10
56.61485714285717
 20
24.78135388102805
 30
0.0
  0
SPLINE
  5
11D
330
1F
100
AcDbEntity
  8
0
  6
Continuous
 62
     7
370
    25
100
AcDbSpline
210
0.0
220
0.0
230
1.0
 70
     8
 71
     3
 72
    12
 73
     8
 74
     0
 42
0.00000001
 43
0.00000001
 40
0.0
 40
0.0
 40
0.0
 40
0.0
 40
0.25
 40
0.25
 40
0.5
 40
0.5
 40
1.0
 40
1.0
 40
1.0
 40
1.0
 10
56.53905546730454
 20
27.65363520429704
 30
0.0
 10
56.51678862515229
 20
27.41622264619463
 30
0.0
 10
56.50975059249735
 20
27.17811263204601
 30
0.0
 10
56.50887547101079
 20
26.70041450482017
 30
0.0
 10
56.51553946495811
 20
26.46079164822181
 30
0.0
 10
56.54619181437064
 20
25.74207589414065
 30
0.0
 10
56.58080049722081
 20
25.26125892931796
 30
0.0
 10
56.61485714285717
 20
24.78135388102805
 30
0.0
  0
ARC
  5
11E
330
1F
100
AcDbEntity
  8
0
  6
Continuous
 62
     7
370
    25
100
AcDbCircle
 10
39.0981680282
 20
20.9776386645
 30
0.0
 40
1.103908707246243
100
AcDbArc
 50
57.5393111608
 51
81.2309824111
  0
SPLINE
  5
11F
330
1F
100
AcDbEntity
  8
0
  6
Continuous
 62
     7
370
    25
100
AcDbSpline
210
0.0
220
0.0
230
1.0
 70
     8
 71
     3
 72
    12
 73
     8
 74
     0
 42
0.00000001
 43
0.00000001
 40
0.0
 40
0.0
 40
0.0
 40
0.0
 40
0.2499999999999999
 40
0.2499999999999999
 40
0.4999999999999998
 40
0.4999999999999998
 40
1.0
 40
1.0
 40
1.0
 40
1.0
 10
39.26646049396243
 20
22.06864374238519
 30
0.0
 10
39.31456860259053
 20
22.28488132685015
 30
0.0
 10
39.35078166004593
 20
22.5046469221682
 30
0.0
 10
39.41588586968287
 20
22.94908990813082
 30
0.0
 10
39.44412604996478
 20
23.17384993202847
 30
0.0
 10
39.52339088121894
 20
23.85481383688675
 30
0.0
 10
39.56925626451068
 20
24.32119676476392
 30
0.0
 10
39.61485714285717
 20
24.78135388102805
 30
0.0
  0
SPLINE
  5
120
330
1F
100
AcDbEntity
  8
0
  6
Continuous
 62
     7
370
    25
100
AcDbSpline
210
0.0
220
0.0
230
1.0
 70
     8
 71
     3
 72
    12
 73
     8
 74
     0
 42
0.00000001
 43
0.00000001
 40
0.0
 40
0.0
 40
0.0
 40
0.0
 40
0.2500000000000001
 40
0.2500000000000001
 40
0.5000000000000001
 40
0.5000000000000001
 40
1.0
 40
1.0
 40
1.0
 40
1.0
 10
39.6906588184098
 20
21.90907255775905
 30
0.0
 10
39.71292566056204
 20
22.14648511586148
 30
0.0
 10
39.71996369321698
 20
22.38459513001012
 30
0.0
 10
39.72083881470355
 20
22.86229325723599
 30
0.0
 10
39.71417482075622
 20
23.10191611383452
 30
0.0
 10
39.68352247134365
 20
23.82063186791627
 30
0.0
 10
39.64891378823189
 20
24.30144883271952
 30
0.0
 10
39.61485714285717
 20
24.78135388102805
 30
0.0
  0
LINE
  5
121
330
1F
100
AcDbEntity
  8
0
  6
Continuous
 62
     7
370
    25
100
AcDbLine
 10
40.1148571429
 20
21.9090725578
 30
0.0
 11
39.6906588184
 21
21.9090725578
 31
0.0
  0
SPLINE
  5
122
330
1F
100
AcDbEntity
  8
0
  6
Continuous
 62
     7
370
    25
100
AcDbSpline
210
0.0
220
0.0
230
1.0
 70
     8
 71
     3
 72
    16
 73
    12
 74
     0
 42
0.00000001
 43
0.00000001
 40
0.0
 40
0.0
 40
0.0
 40
0.0
 40
0.2500000000000001
 40
0.2500000000000001
 40
0.5000000000000001
 40
0.5000000000000001
 40
0.7500000000000002
 40
0.7500000000000002
 40
0.8750000000000001
 40
0.8750000000000001
 40
1.0
 40
1.0
 40
1.0
 40
1.0
 10
40.11485714285717
 20
21.90907255775903
 30
0.0
 10
40.11485714285717
 20
22.15536789002283
 30
0.0
 10
40.09492535717001
 20
22.39888782479681
 30
0.0
 10
40.03431881056645
 20
22.88157379817208
 30
0.0
 10
39.99320830312127
 20
23.12101426694677
 30
0.0
 10
39.89883184672206
 20
23.59775534660986
 30
0.0
 10
39.84546648486577
 20
23.83503845673676
 30
0.0
 10
39.76115932493119
 20
24.19021334205153
 30
0.0
 10
39.73233444808933
 20
24.30847778248557
 30
0.0
 10
39.67397536952381
 20
24.54488179298667
 30
0.0
 10
39.64472424830573
 20
24.66188426454312
 30
0.0
 10
39.61485714285717
 20
24.78135388102805
 30
0.0
  0
LINE
  5
123
330
1F
100
AcDbEntity
  8
0
  6
Continuous
 62
     7
370
    25
100
AcDbLine
 10
56.1148571429
 20
27.6536352043
 30
0.0
 11
56.5390554673
 21
27.6536352043
 31
0.0
  0
SPLINE
  5
124
330
1F
100
AcDbEntity
  8
0
  6
Continuous
 62
     7
370
    25
100
AcDbSpline
210
0.0
220
0.0
230
1.0
 70
     8
 71
     3
 72
    16
 73
    12
 74
     0
 42
0.00000001
 43
0.00000001
 40
0.0
 40
0.0
 40
0.0
 40
0.0
 40
0.2500000000000002
 40
0.2500000000000002
 40
0.5000000000000002
 40
0.5000000000000002
 40
0.7500000000000002
 40
0.7500000000000002
 40
0.8750000000000001
 40
0.8750000000000001
 40
1.0
 40
1.0
 40
1.0
 40
1.0
 10
56.11485714285717
 20
27.65363520429706
 30
0.0
 10
56.11485714285718
 20
27.40733987203329
 30
0.0
 10
56.13478892854432
 20
27.16381993725926
 30
0.0
 10
56.1953954751479
 20
26.68113396388399
 30
0.0
 10
56.23650598259307
 20
26.4416934951093
 30
0.0
 10
56.33088243899227
 20
25.96495241544621
 30
0.0
 10
56.38424780084857
 20
25.72766930531931
 30
0.0
 10
56.46855496078315
 20
25.37249442000455
 30
0.0
 10
56.49737983762501
 20
25.2542299795705
 30
0.0
 10
56.55573891619052
 20
25.01782596906942
 30
0.0
 10
56.58499003740859
 20
24.90082349751295
 30
0.0
 10
56.61485714285717
 20
24.78135388102805
 30
0.0
  0
LINE
  5
125
330
1F
100
AcDbEntity
  8
0
  6
Continuous
 62
     7
370
    25
100
AcDbLine
 10
40.1148571429
 20
21.9090725578
 30
0.0
 11
40.1148571429
 21
18.281353881
 31
0.0
  0
LINE
  5
126
330
1F
100
AcDbEntity
  8
0
  6
Continuous
 62
     7
370
    25
100
AcDbLine
 10
40.1148571429
 20
18.281353881
 30
0.0
 11
39.6148571429
 21
17.781353881
 31
0.0
  0
LINE
  5
127
330
1F
100
AcDbEntity
  8
0
  6
Continuous
 62
     7
370
    25
100
AcDbLine
 10
39.6148571429
 20
17.781353881
 30
0.0
 11
39.6148571429
 21
20.6582482554
 31
0.0
  0
SPLINE
  5
128
330
1F
100
AcDbEntity
  8
0
  6
Continuous
 62
     7
370
    25
100
AcDbSpline
210
0.0
220
0.0
230
1.0
 70
     8
 71
     3
 72
     8
 73
     4
 74
     0
 42
0.00000001
 43
0.00000001
 40
0.0
 40
0.0
 40
0.0
 40
0.0
 40
1.0
 40
1.0
 40
1.0
 40
1.0
 10
39.69065881840979
 20
21.90907255775906
 30
0.0
 10
39.64661266562072
 20
21.48982121836472
 30
0.0
 10
39.61485714285717
 20
21.07229825460364
 30
0.0
 10
39.61485714285717
 20
20.65824825541038
 30
0.0
  0
LINE
  5
129
330
1F
100
AcDbEntity
  8
0
  6
Continuous
 62
     7
370
    25
100
AcDbLine
 10
40.1148571429
 20
30.781353881
 30
0.0
 11
40.1148571429
 21
31.281353881
 31
0.0
  0
LINE
  5
12A
330
1F
100
AcDbEntity
  8
0
  6
Continuous
 62
     7
370
    25
100
AcDbLine
 10
39.6148571429
 20
31.281353881
 30
0.0
 11
40.1148571429
 21
30.781353881
 31
0.0
  0
LINE
  5
12B
330
1F
100
AcDbEntity
  8
0
  6
Continuous
 62
     7
370
    25
100
AcDbLine
 10
39.6148571429
 20
31.281353881
 30
0.0
 11
40.1148571429
 21
31.281353881
 31
0.0
  0
LINE
  5
12C
330
1F
100
AcDbEntity
  8
0
  6
Continuous
 62
     7
370
    25
100
AcDbLine
 10
54.6148571429
 20
32.281353881
 30
0.0
 11
55.1148571429
 21
32.781353881
 31
0.0
  0
LINE
  5
12D
330
1F
100
AcDbEntity
  8
0
  6
Continuous
 62
     7
370
    25
100
AcDbLine
 10
54.6148571429
 20
32.281353881
 30
0.0
 11
50.9871384661
 21
32.281353881
 31
0.0
  0
SPLINE
  5
12E
330
1F
100
AcDbEntity
  8
0
  6
Continuous
 62
     7
370
    25
100
AcDbSpline
210
0.0
220
0.0
230
1.0
 70
     8
 71
     3
 72
     8
 73
     4
 74
     0
 42
0.00000001
 43
0.00000001
 40
0.0
 40
0.0
 40
0.0
 40
0.0
 40
1.0
 40
1.0
 40
1.0
 40
1.0
 10
52.23796276847484
 20
32.78135388102804
 30
0.0
 10
51.82377383599245
 20
32.78135388102804
 30
0.0
 10
51.40646367319938
 20
32.74960611874358
 30
0.0
 10
50.98713846612566
 20
32.7055522054861
 30
0.0
  0
LINE
  5
12F
330
1F
100
AcDbEntity
  8
0
  6
Continuous
 62
     7
370
    25
100
AcDbLine
 10
52.2379627685
 20
32.781353881
 30
0.0
 11
55.1148571429
 21
32.781353881
 31
0.0
  0
LINE
  5
130
330
1F
100
AcDbEntity
  8
0
  6
Continuous
 62
     7
370
    25
100
AcDbLine
 10
55.1148571429
 20
32.781353881
 30
0.0
 11
55.1148571429
 21
32.281353881
 31
0.0
  0
LINE
  5
131
330
1F
100
AcDbEntity
  8
0
  6
Continuous
 62
     7
370
    25
100
AcDbLine
 10
54.6148571429
 20
32.281353881
 30
0.0
 11
55.1148571429
 21
32.281353881
 31
0.0
  0
LINE
  5
132
330
1F
100
AcDbEntity
  8
0
  6
Continuous
 62
     7
370
    25
100
AcDbLine
 10
40.1148571429
 20
30.781353881
 30
0.0
 11
40.1148571429
 21
27.6536352043
 31
0.0
  0
SPLINE
  5
133
330
1F
100
AcDbEntity
  8
0
  6
Continuous
 62
     7
370
    25
100
AcDbSpline
210
0.0
220
0.0
230
1.0
 70
     8
 71
     3
 72
     8
 73
     4
 74
     0
 42
0.00000001
 43
0.00000001
 40
0.0
 40
0.0
 40
0.0
 40
0.0
 40
1.0
 40
1.0
 40
1.0
 40
1.0
 10
39.61485714285717
 20
28.9044595066457
 30
0.0
 10
39.61485714285717
 20
28.49027057416329
 30
0.0
 10
39.64660490514164
 20
28.0729604113702
 30
0.0
 10
39.69065881839912
 20
27.65363520429645
 30
0.0
  0
LINE
  5
134
330
1F
100
AcDbEntity
  8
0
  6
Continuous
 62
     7
370
    25
100
AcDbLine
 10
39.6148571429
 20
28.9044595066
 30
0.0
 11
39.6148571429
 21
31.281353881
 31
0.0
  0
ARC
  5
135
330
1F
100
AcDbEntity
  8
0
  6
Continuous
 62
     7
370
    25
100
AcDbCircle
 10
40.1148571429
 20
32.281353881
 30
0.0
 40
1.5
100
AcDbArc
 50
270.0
 51
0.0
  0
ARC
  5
136
330
1F
100
AcDbEntity
  8
0
  6
Continuous
 62
     7
370
    25
100
AcDbCircle
 10
40.1148571429
 20
32.281353881
 30
0.0
 40
1.0
100
AcDbArc
 50
270.0
 51
0.0
  0
LINE
  5
137
330
1F
100
AcDbEntity
  8
0
  6
Continuous
 62
     7
370
    25
100
AcDbLine
 10
41.6148571429
 20
32.281353881
 30
0.0
 11
41.1148571429
 21
32.281353881
 31
0.0
  0
LINE
  5
138
330
1F
100
AcDbEntity
  8
0
  6
Continuous
 62
     7
370
    25
100
AcDbLine
 10
56.1148571429
 20
30.781353881
 30
0.0
 11
56.1148571429
 21
31.281353881
 31
0.0
  0
LINE
  5
139
330
1F
100
AcDbEntity
  8
0
  6
Continuous
 62
     7
370
    25
100
AcDbLine
 10
56.1148571429
 20
31.281353881
 30
0.0
 11
56.6148571429
 21
31.281353881
 31
0.0
  0
LINE
  5
13A
330
1F
100
AcDbEntity
  8
0
  6
Continuous
 62
     7
370
    25
100
AcDbLine
 10
56.1148571429
 20
30.781353881
 30
0.0
 11
56.6148571429
 21
31.281353881
 31
0.0
  0
LINE
  5
13B
330
1F
100
AcDbEntity
  8
0
  6
Continuous
 62
     7
370
    25
100
AcDbLine
 10
40.1148571429
 20
18.281353881
 30
0.0
 11
56.1148571429
 21
18.281353881
 31
0.0
  0
LINE
  5
13C
330
1F
100
AcDbEntity
  8
0
  6
Continuous
 62
     7
370
    25
100
AcDbLine
 10
56.1148571429
 20
18.281353881
 30
0.0
 11
56.6148571429
 21
17.781353881
 31
0.0
  0
LINE
  5
13D
330
1F
100
AcDbEntity
  8
0
  6
Continuous
 62
     7
370
    25
100
AcDbLine
 10
56.6148571429
 20
17.781353881
 30
0.0
 11
39.6148571429
 21
17.781353881
 31
0.0
  0
LINE
  5
13E
330
1F
100
AcDbEntity
  8
0
  6
Continuous
 62
     7
370
    25
100
AcDbLine
 10
41.1148571429
 20
32.281353881
 30
0.0
 11
41.1148571429
 21
32.781353881
 31
0.0
  0
LINE
  5
13F
330
1F
100
AcDbEntity
  8
0
  6
Continuous
 62
     7
370
    25
100
AcDbLine
 10
41.6148571429
 20
32.281353881
 30
0.0
 11
41.1148571429
 21
32.781353881
 31
0.0
  0
SPLINE
  5
140
330
1F
100
AcDbEntity
  8
0
  6
Continuous
 62
     7
370
    25
100
AcDbSpline
210
0.0
220
0.0
230
1.0
 70
     8
 71
     3
 72
     8
 73
     4
 74
     0
 42
0.00000001
 43
0.00000001
 40
0.0
 40
0.0
 40
0.0
 40
0.0
 40
1.0
 40
1.0
 40
1.0
 40
1.0
 10
57.11485714285717
 20
28.67539808300028
 30
0.0
 10
57.11485714285717
 20
28.28890704339925
 30
0.0
 10
57.05269415480649
 20
27.89608290197838
 30
0.0
 10
56.96325379175191
 20
27.49406401967097
 30
0.0
  0
LINE
  5
141
330
1F
100
AcDbEntity
  8
0
  6
Continuous
 62
     7
370
    25
100
AcDbLine
 10
57.1148571429
 20
31.3924649921
 30
0.0
 11
57.1148571429
 21
28.675398083
 31
0.0
  0
LINE
  5
142
330
1F
100
AcDbEntity
  8
0
  6
Continuous
 62
     7
370
    25
100
AcDbLine
 10
56.1148571429
 20
31.3924649921
 30
0.0
 11
57.1148571429
 21
31.3924649921
 31
0.0
  0
SPLINE
  5
143
330
1F
100
AcDbEntity
  8
0
  6
Continuous
 62
     7
370
    25
100
AcDbSpline
210
0.0
220
0.0
230
1.0
 70
     8
 71
     3
 72
    14
 73
    10
 74
     0
 42
0.00000001
 43
0.00000001
 40
0.0
 40
0.0
 40
0.0
 40
0.0
 40
0.2499999999999995
 40
0.2499999999999995
 40
0.499999999999999
 40
0.499999999999999
 40
0.7499999999999984
 40
0.7499999999999984
 40
1.0
 40
1.0
 40
1.0
 40
1.0
 10
55.61485714285717
 20
31.86468721436138
 30
0.0
 10
55.61485714285717
 20
31.81673587183432
 30
0.0
 10
55.62238803285518
 20
31.76822205026125
 30
0.0
 10
55.65586856048743
 20
31.67047167972533
 30
0.0
 10
55.6819777634125
 20
31.62117850935793
 30
0.0
 10
55.75826875105454
 20
31.52850346037554
 30
0.0
 10
55.8092058318471
 20
31.48407064651112
 30
0.0
 10
55.94349442887094
 20
31.41523563803681
 30
0.0
 10
56.0270613565305
 20
31.39246499213916
 30
0.0
 10
56.11485714285718
 20
31.39246499213916
 30
0.0
  0
SPLINE
  5
144
330
1F
100
AcDbEntity
  8
0
  6
Continuous
 62
     7
370
    25
100
AcDbSpline
210
0.0
220
0.0
230
1.0
 70
     8
 71
     3
 72
    14
 73
    10
 74
     0
 42
0.00000001
 43
0.00000001
 40
0.0
 40
0.0
 40
0.0
 40
0.0
 40
0.25
 40
0.25
 40
0.5
 40
0.5
 40
0.75
 40
0.75
 40
1.0
 40
1.0
 40
1.0
 40
1.0
 10
40.11485714285716
 20
31.39246499213916
 30
0.0
 10
40.20265292918383
 20
31.39246499213916
 30
0.0
 10
40.2862198568434
 20
31.41523563803681
 30
0.0
 10
40.42050845386724
 20
31.48407064651112
 30
0.0
 10
40.4714455346598
 20
31.52850346037554
 30
0.0
 10
40.54773652230183
 20
31.62117850935793
 30
0.0
 10
40.5738457252269
 20
31.67047167972534
 30
0.0
 10
40.60732625285916
 20
31.76822205026125
 30
0.0
 10
40.61485714285717
 20
31.81673587183432
 30
0.0
 10
40.61485714285717
 20
31.86468721436138
 30
0.0
  0
LINE
  5
145
330
1F
100
AcDbEntity
  8
0
  6
Continuous
 62
     7
370
    25
100
AcDbLine
 10
39.1148571429
 20
31.3924649921
 30
0.0
 11
40.1148571429
 21
31.3924649921
 31
0.0
  0
LINE
  5
146
330
1F
100
AcDbEntity
  8
0
  6
Continuous
 62
     7
370
    25
100
AcDbLine
 10
39.1148571429
 20
28.675398083
 30
0.0
 11
39.1148571429
 21
31.3924649921
 31
0.0
  0
SPLINE
  5
147
330
1F
100
AcDbEntity
  8
0
  6
Continuous
 62
     7
370
    25
100
AcDbSpline
210
0.0
220
0.0
230
1.0
 70
     8
 71
     3
 72
     8
 73
     4
 74
     0
 42
0.00000001
 43
0.00000001
 40
0.0
 40
0.0
 40
0.0
 40
0.0
 40
1.0
 40
1.0
 40
1.0
 40
1.0
 10
39.26646049396244
 20
27.49406401967089
 30
0.0
 10
39.17702013090785
 20
27.89608290197833
 30
0.0
 10
39.11485714285717
 20
28.28890704339922
 30
0.0
 10
39.11485714285717
 20
28.67539808300028
 30
0.0
  0
SPLINE
  5
148
330
1F
100
AcDbEntity
  8
0
  6
Continuous
 62
     7
370
    25
100
AcDbSpline
210
0.0
220
0.0
230
1.0
 70
     8
 71
     3
 72
     8
 73
     4
 74
     0
 42
0.00000001
 43
0.00000001
 40
0.0
 40
0.0
 40
0.0
 40
0.0
 40
1.0
 40
1.0
 40
1.0
 40
1.0
 10
39.11485714285717
 20
20.88730967905581
 30
0.0
 10
39.11485714285717
 20
21.27380071865687
 30
0.0
 10
39.17702013090785
 20
21.66662486007776
 30
0.0
 10
39.26646049396243
 20
22.06864374238519
 30
0.0
  0
LINE
  5
149
330
1F
100
AcDbEntity
  8
0
  6
Continuous
 62
     7
370
    25
100
AcDbLine
 10
39.1148571429
 20
17.6980205477
 30
0.0
 11
39.1148571429
 21
20.8873096791
 31
0.0
  0
LINE
  5
14A
330
1F
100
AcDbEntity
  8
0
  6
Continuous
 62
     7
370
    25
100
AcDbLine
 10
57.1148571429
 20
17.6980205477
 30
0.0
 11
39.1148571429
 21
17.6980205477
 31
0.0
  0
LINE
  5
14B
330
1F
100
AcDbEntity
  8
0
  6
Continuous
 62
     7
370
    25
100
AcDbLine
 10
57.1148571429
 20
20.8873096791
 30
0.0
 11
57.1148571429
 21
17.6980205477
 31
0.0
  0
SPLINE
  5
14C
330
1F
100
AcDbEntity
  8
0
  6
Continuous
 62
     7
370
    25
100
AcDbSpline
210
0.0
220
0.0
230
1.0
 70
     8
 71
     3
 72
     8
 73
     4
 74
     0
 42
0.00000001
 43
0.00000001
 40
0.0
 40
0.0
 40
0.0
 40
0.0
 40
1.0
 40
1.0
 40
1.0
 40
1.0
 10
56.9632537917519
 20
22.06864374238517
 30
0.0
 10
57.05269415480649
 20
21.66662486007775
 30
0.0
 10
57.11485714285717
 20
21.27380071865686
 30
0.0
 10
57.11485714285717
 20
20.88730967905581
 30
0.0
  0
LINE
  5
14D
330
1F
100
AcDbEntity
  8
0
  6
Continuous
 62
     7
370
    25
100
AcDbLine
 10
56.1148571429
 20
27.6536352043
 30
0.0
 11
56.1148571429
 21
30.781353881
 31
0.0
  0
LINE
  5
14E
330
1F
100
AcDbEntity
  8
0
  6
Continuous
 62
     7
370
    25
100
AcDbLine
 10
56.6148571429
 20
31.281353881
 30
0.0
 11
56.6148571429
 21
28.9044595066
 31
0.0
  0
SPLINE
  5
14F
330
1F
100
AcDbEntity
  8
0
  6
Continuous
 62
     7
370
    25
100
AcDbSpline
210
0.0
220
0.0
230
1.0
 70
     8
 71
     3
 72
     8
 73
     4
 74
     0
 42
0.00000001
 43
0.00000001
 40
0.0
 40
0.0
 40
0.0
 40
0.0
 40
1.0
 40
1.0
 40
1.0
 40
1.0
 10
56.53905546730454
 20
27.65363520429703
 30
0.0
 10
56.58310162009361
 20
28.07288654369137
 30
0.0
 10
56.61485714285717
 20
28.49040950745245
 30
0.0
 10
56.61485714285717
 20
28.90445950664571
 30
0.0
  0
ARC
  5
150
330
1F
100
AcDbEntity
  8
0
  6
Continuous
 62
     7
370
    25
100
AcDbCircle
 10
56.1148571429
 20
32.281353881
 30
0.0
 40
1.5
100
AcDbArc
 50
180.0
 51
270.0
  0
ARC
  5
151
330
1F
100
AcDbEntity
  8
0
  6
Continuous
 62
     7
370
    25
100
AcDbCircle
 10
56.1148571429
 20
32.281353881
 30
0.0
 40
1.0
100
AcDbArc
 50
180.0
 51
270.0
  0
LINE
  5
152
330
1F
100
AcDbEntity
  8
0
  6
Continuous
 62
     7
370
    25
100
AcDbLine
 10
56.1148571429
 20
18.281353881
 30
0.0
 11
56.1148571429
 21
21.9090725578
 31
0.0
  0
LINE
  5
153
330
1F
100
AcDbEntity
  8
0
  6
Continuous
 62
     7
370
    25
100
AcDbLine
 10
45.2425758196
 20
32.281353881
 30
0.0
 11
41.6148571429
 21
32.281353881
 31
0.0
  0
ELLIPSE
  5
154
330
1F
100
AcDbEntity
  8
0
  6
Continuous
 62
     7
370
    25
100
AcDbEllipse
 10
51.9274146536
 20
18.0385304214
 30
0.0
 11
2.525369784127093
 21
-1.669775429036235E-13
 31
0.0
210
0.0
220
0.0
230
1.0
 40
0.9531667975
 41
0.8210019969639368
 42
2.320590656625494
  0
LINE
  5
155
330
1F
100
AcDbEntity
  8
0
  6
Continuous
 62
     7
370
    25
100
AcDbLine
 10
54.4677274542
 20
21.1577884091
 30
0.0
 11
54.4310311377
 21
21.1368179198
 31
0.0
  0
LINE
  5
156
330
1F
100
AcDbEntity
  8
0
  6
Continuous
 62
     7
370
    25
100
AcDbLine
 10
51.4067255558
 20
24.544648267
 30
0.0
 11
50.2971563125
 21
21.4423415511
 31
0.0
  0
ELLIPSE
  5
157
330
1F
100
AcDbEntity
  8
0
  6
Continuous
 62
     7
370
    25
100
AcDbEllipse
 10
50.1554873446
 20
19.852233006
 30
0.0
 11
0.07471508237067326
 21
0.0
 31
0.0
210
0.0
220
0.0
230
1.0
 40
0.9531667975
 41
3.605240262591928
 42
5.462183310213494
  0
ELLIPSE
  5
158
330
1F
100
AcDbEntity
  8
0
  6
Continuous
 62
     7
370
    25
100
AcDbEllipse
 10
54.1236803187
 20
21.6254546373
 30
0.0
 11
-0.5977206589647963
 21
-1.669775429036235E-13
 31
0.0
210
0.0
220
0.0
230
1.0
 40
0.9531667975
 41
0.3285531705514246
 42
2.110876526947252
  0
LINE
  5
159
330
1F
100
AcDbEntity
  8
0
  6
Continuous
 62
     7
370
    25
100
AcDbLine
 10
49.4325472896
 20
21.1327792805
 30
0.0
 11
49.387101853
 21
21.1577884091
 31
0.0
  0
ELLIPSE
  5
15A
330
1F
100
AcDbEntity
  8
0
  6
Continuous
 62
     7
370
    25
100
AcDbEllipse
 10
49.7314076191
 20
21.6261777569
 30
0.0
 11
-0.5977206589639081
 21
5.684341886080801E-14
 31
0.0
210
0.0
220
0.0
230
1.0
 40
0.9531667975
 41
1.047197551195595
 42
2.813039483037393
  0
LINE
  5
15B
330
1F
100
AcDbEntity
  8
0
  6
Continuous
 62
     7
370
    25
100
AcDbLine
 10
53.5579316253
 20
21.4416184315
 30
0.0
 11
52.4481037515
 21
24.544648267
 31
0.0
  0
LINE
  5
15C
330
1F
100
AcDbEntity
  8
0
  6
Continuous
 62
     7
370
    25
100
AcDbLine
 10
53.7661691639
 20
19.8203842713
 30
0.0
 11
54.4677274542
 21
21.1577884091
 31
0.0
  0
ELLIPSE
  5
15D
330
1F
100
AcDbEntity
  8
0
  6
Continuous
 62
     7
370
    25
100
AcDbEllipse
 10
53.6993419627
 20
19.852233006
 30
0.0
 11
0.07471508237060931
 21
2.486899575160351E-14
 31
0.0
210
0.0
220
0.0
230
1.0
 40
0.9531667976
 41
3.962594650565203
 42
5.819537698169353
  0
LINE
  5
15E
330
1F
100
AcDbEntity
  8
0
  6
Continuous
 62
     7
370
    25
100
AcDbLine
 10
49.387101853
 20
21.1577884091
 30
0.0
 11
50.0886601434
 21
19.8203842713
 31
0.0
  0
ELLIPSE
  5
15F
330
1F
100
AcDbEntity
  8
0
  6
Continuous
 62
     7
370
    25
100
AcDbEllipse
 10
51.9274146536
 20
24.3135445638
 30
0.0
 11
0.5743721957241519
 21
1.250555214937776E-12
 31
0.0
210
0.0
220
0.0
230
1.0
 40
0.9531667975
 41
0.4357918987530139
 42
2.705800754832462
  0
SPLINE
  5
160
330
1F
100
AcDbEntity
  8
0
  6
Continuous
 62
     7
370
    25
100
AcDbSpline
210
0.0
220
0.0
230
1.0
 70
     8
 71
     3
 72
     8
 73
     4
 74
     0
 42
0.00000001
 43
0.00000001
 40
0.0
 40
0.0
 40
0.0
 40
0.0
 40
1.0
 40
1.0
 40
1.0
 40
1.0
 10
44.22081294088494
 20
33.28135388102804
 30
0.0
 10
44.607303980486
 20
33.28135388102804
 30
0.0
 10
45.00012812190689
 20
33.21919089297736
 30
0.0
 10
45.40214700421432
 20
33.12975052992277
 30
0.0
  0
LINE
  5
161
330
1F
100
AcDbEntity
  8
0
  6
Continuous
 62
     7
370
    25
100
AcDbLine
 10
41.0315238095
 20
33.281353881
 30
0.0
 11
44.2208129409
 21
33.281353881
 31
0.0
  0
LINE
  5
162
330
1F
100
AcDbEntity
  8
0
  6
Continuous
 62
     7
370
    25
100
AcDbLine
 10
41.0315238095
 20
32.281353881
 30
0.0
 11
41.0315238095
 21
33.281353881
 31
0.0
  0
LINE
  5
163
330
1F
100
AcDbEntity
  8
0
  6
Continuous
 62
     7
370
    25
100
AcDbLine
 10
55.1981904762
 20
33.281353881
 30
0.0
 11
55.1981904762
 21
32.281353881
 31
0.0
  0
LINE
  5
164
330
1F
100
AcDbEntity
  8
0
  6
Continuous
 62
     7
370
    25
100
AcDbLine
 10
52.0089013448
 20
33.281353881
 30
0.0
 11
55.1981904762
 21
33.281353881
 31
0.0
  0
SPLINE
  5
165
330
1F
100
AcDbEntity
  8
0
  6
Continuous
 62
     7
370
    25
100
AcDbSpline
210
0.0
220
0.0
230
1.0
 70
     8
 71
     3
 72
     8
 73
     4
 74
     0
 42
0.00000001
 43
0.00000001
 40
0.0
 40
0.0
 40
0.0
 40
0.0
 40
1.0
 40
1.0
 40
1.0
 40
1.0
 10
50.82756728150011
 20
33.1297505299228
 30
0.0
 10
51.22958616380752
 20
33.21919089297737
 30
0.0
 10
51.62241030522838
 20
33.28135388102804
 30
0.0
 10
52.00890134482941
 20
33.28135388102804
 30
0.0
  0
LINE
  5
166
330
1F
100
AcDbEntity
  8
0
  6
Continuous
 62
     7
370
    25
100
AcDbLine
 10
41.1148571429
 20
32.781353881
 30
0.0
 11
43.9917515172
 21
32.781353881
 31
0.0
  0
SPLINE
  5
167
330
1F
100
AcDbEntity
  8
0
  6
Continuous
 62
     7
370
    25
100
AcDbSpline
210
0.0
220
0.0
230
1.0
 70
     8
 71
     3
 72
     8
 73
     4
 74
     0
 42
0.00000001
 43
0.00000001
 40
0.0
 40
0.0
 40
0.0
 40
0.0
 40
1.0
 40
1.0
 40
1.0
 40
1.0
 10
45.24257581958818
 20
32.70555220547542
 30
0.0
 10
44.82332448019385
 20
32.74959835826449
 30
0.0
 10
44.40580151643277
 20
32.78135388102804
 30
0.0
 10
43.99175151723951
 20
32.78135388102804
 30
0.0
  0
LINE
  5
168
330
1F
100
AcDbEntity
  8
0
  6
Continuous
 62
     7
370
    25
100
AcDbLine
 10
51.6598603108
 20
21.4426521522
 30
0.0
 11
52.1949689969
 21
21.4426521522
 31
0.0
  0
ELLIPSE
  5
169
330
1F
100
AcDbEntity
  8
0
  6
Continuous
 62
     7
370
    25
100
AcDbEllipse
 10
52.1949689969
 20
21.513868088
 30
0.0
 11
0.07471508237060931
 21
2.842170943040401E-14
 31
0.0
210
0.0
220
0.0
230
1.0
 40
0.9531667975
 41
4.712388980384341
 42
6.626209245754586
  0
LINE
  5
16A
330
1F
100
AcDbEntity
  8
0
  6
Continuous
 62
     7
370
    25
100
AcDbLine
 10
51.8570523309
 20
22.2518875651
 30
0.0
 11
51.5894979863
 21
21.5378205994
 31
0.0
  0
ELLIPSE
  5
16B
330
1F
100
AcDbEntity
  8
0
  6
Continuous
 62
     7
370
    25
100
AcDbEllipse
 10
51.9274146554
 20
22.2279350538
 30
0.0
 11
0.07471508237066614
 21
0.0
 31
0.0
210
0.0
220
0.0
230
1.0
 40
0.9531667975
 41
0.3430239404208476
 42
2.798568713168741
  0
LINE
  5
16C
330
1F
100
AcDbEntity
  8
0
  6
Continuous
 62
     7
370
    25
100
AcDbLine
 10
52.2653313215
 20
21.5378205991
 30
0.0
 11
51.9977769799
 21
22.2518875651
 31
0.0
  0
ELLIPSE
  5
16D
330
1F
100
AcDbEntity
  8
0
  6
Continuous
 62
     7
370
    25
100
AcDbEllipse
 10
51.6598603108
 20
21.513868088
 30
0.0
 11
-0.07471508237067326
 21
0.0
 31
0.0
210
0.0
220
0.0
230
1.0
 40
0.9531667975
 41
5.940161364898
 42
7.853981633974483
  0
SPLINE
  5
16E
330
1F
100
AcDbEntity
  8
0
  6
Continuous
 62
     7
370
    25
100
AcDbSpline
210
0.0
220
0.0
230
1.0
 70
     8
 71
     3
 72
     8
 73
     4
 74
     0
 42
0.00000001
 43
0.00000001
 40
0.0
 40
0.0
 40
0.0
 40
0.0
 40
1.0
 40
1.0
 40
1.0
 40
1.0
 10
56.61485714285717
 20
20.65824825541038
 30
0.0
 10
56.61485714285717
 20
21.0724371878928
 30
0.0
 10
56.5831093805727
 20
21.48974735068589
 30
0.0
 10
56.53905546731522
 20
21.90907255775964
 30
0.0
  0
LINE
  5
16F
330
1F
100
AcDbEntity
  8
0
  6
Continuous
 62
     7
370
    25
100
AcDbLine
 10
56.6148571429
 20
20.6582482554
 30
0.0
 11
56.6148571429
 21
17.781353881
 31
0.0
  0
LWPOLYLINE
  5
170
330
1F
100
AcDbEntity
  8
0
  6
Continuous
 62
     7
370
    25
100
AcDbPolyline
 90
        9
 70
   128
 43
0.0
 10
39.1148571429
 20
28.675398083
 10
39.2124023039
 20
28.679799434
 10
39.306198859
 20
28.6928343457
 10
39.3926422594
 20
28.7140018935
 10
39.4684105335
 20
28.7424886207
 10
39.530591949
 20
28.7771997981
 10
39.5767969091
 20
28.8168014948
 10
39.6052497831
 20
28.8597718397
 10
39.6148571429
 20
28.9044595066
  0
LWPOLYLINE
  5
171
330
1F
100
AcDbEntity
  8
0
  6
Continuous
 62
     7
370
    25
100
AcDbPolyline
 90
        9
 70
   128
 43
0.0
 10
57.1148571429
 20
20.8873096791
 10
57.0173119818
 20
20.882908328
 10
56.9235154267
 20
20.8698734164
 10
56.8370720263
 20
20.8487058685
 10
56.7613037523
 20
20.8202191414
 10
56.6991223367
 20
20.7855079639
 10
56.6529173766
 20
20.7459062672
 10
56.6244645027
 20
20.7029359223
 10
56.6148571429
 20
20.6582482554
  0
LWPOLYLINE
  5
172
330
1F
100
AcDbEntity
  8
0
  6
Continuous
 62
     7
370
    25
100
AcDbPolyline
 90
        9
 70
   128
 43
0.0
 10
52.0089013448
 20
33.281353881
 10
52.0133026959
 20
33.18380872
 10
52.0263376075
 20
33.0900121648
 10
52.0475051554
 20
33.0035687645
 10
52.0759918825
 20
32.9278004904
 10
52.11070306
 20
32.8656190749
 10
52.1503047567
 20
32.8194141148
 10
52.1932751016
 20
32.7909612408
 10
52.2379627685
 20
32.781353881
  0
LWPOLYLINE
  5
173
330
1F
100
AcDbEntity
  8
0
  6
Continuous
 62
     7
370
    25
100
AcDbPolyline
 90
        9
 70
   128
 43
0.0
 10
56.6148571429
 20
28.9044595066
 10
56.6244645027
 20
28.8597718397
 10
56.6529173766
 20
28.8168014948
 10
56.6991223367
 20
28.7771997981
 10
56.7613037523
 20
28.7424886207
 10
56.8370720263
 20
28.7140018935
 10
56.9235154267
 20
28.6928343457
 10
57.0173119818
 20
28.679799434
 10
57.1148571429
 20
28.675398083
  0
LWPOLYLINE
  5
174
330
1F
100
AcDbEntity
  8
0
  6
Continuous
 62
     7
370
    25
100
AcDbPolyline
 90
        9
 70
   128
 43
0.0
 10
43.9917515172
 20
32.781353881
 10
44.0364391841
 20
32.7909612408
 10
44.0794095291
 20
32.8194141148
 10
44.1190112258
 20
32.8656190749
 10
44.1537224032
 20
32.9278004904
 10
44.1822091304
 20
33.0035687645
 10
44.2033766782
 20
33.0900121648
 10
44.2164115899
 20
33.18380872
 10
44.2208129409
 20
33.281353881
  0
LWPOLYLINE
  5
175
330
1F
100
AcDbEntity
  8
0
  6
Continuous
 62
     7
370
    25
100
AcDbPolyline
 90
        9
 70
   128
 43
0.0
 10
39.1148571429
 20
20.8873096791
 10
39.2124023039
 20
20.882908328
 10
39.306198859
 20
20.8698734164
 10
39.3926422594
 20
20.8487058685
 10
39.4684105335
 20
20.8202191414
 10
39.530591949
 20
20.7855079639
 10
39.5767969091
 20
20.7459062672
 10
39.6052497831
 20
20.7029359223
 10
39.6148571429
 20
20.6582482554
  0
SPLINE
  5
176
330
1F
100
AcDbEntity
  8
0
  6
Continuous
 62
     7
370
    25
100
AcDbSpline
210
0.0
220
0.0
230
1.0
 70
     8
 71
     3
 72
     8
 73
     4
 74
     0
 42
0.00000001
 43
0.00000001
 40
0.0
 40
0.0
 40
0.0
 40
0.0
 40
1.0
 40
1.0
 40
1.0
 40
1.0
 10
55.11485714285717
 20
32.99837625671964
 30
0.0
 10
55.11485714285717
 20
33.08650011417831
 30
0.0
 10
55.14612733646072
 20
33.18443758687772
 30
0.0
 10
55.19819047619049
 20
33.28135388102804
 30
0.0
  0
SPLINE
  5
177
330
1F
100
AcDbEntity
  8
0
  6
Continuous
 62
     7
370
    25
100
AcDbSpline
210
0.0
220
0.0
230
1.0
 70
    24
 71
     3
 72
    10
 73
     6
 74
     0
 42
0.00000001
 43
0.00000001
 40
0.0
 40
0.0
 40
0.0
 40
0.0
 40
0.5
 40
0.5
 40
1.0
 40
1.0
 40
1.0
 40
1.0
 10
55.11485714285717
 20
32.99837625671964
 30
0.0
 10
55.11485714285717
 20
32.91903909429809
 30
0.0
 10
55.11485714285717
 20
32.86754378578712
 30
0.0
 10
55.11485714285717
 20
32.79844144450158
 30
0.0
 10
55.11485714285717
 20
32.78135388102809
 30
0.0
 10
55.11485714285717
 20
32.78135388102804
 30
0.0
  0
SPLINE
  5
178
330
1F
100
AcDbEntity
  8
0
  6
Continuous
 62
     7
370
    25
100
AcDbSpline
210
0.0
220
0.0
230
1.0
 70
     8
 71
     3
 72
     8
 73
     4
 74
     0
 42
0.00000001
 43
0.00000001
 40
0.0
 40
0.0
 40
0.0
 40
0.0
 40
1.0
 40
1.0
 40
1.0
 40
1.0
 10
39.39783476716556
 20
17.78135388102805
 30
0.0
 10
39.30971090970689
 20
17.78135388102805
 30
0.0
 10
39.21177343700483
 20
17.75008368742599
 30
0.0
 10
39.11485714285717
 20
17.69802054769471
 30
0.0
  0
SPLINE
  5
179
330
1F
100
AcDbEntity
  8
0
  6
Continuous
 62
     7
370
    25
100
AcDbSpline
210
0.0
220
0.0
230
1.0
 70
    24
 71
     3
 72
    10
 73
     6
 74
     0
 42
0.00000001
 43
0.00000001
 40
0.0
 40
0.0
 40
0.0
 40
0.0
 40
0.5
 40
0.5
 40
1.0
 40
1.0
 40
1.0
 40
1.0
 10
39.61485714285717
 20
17.78135388102792
 30
0.0
 10
39.61485714285717
 20
17.78135388102792
 30
0.0
 10
39.59801212730325
 20
17.78135388102804
 30
0.0
 10
39.52865240967566
 20
17.78135388102805
 30
0.0
 10
39.47745292362258
 20
17.78135388102805
 30
0.0
 10
39.39783476716568
 20
17.78135388102805
 30
0.0
  0
SPLINE
  5
17A
330
1F
100
AcDbEntity
  8
0
  6
Continuous
 62
     7
370
    25
100
AcDbSpline
210
0.0
220
0.0
230
1.0
 70
     8
 71
     3
 72
     8
 73
     4
 74
     0
 42
0.00000001
 43
0.00000001
 40
0.0
 40
0.0
 40
0.0
 40
0.0
 40
1.0
 40
1.0
 40
1.0
 40
1.0
 10
56.79362287238346
 20
31.28135388102805
 30
0.0
 10
56.89054660887599
 20
31.28135388102805
 30
0.0
 10
57.00355209696586
 20
31.32447643942364
 30
0.0
 10
57.11485714285717
 20
31.39246499213916
 30
0.0
  0
SPLINE
  5
17B
330
1F
100
AcDbEntity
  8
0
  6
Continuous
 62
     7
370
    25
100
AcDbSpline
210
0.0
220
0.0
230
1.0
 70
    24
 71
     3
 72
    10
 73
     6
 74
     0
 42
0.00000001
 43
0.00000001
 40
0.0
 40
0.0
 40
0.0
 40
0.0
 40
0.5
 40
0.5
 40
1.0
 40
1.0
 40
1.0
 40
1.0
 10
56.61485714285717
 20
31.28135388102925
 30
0.0
 10
56.61485714285717
 20
31.28135388102924
 30
0.0
 10
56.62907511257293
 20
31.28135388102805
 30
0.0
 10
56.68725162736391
 20
31.28135388102805
 30
0.0
 10
56.73057298470255
 20
31.28135388102805
 30
0.0
 10
56.79362287238346
 20
31.28135388102805
 30
0.0
  0
SPLINE
  5
17C
330
1F
100
AcDbEntity
  8
0
  6
Continuous
 62
     7
370
    25
100
AcDbSpline
210
0.0
220
0.0
230
1.0
 70
    24
 71
     3
 72
    10
 73
     6
 74
     0
 42
0.00000001
 43
0.00000001
 40
0.0
 40
0.0
 40
0.0
 40
0.0
 40
0.5
 40
0.5
 40
1.0
 40
1.0
 40
1.0
 40
1.0
 10
41.11485714285703
 20
32.78135388102804
 30
0.0
 10
41.11485714285704
 20
32.78135388102804
 30
0.0
 10
41.11485714285716
 20
32.79819889658197
 30
0.0
 10
41.11485714285717
 20
32.86755861420956
 30
0.0
 10
41.11485714285717
 20
32.91875810026264
 30
0.0
 10
41.11485714285717
 20
32.99837625671955
 30
0.0
  0
SPLINE
  5
17D
330
1F
100
AcDbEntity
  8
0
  6
Continuous
 62
     7
370
    25
100
AcDbSpline
210
0.0
220
0.0
230
1.0
 70
     8
 71
     3
 72
     8
 73
     4
 74
     0
 42
0.00000001
 43
0.00000001
 40
0.0
 40
0.0
 40
0.0
 40
0.0
 40
1.0
 40
1.0
 40
1.0
 40
1.0
 10
41.11485714285717
 20
32.99837625671967
 30
0.0
 10
41.11485714285717
 20
33.08650011417834
 30
0.0
 10
41.08358694925337
 20
33.18443758687735
 30
0.0
 10
41.03152380952383
 20
33.28135388102804
 30
0.0
  0
SPLINE
  5
17E
330
1F
100
AcDbEntity
  8
0
  6
Continuous
 62
     7
370
    25
100
AcDbSpline
210
0.0
220
0.0
230
1.0
 70
     8
 71
     3
 72
     8
 73
     4
 74
     0
 42
0.00000001
 43
0.00000001
 40
0.0
 40
0.0
 40
0.0
 40
0.0
 40
1.0
 40
1.0
 40
1.0
 40
1.0
 10
39.43609141333088
 20
31.28135388102805
 30
0.0
 10
39.33916767683835
 20
31.28135388102805
 30
0.0
 10
39.22616218874847
 20
31.32447643942364
 30
0.0
 10
39.11485714285717
 20
31.39246499213916
 30
0.0
  0
SPLINE
  5
17F
330
1F
100
AcDbEntity
  8
0
  6
Continuous
 62
     7
370
    25
100
AcDbSpline
210
0.0
220
0.0
230
1.0
 70
    24
 71
     3
 72
    10
 73
     6
 74
     0
 42
0.00000001
 43
0.00000001
 40
0.0
 40
0.0
 40
0.0
 40
0.0
 40
0.5
 40
0.5
 40
1.0
 40
1.0
 40
1.0
 40
1.0
 10
39.43609141333088
 20
31.28135388102805
 30
0.0
 10
39.49914143586602
 20
31.28135388102805
 30
0.0
 10
39.54244866017189
 20
31.28135388102805
 30
0.0
 10
39.60063983583415
 20
31.28135388102805
 30
0.0
 10
39.61485714285717
 20
31.28135388102805
 30
0.0
 10
39.61485714285717
 20
31.28135388102805
 30
0.0
  0
SPLINE
  5
180
330
1F
100
AcDbEntity
  8
0
  6
Continuous
 62
     7
370
    25
100
AcDbSpline
210
0.0
220
0.0
230
1.0
 70
     8
 71
     3
 72
     8
 73
     4
 74
     0
 42
0.00000001
 43
0.00000001
 40
0.0
 40
0.0
 40
0.0
 40
0.0
 40
1.0
 40
1.0
 40
1.0
 40
1.0
 10
56.83187951854877
 20
17.78135388102805
 30
0.0
 10
56.92000337600745
 20
17.78135388102805
 30
0.0
 10
57.0179408487095
 20
17.75008368742599
 30
0.0
 10
57.11485714285717
 20
17.69802054769471
 30
0.0
  0
SPLINE
  5
181
330
1F
100
AcDbEntity
  8
0
  6
Continuous
 62
     7
370
    25
100
AcDbSpline
210
0.0
220
0.0
230
1.0
 70
    24
 71
     3
 72
    10
 73
     6
 74
     0
 42
0.00000001
 43
0.00000001
 40
0.0
 40
0.0
 40
0.0
 40
0.0
 40
0.5
 40
0.5
 40
1.0
 40
1.0
 40
1.0
 40
1.0
 10
56.83187951854877
 20
17.78135388102805
 30
0.0
 10
56.75254235612722
 20
17.78135388102805
 30
0.0
 10
56.70104704761625
 20
17.78135388102804
 30
0.0
 10
56.63194470633071
 20
17.78135388102805
 30
0.0
 10
56.61485714285721
 20
17.78135388102805
 30
0.0
 10
56.61485714285717
 20
17.78135388102805
 30
0.0
  0
ARC
  5
182
330
1F
100
AcDbEntity
  8
0
  6
Continuous
 62
     7
370
    25
100
AcDbCircle
 10
40.6530515873
 20
32.3271872144
 30
0.0
 40
0.4640744181555272
100
AcDbArc
 50
265.279079151
 51
354.3320630335
  0
LINE
  5
183
330
1F
100
AcDbEntity
  8
0
  6
Continuous
 62
     7
370
    25
100
AcDbLine
 10
40.1148571429
 20
31.3924649921
 30
0.0
 11
40.1148571429
 21
31.281353881
 31
0.0
  0
ARC
  5
184
330
1F
100
AcDbEntity
  8
0
  6
Continuous
 62
     7
370
    25
100
AcDbCircle
 10
55.5766626984
 20
32.3271872144
 30
0.0
 40
0.4640744181555661
100
AcDbArc
 50
185.6679369665
 51
274.720920849
  0
LINE
  5
185
330
1F
100
AcDbEntity
  8
0
  6
Continuous
 62
     7
370
    25
100
AcDbLine
 10
56.1148571429
 20
31.281353881
 30
0.0
 11
56.1148571429
 21
31.3924649921
 31
0.0
  0
ARC
  5
186
330
1F
100
AcDbEntity
  8
0
  6
Continuous
 62
     7
370
    25
100
AcDbCircle
 10
55.8162568966
 20
32.4827536348
 30
0.0
 40
0.6500522754721766
100
AcDbArc
 50
198.0484348985
 51
251.9515651015
  0
LINE
  5
187
330
1F
100
AcDbEntity
  8
0
  6
Continuous
 62
     7
370
    25
100
AcDbLine
 10
55.1981904762
 20
32.281353881
 30
0.0
 11
55.1148571429
 21
32.281353881
 31
0.0
  0
ARC
  5
188
330
1F
100
AcDbEntity
  8
0
  6
Continuous
 62
     7
370
    25
100
AcDbCircle
 10
40.4134573891
 20
32.4827536348
 30
0.0
 40
0.6500522754721519
100
AcDbArc
 50
288.0484348985
 51
341.9515651015
  0
LINE
  5
189
330
1F
100
AcDbEntity
  8
0
  6
Continuous
 62
     7
370
    25
100
AcDbLine
 10
41.1148571429
 20
32.281353881
 30
0.0
 11
41.0315238095
 21
32.281353881
 31
0.0
  0
LINE
  5
18A
330
1F
100
AcDbEntity
  8
0
  6
Continuous
 62
     7
370
    25
100
AcDbLine
 10
82.8961293921
 20
36.531353881
 30
0.0
 11
82.8961293921
 21
36.0841210354
 31
0.0
  0
LINE
  5
18B
330
1F
100
AcDbEntity
  8
0
  6
Continuous
 62
     7
370
    25
100
AcDbLine
 10
82.8961293921
 20
13.4785867267
 30
0.0
 11
82.8961293921
 21
13.031353881
 31
0.0
  0
LINE
  5
18C
330
1F
100
AcDbEntity
  8
0
  6
Continuous
 62
     7
370
    25
100
AcDbLine
 10
81.8135976374
 20
12.406353881
 30
0.0
 11
81.8135976374
 21
12.8773757078
 31
0.0
  0
LINE
  5
18D
330
1F
100
AcDbEntity
  8
0
  6
Continuous
 62
     7
370
    25
100
AcDbLine
 10
81.8135976374
 20
36.6853320542
 30
0.0
 11
81.8135976374
 21
37.156353881
 31
0.0
  0
LINE
  5
18E
330
1F
100
AcDbEntity
  8
0
  6
Continuous
 62
     7
370
    25
100
AcDbLine
 10
13.3335848936
 20
36.0841210354
 30
0.0
 11
13.3335848936
 21
36.531353881
 31
0.0
  0
LINE
  5
18F
330
1F
100
AcDbEntity
  8
0
  6
Continuous
 62
     7
370
    25
100
AcDbLine
 10
13.3335848936
 20
13.031353881
 30
0.0
 11
13.3335848936
 21
13.4785867267
 31
0.0
  0
LINE
  5
190
330
1F
100
AcDbEntity
  8
0
  6
Continuous
 62
     7
370
    25
100
AcDbLine
 10
14.4161166483
 20
12.8773757078
 30
0.0
 11
14.4161166483
 21
12.406353881
 31
0.0
  0
LINE
  5
191
330
1F
100
AcDbEntity
  8
0
  6
Continuous
 62
     7
370
    25
100
AcDbLine
 10
14.4161166483
 20
37.156353881
 30
0.0
 11
14.4161166483
 21
36.6853320542
 31
0.0
  0
LINE
  5
192
330
1F
100
AcDbEntity
  8
0
  6
Continuous
 62
     7
370
    25
100
AcDbLine
 10
36.3648571429
 20
59.5626261303
 30
0.0
 11
36.8120899885
 21
59.5626261303
 31
0.0
  0
LINE
  5
193
330
1F
100
AcDbEntity
  8
0
  6
Continuous
 62
     7
370
    25
100
AcDbLine
 10
59.4176242972
 20
59.5626261303
 30
0.0
 11
59.8648571429
 21
59.5626261303
 31
0.0
  0
LINE
  5
194
330
1F
100
AcDbEntity
  8
0
  6
Continuous
 62
     7
370
    25
100
AcDbLine
 10
60.4898571429
 20
58.4800943756
 30
0.0
 11
60.0188353161
 21
58.4800943756
 31
0.0
  0
LINE
  5
195
330
1F
100
AcDbEntity
  8
0
  6
Continuous
 62
     7
370
    25
100
AcDbLine
 10
36.2108789696
 20
58.4800943756
 30
0.0
 11
35.7398571429
 21
58.4800943756
 31
0.0
  0
LINE
  5
196
330
1F
100
AcDbEntity
  8
0
  6
Continuous
 62
     7
370
    25
100
AcDbLine
 10
34.1148571429
 20
24.781353881
 30
0.0
 11
34.1148571429
 21
16.281353881
 31
0.0
  0
LINE
  5
197
330
1F
100
AcDbEntity
  8
0
  6
Continuous
 62
     7
370
    25
100
AcDbLine
 10
34.1148571429
 20
33.281353881
 30
0.0
 11
34.1148571429
 21
24.781353881
 31
0.0
  0
LINE
  5
198
330
1F
100
AcDbEntity
  8
0
  6
Continuous
 62
     7
370
    25
100
AcDbLine
 10
62.1148571429
 20
16.281353881
 30
0.0
 11
62.1148571429
 21
33.281353881
 31
0.0
  0
LINE
  5
199
330
1F
100
AcDbEntity
  8
0
  6
Continuous
 62
     7
370
    25
100
AcDbLine
 10
56.6148571429
 20
38.781353881
 30
0.0
 11
39.6148571429
 21
38.781353881
 31
0.0
  0
LINE
  5
19A
330
1F
100
AcDbEntity
  8
0
  6
Continuous
 62
     7
370
    25
100
AcDbLine
 10
57.1148571429
 20
33.281353881
 30
0.0
 11
55.6148571429
 21
31.8646872144
 31
0.0
  0
LINE
  5
19B
330
1F
100
AcDbEntity
  8
0
  6
Continuous
 62
     7
370
    25
100
AcDbLine
 10
40.6148571429
 20
31.8646872144
 30
0.0
 11
39.1148571429
 21
33.281353881
 31
0.0
  0
LINE
  5
19C
330
1F
100
AcDbEntity
  8
0
  6
Continuous
 62
     7
370
    25
100
AcDbLine
 10
39.6148571429
 20
33.781353881
 30
0.0
 11
41.0315238095
 21
32.281353881
 31
0.0
  0
LINE
  5
19D
330
1F
100
AcDbEntity
  8
0
  6
Continuous
 62
     7
370
    25
100
AcDbLine
 10
55.1981904762
 20
32.281353881
 30
0.0
 11
56.6148571429
 21
33.781353881
 31
0.0
  0
LINE
  5
19E
330
1F
100
AcDbEntity
  8
0
  6
CENTERX2
 62
     7
370
    18
100
AcDbLine
 10
86.4824631812
 20
24.781353881
 30
0.0
 11
9.184645814
 21
24.781353881
 31
0.0
  0
LINE
  5
19F
330
1F
100
AcDbEntity
  8
0
  6
CENTERX2
 62
     7
370
    18
100
AcDbLine
 10
48.1148571429
 20
64.681009876
 30
0.0
 11
48.1148571429
 21
12.7518594421
 31
0.0
  0
LINE
  5
1A0
330
1F
100
AcDbEntity
  8
0
  6
Continuous
 62
     7
370
    25
100
AcDbLine
 10
107.7070208918
 20
42.9852758611
 30
0.0
 11
107.9570208918
 21
42.8409382938
 31
0.0
  0
LINE
  5
1A1
330
1F
100
AcDbEntity
  8
0
  6
Continuous
 62
     7
370
    25
100
AcDbLine
 10
131.4570208918
 20
42.8409382938
 30
0.0
 11
131.7070208918
 21
42.9852758611
 31
0.0
  0
LINE
  5
1A2
330
1F
100
AcDbEntity
  8
0
  6
Continuous
 62
     7
370
    25
100
AcDbLine
 10
107.9570208918
 20
60.6409382938
 30
0.0
 11
107.9570208918
 21
59.4583875885
 31
0.0
  0
LINE
  5
1A3
330
1F
100
AcDbEntity
  8
0
  6
Continuous
 62
     7
370
    25
100
AcDbLine
 10
131.4570208918
 20
59.4583875886
 30
0.0
 11
131.4570208918
 21
60.6409382938
 31
0.0
  0
LINE
  5
1A4
330
1F
100
AcDbEntity
  8
0
  6
Continuous
 62
     7
370
    25
100
AcDbLine
 10
131.4570208918
 20
60.6409382938
 30
0.0
 11
131.2570208918
 21
60.8409382938
 31
0.0
  0
LINE
  5
1A5
330
1F
100
AcDbEntity
  8
0
  6
Continuous
 62
     7
370
    25
100
AcDbLine
 10
108.1570208918
 20
60.8409382938
 30
0.0
 11
107.9570208918
 21
60.6409382938
 31
0.0
  0
SPLINE
  5
1A6
330
1F
100
AcDbEntity
  8
0
  6
Continuous
 62
     7
370
    25
100
AcDbSpline
210
0.0
220
0.0
230
1.0
 70
     8
 71
     3
 72
    11
 73
     7
 74
     0
 42
0.00000001
 43
0.00000001
 40
0.0
 40
0.0
 40
0.0
 40
0.0
 40
0.1769772623484651
 40
0.4187967080926306
 40
0.7011043174879069
 40
1.0
 40
1.0
 40
1.0
 40
1.0
 10
131.7214788211278
 20
58.6841639658575
 30
0.0
 10
131.6947109060011
 20
58.71957141602921
 30
0.0
 10
131.6313676573329
 20
58.80335914885483
 30
0.0
 10
131.5417249466533
 20
58.98186831785404
 30
0.0
 10
131.4697365128704
 20
59.20652560110394
 30
0.0
 10
131.4623691881573
 20
59.37390321280773
 30
0.0
 10
131.4585803907106
 20
59.45998057366245
 30
0.0
  0
SPLINE
  5
1A7
330
1F
100
AcDbEntity
  8
0
  6
Continuous
 62
     7
370
    25
100
AcDbSpline
210
0.0
220
0.0
230
1.0
 70
     8
 71
     3
 72
    12
 73
     8
 74
     0
 42
0.00000001
 43
0.00000001
 40
0.0
 40
0.0
 40
0.0
 40
0.0
 40
0.0342184774093684
 40
0.3191232075154941
 40
0.5765694998992043
 40
0.8060603578314313
 40
0.9999999999999999
 40
0.9999999999999999
 40
0.9999999999999999
 40
0.9999999999999999
 10
107.9541252796618
 20
59.45652108688537
 30
0.0
 10
107.9551222741225
 20
59.44669356486882
 30
0.0
 10
107.9644202936211
 20
59.35504160998091
 30
0.0
 10
107.9338460060733
 20
59.18839067649586
 30
0.0
 10
107.8710406688259
 20
58.97762316210233
 30
0.0
 10
107.7826186597421
 20
58.80412477760385
 30
0.0
 10
107.7185055545838
 20
58.71752850627995
 30
0.0
 10
107.689140469476
 20
58.67786568116536
 30
0.0
  0
LINE
  5
1A8
330
1F
100
AcDbEntity
  8
0
  6
Continuous
 62
     7
370
    25
100
AcDbLine
 10
109.2295208918
 20
42.8409382938
 30
0.0
 11
109.2295208918
 21
39.8075758006
 31
0.0
  0
LINE
  5
1A9
330
1F
100
AcDbEntity
  8
0
  6
Continuous
 62
     7
370
    25
100
AcDbLine
 10
130.1845208918
 20
39.8075758006
 30
0.0
 11
130.1845208918
 21
42.8409382938
 31
0.0
  0
ARC
  5
1AA
330
1F
100
AcDbEntity
  8
0
  6
Continuous
 62
     7
370
    25
100
AcDbCircle
 10
109.4570208918
 20
40.781353881
 30
0.0
 40
1.000000000000005
100
AcDbArc
 50
256.8500691589
 51
270.0
  0
ARC
  5
1AB
330
1F
100
AcDbEntity
  8
0
  6
Continuous
 62
     7
370
    25
100
AcDbCircle
 10
129.9570208918
 20
40.781353881
 30
0.0
 40
1.000000000000005
100
AcDbArc
 50
270.0
 51
283.1499308411
  0
ARC
  5
1AC
330
1F
100
AcDbEntity
  8
0
  6
Continuous
 62
     7
370
    25
100
AcDbCircle
 10
110.2070208918
 20
38.781353881
 30
0.0
 40
1.0
100
AcDbArc
 50
0.0
 51
90.0
  0
ARC
  5
1AD
330
1F
100
AcDbEntity
  8
0
  6
Continuous
 62
     7
370
    25
100
AcDbCircle
 10
129.2070208918
 20
38.781353881
 30
0.0
 40
1.0
100
AcDbArc
 50
90.0
 51
180.0
  0
LINE
  5
1AE
330
1F
100
AcDbEntity
  8
0
  6
Continuous
 62
     7
370
    25
100
AcDbLine
 10
128.2070208918
 20
33.7302830535
 30
0.0
 11
128.2070208918
 21
38.781353881
 31
0.0
  0
LINE
  5
1AF
330
1F
100
AcDbEntity
  8
0
  6
Continuous
 62
     7
370
    25
100
AcDbLine
 10
111.2070208918
 20
38.781353881
 30
0.0
 11
111.2070208918
 21
33.7302830535
 31
0.0
  0
CIRCLE
  5
1B0
330
1F
100
AcDbEntity
  8
0
  6
Continuous
 62
     7
370
    25
100
AcDbCircle
 10
119.7070208918
 20
24.781353881
 30
0.0
 40
6.075000000000003
  0
CIRCLE
  5
1B1
330
1F
100
AcDbEntity
  8
0
  6
Continuous
 62
     7
370
    25
100
AcDbCircle
 10
119.7070208918
 20
24.781353881
 30
0.0
 40
6.175000000000011
  0
CIRCLE
  5
1B2
330
1F
100
AcDbEntity
  8
0
  6
Continuous
 62
     7
370
    25
100
AcDbCircle
 10
119.7070208918
 20
24.781353881
 30
0.0
 40
11.55000000000003
  0
CIRCLE
  5
1B3
330
1F
100
AcDbEntity
  8
0
  6
Continuous
 62
     7
370
    25
100
AcDbCircle
 10
119.7070208918
 20
24.781353881
 30
0.0
 40
11.75000000000001
  0
LINE
  5
1B4
330
1F
100
AcDbEntity
  8
0
  6
Continuous
 62
     7
370
    25
100
AcDbLine
 10
107.7070208918
 20
21.7580072254
 30
0.0
 11
108.3130814979
 21
21.910701501
 31
0.0
  0
SPLINE
  5
1B5
330
1F
100
AcDbEntity
  8
0
  6
Continuous
 62
     7
370
    25
100
AcDbSpline
210
0.0
220
0.0
230
1.0
 70
    24
 71
     3
 72
    10
 73
     6
 74
     0
 42
0.00000001
 43
0.00000001
 40
0.0
 40
0.0
 40
0.0
 40
0.0
 40
0.3910406133635748
 40
0.78696609495545
 40
1.0
 40
1.0
 40
1.0
 40
1.0
 10
107.7070208917929
 20
27.80470053664004
 30
0.0
 10
107.7070208917929
 20
27.0183461025114
 30
0.0
 10
107.7070208917929
 20
25.4358141170121
 30
0.0
 10
107.7070208917929
 20
23.40715925078792
 30
0.0
 10
107.7070208917929
 20
22.18541374993725
 30
0.0
 10
107.7070208917929
 20
21.75800722541606
 30
0.0
  0
LINE
  5
1B6
330
1F
100
AcDbEntity
  8
0
  6
Continuous
 62
     7
370
    25
100
AcDbLine
 10
108.3130814979
 20
27.6520062611
 30
0.0
 11
107.7070208918
 21
27.8047005366
 31
0.0
  0
SPLINE
  5
1B7
330
1F
100
AcDbEntity
  8
0
  6
Continuous
 62
     7
370
    25
100
AcDbSpline
210
0.0
220
0.0
230
1.0
 70
    24
 71
     3
 72
    10
 73
     6
 74
     0
 42
0.00000001
 43
0.00000001
 40
0.0
 40
0.0
 40
0.0
 40
0.0
 40
0.2896830214237568
 40
0.5812913727325414
 40
0.9999999999999999
 40
0.9999999999999999
 40
0.9999999999999999
 40
0.9999999999999999
 10
123.0887258835862
 20
12.8773757078088
 30
0.0
 10
123.5925438570291
 20
13.16825515039861
 30
0.0
 10
124.6035283460424
 20
13.75194731727698
 30
0.0
 10
126.358268030543
 20
14.76504674648111
 30
0.0
 10
127.5958196787211
 20
15.47954752369285
 30
0.0
 10
128.3253158999995
 20
15.90072236342075
 30
0.0
  0
LINE
  5
1B8
330
1F
100
AcDbEntity
  8
0
  6
Continuous
 62
     7
370
    25
100
AcDbLine
 10
123.0887258836
 20
12.8773757078
 30
0.0
 11
122.9179327022
 21
13.4785867267
 31
0.0
  0
LINE
  5
1B9
330
1F
100
AcDbEntity
  8
0
  6
Continuous
 62
     7
370
    25
100
AcDbLine
 10
128.3253159
 20
15.9007223634
 30
0.0
 11
127.8900484753
 21
16.3492391067
 31
0.0
  0
SPLINE
  5
1BA
330
1F
100
AcDbEntity
  8
0
  6
Continuous
 62
     7
370
    25
100
AcDbSpline
210
0.0
220
0.0
230
1.0
 70
    24
 71
     3
 72
    10
 73
     6
 74
     0
 42
0.00000001
 43
0.00000001
 40
0.0
 40
0.0
 40
0.0
 40
0.0
 40
0.2896830214237577
 40
0.5812913727325432
 40
1.0
 40
1.0
 40
1.0
 40
1.0
 10
111.0887258835862
 20
15.90072236342074
 30
0.0
 10
111.5925438570291
 20
15.60984292083094
 30
0.0
 10
112.6035283460424
 20
15.02615075395257
 30
0.0
 10
114.358268030543
 20
14.01305132474844
 30
0.0
 10
115.5958196787211
 20
13.29855054753671
 30
0.0
 10
116.3253158999996
 20
12.87737570780881
 30
0.0
  0
LINE
  5
1BB
330
1F
100
AcDbEntity
  8
0
  6
Continuous
 62
     7
370
    25
100
AcDbLine
 10
111.0887258836
 20
15.9007223634
 30
0.0
 11
111.5239933082
 21
16.3492391067
 31
0.0
  0
LINE
  5
1BC
330
1F
100
AcDbEntity
  8
0
  6
Continuous
 62
     7
370
    25
100
AcDbLine
 10
116.3253159
 20
12.8773757078
 30
0.0
 11
116.4961090814
 21
13.4785867267
 31
0.0
  0
LINE
  5
1BD
330
1F
100
AcDbEntity
  8
0
  6
Continuous
 62
     7
370
    25
100
AcDbLine
 10
122.9179327022
 20
36.0841210354
 30
0.0
 11
123.0887258836
 21
36.6853320542
 31
0.0
  0
SPLINE
  5
1BE
330
1F
100
AcDbEntity
  8
0
  6
Continuous
 62
     7
370
    25
100
AcDbSpline
210
0.0
220
0.0
230
1.0
 70
    24
 71
     3
 72
    10
 73
     6
 74
     0
 42
0.00000001
 43
0.00000001
 40
0.0
 40
0.0
 40
0.0
 40
0.0
 40
0.2896830214237572
 40
0.5812913727325419
 40
1.0
 40
1.0
 40
1.0
 40
1.0
 10
128.3253158999996
 20
33.66198539863534
 30
0.0
 10
127.8214979265567
 20
33.95286484122514
 30
0.0
 10
126.8105134375434
 20
34.53655700810351
 30
0.0
 10
125.0557737530428
 20
35.54965643730765
 30
0.0
 10
123.8182221048646
 20
36.26415721451939
 30
0.0
 10
123.0887258835862
 20
36.68533205424729
 30
0.0
  0
LINE
  5
1BF
330
1F
100
AcDbEntity
  8
0
  6
Continuous
 62
     7
370
    25
100
AcDbLine
 10
127.8900484753
 20
33.2134686553
 30
0.0
 11
128.3253159
 21
33.6619853986
 31
0.0
  0
LINE
  5
1C0
330
1F
100
AcDbEntity
  8
0
  6
Continuous
 62
     7
370
    25
100
AcDbLine
 10
111.5239933082
 20
33.2134686553
 30
0.0
 11
111.0887258836
 21
33.6619853986
 31
0.0
  0
SPLINE
  5
1C1
330
1F
100
AcDbEntity
  8
0
  6
Continuous
 62
     7
370
    25
100
AcDbSpline
210
0.0
220
0.0
230
1.0
 70
    24
 71
     3
 72
    10
 73
     6
 74
     0
 42
0.00000001
 43
0.00000001
 40
0.0
 40
0.0
 40
0.0
 40
0.0
 40
0.2896830214237568
 40
0.581291372732541
 40
1.0
 40
1.0
 40
1.0
 40
1.0
 10
116.3253158999996
 20
36.68533205424729
 30
0.0
 10
115.8214979265567
 20
36.39445261165748
 30
0.0
 10
114.8105134375434
 20
35.81076044477912
 30
0.0
 10
113.0557737530428
 20
34.79766101557497
 30
0.0
 10
111.8182221048646
 20
34.08316023836324
 30
0.0
 10
111.0887258835862
 20
33.66198539863534
 30
0.0
  0
LINE
  5
1C2
330
1F
100
AcDbEntity
  8
0
  6
Continuous
 62
     7
370
    25
100
AcDbLine
 10
116.4961090814
 20
36.0841210354
 30
0.0
 11
116.3253159
 21
36.6853320542
 31
0.0
  0
LINE
  5
1C3
330
1F
100
AcDbEntity
  8
0
  6
Continuous
 62
     7
370
    25
100
AcDbLine
 10
131.1009602857
 20
27.6520062611
 30
0.0
 11
131.7070208918
 21
27.8047005366
 31
0.0
  0
SPLINE
  5
1C4
330
1F
100
AcDbEntity
  8
0
  6
Continuous
 62
     7
370
    25
100
AcDbSpline
210
0.0
220
0.0
230
1.0
 70
    24
 71
     3
 72
    10
 73
     6
 74
     0
 42
0.00000001
 43
0.00000001
 40
0.0
 40
0.0
 40
0.0
 40
0.0
 40
0.2130338126352573
 40
0.6040068415968868
 40
1.0
 40
1.0
 40
1.0
 40
1.0
 10
131.7070208917929
 20
21.75800722541609
 30
0.0
 10
131.7070208917929
 20
22.18541411481682
 30
0.0
 10
131.7070208917929
 20
23.39722496376259
 30
0.0
 10
131.7070208917929
 20
25.42568592634305
 30
0.0
 10
131.7070208917929
 20
27.00833038851192
 30
0.0
 10
131.7070208917929
 20
27.80470053664
 30
0.0
  0
LINE
  5
1C5
330
1F
100
AcDbEntity
  8
0
  6
Continuous
 62
     7
370
    25
100
AcDbLine
 10
131.7070208918
 20
21.7580072254
 30
0.0
 11
131.1009602857
 21
21.910701501
 31
0.0
  0
ARC
  5
1C6
330
1F
100
AcDbEntity
  8
0
  6
Continuous
 62
     7
370
    25
100
AcDbCircle
 10
119.7070208918
 20
24.781353881
 30
0.0
 40
12.375
100
AcDbArc
 50
74.1411102339
 51
105.8588897661
  0
ARC
  5
1C7
330
1F
100
AcDbEntity
  8
0
  6
Continuous
 62
     7
370
    25
100
AcDbCircle
 10
119.7070208918
 20
24.781353881
 30
0.0
 40
12.375
100
AcDbArc
 50
14.1411102339
 51
45.8588897661
  0
ARC
  5
1C8
330
1F
100
AcDbEntity
  8
0
  6
Continuous
 62
     7
370
    25
100
AcDbCircle
 10
119.7070208918
 20
24.781353881
 30
0.0
 40
12.37500000000001
100
AcDbArc
 50
254.1411102339
 51
285.8588897661
  0
ARC
  5
1C9
330
1F
100
AcDbEntity
  8
0
  6
Continuous
 62
     7
370
    25
100
AcDbCircle
 10
119.7070208918
 20
24.781353881
 30
0.0
 40
12.37500000000001
100
AcDbArc
 50
134.1411102339
 51
165.8588897661
  0
ARC
  5
1CA
330
1F
100
AcDbEntity
  8
0
  6
Continuous
 62
     7
370
    25
100
AcDbCircle
 10
119.7070208918
 20
24.781353881
 30
0.0
 40
12.37500000000001
100
AcDbArc
 50
194.1411102339
 51
225.8588897661
  0
ARC
  5
1CB
330
1F
100
AcDbEntity
  8
0
  6
Continuous
 62
     7
370
    25
100
AcDbCircle
 10
119.7070208918
 20
24.781353881
 30
0.0
 40
12.375
100
AcDbArc
 50
314.1411102339
 51
345.8588897661
  0
SPLINE
  5
1CC
330
1F
100
AcDbEntity
  8
0
  6
Continuous
 62
     7
370
    25
100
AcDbSpline
210
0.0
220
0.0
230
1.0
 70
    24
 71
     3
 72
     9
 73
     5
 74
     0
 42
0.00000001
 43
0.00000001
 40
0.0
 40
0.0
 40
0.0
 40
0.0
 40
0.4986680494787148
 40
1.0
 40
1.0
 40
1.0
 40
1.0
 10
123.0887258835862
 20
36.68533205424729
 30
0.0
 10
122.5200947291795
 20
37.01363140431359
 30
0.0
 10
121.3797947741271
 20
37.67198389032004
 30
0.0
 10
120.2656015527323
 20
38.31526364662157
 30
0.0
 10
119.7070208917929
 20
38.63776034157907
 30
0.0
  0
SPLINE
  5
1CD
330
1F
100
AcDbEntity
  8
0
  6
Continuous
 62
     7
370
    25
100
AcDbSpline
210
0.0
220
0.0
230
1.0
 70
    24
 71
     3
 72
     9
 73
     5
 74
     0
 42
0.00000001
 43
0.00000001
 40
0.0
 40
0.0
 40
0.0
 40
0.0
 40
0.498847038423143
 40
1.0
 40
1.0
 40
1.0
 40
1.0
 10
119.7070208917929
 20
38.63776034157907
 30
0.0
 10
119.1512225540097
 20
38.31687002164482
 30
0.0
 10
118.037056697598
 20
37.67360606452363
 30
0.0
 10
116.8967726350063
 20
37.01526275403366
 30
0.0
 10
116.3253158999996
 20
36.68533205424729
 30
0.0
  0
SPLINE
  5
1CE
330
1F
100
AcDbEntity
  8
0
  6
Continuous
 62
     7
370
    25
100
AcDbSpline
210
0.0
220
0.0
230
1.0
 70
    24
 71
     3
 72
     9
 73
     5
 74
     0
 42
0.00000001
 43
0.00000001
 40
0.0
 40
0.0
 40
0.0
 40
0.0
 40
0.498668049478715
 40
0.9999999999999999
 40
0.9999999999999999
 40
0.9999999999999999
 40
0.9999999999999999
 10
116.3253158999996
 20
12.87737570780881
 30
0.0
 10
116.8939470544062
 20
12.54907635774251
 30
0.0
 10
118.0342470094587
 20
11.89072387173606
 30
0.0
 10
119.1484402308534
 20
11.24744411543453
 30
0.0
 10
119.7070208917929
 20
10.92494742047702
 30
0.0
  0
SPLINE
  5
1CF
330
1F
100
AcDbEntity
  8
0
  6
Continuous
 62
     7
370
    25
100
AcDbSpline
210
0.0
220
0.0
230
1.0
 70
    24
 71
     3
 72
     9
 73
     5
 74
     0
 42
0.00000001
 43
0.00000001
 40
0.0
 40
0.0
 40
0.0
 40
0.0
 40
0.4988470384231428
 40
1.0
 40
1.0
 40
1.0
 40
1.0
 10
119.7070208917929
 20
10.92494742047702
 30
0.0
 10
120.2628192295761
 20
11.24583774041127
 30
0.0
 10
121.3769850859877
 20
11.88910169753246
 30
0.0
 10
122.5172691485795
 20
12.54744500802243
 30
0.0
 10
123.0887258835862
 20
12.8773757078088
 30
0.0
  0
SPLINE
  5
1D0
330
1F
100
AcDbEntity
  8
0
  6
Continuous
 62
     7
370
    25
100
AcDbSpline
210
0.0
220
0.0
230
1.0
 70
    24
 71
     3
 72
     9
 73
     5
 74
     0
 42
0.00000001
 43
0.00000001
 40
0.0
 40
0.0
 40
0.0
 40
0.0
 40
0.498847038423143
 40
1.0
 40
1.0
 40
1.0
 40
1.0
 10
107.7070208917929
 20
17.85315065075253
 30
0.0
 10
108.2628192295761
 20
17.53226033081827
 30
0.0
 10
109.3769850859877
 20
16.8889963736971
 30
0.0
 10
110.5172691485795
 20
16.23065306320711
 30
0.0
 10
111.0887258835862
 20
15.90072236342074
 30
0.0
  0
SPLINE
  5
1D1
330
1F
100
AcDbEntity
  8
0
  6
Continuous
 62
     7
370
    25
100
AcDbSpline
210
0.0
220
0.0
230
1.0
 70
    24
 71
     3
 72
     9
 73
     5
 74
     0
 42
0.00000001
 43
0.00000001
 40
0.0
 40
0.0
 40
0.0
 40
0.0
 40
0.4986680494787147
 40
1.0
 40
1.0
 40
1.0
 40
1.0
 10
107.7070208917929
 20
21.75800722541606
 30
0.0
 10
107.7070208917929
 20
21.10140852528346
 30
0.0
 10
107.7070208917929
 20
19.78470355327057
 30
0.0
 10
107.7070208917929
 20
18.49814404066753
 30
0.0
 10
107.7070208917929
 20
17.85315065075253
 30
0.0
  0
SPLINE
  5
1D2
330
1F
100
AcDbEntity
  8
0
  6
Continuous
 62
     7
370
    25
100
AcDbSpline
210
0.0
220
0.0
230
1.0
 70
    24
 71
     3
 72
     9
 73
     5
 74
     0
 42
0.00000001
 43
0.00000001
 40
0.0
 40
0.0
 40
0.0
 40
0.0
 40
0.5939658769315151
 40
1.0
 40
1.0
 40
1.0
 40
1.0
 10
131.7070208917929
 20
27.80470053664
 30
0.0
 10
131.7070208917929
 20
28.58634372458951
 30
0.0
 10
131.7070208917929
 20
29.90231694511786
 30
0.0
 10
131.7070208917929
 20
31.18766282437834
 30
0.0
 10
131.7070208917929
 20
31.70955711130356
 30
0.0
  0
SPLINE
  5
1D3
330
1F
100
AcDbEntity
  8
0
  6
Continuous
 62
     7
370
    25
100
AcDbSpline
210
0.0
220
0.0
230
1.0
 70
    24
 71
     3
 72
     9
 73
     5
 74
     0
 42
0.00000001
 43
0.00000001
 40
0.0
 40
0.0
 40
0.0
 40
0.0
 40
0.4988470384231431
 40
1.0
 40
1.0
 40
1.0
 40
1.0
 10
131.7070208917929
 20
31.70955711130356
 30
0.0
 10
131.1512225540097
 20
32.0304474312378
 30
0.0
 10
130.037056697598
 20
32.67371138835899
 30
0.0
 10
128.8967726350063
 20
33.33205469884897
 30
0.0
 10
128.3253158999996
 20
33.66198539863534
 30
0.0
  0
SPLINE
  5
1D4
330
1F
100
AcDbEntity
  8
0
  6
Continuous
 62
     7
370
    25
100
AcDbSpline
210
0.0
220
0.0
230
1.0
 70
    24
 71
     3
 72
     9
 73
     5
 74
     0
 42
0.00000001
 43
0.00000001
 40
0.0
 40
0.0
 40
0.0
 40
0.0
 40
0.4988470384231428
 40
1.0
 40
1.0
 40
1.0
 40
1.0
 10
131.7070208917929
 20
17.85315065075253
 30
0.0
 10
131.7070208917929
 20
18.49493129062103
 30
0.0
 10
131.7070208917929
 20
19.78145920486339
 30
0.0
 10
131.7070208917929
 20
21.09814582584336
 30
0.0
 10
131.7070208917929
 20
21.75800722541609
 30
0.0
  0
SPLINE
  5
1D5
330
1F
100
AcDbEntity
  8
0
  6
Continuous
 62
     7
370
    25
100
AcDbSpline
210
0.0
220
0.0
230
1.0
 70
    24
 71
     3
 72
     9
 73
     5
 74
     0
 42
0.00000001
 43
0.00000001
 40
0.0
 40
0.0
 40
0.0
 40
0.0
 40
0.4986680494787146
 40
1.0
 40
1.0
 40
1.0
 40
1.0
 10
128.3253158999995
 20
15.90072236342075
 30
0.0
 10
128.8939470544062
 20
16.22902171348705
 30
0.0
 10
130.0342470094587
 20
16.8873741994935
 30
0.0
 10
131.1484402308535
 20
17.53065395579503
 30
0.0
 10
131.7070208917929
 20
17.85315065075253
 30
0.0
  0
SPLINE
  5
1D6
330
1F
100
AcDbEntity
  8
0
  6
Continuous
 62
     7
370
    25
100
AcDbSpline
210
0.0
220
0.0
230
1.0
 70
    24
 71
     3
 72
     9
 73
     5
 74
     0
 42
0.00000001
 43
0.00000001
 40
0.0
 40
0.0
 40
0.0
 40
0.0
 40
0.4986680494787148
 40
1.0
 40
1.0
 40
1.0
 40
1.0
 10
111.0887258835862
 20
33.66198539863534
 30
0.0
 10
110.5200947291795
 20
33.33368604856904
 30
0.0
 10
109.3797947741271
 20
32.67533356256259
 30
0.0
 10
108.2656015527323
 20
32.03205380626106
 30
0.0
 10
107.7070208917929
 20
31.70955711130356
 30
0.0
  0
SPLINE
  5
1D7
330
1F
100
AcDbEntity
  8
0
  6
Continuous
 62
     7
370
    25
100
AcDbSpline
210
0.0
220
0.0
230
1.0
 70
    24
 71
     3
 72
     9
 73
     5
 74
     0
 42
0.00000001
 43
0.00000001
 40
0.0
 40
0.0
 40
0.0
 40
0.0
 40
0.4060341230684889
 40
1.0
 40
1.0
 40
1.0
 40
1.0
 10
107.7070208917929
 20
31.70955711130356
 30
0.0
 10
107.7070208917929
 20
31.18766282437834
 30
0.0
 10
107.7070208917929
 20
29.90231694511787
 30
0.0
 10
107.7070208917929
 20
28.58634372458954
 30
0.0
 10
107.7070208917929
 20
27.80470053664004
 30
0.0
  0
SPLINE
  5
1D8
330
1F
100
AcDbEntity
  8
0
  6
Continuous
 62
     7
370
    25
100
AcDbSpline
210
0.0
220
0.0
230
1.0
 70
     8
 71
     3
 72
    10
 73
     6
 74
     0
 42
0.00000001
 43
0.00000001
 40
0.0
 40
0.0
 40
0.0
 40
0.0
 40
0.2896830214237571
 40
0.5812913727325417
 40
0.9999999999999999
 40
0.9999999999999999
 40
0.9999999999999999
 40
0.9999999999999999
 10
111.0887258835862
 20
58.48009437556534
 30
0.0
 10
111.5925438570291
 20
58.54869640778389
 30
0.0
 10
112.6035283460424
 20
58.68635642418585
 30
0.0
 10
114.358268030543
 20
58.72696027562008
 30
0.0
 10
115.5958196787212
 20
58.5716466677331
 30
0.0
 10
116.3253158999996
 20
58.48009437556535
 30
0.0
  0
SPLINE
  5
1D9
330
1F
100
AcDbEntity
  8
0
  6
Continuous
 62
     7
370
    25
100
AcDbSpline
210
0.0
220
0.0
230
1.0
 70
     8
 71
     3
 72
     9
 73
     5
 74
     0
 42
0.00000001
 43
0.00000001
 40
0.0
 40
0.0
 40
0.0
 40
0.0
 40
0.4986680494787148
 40
1.0
 40
1.0
 40
1.0
 40
1.0
 10
116.3253158999996
 20
58.48009437556535
 30
0.0
 10
116.8939470544062
 20
58.37228748498105
 30
0.0
 10
118.0342470094587
 20
58.15609779587426
 30
0.0
 10
119.1484402308535
 20
57.80221613838817
 30
0.0
 10
119.7070208917929
 20
57.62480395678697
 30
0.0
  0
LINE
  5
1DA
330
1F
100
AcDbEntity
  8
0
  6
Continuous
 62
     7
370
    25
100
AcDbLine
 10
119.7070208918
 20
57.6248039568
 30
0.0
 11
119.7070208918
 21
44.0570726308
 31
0.0
  0
SPLINE
  5
1DB
330
1F
100
AcDbEntity
  8
0
  6
Continuous
 62
     7
370
    25
100
AcDbSpline
210
0.0
220
0.0
230
1.0
 70
     8
 71
     3
 72
    15
 73
    11
 74
     0
 42
0.00000001
 43
0.00000001
 40
0.0
 40
0.0
 40
0.0
 40
0.0
 40
0.1323065044264401
 40
0.2645755999739297
 40
0.399803678967109
 40
0.5350073556765891
 40
0.650196947540502
 40
0.7654045076453764
 40
0.8826909144168967
 40
1.0
 40
1.0
 40
1.0
 40
1.0
 10
119.7070208917929
 20
44.05707263083075
 30
0.0
 10
119.1885681625844
 20
43.89391354891303
 30
0.0
 10
118.1518092935999
 20
43.56764151733973
 30
0.0
 10
116.5552918483295
 20
43.21658681431982
 30
0.0
 10
114.9286794366497
 20
43.0055100287907
 30
0.0
 10
113.3609986952626
 20
42.96371271850511
 30
0.0
 10
111.8780225013027
 20
43.07217135120587
 30
0.0
 10
110.4784691418773
 20
43.29439726026673
 30
0.0
 10
109.085243725634
 20
43.62037503355303
 30
0.0
 10
108.1664581100159
 20
43.91149738394649
 30
0.0
 10
107.7070208917929
 20
44.05707263083075
 30
0.0
  0
LINE
  5
1DC
330
1F
100
AcDbEntity
  8
0
  6
Continuous
 62
     7
370
    25
100
AcDbLine
 10
107.7070208918
 20
57.6248039568
 30
0.0
 11
107.7070208918
 21
44.0570726308
 31
0.0
  0
SPLINE
  5
1DD
330
1F
100
AcDbEntity
  8
0
  6
Continuous
 62
     7
370
    25
100
AcDbSpline
210
0.0
220
0.0
230
1.0
 70
     8
 71
     3
 72
     9
 73
     5
 74
     0
 42
0.00000001
 43
0.00000001
 40
0.0
 40
0.0
 40
0.0
 40
0.0
 40
0.4988470384231429
 40
1.0
 40
1.0
 40
1.0
 40
1.0
 10
107.7070208917929
 20
57.62480395678697
 30
0.0
 10
108.2628192295761
 20
57.80137995712549
 30
0.0
 10
109.3769850859877
 20
58.1553481813264
 30
0.0
 10
110.5172691485795
 20
58.37167936312537
 30
0.0
 10
111.0887258835862
 20
58.48009437556534
 30
0.0
  0
SPLINE
  5
1DE
330
1F
100
AcDbEntity
  8
0
  6
Continuous
 62
     7
370
    25
100
AcDbSpline
210
0.0
220
0.0
230
1.0
 70
     8
 71
     3
 72
    10
 73
     6
 74
     0
 42
0.00000001
 43
0.00000001
 40
0.0
 40
0.0
 40
0.0
 40
0.0
 40
0.2896830214237566
 40
0.5812913727325407
 40
1.0
 40
1.0
 40
1.0
 40
1.0
 10
123.0887258835862
 20
58.48009437556535
 30
0.0
 10
123.5925438570291
 20
58.5486964077839
 30
0.0
 10
124.6035283460424
 20
58.68635642418586
 30
0.0
 10
126.358268030543
 20
58.72696027562007
 30
0.0
 10
127.5958196787212
 20
58.57164666773308
 30
0.0
 10
128.3253158999996
 20
58.48009437556534
 30
0.0
  0
SPLINE
  5
1DF
330
1F
100
AcDbEntity
  8
0
  6
Continuous
 62
     7
370
    25
100
AcDbSpline
210
0.0
220
0.0
230
1.0
 70
     8
 71
     3
 72
     9
 73
     5
 74
     0
 42
0.00000001
 43
0.00000001
 40
0.0
 40
0.0
 40
0.0
 40
0.0
 40
0.4986680494787149
 40
1.0
 40
1.0
 40
1.0
 40
1.0
 10
128.3253158999996
 20
58.48009437556534
 30
0.0
 10
128.8939470544062
 20
58.37228748498104
 30
0.0
 10
130.0342470094587
 20
58.15609779587426
 30
0.0
 10
131.1484402308535
 20
57.80221613838818
 30
0.0
 10
131.7070208917929
 20
57.62480395678697
 30
0.0
  0
LINE
  5
1E0
330
1F
100
AcDbEntity
  8
0
  6
Continuous
 62
     7
370
    25
100
AcDbLine
 10
131.7070208918
 20
57.6248039568
 30
0.0
 11
131.7070208918
 21
44.0570726308
 31
0.0
  0
SPLINE
  5
1E1
330
1F
100
AcDbEntity
  8
0
  6
Continuous
 62
     7
370
    25
100
AcDbSpline
210
0.0
220
0.0
230
1.0
 70
     8
 71
     3
 72
    15
 73
    11
 74
     0
 42
0.00000001
 43
0.00000001
 40
0.0
 40
0.0
 40
0.0
 40
0.0
 40
0.1323065044264402
 40
0.2645755999739297
 40
0.3998036789671091
 40
0.5350073556765892
 40
0.650196947540502
 40
0.7654045076453766
 40
0.8826909144168967
 40
1.0
 40
1.0
 40
1.0
 40
1.0
 10
131.7070208917929
 20
44.05707263083075
 30
0.0
 10
131.1885681625844
 20
43.89391354891302
 30
0.0
 10
130.1518092935999
 20
43.56764151733972
 30
0.0
 10
128.5552918483295
 20
43.21658681431982
 30
0.0
 10
126.9286794366496
 20
43.00551002879069
 30
0.0
 10
125.3609986952626
 20
42.96371271850511
 30
0.0
 10
123.8780225013027
 20
43.07217135120588
 30
0.0
 10
122.4784691418773
 20
43.29439726026673
 30
0.0
 10
121.085243725634
 20
43.62037503355303
 30
0.0
 10
120.1664581100159
 20
43.9114973839465
 30
0.0
 10
119.7070208917929
 20
44.05707263083075
 30
0.0
  0
SPLINE
  5
1E2
330
1F
100
AcDbEntity
  8
0
  6
Continuous
 62
     7
370
    25
100
AcDbSpline
210
0.0
220
0.0
230
1.0
 70
     8
 71
     3
 72
     9
 73
     5
 74
     0
 42
0.00000001
 43
0.00000001
 40
0.0
 40
0.0
 40
0.0
 40
0.0
 40
0.4988470384231432
 40
1.0
 40
1.0
 40
1.0
 40
1.0
 10
119.7070208917929
 20
57.62480395678697
 30
0.0
 10
120.2628192295761
 20
57.80137995712549
 30
0.0
 10
121.3769850859877
 20
58.15534818132638
 30
0.0
 10
122.5172691485795
 20
58.37167936312537
 30
0.0
 10
123.0887258835862
 20
58.48009437556535
 30
0.0
  0
SPLINE
  5
1E3
330
1F
100
AcDbEntity
  8
0
  6
Continuous
 62
     7
370
    25
100
AcDbSpline
210
0.0
220
0.0
230
1.0
 70
    24
 71
     3
 72
    11
 73
     7
 74
     0
 42
0.00000001
 43
0.00000001
 40
0.0
 40
0.0
 40
0.0
 40
0.0
 40
0.2425902211597405
 40
0.493067256820694
 40
0.7434805574985793
 40
1.0
 40
1.0
 40
1.0
 40
1.0
 10
107.7070208917929
 20
44.05707263083075
 30
0.0
 10
107.7070208917929
 20
43.90658818137899
 30
0.0
 10
107.7070208917929
 20
43.60072690498196
 30
0.0
 10
107.7070208917929
 20
43.26444578061136
 30
0.0
 10
107.7070208917929
 20
43.02985197171856
 30
0.0
 10
107.7070208917929
 20
43.000744790736
 30
0.0
 10
107.7070208917929
 20
42.98601589831605
 30
0.0
  0
SPLINE
  5
1E4
330
1F
100
AcDbEntity
  8
0
  6
Continuous
 62
     7
370
    25
100
AcDbSpline
210
0.0
220
0.0
230
1.0
 70
    24
 71
     3
 72
    11
 73
     7
 74
     0
 42
0.00000001
 43
0.00000001
 40
0.0
 40
0.0
 40
0.0
 40
0.0
 40
0.2436512959157171
 40
0.5004946891379228
 40
0.7574083182974228
 40
1.0
 40
1.0
 40
1.0
 40
1.0
 10
131.7070208917929
 20
42.98778473679746
 30
0.0
 10
131.7070208917929
 20
43.0003550007518
 30
0.0
 10
131.7070208917929
 20
43.02617612485692
 30
0.0
 10
131.7070208917929
 20
43.25625547889479
 30
0.0
 10
131.7070208917929
 20
43.59674414605752
 30
0.0
 10
131.7070208917929
 20
43.906591140708
 30
0.0
 10
131.7070208917929
 20
44.05707263083075
 30
0.0
  0
LINE
  5
1E5
330
1F
100
AcDbEntity
  8
0
  6
Continuous
 62
     7
370
    25
100
AcDbLine
 10
131.4570208918
 20
42.8409382938
 30
0.0
 11
107.9570208918
 21
42.8409382938
 31
0.0
  0
LINE
  5
1E6
330
1F
100
AcDbEntity
  8
0
  6
Continuous
 62
     7
370
    25
100
AcDbLine
 10
123.0887258836
 20
58.4800943756
 30
0.0
 11
116.3253159
 21
58.4800943756
 31
0.0
  0
LINE
  5
1E7
330
1F
100
AcDbEntity
  8
0
  6
Continuous
 62
     7
370
    25
100
AcDbLine
 10
116.4961090814
 20
59.5626261303
 30
0.0
 11
122.9179327022
 21
59.5626261303
 31
0.0
  0
ARC
  5
1E8
330
1F
100
AcDbEntity
  8
0
  6
Continuous
 62
     7
370
    25
100
AcDbCircle
 10
125.7423470334
 20
59.4535005128
 30
0.0
 40
2.826521663600794
100
AcDbArc
 50
177.7873894577
 51
200.1441390971
  0
ARC
  5
1E9
330
1F
100
AcDbEntity
  8
0
  6
Continuous
 62
     7
370
    25
100
AcDbCircle
 10
113.6716947502
 20
59.4535005128
 30
0.0
 40
2.826521663610884
100
AcDbArc
 50
339.8558609029
 51
2.2126105422
  0
SPLINE
  5
1EA
330
1F
100
AcDbEntity
  8
0
  6
Continuous
 62
     7
370
    25
100
AcDbSpline
210
0.0
220
0.0
230
1.0
 70
     8
 71
     3
 72
    11
 73
     7
 74
     0
 42
0.00000001
 43
0.00000001
 40
0.0
 40
0.0
 40
0.0
 40
0.0
 40
0.2219160282077402
 40
0.4466603018149352
 40
0.7206213487884544
 40
1.0
 40
1.0
 40
1.0
 40
1.0
 10
122.9179327021825
 20
59.56262613029589
 30
0.0
 10
123.3270737032725
 20
59.54969426071041
 30
0.0
 10
124.1505700703786
 20
59.52366570919598
 30
0.0
 10
125.406495105533
 20
59.41717226640313
 30
0.0
 10
126.6905953963127
 20
59.49750949246303
 30
0.0
 10
127.487629597875
 20
59.54077936966866
 30
0.0
 10
127.8900484753427
 20
59.56262613029589
 30
0.0
  0
ARC
  5
1EB
330
1F
100
AcDbEntity
  8
0
  6
Continuous
 62
     7
370
    25
100
AcDbCircle
 10
129.3027894859
 20
59.50189237
 30
0.0
 40
1.414045880664362
100
AcDbArc
 50
177.5383691895
 51
226.2700553519
  0
SPLINE
  5
1EC
330
1F
100
AcDbEntity
  8
0
  6
Continuous
 62
     7
370
    25
100
AcDbSpline
210
0.0
220
0.0
230
1.0
 70
     8
 71
     3
 72
    11
 73
     7
 74
     0
 42
0.00000001
 43
0.00000001
 40
0.0
 40
0.0
 40
0.0
 40
0.0
 40
0.2219160282077383
 40
0.4466603018149319
 40
0.720621348788453
 40
1.0
 40
1.0
 40
1.0
 40
1.0
 10
111.5239933082431
 20
59.56262613029589
 30
0.0
 10
111.8413645732145
 20
59.54969426071042
 30
0.0
 10
112.4801518935553
 20
59.523665709196
 30
0.0
 10
113.6327683474287
 20
59.41717226640311
 30
0.0
 10
114.964852360563
 20
59.49750949246303
 30
0.0
 10
115.9823694266485
 20
59.54077936966865
 30
0.0
 10
116.4961090814033
 20
59.56262613029589
 30
0.0
  0
ARC
  5
1ED
330
1F
100
AcDbEntity
  8
0
  6
Continuous
 62
     7
370
    25
100
AcDbCircle
 10
110.1112522977
 20
59.50189237
 30
0.0
 40
1.414045880661684
100
AcDbArc
 50
313.7299446481
 51
2.4616308106
  0
LINE
  5
1EE
330
1F
100
AcDbEntity
  8
0
  6
Continuous
 62
     7
370
    25
100
AcDbLine
 10
131.4570208918
 20
60.6409382938
 30
0.0
 11
107.9570208918
 21
60.6409382938
 31
0.0
  0
LINE
  5
1EF
330
1F
100
AcDbEntity
  8
0
  6
Continuous
 62
     7
370
    25
100
AcDbLine
 10
108.3130814979
 20
59.5626261303
 30
0.0
 11
111.5239933082
 21
59.5626261303
 31
0.0
  0
LINE
  5
1F0
330
1F
100
AcDbEntity
  8
0
  6
Continuous
 62
     7
370
    25
100
AcDbLine
 10
127.8900484753
 20
59.5626261303
 30
0.0
 11
131.1009602857
 21
59.5626261303
 31
0.0
  0
LINE
  5
1F1
330
1F
100
AcDbEntity
  8
0
  6
Continuous
 62
     7
370
    25
100
AcDbLine
 10
108.1570208918
 20
60.8409382938
 30
0.0
 11
131.2570208918
 21
60.8409382938
 31
0.0
  0
LINE
  5
1F2
330
1F
100
AcDbEntity
  8
0
  6
Continuous
 62
     7
370
    25
100
AcDbLine
 10
111.0887258836
 20
58.4800943756
 30
0.0
 11
107.7070208918
 21
58.4800943756
 31
0.0
  0
ARC
  5
1F3
330
1F
100
AcDbEntity
  8
0
  6
Continuous
 62
     7
370
    25
100
AcDbCircle
 10
107.0558274367
 20
59.5555870104
 30
0.0
 40
1.257273766367949
100
AcDbArc
 50
301.1942295044
 51
0.3207845254
  0
SPLINE
  5
1F4
330
1F
100
AcDbEntity
  8
0
  6
Continuous
 62
     7
370
    25
100
AcDbSpline
210
0.0
220
0.0
230
1.0
 70
    24
 71
     3
 72
     9
 73
     5
 74
     0
 42
0.00000001
 43
0.00000001
 40
0.0
 40
0.0
 40
0.0
 40
0.0
 40
0.5939658769315154
 40
1.0
 40
1.0
 40
1.0
 40
1.0
 10
107.7070208917929
 20
58.48009437556534
 30
0.0
 10
107.7070208917929
 20
58.34850050360078
 30
0.0
 10
107.7070208917929
 20
58.126949271324
 30
0.0
 10
107.7070208917929
 20
57.76981333393923
 30
0.0
 10
107.7070208917929
 20
57.62480395678697
 30
0.0
  0
ARC
  5
1F5
330
1F
100
AcDbEntity
  8
0
  6
Continuous
 62
     7
370
    25
100
AcDbCircle
 10
132.3582143469
 20
59.5555870104
 30
0.0
 40
1.257273766365373
100
AcDbArc
 50
179.6792154745
 51
238.8057704957
  0
LINE
  5
1F6
330
1F
100
AcDbEntity
  8
0
  6
Continuous
 62
     7
370
    25
100
AcDbLine
 10
131.7070208918
 20
58.4800943756
 30
0.0
 11
128.3253159
 21
58.4800943756
 31
0.0
  0
SPLINE
  5
1F7
330
1F
100
AcDbEntity
  8
0
  6
Continuous
 62
     7
370
    25
100
AcDbSpline
210
0.0
220
0.0
230
1.0
 70
    24
 71
     3
 72
     9
 73
     5
 74
     0
 42
0.00000001
 43
0.00000001
 40
0.0
 40
0.0
 40
0.0
 40
0.0
 40
0.4060341230684891
 40
1.0
 40
1.0
 40
1.0
 40
1.0
 10
131.7070208917929
 20
57.62480395678697
 30
0.0
 10
131.7070208917929
 20
57.76981333393924
 30
0.0
 10
131.7070208917929
 20
58.12694927132402
 30
0.0
 10
131.7070208917929
 20
58.3485005036008
 30
0.0
 10
131.7070208917929
 20
58.48009437556534
 30
0.0
  0
SPLINE
  5
1F8
330
1F
100
AcDbEntity
  8
0
  6
Continuous
 62
     7
370
    25
100
AcDbSpline
210
0.0
220
0.0
230
1.0
 70
    24
 71
     3
 72
     9
 73
     5
 74
     0
 42
0.00000001
 43
0.00000001
 40
0.0
 40
0.0
 40
0.0
 40
0.0
 40
0.8351792924549194
 40
1.0
 40
1.0
 40
1.0
 40
1.0
 10
131.7070208917929
 20
58.48009437556534
 30
0.0
 10
131.7070208917929
 20
58.58595120754934
 30
0.0
 10
131.7070208917929
 20
58.71269864123252
 30
0.0
 10
131.7070208917929
 20
58.67950651477062
 30
0.0
 10
131.7070208917929
 20
58.67403576500226
 30
0.0
  0
SPLINE
  5
1F9
330
1F
100
AcDbEntity
  8
0
  6
Continuous
 62
     7
370
    25
100
AcDbSpline
210
0.0
220
0.0
230
1.0
 70
    24
 71
     3
 72
     9
 73
     5
 74
     0
 42
0.00000001
 43
0.00000001
 40
0.0
 40
0.0
 40
0.0
 40
0.0
 40
0.2556148648932016
 40
1.0
 40
1.0
 40
1.0
 40
1.0
 10
107.7070208917929
 20
58.66517873722328
 30
0.0
 10
107.7070208917929
 20
58.67642308008361
 30
0.0
 10
107.7070208917929
 20
58.72041247352144
 30
0.0
 10
107.7070208917929
 20
58.58264582261416
 30
0.0
 10
107.7070208917929
 20
58.48009437556534
 30
0.0
  0
CIRCLE
  5
1FA
330
1F
100
AcDbEntity
  8
0
  6
Continuous
 62
     7
370
    25
100
AcDbCircle
 10
119.7070208918
 20
24.781353881
 30
0.0
 40
5.0
  0
LINE
  5
1FB
330
1F
100
AcDbEntity
  8
0
  6
Continuous
 62
     7
370
    25
100
AcDbLine
 10
119.7070208918
 20
39.8075758006
 30
0.0
 11
109.2295208918
 21
39.8075758006
 31
0.0
  0
LINE
  5
1FC
330
1F
100
AcDbEntity
  8
0
  6
Continuous
 62
     7
370
    25
100
AcDbLine
 10
130.1845208918
 20
39.8075758006
 30
0.0
 11
119.7070208918
 21
39.8075758006
 31
0.0
  0
LINE
  5
1FD
330
1F
100
AcDbEntity
  8
0
  6
Continuous
 62
     7
370
    25
100
AcDbLine
 10
119.7070208918
 20
39.781353881
 30
0.0
 11
109.4570208918
 21
39.781353881
 31
0.0
  0
LINE
  5
1FE
330
1F
100
AcDbEntity
  8
0
  6
Continuous
 62
     7
370
    25
100
AcDbLine
 10
129.9570208918
 20
39.781353881
 30
0.0
 11
119.7070208918
 21
39.781353881
 31
0.0
  0
SPLINE
  5
1FF
330
1F
100
AcDbEntity
  8
0
  6
Continuous
 62
     7
370
    25
100
AcDbSpline
210
0.0
220
0.0
230
1.0
 70
     8
 71
     3
 72
     9
 73
     5
 74
     0
 42
0.00000001
 43
0.00000001
 40
0.0
 40
0.0
 40
0.0
 40
0.0
 40
0.4411554392212944
 40
1.0
 40
1.0
 40
1.0
 40
1.0
 10
107.9738890466807
 20
59.45838758854904
 30
0.0
 10
107.9787190061532
 20
59.46868538140786
 30
0.0
 10
107.9896674362144
 20
59.49202815799698
 30
0.0
 10
108.197137808679
 20
59.53731681221895
 30
0.0
 10
108.3130814978535
 20
59.56262613029589
 30
0.0
  0
SPLINE
  5
200
330
1F
100
AcDbEntity
  8
0
  6
Continuous
 62
     7
370
    25
100
AcDbSpline
210
0.0
220
0.0
230
1.0
 70
     8
 71
     3
 72
    10
 73
     6
 74
     0
 42
0.00000001
 43
0.00000001
 40
0.0
 40
0.0
 40
0.0
 40
0.0
 40
0.4437627669904148
 40
0.8931811417089153
 40
1.0
 40
1.0
 40
1.0
 40
1.0
 10
131.1009602857323
 20
59.56262613029589
 30
0.0
 10
131.1898536542002
 20
59.55142645343865
 30
0.0
 10
131.3687733073226
 20
59.52888436359642
 30
0.0
 10
131.4731213787526
 20
59.43531646620028
 30
0.0
 10
131.445464011057
 20
59.45467081257905
 30
0.0
 10
131.4401527369005
 20
59.45838758855243
 30
0.0
  0
LINE
  5
201
330
1F
100
AcDbEntity
  8
0
  6
Continuous
 62
     7
370
    25
100
AcDbLine
 10
119.7070208918
 20
38.781353881
 30
0.0
 11
111.2070208918
 21
38.781353881
 31
0.0
  0
LINE
  5
202
330
1F
100
AcDbEntity
  8
0
  6
Continuous
 62
     7
370
    25
100
AcDbLine
 10
128.2070208918
 20
38.781353881
 30
0.0
 11
119.7070208918
 21
38.781353881
 31
0.0
  0
INSERT
  5
20E
330
1F
100
AcDbEntity
  8
0
  6
Continuous
 62
     7
370
    18
100
AcDbBlockReference
  2
SW_CENTERMARKSYMBOL_0
 10
119.7070208918
 20
24.781353881
 30
0.0
  0
LINE
  5
20F
330
1F
100
AcDbEntity
  8
0
  6
Continuous
 62
     7
370
    25
100
AcDbLine
 10
66.3187791229
 20
109.0798522312
 30
0.0
 11
66.1744415556
 21
108.8298522312
 31
0.0
  0
LINE
  5
210
330
1F
100
AcDbEntity
  8
0
  6
Continuous
 62
     7
370
    25
100
AcDbLine
 10
66.1744415556
 20
85.3298522312
 30
0.0
 11
66.3187791229
 21
85.0798522312
 31
0.0
  0
LINE
  5
211
330
1F
100
AcDbEntity
  8
0
  6
Continuous
 62
     7
370
    25
100
AcDbLine
 10
83.9744415556
 20
85.3298522312
 30
0.0
 11
84.1744415556
 21
85.5298522312
 31
0.0
  0
LINE
  5
212
330
1F
100
AcDbEntity
  8
0
  6
Continuous
 62
     7
370
    25
100
AcDbLine
 10
84.1744415556
 20
108.6298522312
 30
0.0
 11
83.9744415556
 21
108.8298522312
 31
0.0
  0
LINE
  5
213
330
1F
100
AcDbEntity
  8
0
  6
Continuous
 62
     7
370
    25
100
AcDbLine
 10
83.9744415556
 20
108.8298522312
 30
0.0
 11
82.7918908504
 21
108.8298522312
 31
0.0
  0
LINE
  5
214
330
1F
100
AcDbEntity
  8
0
  6
Continuous
 62
     7
370
    25
100
AcDbLine
 10
82.7918908504
 20
85.3298522312
 30
0.0
 11
83.9744415556
 21
85.3298522312
 31
0.0
  0
SPLINE
  5
215
330
1F
100
AcDbEntity
  8
0
  6
Continuous
 62
     7
370
    25
100
AcDbSpline
210
0.0
220
0.0
230
1.0
 70
     8
 71
     3
 72
    12
 73
     8
 74
     0
 42
0.00000001
 43
0.00000001
 40
0.0
 40
0.0
 40
0.0
 40
0.0
 40
0.0340542351220969
 40
0.3189762305372377
 40
0.5764391301604961
 40
0.8059474283528837
 40
0.9999999999999999
 40
0.9999999999999999
 40
0.9999999999999999
 40
0.9999999999999999
 10
82.79002315822343
 20
108.8327358445709
 30
0.0
 10
82.78024297401929
 20
108.8317428990183
 30
0.0
 10
82.68863480016905
 20
108.822442263477
 30
0.0
 10
82.52201875080387
 20
108.8530029800739
 30
0.0
 10
82.31123076469558
 20
108.9157881747469
 30
0.0
 10
82.1376879153806
 20
109.0042163581943
 30
0.0
 10
82.05105559239735
 20
109.0683481836846
 30
0.0
 10
82.01136537014185
 20
109.0977299008049
 30
0.0
  0
SPLINE
  5
216
330
1F
100
AcDbEntity
  8
0
  6
Continuous
 62
     7
370
    25
100
AcDbSpline
210
0.0
220
0.0
230
1.0
 70
     8
 71
     3
 72
    11
 73
     7
 74
     0
 42
0.00000001
 43
0.00000001
 40
0.0
 40
0.0
 40
0.0
 40
0.0
 40
0.1769772623477401
 40
0.4187967080919071
 40
0.7011043174867003
 40
1.0
 40
1.0
 40
1.0
 40
1.0
 10
82.01766722768663
 20
85.0653943018318
 30
0.0
 10
82.05307467785816
 20
85.09216221695837
 30
0.0
 10
82.1368624106836
 20
85.15550546562646
 30
0.0
 10
82.31537157968246
 20
85.24514817630603
 30
0.0
 10
82.54002886293252
 20
85.3171366100891
 30
0.0
 10
82.70740647463653
 20
85.3245039348023
 30
0.0
 10
82.79348383549157
 20
85.32829273224908
 30
0.0
  0
LINE
  5
217
330
1F
100
AcDbEntity
  8
0
  6
Continuous
 62
     7
370
    25
100
AcDbLine
 10
29.9109351628
 20
85.0798522312
 30
0.0
 11
30.0552727301
 21
85.3298522312
 31
0.0
  0
LINE
  5
218
330
1F
100
AcDbEntity
  8
0
  6
Continuous
 62
     7
370
    25
100
AcDbLine
 10
30.0552727301
 20
108.8298522312
 30
0.0
 11
29.9109351628
 21
109.0798522312
 31
0.0
  0
LINE
  5
219
330
1F
100
AcDbEntity
  8
0
  6
Continuous
 62
     7
370
    25
100
AcDbLine
 10
12.2552727301
 20
85.3298522312
 30
0.0
 11
13.4378234353
 21
85.3298522312
 31
0.0
  0
LINE
  5
21A
330
1F
100
AcDbEntity
  8
0
  6
Continuous
 62
     7
370
    25
100
AcDbLine
 10
13.4378234353
 20
108.8298522312
 30
0.0
 11
12.2552727301
 21
108.8298522312
 31
0.0
  0
LINE
  5
21B
330
1F
100
AcDbEntity
  8
0
  6
Continuous
 62
     7
370
    25
100
AcDbLine
 10
12.2552727301
 20
108.8298522312
 30
0.0
 11
12.0552727301
 21
108.6298522312
 31
0.0
  0
LINE
  5
21C
330
1F
100
AcDbEntity
  8
0
  6
Continuous
 62
     7
370
    25
100
AcDbLine
 10
12.0552727301
 20
85.5298522312
 30
0.0
 11
12.2552727301
 21
85.3298522312
 31
0.0
  0
SPLINE
  5
21D
330
1F
100
AcDbEntity
  8
0
  6
Continuous
 62
     7
370
    25
100
AcDbSpline
210
0.0
220
0.0
230
1.0
 70
     8
 71
     3
 72
    11
 73
     7
 74
     0
 42
0.00000001
 43
0.00000001
 40
0.0
 40
0.0
 40
0.0
 40
0.0
 40
0.1769772623481303
 40
0.4187967080926887
 40
0.7011043174886071
 40
1.0
 40
1.0
 40
1.0
 40
1.0
 10
14.21204705802771
 20
109.0943101605016
 30
0.0
 10
14.17663960785607
 20
109.067542245375
 30
0.0
 10
14.09285187503043
 20
109.0041989967068
 30
0.0
 10
13.91434270603108
 20
108.9145562860271
 30
0.0
 10
13.68968542278105
 20
108.8425678522442
 30
0.0
 10
13.52230781107728
 20
108.8352005275312
 30
0.0
 10
13.43623045022278
 20
108.8314117300845
 30
0.0
  0
SPLINE
  5
21E
330
1F
100
AcDbEntity
  8
0
  6
Continuous
 62
     7
370
    25
100
AcDbSpline
210
0.0
220
0.0
230
1.0
 70
     8
 71
     3
 72
    12
 73
     8
 74
     0
 42
0.00000001
 43
0.00000001
 40
0.0
 40
0.0
 40
0.0
 40
0.0
 40
0.0341610546419256
 40
0.3190718210155656
 40
0.5765239196839544
 40
0.8060208752422613
 40
1.0
 40
1.0
 40
1.0
 40
1.0
 10
13.43969035373677
 20
85.32696081204413
 30
0.0
 10
13.44950132522042
 20
85.3279563917839
 30
0.0
 10
13.54113797315294
 20
85.33725532719039
 30
0.0
 10
13.70777671043504
 20
85.3066857860964
 30
0.0
 10
13.91855138265907
 20
85.24388749013599
 30
0.0
 10
14.09206531285598
 20
85.15546332162616
 30
0.0
 10
14.17867418823891
 20
85.09134367090185
 30
0.0
 10
14.21834659153143
 20
85.06197277061868
 30
0.0
  0
ARC
  5
21F
330
1F
100
AcDbEntity
  8
0
  6
Continuous
 62
     7
370
    25
100
AcDbCircle
 10
64.1148571429
 20
107.3298522312
 30
0.0
 40
0.9999999999999929
100
AcDbArc
 50
166.8500691589
 51
180.0
  0
ARC
  5
220
330
1F
100
AcDbEntity
  8
0
  6
Continuous
 62
     7
370
    25
100
AcDbCircle
 10
64.1148571429
 20
86.8298522312
 30
0.0
 40
0.9999999999999929
100
AcDbArc
 50
180.0
 51
193.1499308411
  0
LINE
  5
221
330
1F
100
AcDbEntity
  8
0
  6
Continuous
 62
     7
370
    25
100
AcDbLine
 10
30.0552727301
 20
86.6023522312
 30
0.0
 11
33.0886352233
 21
86.6023522312
 31
0.0
  0
LINE
  5
222
330
1F
100
AcDbEntity
  8
0
  6
Continuous
 62
     7
370
    25
100
AcDbLine
 10
33.0886352233
 20
107.5573522312
 30
0.0
 11
30.0552727301
 21
107.5573522312
 31
0.0
  0
ARC
  5
223
330
1F
100
AcDbEntity
  8
0
  6
Continuous
 62
     7
370
    25
100
AcDbCircle
 10
32.1148571429
 20
86.8298522312
 30
0.0
 40
1.0
100
AcDbArc
 50
346.8500691589
 51
0.0
  0
ARC
  5
224
330
1F
100
AcDbEntity
  8
0
  6
Continuous
 62
     7
370
    25
100
AcDbCircle
 10
32.1148571429
 20
107.3298522312
 30
0.0
 40
1.0
100
AcDbArc
 50
0.0
 51
13.1499308411
  0
LINE
  5
225
330
1F
100
AcDbEntity
  8
0
  6
Continuous
 62
     7
370
    25
100
AcDbLine
 10
66.1744415556
 20
107.5573522312
 30
0.0
 11
63.1410790624
 21
107.5573522312
 31
0.0
  0
LINE
  5
226
330
1F
100
AcDbEntity
  8
0
  6
Continuous
 62
     7
370
    25
100
AcDbLine
 10
63.1410790624
 20
86.6023522312
 30
0.0
 11
66.1744415556
 21
86.6023522312
 31
0.0
  0
ARC
  5
227
330
1F
100
AcDbEntity
  8
0
  6
Continuous
 62
     7
370
    25
100
AcDbCircle
 10
62.1148571429
 20
106.5798522312
 30
0.0
 40
1.0
100
AcDbArc
 50
270.0
 51
0.0
  0
ARC
  5
228
330
1F
100
AcDbEntity
  8
0
  6
Continuous
 62
     7
370
    25
100
AcDbCircle
 10
62.1148571429
 20
87.5798522312
 30
0.0
 40
1.0
100
AcDbArc
 50
0.0
 51
90.0
  0
ARC
  5
229
330
1F
100
AcDbEntity
  8
0
  6
Continuous
 62
     7
370
    25
100
AcDbCircle
 10
34.1148571429
 20
87.5798522312
 30
0.0
 40
1.0
100
AcDbArc
 50
90.0
 51
180.0
  0
ARC
  5
22A
330
1F
100
AcDbEntity
  8
0
  6
Continuous
 62
     7
370
    25
100
AcDbCircle
 10
34.1148571429
 20
106.5798522312
 30
0.0
 40
1.0
100
AcDbArc
 50
180.0
 51
270.0
  0
LINE
  5
22B
330
1F
100
AcDbEntity
  8
0
  6
Continuous
 62
     7
370
    25
100
AcDbLine
 10
39.1659279704
 20
105.5798522312
 30
0.0
 11
34.1148571429
 21
105.5798522312
 31
0.0
  0
LINE
  5
22C
330
1F
100
AcDbEntity
  8
0
  6
Continuous
 62
     7
370
    25
100
AcDbLine
 10
62.1148571429
 20
105.5798522312
 30
0.0
 11
57.0637863153
 21
105.5798522312
 31
0.0
  0
LINE
  5
22D
330
1F
100
AcDbEntity
  8
0
  6
Continuous
 62
     7
370
    25
100
AcDbLine
 10
57.0637863153
 20
88.5798522312
 30
0.0
 11
62.1148571429
 21
88.5798522312
 31
0.0
  0
LINE
  5
22E
330
1F
100
AcDbEntity
  8
0
  6
Continuous
 62
     7
370
    25
100
AcDbLine
 10
34.1148571429
 20
88.5798522312
 30
0.0
 11
39.1659279704
 21
88.5798522312
 31
0.0
  0
SPLINE
  5
22F
330
1F
100
AcDbEntity
  8
0
  6
Continuous
 62
     7
370
    25
100
AcDbSpline
210
0.0
220
0.0
230
1.0
 70
     8
 71
     3
 72
    10
 73
     6
 74
     0
 42
0.00000001
 43
0.00000001
 40
0.0
 40
0.0
 40
0.0
 40
0.0
 40
0.2896830214237569
 40
0.5812913727325416
 40
0.9999999999999999
 40
0.9999999999999999
 40
0.9999999999999999
 40
0.9999999999999999
 10
81.81359763739445
 20
105.6981472393734
 30
0.0
 10
81.882199669613
 20
105.1943292659305
 30
0.0
 10
82.01985968601497
 20
104.1833447769172
 30
0.0
 10
82.0604635374492
 20
102.4286050924166
 30
0.0
 10
81.90514992956221
 20
101.1910534442384
 30
0.0
 10
81.81359763739445
 20
100.4615572229601
 30
0.0
  0
SPLINE
  5
230
330
1F
100
AcDbEntity
  8
0
  6
Continuous
 62
     7
370
    25
100
AcDbSpline
210
0.0
220
0.0
230
1.0
 70
     8
 71
     3
 72
     9
 73
     5
 74
     0
 42
0.00000001
 43
0.00000001
 40
0.0
 40
0.0
 40
0.0
 40
0.0
 40
0.4986680494787147
 40
1.0
 40
1.0
 40
1.0
 40
1.0
 10
81.81359763739445
 20
100.4615572229601
 30
0.0
 10
81.70579074681017
 20
99.89292606855338
 30
0.0
 10
81.48960105770337
 20
98.75262611350092
 30
0.0
 10
81.1357194002173
 20
97.63843289210615
 30
0.0
 10
80.95830721861607
 20
97.07985223116673
 30
0.0
  0
LINE
  5
231
330
1F
100
AcDbEntity
  8
0
  6
Continuous
 62
     7
370
    25
100
AcDbLine
 10
80.9583072186
 20
97.0798522312
 30
0.0
 11
67.3905758927
 21
97.0798522312
 31
0.0
  0
SPLINE
  5
232
330
1F
100
AcDbEntity
  8
0
  6
Continuous
 62
     7
370
    25
100
AcDbSpline
210
0.0
220
0.0
230
1.0
 70
     8
 71
     3
 72
    15
 73
    11
 74
     0
 42
0.00000001
 43
0.00000001
 40
0.0
 40
0.0
 40
0.0
 40
0.0
 40
0.1323065044264402
 40
0.2645755999739297
 40
0.3998036789671091
 40
0.5350073556765892
 40
0.650196947540502
 40
0.7654045076453764
 40
0.8826909144168967
 40
1.0
 40
1.0
 40
1.0
 40
1.0
 10
67.39057589265987
 20
97.07985223116673
 30
0.0
 10
67.22741681074214
 20
97.59830496037517
 30
0.0
 10
66.90114477916883
 20
98.6350638293597
 30
0.0
 10
66.55009007614895
 20
100.2315812746301
 30
0.0
 10
66.3390132906198
 20
101.8581936863099
 30
0.0
 10
66.29721598033423
 20
103.425874427697
 30
0.0
 10
66.40567461303499
 20
104.9088506216569
 30
0.0
 10
66.62790052209586
 20
106.3084039810823
 30
0.0
 10
66.95387829538214
 20
107.7016293973256
 30
0.0
 10
67.2450006457756
 20
108.6204150129437
 30
0.0
 10
67.39057589265987
 20
109.0798522311667
 30
0.0
  0
LINE
  5
233
330
1F
100
AcDbEntity
  8
0
  6
Continuous
 62
     7
370
    25
100
AcDbLine
 10
80.9583072186
 20
109.0798522312
 30
0.0
 11
67.3905758927
 21
109.0798522312
 31
0.0
  0
SPLINE
  5
234
330
1F
100
AcDbEntity
  8
0
  6
Continuous
 62
     7
370
    25
100
AcDbSpline
210
0.0
220
0.0
230
1.0
 70
     8
 71
     3
 72
     9
 73
     5
 74
     0
 42
0.00000001
 43
0.00000001
 40
0.0
 40
0.0
 40
0.0
 40
0.0
 40
0.4988470384231425
 40
1.0
 40
1.0
 40
1.0
 40
1.0
 10
80.95830721861607
 20
109.0798522311667
 30
0.0
 10
81.1348832189546
 20
108.5240538933836
 30
0.0
 10
81.4888514431555
 20
107.4098880369719
 30
0.0
 10
81.70518262495447
 20
106.2696039743801
 30
0.0
 10
81.81359763739445
 20
105.6981472393734
 30
0.0
  0
SPLINE
  5
235
330
1F
100
AcDbEntity
  8
0
  6
Continuous
 62
     7
370
    25
100
AcDbSpline
210
0.0
220
0.0
230
1.0
 70
    24
 71
     3
 72
    11
 73
     7
 74
     0
 42
0.00000001
 43
0.00000001
 40
0.0
 40
0.0
 40
0.0
 40
0.0
 40
0.2425902211597396
 40
0.4930672568206919
 40
0.7434805574985762
 40
1.0
 40
1.0
 40
1.0
 40
1.0
 10
67.39057589265987
 20
109.0798522311667
 30
0.0
 10
67.2400914432081
 20
109.0798522311667
 30
0.0
 10
66.93423016681108
 20
109.0798522311667
 30
0.0
 10
66.5979490424405
 20
109.0798522311667
 30
0.0
 10
66.36335523354767
 20
109.0798522311667
 30
0.0
 10
66.33424805256512
 20
109.0798522311667
 30
0.0
 10
66.31951916014516
 20
109.0798522311667
 30
0.0
  0
SPLINE
  5
236
330
1F
100
AcDbEntity
  8
0
  6
Continuous
 62
     7
370
    25
100
AcDbSpline
210
0.0
220
0.0
230
1.0
 70
     8
 71
     3
 72
    15
 73
    11
 74
     0
 42
0.00000001
 43
0.00000001
 40
0.0
 40
0.0
 40
0.0
 40
0.0
 40
0.1323065044264402
 40
0.2645755999739297
 40
0.399803678967109
 40
0.5350073556765891
 40
0.6501969475405018
 40
0.7654045076453763
 40
0.8826909144168965
 40
0.9999999999999999
 40
0.9999999999999999
 40
0.9999999999999999
 40
0.9999999999999999
 10
67.39057589265987
 20
85.07985223116673
 30
0.0
 10
67.22741681074214
 20
85.59830496037519
 30
0.0
 10
66.90114477916883
 20
86.6350638293597
 30
0.0
 10
66.55009007614893
 20
88.23158127463007
 30
0.0
 10
66.3390132906198
 20
89.85819368630996
 30
0.0
 10
66.29721598033423
 20
91.42587442769698
 30
0.0
 10
66.40567461303499
 20
92.90885062165687
 30
0.0
 10
66.62790052209584
 20
94.30840398108226
 30
0.0
 10
66.95387829538214
 20
95.70162939732565
 30
0.0
 10
67.2450006457756
 20
96.62041501294371
 30
0.0
 10
67.39057589265987
 20
97.07985223116673
 30
0.0
  0
SPLINE
  5
237
330
1F
100
AcDbEntity
  8
0
  6
Continuous
 62
     7
370
    25
100
AcDbSpline
210
0.0
220
0.0
230
1.0
 70
    24
 71
     3
 72
    11
 73
     7
 74
     0
 42
0.00000001
 43
0.00000001
 40
0.0
 40
0.0
 40
0.0
 40
0.0
 40
0.2436512959157115
 40
0.5004946891379191
 40
0.757408318297421
 40
1.0
 40
1.0
 40
1.0
 40
1.0
 10
66.32128799862657
 20
85.07985223116673
 30
0.0
 10
66.33385826258092
 20
85.07985223116673
 30
0.0
 10
66.35967938668604
 20
85.07985223116673
 30
0.0
 10
66.5897587407239
 20
85.07985223116673
 30
0.0
 10
66.93024740788663
 20
85.07985223116673
 30
0.0
 10
67.24009440253711
 20
85.07985223116673
 30
0.0
 10
67.39057589265987
 20
85.07985223116673
 30
0.0
  0
LINE
  5
238
330
1F
100
AcDbEntity
  8
0
  6
Continuous
 62
     7
370
    25
100
AcDbLine
 10
66.1744415556
 20
85.3298522312
 30
0.0
 11
66.1744415556
 21
108.8298522312
 31
0.0
  0
LINE
  5
239
330
1F
100
AcDbEntity
  8
0
  6
Continuous
 62
     7
370
    25
100
AcDbLine
 10
81.8135976374
 20
93.6981472394
 30
0.0
 11
81.8135976374
 21
100.461557223
 31
0.0
  0
SPLINE
  5
23A
330
1F
100
AcDbEntity
  8
0
  6
Continuous
 62
     7
370
    25
100
AcDbSpline
210
0.0
220
0.0
230
1.0
 70
     8
 71
     3
 72
     9
 73
     5
 74
     0
 42
0.00000001
 43
0.00000001
 40
0.0
 40
0.0
 40
0.0
 40
0.0
 40
0.498847038423143
 40
1.0
 40
1.0
 40
1.0
 40
1.0
 10
80.95830721861607
 20
97.07985223116673
 30
0.0
 10
81.1348832189546
 20
96.52405389338357
 30
0.0
 10
81.48885144315548
 20
95.40988803697186
 30
0.0
 10
81.70518262495449
 20
94.26960397438013
 30
0.0
 10
81.81359763739445
 20
93.6981472393734
 30
0.0
  0
SPLINE
  5
23B
330
1F
100
AcDbEntity
  8
0
  6
Continuous
 62
     7
370
    25
100
AcDbSpline
210
0.0
220
0.0
230
1.0
 70
     8
 71
     3
 72
    10
 73
     6
 74
     0
 42
0.00000001
 43
0.00000001
 40
0.0
 40
0.0
 40
0.0
 40
0.0
 40
0.2896830214237566
 40
0.5812913727325408
 40
1.0
 40
1.0
 40
1.0
 40
1.0
 10
81.81359763739445
 20
93.6981472393734
 30
0.0
 10
81.882199669613
 20
93.19432926593053
 30
0.0
 10
82.01985968601497
 20
92.18334477691722
 30
0.0
 10
82.0604635374492
 20
90.42860509241663
 30
0.0
 10
81.90514992956219
 20
89.19105344423845
 30
0.0
 10
81.81359763739445
 20
88.46155722296004
 30
0.0
  0
SPLINE
  5
23C
330
1F
100
AcDbEntity
  8
0
  6
Continuous
 62
     7
370
    25
100
AcDbSpline
210
0.0
220
0.0
230
1.0
 70
     8
 71
     3
 72
     9
 73
     5
 74
     0
 42
0.00000001
 43
0.00000001
 40
0.0
 40
0.0
 40
0.0
 40
0.0
 40
0.4986680494787149
 40
1.0
 40
1.0
 40
1.0
 40
1.0
 10
81.81359763739445
 20
88.46155722296004
 30
0.0
 10
81.70579074681015
 20
87.89292606855336
 30
0.0
 10
81.48960105770337
 20
86.75262611350091
 30
0.0
 10
81.1357194002173
 20
85.63843289210615
 30
0.0
 10
80.95830721861607
 20
85.07985223116673
 30
0.0
  0
LINE
  5
23D
330
1F
100
AcDbEntity
  8
0
  6
Continuous
 62
     7
370
    25
100
AcDbLine
 10
80.9583072186
 20
85.0798522312
 30
0.0
 11
67.3905758927
 21
85.0798522312
 31
0.0
  0
LINE
  5
23E
330
1F
100
AcDbEntity
  8
0
  6
Continuous
 62
     7
370
    25
100
AcDbLine
 10
82.8961293921
 20
100.2907640416
 30
0.0
 11
82.8961293921
 21
93.8689404208
 31
0.0
  0
ARC
  5
23F
330
1F
100
AcDbEntity
  8
0
  6
Continuous
 62
     7
370
    25
100
AcDbCircle
 10
82.7870037746
 20
91.0445260896
 30
0.0
 40
2.82652166360102
100
AcDbArc
 50
87.7873894577
 51
110.1441390971
  0
ARC
  5
240
330
1F
100
AcDbEntity
  8
0
  6
Continuous
 62
     7
370
    25
100
AcDbCircle
 10
82.7870037746
 20
103.1151783728
 30
0.0
 40
2.826521663610166
100
AcDbArc
 50
249.8558609029
 51
272.2126105422
  0
SPLINE
  5
241
330
1F
100
AcDbEntity
  8
0
  6
Continuous
 62
     7
370
    25
100
AcDbSpline
210
0.0
220
0.0
230
1.0
 70
     8
 71
     3
 72
    11
 73
     7
 74
     0
 42
0.00000001
 43
0.00000001
 40
0.0
 40
0.0
 40
0.0
 40
0.0
 40
0.2219160282077383
 40
0.4466603018149318
 40
0.7206213487884527
 40
0.9999999999999999
 40
0.9999999999999999
 40
0.9999999999999999
 40
0.9999999999999999
 10
82.89612939212502
 20
105.2628798147165
 30
0.0
 10
82.88319752253953
 20
104.9455085497451
 30
0.0
 10
82.8571689710251
 20
104.3067212294043
 30
0.0
 10
82.75067552823224
 20
103.1541047755309
 30
0.0
 10
82.83101275429215
 20
101.8220207623966
 30
0.0
 10
82.87428263149776
 20
100.8045036963111
 30
0.0
 10
82.89612939212502
 20
100.2907640415563
 30
0.0
  0
ARC
  5
242
330
1F
100
AcDbEntity
  8
0
  6
Continuous
 62
     7
370
    25
100
AcDbCircle
 10
82.8353956318
 20
106.6756208253
 30
0.0
 40
1.414045880661765
100
AcDbArc
 50
223.7299446481
 51
272.4616308106
  0
SPLINE
  5
243
330
1F
100
AcDbEntity
  8
0
  6
Continuous
 62
     7
370
    25
100
AcDbSpline
210
0.0
220
0.0
230
1.0
 70
     8
 71
     3
 72
    11
 73
     7
 74
     0
 42
0.00000001
 43
0.00000001
 40
0.0
 40
0.0
 40
0.0
 40
0.0
 40
0.2219160282077401
 40
0.4466603018149352
 40
0.7206213487884543
 40
0.9999999999999999
 40
0.9999999999999999
 40
0.9999999999999999
 40
0.9999999999999999
 10
82.89612939212502
 20
93.8689404207771
 30
0.0
 10
82.88319752253953
 20
93.45979941968713
 30
0.0
 10
82.8571689710251
 20
92.63630305258096
 30
0.0
 10
82.75067552823224
 20
91.3803780174266
 30
0.0
 10
82.83101275429213
 20
90.0962777266469
 30
0.0
 10
82.87428263149776
 20
89.29924352508462
 30
0.0
 10
82.89612939212502
 20
88.89682464761694
 30
0.0
  0
ARC
  5
244
330
1F
100
AcDbEntity
  8
0
  6
Continuous
 62
     7
370
    25
100
AcDbCircle
 10
82.8353956318
 20
87.484083637
 30
0.0
 40
1.414045880664335
100
AcDbArc
 50
87.5383691895
 51
136.2700553519
  0
LINE
  5
245
330
1F
100
AcDbEntity
  8
0
  6
Continuous
 62
     7
370
    25
100
AcDbLine
 10
84.1744415556
 20
108.6298522312
 30
0.0
 11
84.1744415556
 21
85.5298522312
 31
0.0
  0
LINE
  5
246
330
1F
100
AcDbEntity
  8
0
  6
Continuous
 62
     7
370
    25
100
AcDbLine
 10
83.9744415556
 20
85.3298522312
 30
0.0
 11
83.9744415556
 21
108.8298522312
 31
0.0
  0
LINE
  5
247
330
1F
100
AcDbEntity
  8
0
  6
Continuous
 62
     7
370
    25
100
AcDbLine
 10
82.8961293921
 20
108.4737916251
 30
0.0
 11
82.8961293921
 21
105.2628798147
 31
0.0
  0
LINE
  5
248
330
1F
100
AcDbEntity
  8
0
  6
Continuous
 62
     7
370
    25
100
AcDbLine
 10
82.8961293921
 20
88.8968246476
 30
0.0
 11
82.8961293921
 21
85.6859128372
 31
0.0
  0
LINE
  5
249
330
1F
100
AcDbEntity
  8
0
  6
Continuous
 62
     7
370
    25
100
AcDbLine
 10
81.8135976374
 20
105.6981472394
 30
0.0
 11
81.8135976374
 21
109.0798522312
 31
0.0
  0
ARC
  5
24A
330
1F
100
AcDbEntity
  8
0
  6
Continuous
 62
     7
370
    25
100
AcDbCircle
 10
82.8890902722
 20
109.7310456863
 30
0.0
 40
1.257273766368008
100
AcDbArc
 50
211.1942295044
 51
270.3207845254
  0
SPLINE
  5
24B
330
1F
100
AcDbEntity
  8
0
  6
Continuous
 62
     7
370
    25
100
AcDbSpline
210
0.0
220
0.0
230
1.0
 70
    24
 71
     3
 72
     9
 73
     5
 74
     0
 42
0.00000001
 43
0.00000001
 40
0.0
 40
0.0
 40
0.0
 40
0.0
 40
0.5939658769315155
 40
1.0
 40
1.0
 40
1.0
 40
1.0
 10
81.81359763739445
 20
109.0798522311667
 30
0.0
 10
81.68200376542991
 20
109.0798522311667
 30
0.0
 10
81.46045253315312
 20
109.0798522311667
 30
0.0
 10
81.10331659576836
 20
109.0798522311667
 30
0.0
 10
80.95830721861607
 20
109.0798522311667
 30
0.0
  0
ARC
  5
24C
330
1F
100
AcDbEntity
  8
0
  6
Continuous
 62
     7
370
    25
100
AcDbCircle
 10
82.8890902722
 20
84.428658776
 30
0.0
 40
1.257273766365399
100
AcDbArc
 50
89.6792154745
 51
148.8057704957
  0
LINE
  5
24D
330
1F
100
AcDbEntity
  8
0
  6
Continuous
 62
     7
370
    25
100
AcDbLine
 10
81.8135976374
 20
85.0798522312
 30
0.0
 11
81.8135976374
 21
88.461557223
 31
0.0
  0
SPLINE
  5
24E
330
1F
100
AcDbEntity
  8
0
  6
Continuous
 62
     7
370
    25
100
AcDbSpline
210
0.0
220
0.0
230
1.0
 70
    24
 71
     3
 72
     9
 73
     5
 74
     0
 42
0.00000001
 43
0.00000001
 40
0.0
 40
0.0
 40
0.0
 40
0.0
 40
0.4060341230684889
 40
1.0
 40
1.0
 40
1.0
 40
1.0
 10
80.95830721861607
 20
85.07985223116673
 30
0.0
 10
81.10331659576836
 20
85.07985223116673
 30
0.0
 10
81.46045253315312
 20
85.07985223116673
 30
0.0
 10
81.68200376542991
 20
85.07985223116673
 30
0.0
 10
81.81359763739445
 20
85.07985223116673
 30
0.0
  0
SPLINE
  5
24F
330
1F
100
AcDbEntity
  8
0
  6
Continuous
 62
     7
370
    25
100
AcDbSpline
210
0.0
220
0.0
230
1.0
 70
    24
 71
     3
 72
     9
 73
     5
 74
     0
 42
0.00000001
 43
0.00000001
 40
0.0
 40
0.0
 40
0.0
 40
0.0
 40
0.255612247309786
 40
1.0
 40
1.0
 40
1.0
 40
1.0
 10
81.99868229973706
 20
109.0798522311667
 30
0.0
 10
82.00992644737534
 20
109.0798522311667
 30
0.0
 10
82.05391552754111
 20
109.0798522311667
 30
0.0
 10
81.91614920249324
 20
109.0798522311667
 30
0.0
 10
81.81359763739445
 20
109.0798522311667
 30
0.0
  0
SPLINE
  5
250
330
1F
100
AcDbEntity
  8
0
  6
Continuous
 62
     7
370
    25
100
AcDbSpline
210
0.0
220
0.0
230
1.0
 70
    24
 71
     3
 72
     9
 73
     5
 74
     0
 42
0.00000001
 43
0.00000001
 40
0.0
 40
0.0
 40
0.0
 40
0.0
 40
0.8351792924549452
 40
1.0
 40
1.0
 40
1.0
 40
1.0
 10
81.81359763739445
 20
85.07985223116673
 30
0.0
 10
81.91945446937845
 20
85.07985223116673
 30
0.0
 10
82.04620190306164
 20
85.07985223116673
 30
0.0
 10
82.01300977659976
 20
85.07985223116671
 30
0.0
 10
82.00753902683138
 20
85.07985223116671
 30
0.0
  0
SPLINE
  5
251
330
1F
100
AcDbEntity
  8
0
  6
Continuous
 62
     7
370
    25
100
AcDbSpline
210
0.0
220
0.0
230
1.0
 70
    24
 71
     3
 72
    11
 73
     7
 74
     0
 42
0.00000001
 43
0.00000001
 40
0.0
 40
0.0
 40
0.0
 40
0.0
 40
0.2425902211597425
 40
0.4930672568206977
 40
0.743480557498585
 40
1.0
 40
1.0
 40
1.0
 40
1.0
 10
28.83913839305448
 20
85.07985223116671
 30
0.0
 10
28.98962284250624
 20
85.07985223116671
 30
0.0
 10
29.29548411890327
 20
85.07985223116671
 30
0.0
 10
29.63176524327385
 20
85.07985223116671
 30
0.0
 10
29.86635905216666
 20
85.07985223116673
 30
0.0
 10
29.89546623314923
 20
85.07985223116671
 30
0.0
 10
29.91019512556916
 20
85.07985223116671
 30
0.0
  0
SPLINE
  5
252
330
1F
100
AcDbEntity
  8
0
  6
Continuous
 62
     7
370
    25
100
AcDbSpline
210
0.0
220
0.0
230
1.0
 70
     8
 71
     3
 72
    15
 73
    11
 74
     0
 42
0.00000001
 43
0.00000001
 40
0.0
 40
0.0
 40
0.0
 40
0.0
 40
0.1323065044264402
 40
0.2645755999739296
 40
0.399803678967109
 40
0.5350073556765891
 40
0.650196947540502
 40
0.7654045076453764
 40
0.8826909144168966
 40
1.0
 40
1.0
 40
1.0
 40
1.0
 10
28.83913839305448
 20
97.07985223116673
 30
0.0
 10
29.0022974749722
 20
96.56139950195825
 30
0.0
 10
29.3285695065455
 20
95.52464063297374
 30
0.0
 10
29.6796242095654
 20
93.92812318770335
 30
0.0
 10
29.89070099509454
 20
92.30151077602349
 30
0.0
 10
29.93249830538012
 20
90.73383003463645
 30
0.0
 10
29.82403967267935
 20
89.25085384067656
 30
0.0
 10
29.60181376361849
 20
87.85130048125117
 30
0.0
 10
29.27583599033219
 20
86.45807506500779
 30
0.0
 10
28.98471363993874
 20
85.53928944938973
 30
0.0
 10
28.83913839305448
 20
85.07985223116671
 30
0.0
  0
SPLINE
  5
253
330
1F
100
AcDbEntity
  8
0
  6
Continuous
 62
     7
370
    25
100
AcDbSpline
210
0.0
220
0.0
230
1.0
 70
     8
 71
     3
 72
    15
 73
    11
 74
     0
 42
0.00000001
 43
0.00000001
 40
0.0
 40
0.0
 40
0.0
 40
0.0
 40
0.1323065044264402
 40
0.2645755999739297
 40
0.3998036789671089
 40
0.5350073556765891
 40
0.6501969475405018
 40
0.7654045076453763
 40
0.8826909144168965
 40
0.9999999999999999
 40
0.9999999999999999
 40
0.9999999999999999
 40
0.9999999999999999
 10
28.83913839305448
 20
109.0798522311667
 30
0.0
 10
29.0022974749722
 20
108.5613995019582
 30
0.0
 10
29.3285695065455
 20
107.5246406329737
 30
0.0
 10
29.67962420956541
 20
105.9281231877033
 30
0.0
 10
29.89070099509452
 20
104.3015107760235
 30
0.0
 10
29.93249830538013
 20
102.7338300346364
 30
0.0
 10
29.82403967267935
 20
101.2508538406766
 30
0.0
 10
29.60181376361849
 20
99.85130048125117
 30
0.0
 10
29.27583599033219
 20
98.45807506500779
 30
0.0
 10
28.98471363993874
 20
97.53928944938973
 30
0.0
 10
28.83913839305448
 20
97.07985223116673
 30
0.0
  0
SPLINE
  5
254
330
1F
100
AcDbEntity
  8
0
  6
Continuous
 62
     7
370
    25
100
AcDbSpline
210
0.0
220
0.0
230
1.0
 70
    24
 71
     3
 72
    11
 73
     7
 74
     0
 42
0.00000001
 43
0.00000001
 40
0.0
 40
0.0
 40
0.0
 40
0.0
 40
0.2436512959157203
 40
0.5004946891379249
 40
0.7574083182974237
 40
1.0
 40
1.0
 40
1.0
 40
1.0
 10
29.90842628708777
 20
109.0798522311667
 30
0.0
 10
29.89585602313342
 20
109.0798522311667
 30
0.0
 10
29.8700348990283
 20
109.0798522311667
 30
0.0
 10
29.63995554499044
 20
109.0798522311667
 30
0.0
 10
29.29946687782771
 20
109.0798522311667
 30
0.0
 10
28.98961988317722
 20
109.0798522311667
 30
0.0
 10
28.83913839305448
 20
109.0798522311667
 30
0.0
  0
LINE
  5
255
330
1F
100
AcDbEntity
  8
0
  6
Continuous
 62
     7
370
    25
100
AcDbLine
 10
30.0552727301
 20
108.8298522312
 30
0.0
 11
30.0552727301
 21
85.3298522312
 31
0.0
  0
SPLINE
  5
256
330
1F
100
AcDbEntity
  8
0
  6
Continuous
 62
     7
370
    25
100
AcDbSpline
210
0.0
220
0.0
230
1.0
 70
     8
 71
     3
 72
    10
 73
     6
 74
     0
 42
0.00000001
 43
0.00000001
 40
0.0
 40
0.0
 40
0.0
 40
0.0
 40
0.2896830214237568
 40
0.581291372732541
 40
1.0
 40
1.0
 40
1.0
 40
1.0
 10
14.41611664831988
 20
100.4615572229601
 30
0.0
 10
14.34751461610133
 20
100.9653751964029
 30
0.0
 10
14.20985459969936
 20
101.9763596854162
 30
0.0
 10
14.16925074826516
 20
103.7310993699168
 30
0.0
 10
14.32456435615214
 20
104.968651018095
 30
0.0
 10
14.41611664831988
 20
105.6981472393734
 30
0.0
  0
SPLINE
  5
257
330
1F
100
AcDbEntity
  8
0
  6
Continuous
 62
     7
370
    25
100
AcDbSpline
210
0.0
220
0.0
230
1.0
 70
     8
 71
     3
 72
     9
 73
     5
 74
     0
 42
0.00000001
 43
0.00000001
 40
0.0
 40
0.0
 40
0.0
 40
0.0
 40
0.4986680494787148
 40
1.0
 40
1.0
 40
1.0
 40
1.0
 10
14.41611664831988
 20
105.6981472393734
 30
0.0
 10
14.52392353890418
 20
106.2667783937801
 30
0.0
 10
14.74011322801097
 20
107.4070783488325
 30
0.0
 10
15.09399488549706
 20
108.5212715702273
 30
0.0
 10
15.27140706709826
 20
109.0798522311667
 30
0.0
  0
LINE
  5
258
330
1F
100
AcDbEntity
  8
0
  6
Continuous
 62
     7
370
    25
100
AcDbLine
 10
15.2714070671
 20
109.0798522312
 30
0.0
 11
28.8391383931
 21
109.0798522312
 31
0.0
  0
LINE
  5
259
330
1F
100
AcDbEntity
  8
0
  6
Continuous
 62
     7
370
    25
100
AcDbLine
 10
15.2714070671
 20
97.0798522312
 30
0.0
 11
28.8391383931
 21
97.0798522312
 31
0.0
  0
SPLINE
  5
25A
330
1F
100
AcDbEntity
  8
0
  6
Continuous
 62
     7
370
    25
100
AcDbSpline
210
0.0
220
0.0
230
1.0
 70
     8
 71
     3
 72
     9
 73
     5
 74
     0
 42
0.00000001
 43
0.00000001
 40
0.0
 40
0.0
 40
0.0
 40
0.0
 40
0.498847038423143
 40
1.0
 40
1.0
 40
1.0
 40
1.0
 10
15.27140706709826
 20
97.07985223116673
 30
0.0
 10
15.09483106675975
 20
97.63565056894987
 30
0.0
 10
14.74086284255884
 20
98.74981642536156
 30
0.0
 10
14.52453166075986
 20
99.8901004879533
 30
0.0
 10
14.41611664831988
 20
100.4615572229601
 30
0.0
  0
SPLINE
  5
25B
330
1F
100
AcDbEntity
  8
0
  6
Continuous
 62
     7
370
    25
100
AcDbSpline
210
0.0
220
0.0
230
1.0
 70
     8
 71
     3
 72
     9
 73
     5
 74
     0
 42
0.00000001
 43
0.00000001
 40
0.0
 40
0.0
 40
0.0
 40
0.0
 40
0.4986680494787148
 40
1.0
 40
1.0
 40
1.0
 40
1.0
 10
14.41611664831988
 20
93.69814723937338
 30
0.0
 10
14.52392353890418
 20
94.26677839378006
 30
0.0
 10
14.74011322801097
 20
95.40707834883251
 30
0.0
 10
15.09399488549706
 20
96.52127157022727
 30
0.0
 10
15.27140706709826
 20
97.07985223116673
 30
0.0
  0
LINE
  5
25C
330
1F
100
AcDbEntity
  8
0
  6
Continuous
 62
     7
370
    25
100
AcDbLine
 10
14.4161166483
 20
100.461557223
 30
0.0
 11
14.4161166483
 21
93.6981472394
 31
0.0
  0
SPLINE
  5
25D
330
1F
100
AcDbEntity
  8
0
  6
Continuous
 62
     7
370
    25
100
AcDbSpline
210
0.0
220
0.0
230
1.0
 70
     8
 71
     3
 72
    10
 73
     6
 74
     0
 42
0.00000001
 43
0.00000001
 40
0.0
 40
0.0
 40
0.0
 40
0.0
 40
0.2896830214237572
 40
0.5812913727325419
 40
1.0
 40
1.0
 40
1.0
 40
1.0
 10
14.41611664831988
 20
88.46155722296005
 30
0.0
 10
14.34751461610133
 20
88.9653751964029
 30
0.0
 10
14.20985459969937
 20
89.9763596854162
 30
0.0
 10
14.16925074826515
 20
91.7310993699168
 30
0.0
 10
14.32456435615214
 20
92.96865101809499
 30
0.0
 10
14.41611664831987
 20
93.69814723937338
 30
0.0
  0
LINE
  5
25E
330
1F
100
AcDbEntity
  8
0
  6
Continuous
 62
     7
370
    25
100
AcDbLine
 10
15.2714070671
 20
85.0798522312
 30
0.0
 11
28.8391383931
 21
85.0798522312
 31
0.0
  0
SPLINE
  5
25F
330
1F
100
AcDbEntity
  8
0
  6
Continuous
 62
     7
370
    25
100
AcDbSpline
210
0.0
220
0.0
230
1.0
 70
     8
 71
     3
 72
     9
 73
     5
 74
     0
 42
0.00000001
 43
0.00000001
 40
0.0
 40
0.0
 40
0.0
 40
0.0
 40
0.4988470384231431
 40
1.0
 40
1.0
 40
1.0
 40
1.0
 10
15.27140706709826
 20
85.07985223116671
 30
0.0
 10
15.09483106675973
 20
85.63565056894987
 30
0.0
 10
14.74086284255882
 20
86.74981642536156
 30
0.0
 10
14.52453166075986
 20
87.8901004879533
 30
0.0
 10
14.41611664831988
 20
88.46155722296005
 30
0.0
  0
LINE
  5
260
330
1F
100
AcDbEntity
  8
0
  6
Continuous
 62
     7
370
    25
100
AcDbLine
 10
13.3335848936
 20
93.8689404208
 30
0.0
 11
13.3335848936
 21
100.2907640416
 31
0.0
  0
ARC
  5
261
330
1F
100
AcDbEntity
  8
0
  6
Continuous
 62
     7
370
    25
100
AcDbCircle
 10
13.4427105111
 20
103.1151783728
 30
0.0
 40
2.826521663600861
100
AcDbArc
 50
267.7873894577
 51
290.1441390971
  0
ARC
  5
262
330
1F
100
AcDbEntity
  8
0
  6
Continuous
 62
     7
370
    25
100
AcDbCircle
 10
13.4427105111
 20
91.0445260895
 30
0.0
 40
2.826521663610319
100
AcDbArc
 50
69.8558609029
 51
92.2126105422
  0
SPLINE
  5
263
330
1F
100
AcDbEntity
  8
0
  6
Continuous
 62
     7
370
    25
100
AcDbSpline
210
0.0
220
0.0
230
1.0
 70
     8
 71
     3
 72
    11
 73
     7
 74
     0
 42
0.00000001
 43
0.00000001
 40
0.0
 40
0.0
 40
0.0
 40
0.0
 40
0.2219160282077403
 40
0.4466603018149353
 40
0.7206213487884546
 40
1.0
 40
1.0
 40
1.0
 40
1.0
 10
13.33358489358934
 20
100.2907640415563
 30
0.0
 10
13.34651676317482
 20
100.6999050426463
 30
0.0
 10
13.37254531468925
 20
101.5234014097525
 30
0.0
 10
13.47903875748212
 20
102.7793264449068
 30
0.0
 10
13.3987015314222
 20
104.0634267356865
 30
0.0
 10
13.35543165421657
 20
104.8604609372488
 30
0.0
 10
13.33358489358934
 20
105.2628798147165
 30
0.0
  0
ARC
  5
264
330
1F
100
AcDbEntity
  8
0
  6
Continuous
 62
     7
370
    25
100
AcDbCircle
 10
13.3943186539
 20
106.6756208253
 30
0.0
 40
1.414045880664202
100
AcDbArc
 50
267.5383691895
 51
316.2700553519
  0
SPLINE
  5
265
330
1F
100
AcDbEntity
  8
0
  6
Continuous
 62
     7
370
    25
100
AcDbSpline
210
0.0
220
0.0
230
1.0
 70
     8
 71
     3
 72
    11
 73
     7
 74
     0
 42
0.00000001
 43
0.00000001
 40
0.0
 40
0.0
 40
0.0
 40
0.0
 40
0.2219160282077385
 40
0.4466603018149319
 40
0.7206213487884529
 40
0.9999999999999999
 40
0.9999999999999999
 40
0.9999999999999999
 40
0.9999999999999999
 10
13.33358489358934
 20
88.89682464761694
 30
0.0
 10
13.34651676317482
 20
89.21419591258832
 30
0.0
 10
13.37254531468925
 20
89.85298323292916
 30
0.0
 10
13.4790387574821
 20
91.0055996868025
 30
0.0
 10
13.3987015314222
 20
92.3376836999368
 30
0.0
 10
13.35543165421658
 20
93.35520076602234
 30
0.0
 10
13.33358489358934
 20
93.8689404207771
 30
0.0
  0
ARC
  5
266
330
1F
100
AcDbEntity
  8
0
  6
Continuous
 62
     7
370
    25
100
AcDbCircle
 10
13.3943186539
 20
87.484083637
 30
0.0
 40
1.414045880661618
100
AcDbArc
 50
43.7299446481
 51
92.4616308106
  0
LINE
  5
267
330
1F
100
AcDbEntity
  8
0
  6
Continuous
 62
     7
370
    25
100
AcDbLine
 10
12.2552727301
 20
108.8298522312
 30
0.0
 11
12.2552727301
 21
85.3298522312
 31
0.0
  0
LINE
  5
268
330
1F
100
AcDbEntity
  8
0
  6
Continuous
 62
     7
370
    25
100
AcDbLine
 10
13.3335848936
 20
85.6859128372
 30
0.0
 11
13.3335848936
 21
88.8968246476
 31
0.0
  0
LINE
  5
269
330
1F
100
AcDbEntity
  8
0
  6
Continuous
 62
     7
370
    25
100
AcDbLine
 10
13.3335848936
 20
105.2628798147
 30
0.0
 11
13.3335848936
 21
108.4737916251
 31
0.0
  0
LINE
  5
26A
330
1F
100
AcDbEntity
  8
0
  6
Continuous
 62
     7
370
    25
100
AcDbLine
 10
12.0552727301
 20
85.5298522312
 30
0.0
 11
12.0552727301
 21
108.6298522312
 31
0.0
  0
LINE
  5
26B
330
1F
100
AcDbEntity
  8
0
  6
Continuous
 62
     7
370
    25
100
AcDbLine
 10
14.4161166483
 20
109.0798522312
 30
0.0
 11
14.4161166483
 21
105.6981472394
 31
0.0
  0
SPLINE
  5
26C
330
1F
100
AcDbEntity
  8
0
  6
Continuous
 62
     7
370
    25
100
AcDbSpline
210
0.0
220
0.0
230
1.0
 70
    24
 71
     3
 72
     9
 73
     5
 74
     0
 42
0.00000001
 43
0.00000001
 40
0.0
 40
0.0
 40
0.0
 40
0.0
 40
0.4060341230684889
 40
1.0
 40
1.0
 40
1.0
 40
1.0
 10
15.27140706709826
 20
109.0798522311667
 30
0.0
 10
15.126397689946
 20
109.0798522311667
 30
0.0
 10
14.76926175256121
 20
109.0798522311667
 30
0.0
 10
14.54771052028443
 20
109.0798522311667
 30
0.0
 10
14.41611664831988
 20
109.0798522311667
 30
0.0
  0
ARC
  5
26D
330
1F
100
AcDbEntity
  8
0
  6
Continuous
 62
     7
370
    25
100
AcDbCircle
 10
13.3406240135
 20
109.7310456863
 30
0.0
 40
1.257273766365372
100
AcDbArc
 50
269.6792154746
 51
328.8057704957
  0
LINE
  5
26E
330
1F
100
AcDbEntity
  8
0
  6
Continuous
 62
     7
370
    25
100
AcDbLine
 10
14.4161166483
 20
88.461557223
 30
0.0
 11
14.4161166483
 21
85.0798522312
 31
0.0
  0
ARC
  5
26F
330
1F
100
AcDbEntity
  8
0
  6
Continuous
 62
     7
370
    25
100
AcDbCircle
 10
13.3406240135
 20
84.428658776
 30
0.0
 40
1.257273766367949
100
AcDbArc
 50
31.1942295044
 51
90.3207845254
  0
SPLINE
  5
270
330
1F
100
AcDbEntity
  8
0
  6
Continuous
 62
     7
370
    25
100
AcDbSpline
210
0.0
220
0.0
230
1.0
 70
    24
 71
     3
 72
     9
 73
     5
 74
     0
 42
0.00000001
 43
0.00000001
 40
0.0
 40
0.0
 40
0.0
 40
0.0
 40
0.5939658769315151
 40
1.0
 40
1.0
 40
1.0
 40
1.0
 10
14.41611664831988
 20
85.07985223116671
 30
0.0
 10
14.54771052028443
 20
85.07985223116673
 30
0.0
 10
14.76926175256122
 20
85.07985223116671
 30
0.0
 10
15.12639768994599
 20
85.07985223116671
 30
0.0
 10
15.27140706709826
 20
85.07985223116671
 30
0.0
  0
SPLINE
  5
271
330
1F
100
AcDbEntity
  8
0
  6
Continuous
 62
     7
370
    25
100
AcDbSpline
210
0.0
220
0.0
230
1.0
 70
    24
 71
     3
 72
     9
 73
     5
 74
     0
 42
0.00000001
 43
0.00000001
 40
0.0
 40
0.0
 40
0.0
 40
0.0
 40
0.8351792924549029
 40
1.0
 40
1.0
 40
1.0
 40
1.0
 10
14.41611664831988
 20
109.0798522311667
 30
0.0
 10
14.31025981633588
 20
109.0798522311667
 30
0.0
 10
14.18351238265269
 20
109.0798522311667
 30
0.0
 10
14.2167045091146
 20
109.0798522311667
 30
0.0
 10
14.22217525888297
 20
109.0798522311667
 30
0.0
  0
SPLINE
  5
272
330
1F
100
AcDbEntity
  8
0
  6
Continuous
 62
     7
370
    25
100
AcDbSpline
210
0.0
220
0.0
230
1.0
 70
    24
 71
     3
 72
     9
 73
     5
 74
     0
 42
0.00000001
 43
0.00000001
 40
0.0
 40
0.0
 40
0.0
 40
0.0
 40
0.2556139499938278
 40
0.9999999999999999
 40
0.9999999999999999
 40
0.9999999999999999
 40
0.9999999999999999
 10
14.23103218156621
 20
85.07985223116671
 30
0.0
 10
14.21978790694026
 20
85.07985223116671
 30
0.0
 10
14.17579862299775
 20
85.07985223116671
 30
0.0
 10
14.31356516001017
 20
85.07985223116671
 30
0.0
 10
14.41611664831988
 20
85.07985223116671
 30
0.0
  0
CIRCLE
  5
273
330
1F
100
AcDbEntity
  8
0
  6
Continuous
 62
     7
370
    25
100
AcDbCircle
 10
48.1148571429
 20
97.0798522312
 30
0.0
 40
11.55000000000003
  0
CIRCLE
  5
274
330
1F
100
AcDbEntity
  8
0
  6
Continuous
 62
     7
370
    25
100
AcDbCircle
 10
48.1148571429
 20
97.0798522312
 30
0.0
 40
6.175000000000026
  0
CIRCLE
  5
275
330
1F
100
AcDbEntity
  8
0
  6
Continuous
 62
     7
370
    25
100
AcDbCircle
 10
48.1148571429
 20
97.0798522312
 30
0.0
 40
11.75000000000001
  0
CIRCLE
  5
276
330
1F
100
AcDbEntity
  8
0
  6
Continuous
 62
     7
370
    25
100
AcDbCircle
 10
48.1148571429
 20
97.0798522312
 30
0.0
 40
6.075000000000003
  0
LINE
  5
277
330
1F
100
AcDbEntity
  8
0
  6
Continuous
 62
     7
370
    25
100
AcDbLine
 10
51.1382037985
 20
85.0798522312
 30
0.0
 11
50.9855095229
 21
85.6859128372
 31
0.0
  0
SPLINE
  5
278
330
1F
100
AcDbEntity
  8
0
  6
Continuous
 62
     7
370
    25
100
AcDbSpline
210
0.0
220
0.0
230
1.0
 70
    24
 71
     3
 72
    10
 73
     6
 74
     0
 42
0.00000001
 43
0.00000001
 40
0.0
 40
0.0
 40
0.0
 40
0.0
 40
0.3910406133635748
 40
0.78696609495545
 40
1.0
 40
1.0
 40
1.0
 40
1.0
 10
45.09151048724518
 20
85.07985223116673
 30
0.0
 10
45.87786492137383
 20
85.07985223116673
 30
0.0
 10
47.46039690687314
 20
85.07985223116673
 30
0.0
 10
49.4890517730973
 20
85.07985223116673
 30
0.0
 10
50.71079727394797
 20
85.07985223116673
 30
0.0
 10
51.13820379846916
 20
85.07985223116673
 30
0.0
  0
LINE
  5
279
330
1F
100
AcDbEntity
  8
0
  6
Continuous
 62
     7
370
    25
100
AcDbLine
 10
45.2442047628
 20
85.6859128372
 30
0.0
 11
45.0915104872
 21
85.0798522312
 31
0.0
  0
SPLINE
  5
27A
330
1F
100
AcDbEntity
  8
0
  6
Continuous
 62
     7
370
    25
100
AcDbSpline
210
0.0
220
0.0
230
1.0
 70
    24
 71
     3
 72
    10
 73
     6
 74
     0
 42
0.00000001
 43
0.00000001
 40
0.0
 40
0.0
 40
0.0
 40
0.0
 40
0.289683021423757
 40
0.5812913727325415
 40
0.9999999999999999
 40
0.9999999999999999
 40
0.9999999999999999
 40
0.9999999999999999
 10
60.01883531607642
 20
100.4615572229601
 30
0.0
 10
59.72795587348661
 20
100.9653751964029
 30
0.0
 10
59.14426370660826
 20
101.9763596854162
 30
0.0
 10
58.13116427740411
 20
103.7310993699168
 30
0.0
 10
57.41666350019238
 20
104.968651018095
 30
0.0
 10
56.99548866046448
 20
105.6981472393734
 30
0.0
  0
LINE
  5
27B
330
1F
100
AcDbEntity
  8
0
  6
Continuous
 62
     7
370
    25
100
AcDbLine
 10
60.0188353161
 20
100.461557223
 30
0.0
 11
59.4176242972
 21
100.2907640416
 31
0.0
  0
LINE
  5
27C
330
1F
100
AcDbEntity
  8
0
  6
Continuous
 62
     7
370
    25
100
AcDbLine
 10
56.9954886605
 20
105.6981472394
 30
0.0
 11
56.5469719172
 21
105.2628798147
 31
0.0
  0
LINE
  5
27D
330
1F
100
AcDbEntity
  8
0
  6
Continuous
 62
     7
370
    25
100
AcDbLine
 10
36.8120899885
 20
100.2907640416
 30
0.0
 11
36.2108789696
 21
100.461557223
 31
0.0
  0
SPLINE
  5
27E
330
1F
100
AcDbEntity
  8
0
  6
Continuous
 62
     7
370
    25
100
AcDbSpline
210
0.0
220
0.0
230
1.0
 70
    24
 71
     3
 72
    10
 73
     6
 74
     0
 42
0.00000001
 43
0.00000001
 40
0.0
 40
0.0
 40
0.0
 40
0.0
 40
0.2896830214237571
 40
0.5812913727325417
 40
0.9999999999999999
 40
0.9999999999999999
 40
0.9999999999999999
 40
0.9999999999999999
 10
39.23422562524989
 20
105.6981472393734
 30
0.0
 10
38.94334618266009
 20
105.1943292659305
 30
0.0
 10
38.35965401578171
 20
104.1833447769172
 30
0.0
 10
37.34655458657758
 20
102.4286050924166
 30
0.0
 10
36.63205380936584
 20
101.1910534442384
 30
0.0
 10
36.21087896963794
 20
100.4615572229601
 30
0.0
  0
LINE
  5
27F
330
1F
100
AcDbEntity
  8
0
  6
Continuous
 62
     7
370
    25
100
AcDbLine
 10
39.6827423686
 20
105.2628798147
 30
0.0
 11
39.2342256252
 21
105.6981472394
 31
0.0
  0
LINE
  5
280
330
1F
100
AcDbEntity
  8
0
  6
Continuous
 62
     7
370
    25
100
AcDbLine
 10
39.6827423686
 20
88.8968246476
 30
0.0
 11
39.2342256252
 21
88.461557223
 31
0.0
  0
SPLINE
  5
281
330
1F
100
AcDbEntity
  8
0
  6
Continuous
 62
     7
370
    25
100
AcDbSpline
210
0.0
220
0.0
230
1.0
 70
    24
 71
     3
 72
    10
 73
     6
 74
     0
 42
0.00000001
 43
0.00000001
 40
0.0
 40
0.0
 40
0.0
 40
0.0
 40
0.2896830214237566
 40
0.5812913727325407
 40
1.0
 40
1.0
 40
1.0
 40
1.0
 10
36.21087896963793
 20
93.6981472393734
 30
0.0
 10
36.50175841222774
 20
93.19432926593053
 30
0.0
 10
37.0854505791061
 20
92.18334477691722
 30
0.0
 10
38.09855000831025
 20
90.42860509241663
 30
0.0
 10
38.81305078552198
 20
89.19105344423845
 30
0.0
 10
39.23422562524989
 20
88.46155722296004
 30
0.0
  0
LINE
  5
282
330
1F
100
AcDbEntity
  8
0
  6
Continuous
 62
     7
370
    25
100
AcDbLine
 10
36.8120899885
 20
93.8689404208
 30
0.0
 11
36.2108789696
 21
93.6981472394
 31
0.0
  0
SPLINE
  5
283
330
1F
100
AcDbEntity
  8
0
  6
Continuous
 62
     7
370
    25
100
AcDbSpline
210
0.0
220
0.0
230
1.0
 70
    24
 71
     3
 72
    10
 73
     6
 74
     0
 42
0.00000001
 43
0.00000001
 40
0.0
 40
0.0
 40
0.0
 40
0.0
 40
0.2896830214237579
 40
0.5812913727325433
 40
1.0
 40
1.0
 40
1.0
 40
1.0
 10
56.99548866046448
 20
88.46155722296005
 30
0.0
 10
57.28636810305429
 20
88.9653751964029
 30
0.0
 10
57.87006026993265
 20
89.97635968541621
 30
0.0
 10
58.88315969913679
 20
91.7310993699168
 30
0.0
 10
59.59766047634852
 20
92.96865101809497
 30
0.0
 10
60.01883531607641
 20
93.69814723937337
 30
0.0
  0
LINE
  5
284
330
1F
100
AcDbEntity
  8
0
  6
Continuous
 62
     7
370
    25
100
AcDbLine
 10
56.9954886605
 20
88.461557223
 30
0.0
 11
56.5469719172
 21
88.8968246476
 31
0.0
  0
LINE
  5
285
330
1F
100
AcDbEntity
  8
0
  6
Continuous
 62
     7
370
    25
100
AcDbLine
 10
60.0188353161
 20
93.6981472394
 30
0.0
 11
59.4176242972
 21
93.8689404208
 31
0.0
  0
LINE
  5
286
330
1F
100
AcDbEntity
  8
0
  6
Continuous
 62
     7
370
    25
100
AcDbLine
 10
45.2442047628
 20
108.4737916251
 30
0.0
 11
45.0915104872
 21
109.0798522312
 31
0.0
  0
SPLINE
  5
287
330
1F
100
AcDbEntity
  8
0
  6
Continuous
 62
     7
370
    25
100
AcDbSpline
210
0.0
220
0.0
230
1.0
 70
    24
 71
     3
 72
    10
 73
     6
 74
     0
 42
0.00000001
 43
0.00000001
 40
0.0
 40
0.0
 40
0.0
 40
0.0
 40
0.2130338126352573
 40
0.6040068415968867
 40
0.9999999999999999
 40
0.9999999999999999
 40
0.9999999999999999
 40
0.9999999999999999
 10
51.13820379846914
 20
109.0798522311667
 30
0.0
 10
50.71079690906841
 20
109.0798522311667
 30
0.0
 10
49.49898606012264
 20
109.0798522311667
 30
0.0
 10
47.47052509754217
 20
109.0798522311667
 30
0.0
 10
45.8878806353733
 20
109.0798522311667
 30
0.0
 10
45.09151048724522
 20
109.0798522311667
 30
0.0
  0
LINE
  5
288
330
1F
100
AcDbEntity
  8
0
  6
Continuous
 62
     7
370
    25
100
AcDbLine
 10
51.1382037985
 20
109.0798522312
 30
0.0
 11
50.9855095229
 21
108.4737916251
 31
0.0
  0
ARC
  5
289
330
1F
100
AcDbEntity
  8
0
  6
Continuous
 62
     7
370
    25
100
AcDbCircle
 10
48.1148571429
 20
97.0798522312
 30
0.0
 40
12.37499999999999
100
AcDbArc
 50
104.1411102339
 51
135.8588897661
  0
ARC
  5
28A
330
1F
100
AcDbEntity
  8
0
  6
Continuous
 62
     7
370
    25
100
AcDbCircle
 10
48.1148571429
 20
97.0798522312
 30
0.0
 40
12.37499999999999
100
AcDbArc
 50
44.1411102339
 51
75.8588897661
  0
ARC
  5
28B
330
1F
100
AcDbEntity
  8
0
  6
Continuous
 62
     7
370
    25
100
AcDbCircle
 10
48.1148571429
 20
97.0798522312
 30
0.0
 40
12.37500000000001
100
AcDbArc
 50
164.1411102339
 51
195.8588897661
  0
ARC
  5
28C
330
1F
100
AcDbEntity
  8
0
  6
Continuous
 62
     7
370
    25
100
AcDbCircle
 10
48.1148571429
 20
97.0798522312
 30
0.0
 40
12.375
100
AcDbArc
 50
344.1411102339
 51
15.8588897661
  0
ARC
  5
28D
330
1F
100
AcDbEntity
  8
0
  6
Continuous
 62
     7
370
    25
100
AcDbCircle
 10
48.1148571429
 20
97.0798522312
 30
0.0
 40
12.37500000000001
100
AcDbArc
 50
284.1411102339
 51
315.8588897661
  0
ARC
  5
28E
330
1F
100
AcDbEntity
  8
0
  6
Continuous
 62
     7
370
    25
100
AcDbCircle
 10
48.1148571429
 20
97.0798522312
 30
0.0
 40
12.37500000000001
100
AcDbArc
 50
224.1411102339
 51
255.8588897661
  0
SPLINE
  5
28F
330
1F
100
AcDbEntity
  8
0
  6
Continuous
 62
     7
370
    25
100
AcDbSpline
210
0.0
220
0.0
230
1.0
 70
    24
 71
     3
 72
     9
 73
     5
 74
     0
 42
0.00000001
 43
0.00000001
 40
0.0
 40
0.0
 40
0.0
 40
0.0
 40
0.5939658769315154
 40
1.0
 40
1.0
 40
1.0
 40
1.0
 10
45.09151048724522
 20
109.0798522311667
 30
0.0
 10
44.30986729929572
 20
109.0798522311667
 30
0.0
 10
42.99389407876738
 20
109.0798522311667
 30
0.0
 10
41.70854819950689
 20
109.0798522311667
 30
0.0
 10
41.18665391258167
 20
109.0798522311667
 30
0.0
  0
SPLINE
  5
290
330
1F
100
AcDbEntity
  8
0
  6
Continuous
 62
     7
370
    25
100
AcDbSpline
210
0.0
220
0.0
230
1.0
 70
    24
 71
     3
 72
     9
 73
     5
 74
     0
 42
0.00000001
 43
0.00000001
 40
0.0
 40
0.0
 40
0.0
 40
0.0
 40
0.4988470384231429
 40
1.0
 40
1.0
 40
1.0
 40
1.0
 10
41.18665391258167
 20
109.0798522311667
 30
0.0
 10
40.86576359264742
 20
108.5240538933836
 30
0.0
 10
40.22249963552624
 20
107.4098880369719
 30
0.0
 10
39.56415632503626
 20
106.2696039743801
 30
0.0
 10
39.23422562524989
 20
105.6981472393734
 30
0.0
  0
SPLINE
  5
291
330
1F
100
AcDbEntity
  8
0
  6
Continuous
 62
     7
370
    25
100
AcDbSpline
210
0.0
220
0.0
230
1.0
 70
    24
 71
     3
 72
     9
 73
     5
 74
     0
 42
0.00000001
 43
0.00000001
 40
0.0
 40
0.0
 40
0.0
 40
0.0
 40
0.4986680494787144
 40
1.0
 40
1.0
 40
1.0
 40
1.0
 10
56.99548866046448
 20
105.6981472393734
 30
0.0
 10
56.66718931039818
 20
106.2667783937801
 30
0.0
 10
56.00883682439173
 20
107.4070783488325
 30
0.0
 10
55.3655570680902
 20
108.5212715702273
 30
0.0
 10
55.0430603731327
 20
109.0798522311667
 30
0.0
  0
SPLINE
  5
292
330
1F
100
AcDbEntity
  8
0
  6
Continuous
 62
     7
370
    25
100
AcDbSpline
210
0.0
220
0.0
230
1.0
 70
    24
 71
     3
 72
     9
 73
     5
 74
     0
 42
0.00000001
 43
0.00000001
 40
0.0
 40
0.0
 40
0.0
 40
0.0
 40
0.4988470384231432
 40
1.0
 40
1.0
 40
1.0
 40
1.0
 10
55.0430603731327
 20
109.0798522311667
 30
0.0
 10
54.40127973326419
 20
109.0798522311667
 30
0.0
 10
53.11475181902183
 20
109.0798522311667
 30
0.0
 10
51.79806519804187
 20
109.0798522311667
 30
0.0
 10
51.13820379846914
 20
109.0798522311667
 30
0.0
  0
SPLINE
  5
293
330
1F
100
AcDbEntity
  8
0
  6
Continuous
 62
     7
370
    25
100
AcDbSpline
210
0.0
220
0.0
230
1.0
 70
    24
 71
     3
 72
     9
 73
     5
 74
     0
 42
0.00000001
 43
0.00000001
 40
0.0
 40
0.0
 40
0.0
 40
0.0
 40
0.4988470384231432
 40
1.0
 40
1.0
 40
1.0
 40
1.0
 10
34.25845068230616
 20
97.07985223116673
 30
0.0
 10
34.57934100224041
 20
96.52405389338357
 30
0.0
 10
35.22260495936159
 20
95.40988803697186
 30
0.0
 10
35.88094826985157
 20
94.26960397438015
 30
0.0
 10
36.21087896963793
 20
93.6981472393734
 30
0.0
  0
SPLINE
  5
294
330
1F
100
AcDbEntity
  8
0
  6
Continuous
 62
     7
370
    25
100
AcDbSpline
210
0.0
220
0.0
230
1.0
 70
    24
 71
     3
 72
     9
 73
     5
 74
     0
 42
0.00000001
 43
0.00000001
 40
0.0
 40
0.0
 40
0.0
 40
0.0
 40
0.4986680494787148
 40
1.0
 40
1.0
 40
1.0
 40
1.0
 10
36.21087896963794
 20
100.4615572229601
 30
0.0
 10
35.88257961957164
 20
99.89292606855338
 30
0.0
 10
35.22422713356519
 20
98.75262611350092
 30
0.0
 10
34.58094737726366
 20
97.63843289210615
 30
0.0
 10
34.25845068230616
 20
97.07985223116673
 30
0.0
  0
SPLINE
  5
295
330
1F
100
AcDbEntity
  8
0
  6
Continuous
 62
     7
370
    25
100
AcDbSpline
210
0.0
220
0.0
230
1.0
 70
    24
 71
     3
 72
     9
 73
     5
 74
     0
 42
0.00000001
 43
0.00000001
 40
0.0
 40
0.0
 40
0.0
 40
0.0
 40
0.4986680494787146
 40
1.0
 40
1.0
 40
1.0
 40
1.0
 10
60.01883531607641
 20
93.69814723937337
 30
0.0
 10
60.34713466614272
 20
94.26677839378004
 30
0.0
 10
61.00548715214917
 20
95.4070783488325
 30
0.0
 10
61.6487669084507
 20
96.52127157022727
 30
0.0
 10
61.9712636034082
 20
97.07985223116673
 30
0.0
  0
SPLINE
  5
296
330
1F
100
AcDbEntity
  8
0
  6
Continuous
 62
     7
370
    25
100
AcDbSpline
210
0.0
220
0.0
230
1.0
 70
    24
 71
     3
 72
     9
 73
     5
 74
     0
 42
0.00000001
 43
0.00000001
 40
0.0
 40
0.0
 40
0.0
 40
0.0
 40
0.498847038423143
 40
1.0
 40
1.0
 40
1.0
 40
1.0
 10
61.9712636034082
 20
97.07985223116673
 30
0.0
 10
61.65037328347395
 20
97.63565056894988
 30
0.0
 10
61.00710932635277
 20
98.74981642536157
 30
0.0
 10
60.34876601586279
 20
99.89010048795332
 30
0.0
 10
60.01883531607642
 20
100.4615572229601
 30
0.0
  0
SPLINE
  5
297
330
1F
100
AcDbEntity
  8
0
  6
Continuous
 62
     7
370
    25
100
AcDbSpline
210
0.0
220
0.0
230
1.0
 70
    24
 71
     3
 72
     9
 73
     5
 74
     0
 42
0.00000001
 43
0.00000001
 40
0.0
 40
0.0
 40
0.0
 40
0.0
 40
0.4060341230684891
 40
1.0
 40
1.0
 40
1.0
 40
1.0
 10
41.18665391258166
 20
85.07985223116673
 30
0.0
 10
41.70854819950688
 20
85.07985223116673
 30
0.0
 10
42.99389407876735
 20
85.07985223116673
 30
0.0
 10
44.30986729929568
 20
85.07985223116673
 30
0.0
 10
45.09151048724518
 20
85.07985223116673
 30
0.0
  0
SPLINE
  5
298
330
1F
100
AcDbEntity
  8
0
  6
Continuous
 62
     7
370
    25
100
AcDbSpline
210
0.0
220
0.0
230
1.0
 70
    24
 71
     3
 72
     9
 73
     5
 74
     0
 42
0.00000001
 43
0.00000001
 40
0.0
 40
0.0
 40
0.0
 40
0.0
 40
0.4986680494787149
 40
1.0
 40
1.0
 40
1.0
 40
1.0
 10
39.23422562524989
 20
88.46155722296004
 30
0.0
 10
39.56252497531619
 20
87.89292606855336
 30
0.0
 10
40.22087746132264
 20
86.75262611350091
 30
0.0
 10
40.86415721762416
 20
85.63843289210615
 30
0.0
 10
41.18665391258166
 20
85.07985223116673
 30
0.0
  0
SPLINE
  5
299
330
1F
100
AcDbEntity
  8
0
  6
Continuous
 62
     7
370
    25
100
AcDbSpline
210
0.0
220
0.0
230
1.0
 70
    24
 71
     3
 72
     9
 73
     5
 74
     0
 42
0.00000001
 43
0.00000001
 40
0.0
 40
0.0
 40
0.0
 40
0.0
 40
0.4986680494787147
 40
1.0
 40
1.0
 40
1.0
 40
1.0
 10
51.13820379846916
 20
85.07985223116673
 30
0.0
 10
51.79480249860176
 20
85.07985223116673
 30
0.0
 10
53.11150747061466
 20
85.07985223116671
 30
0.0
 10
54.3980669832177
 20
85.07985223116673
 30
0.0
 10
55.0430603731327
 20
85.07985223116673
 30
0.0
  0
SPLINE
  5
29A
330
1F
100
AcDbEntity
  8
0
  6
Continuous
 62
     7
370
    25
100
AcDbSpline
210
0.0
220
0.0
230
1.0
 70
    24
 71
     3
 72
     9
 73
     5
 74
     0
 42
0.00000001
 43
0.00000001
 40
0.0
 40
0.0
 40
0.0
 40
0.0
 40
0.4988470384231428
 40
1.0
 40
1.0
 40
1.0
 40
1.0
 10
55.0430603731327
 20
85.07985223116673
 30
0.0
 10
55.36395069306695
 20
85.63565056894987
 30
0.0
 10
56.00721465018813
 20
86.74981642536157
 30
0.0
 10
56.66555796067811
 20
87.89010048795332
 30
0.0
 10
56.99548866046448
 20
88.46155722296005
 30
0.0
  0
CIRCLE
  5
29B
330
1F
100
AcDbEntity
  8
0
  6
Continuous
 62
     7
370
    25
100
AcDbCircle
 10
48.1148571429
 20
97.0798522312
 30
0.0
 40
4.999999999999993
  0
LINE
  5
29C
330
1F
100
AcDbEntity
  8
0
  6
Continuous
 62
     7
370
    25
100
AcDbLine
 10
63.1410790624
 20
86.6023522312
 30
0.0
 11
63.1410790624
 21
107.5573522312
 31
0.0
  0
LINE
  5
29D
330
1F
100
AcDbEntity
  8
0
  6
Continuous
 62
     7
370
    25
100
AcDbLine
 10
63.1148571429
 20
86.8298522476
 30
0.0
 11
63.1148571429
 21
107.3298522312
 31
0.0
  0
LINE
  5
29E
330
1F
100
AcDbEntity
  8
0
  6
Continuous
 62
     7
370
    25
100
AcDbLine
 10
33.0886352233
 20
107.5573522312
 30
0.0
 11
33.0886352233
 21
86.6023522312
 31
0.0
  0
LINE
  5
29F
330
1F
100
AcDbEntity
  8
0
  6
Continuous
 62
     7
370
    25
100
AcDbLine
 10
33.1148571429
 20
107.3298522147
 30
0.0
 11
33.1148571429
 21
86.8298522312
 31
0.0
  0
SPLINE
  5
2A0
330
1F
100
AcDbEntity
  8
0
  6
Continuous
 62
     7
370
    25
100
AcDbSpline
210
0.0
220
0.0
230
1.0
 70
     8
 71
     3
 72
     9
 73
     5
 74
     0
 42
0.00000001
 43
0.00000001
 40
0.0
 40
0.0
 40
0.0
 40
0.0
 40
0.4411554392213024
 40
1.0
 40
1.0
 40
1.0
 40
1.0
 10
82.79189085037817
 20
108.8129840762789
 30
0.0
 10
82.80218864323699
 20
108.8081541168064
 30
0.0
 10
82.82553141982609
 20
108.7972056867452
 30
0.0
 10
82.87082007404808
 20
108.5897353142806
 30
0.0
 10
82.89612939212502
 20
108.4737916251061
 30
0.0
  0
SPLINE
  5
2A1
330
1F
100
AcDbEntity
  8
0
  6
Continuous
 62
     7
370
    25
100
AcDbSpline
210
0.0
220
0.0
230
1.0
 70
     8
 71
     3
 72
    10
 73
     6
 74
     0
 42
0.00000001
 43
0.00000001
 40
0.0
 40
0.0
 40
0.0
 40
0.0
 40
0.4437627669904209
 40
0.8931811417089278
 40
1.0
 40
1.0
 40
1.0
 40
1.0
 10
82.89612939212502
 20
85.68591283722732
 30
0.0
 10
82.88492971526776
 20
85.5970194687594
 30
0.0
 10
82.86238762542555
 20
85.41809981563706
 30
0.0
 10
82.76881972802938
 20
85.31375174420702
 30
0.0
 10
82.78817407440816
 20
85.34140911190256
 30
0.0
 10
82.79189085038155
 20
85.34672038605909
 30
0.0
  0
SPLINE
  5
2A2
330
1F
100
AcDbEntity
  8
0
  6
Continuous
 62
     7
370
    25
100
AcDbSpline
210
0.0
220
0.0
230
1.0
 70
     8
 71
     3
 72
     9
 73
     5
 74
     0
 42
0.00000001
 43
0.00000001
 40
0.0
 40
0.0
 40
0.0
 40
0.0
 40
0.4411554392212865
 40
1.0
 40
1.0
 40
1.0
 40
1.0
 10
13.43782343533618
 20
85.34672038605456
 30
0.0
 10
13.42752564247736
 20
85.351550345527
 30
0.0
 10
13.40418286588824
 20
85.36249877558826
 30
0.0
 10
13.35889421166628
 20
85.56996914805279
 30
0.0
 10
13.33358489358934
 20
85.68591283722732
 30
0.0
  0
SPLINE
  5
2A3
330
1F
100
AcDbEntity
  8
0
  6
Continuous
 62
     7
370
    25
100
AcDbSpline
210
0.0
220
0.0
230
1.0
 70
     8
 71
     3
 72
    10
 73
     6
 74
     0
 42
0.00000001
 43
0.00000001
 40
0.0
 40
0.0
 40
0.0
 40
0.0
 40
0.4437627669904086
 40
0.8931811417089027
 40
1.0
 40
1.0
 40
1.0
 40
1.0
 10
13.33358489358934
 20
108.4737916251061
 30
0.0
 10
13.34478457044658
 20
108.562684993574
 30
0.0
 10
13.36732666028882
 20
108.7416046466964
 30
0.0
 10
13.46089455768493
 20
108.8459527181264
 30
0.0
 10
13.44154021130618
 20
108.8182953504309
 30
0.0
 10
13.4378234353328
 20
108.8129840762743
 30
0.0
  0
LINE
  5
2A4
330
1F
100
AcDbEntity
  8
0
  6
Continuous
 62
     7
370
    25
100
AcDbLine
 10
62.1148571429
 20
88.5798522312
 30
0.0
 11
62.1148571429
 21
105.5798522312
 31
0.0
  0
LINE
  5
2A5
330
1F
100
AcDbEntity
  8
0
  6
Continuous
 62
     7
370
    25
100
AcDbLine
 10
34.1148571429
 20
105.5798522312
 30
0.0
 11
34.1148571429
 21
88.5798522312
 31
0.0
  0
MTEXT
  5
2A7
330
1F
100
AcDbEntity
  8
0
  6
Continuous
 62
     7
370
     0
100
AcDbMText
 10
68.0564091027
 20
74.688436581
 30
0.0
 40
3.5
 41
0.0
 71
     1
 72
     1
  1
三方リングチーズ　RT-3412R
  7
SLDTEXTSTYLE0
 73
     1
 44
1.0
  0
INSERT
  5
2B3
330
1F
100
AcDbEntity
  8
0
  6
Continuous
 62
     7
370
    18
100
AcDbBlockReference
  2
SW_CENTERMARKSYMBOL_1
 10
48.1148571429
 20
97.0798522312
 30
0.0
  0
ENDSEC
  0
SECTION
  2
OBJECTS
  0
DICTIONARY
  5
C
330
0
100
AcDbDictionary
281
     1
  3
ACAD_GROUP
350
D
  3
ACAD_LAYOUT
350
1A
  3
ACAD_MLINESTYLE
350
17
  3
ACAD_PLOTSETTINGS
350
19
  3
ACAD_PLOTSTYLENAME
350
E
  3
ACAD_SCALELIST
350
47
  3
DWGPROPS
350
2B4
  0
DICTIONARY
  5
D
102
{ACAD_REACTORS
330
C
102
}
330
C
100
AcDbDictionary
281
     1
  0
DICTIONARY
  5
1A
102
{ACAD_REACTORS
330
C
102
}
330
C
100
AcDbDictionary
281
     1
  3
Layout1
350
1E
  3
Layout2
350
26
  3
Model
350
22
  0
DICTIONARY
  5
17
102
{ACAD_REACTORS
330
C
102
}
330
C
100
AcDbDictionary
281
     1
  3
Standard
350
18
  0
DICTIONARY
  5
19
102
{ACAD_REACTORS
330
C
102
}
330
C
100
AcDbDictionary
281
     1
  0
ACDBDICTIONARYWDFLT
  5
E
102
{ACAD_REACTORS
330
C
102
}
330
C
100
AcDbDictionary
281
     1
  3
Normal
350
F
100
AcDbDictionaryWithDefault
340
F
  0
DICTIONARY
  5
47
102
{ACAD_REACTORS
330
C
102
}
330
C
100
AcDbDictionary
281
     1
  3
A0
350
48
  3
A1
350
49
  3
A2
350
4A
  3
A3
350
4B
  3
A4
350
4C
  3
A5
350
4D
  3
A6
350
4E
  3
A7
350
4F
  3
A8
350
50
  3
A9
350
51
  3
B0
350
52
  3
B1
350
53
  3
B2
350
54
  3
B3
350
55
  3
B4
350
56
  3
B5
350
57
  3
B6
350
58
  0
XRECORD
  5
2B4
102
{ACAD_REACTORS
330
C
102
}
330
C
100
AcDbXrecord
280
     1
  1
DWGPROPS COOKIE
  2

  3

  4

  6

  7

  8
user52
  9

300
=
301
=
302
=
303
=
304
=
305
=
306
=
307
=
308
=
309
=
 40
0.0
 41
2460279.368240776
 42
2460279.368241227
  1

 90
        0
  0
LAYOUT
  5
1E
102
{ACAD_REACTORS
330
1A
102
}
330
1A
100
AcDbPlotSettings
  1

  2
none_device
  4

  6

 40
0.0
 41
0.0
 42
0.0
 43
0.0
 44
0.0
 45
0.0
 46
0.0
 47
0.0
 48
0.0
 49
0.0
140
0.0
141
0.0
142
1.0
143
1.0
 70
   688
 72
     1
 73
     0
 74
     5
  7

 75
    16
147
1.0
148
0.0
149
0.0
100
AcDbLayout
  1
Layout1
 70
     1
 71
     1
 10
0.0
 20
0.0
 11
420.0
 21
297.0
 12
0.0
 22
0.0
 32
0.0
 14
1.0000000000E+20
 24
1.0000000000E+20
 34
1.0000000000E+20
 15
-1.0000000000E+20
 25
-1.0000000000E+20
 35
-1.0000000000E+20
146
0.0
 13
0.0
 23
0.0
 33
0.0
 16
1.0
 26
0.0
 36
0.0
 17
0.0
 27
1.0
 37
0.0
 76
     0
330
1B
  0
LAYOUT
  5
26
102
{ACAD_REACTORS
330
1A
102
}
330
1A
100
AcDbPlotSettings
  1

  2
none_device
  4

  6

 40
0.0
 41
0.0
 42
0.0
 43
0.0
 44
0.0
 45
0.0
 46
0.0
 47
0.0
 48
0.0
 49
0.0
140
0.0
141
0.0
142
1.0
143
1.0
 70
   688
 72
     1
 73
     0
 74
     5
  7

 75
    16
147
1.0
148
0.0
149
0.0
100
AcDbLayout
  1
Layout2
 70
     1
 71
     2
 10
0.0
 20
0.0
 11
0.0
 21
0.0
 12
0.0
 22
0.0
 32
0.0
 14
0.0
 24
0.0
 34
0.0
 15
0.0
 25
0.0
 35
0.0
146
0.0
 13
0.0
 23
0.0
 33
0.0
 16
1.0
 26
0.0
 36
0.0
 17
0.0
 27
1.0
 37
0.0
 76
     0
330
23
  0
LAYOUT
  5
22
102
{ACAD_REACTORS
330
1A
102
}
330
1A
100
AcDbPlotSettings
  1

  2
none_device
  4
Letter_(8.50_x_11.00_Inches)
  6

 40
6.35
 41
6.35
 42
6.35000508
 43
6.35000508
 44
215.9
 45
279.4
 46
0.0
 47
0.0
 48
0.0
 49
0.0
140
0.0
141
0.0
142
1.0
143
1.0
 70
  1712
 72
     1
 73
     0
 74
     0
  7

 75
     0
147
1.0
148
0.0
149
0.0
100
AcDbLayout
  1
Model
 70
     1
 71
     0
 10
0.0
 20
0.0
 11
431.8
 21
279.4
 12
0.0
 22
0.0
 32
0.0
 14
0.0
 24
0.0
 34
0.0
 15
431.8
 25
279.4
 35
0.0
146
0.0
 13
0.0
 23
0.0
 33
0.0
 16
1.0
 26
0.0
 36
0.0
 17
0.0
 27
1.0
 37
0.0
 76
     0
330
1F
331
29
  0
MLINESTYLE
  5
18
102
{ACAD_REACTORS
330
17
102
}
330
17
100
AcDbMlineStyle
  2
Standard
 70
     0
  3

 62
   256
 51
90.0
 52
90.0
 71
     2
 49
0.5
 62
   256
  6
BYLAYER
 49
-0.5
 62
   256
  6
BYLAYER
  0
ACDBPLACEHOLDER
  5
F
102
{ACAD_REACTORS
330
E
102
}
330
E
  0
SCALE
  5
48
102
{ACAD_REACTORS
330
47
102
}
330
47
100
AcDbScale
 70
     0
300
1:1
140
1.0
141
1.0
290
     1
  0
SCALE
  5
49
102
{ACAD_REACTORS
330
47
102
}
330
47
100
AcDbScale
 70
     0
300
1:2
140
1.0
141
2.0
290
     0
  0
SCALE
  5
4A
102
{ACAD_REACTORS
330
47
102
}
330
47
100
AcDbScale
 70
     0
300
1:4
140
1.0
141
4.0
290
     0
  0
SCALE
  5
4B
102
{ACAD_REACTORS
330
47
102
}
330
47
100
AcDbScale
 70
     0
300
1:5
140
1.0
141
5.0
290
     0
  0
SCALE
  5
4C
102
{ACAD_REACTORS
330
47
102
}
330
47
100
AcDbScale
 70
     0
300
1:8
140
1.0
141
8.0
290
     0
  0
SCALE
  5
4D
102
{ACAD_REACTORS
330
47
102
}
330
47
100
AcDbScale
 70
     0
300
1:10
140
1.0
141
10.0
290
     0
  0
SCALE
  5
4E
102
{ACAD_REACTORS
330
47
102
}
330
47
100
AcDbScale
 70
     0
300
1:16
140
1.0
141
16.0
290
     0
  0
SCALE
  5
4F
102
{ACAD_REACTORS
330
47
102
}
330
47
100
AcDbScale
 70
     0
300
1:20
140
1.0
141
20.0
290
     0
  0
SCALE
  5
50
102
{ACAD_REACTORS
330
47
102
}
330
47
100
AcDbScale
 70
     0
300
1:30
140
1.0
141
30.0
290
     0
  0
SCALE
  5
51
102
{ACAD_REACTORS
330
47
102
}
330
47
100
AcDbScale
 70
     0
300
1:40
140
1.0
141
40.0
290
     0
  0
SCALE
  5
52
102
{ACAD_REACTORS
330
47
102
}
330
47
100
AcDbScale
 70
     0
300
1:50
140
1.0
141
50.0
290
     0
  0
SCALE
  5
53
102
{ACAD_REACTORS
330
47
102
}
330
47
100
AcDbScale
 70
     0
300
1:100
140
1.0
141
100.0
290
     0
  0
SCALE
  5
54
102
{ACAD_REACTORS
330
47
102
}
330
47
100
AcDbScale
 70
     0
300
2:1
140
2.0
141
1.0
290
     0
  0
SCALE
  5
55
102
{ACAD_REACTORS
330
47
102
}
330
47
100
AcDbScale
 70
     0
300
4:1
140
4.0
141
1.0
290
     0
  0
SCALE
  5
56
102
{ACAD_REACTORS
330
47
102
}
330
47
100
AcDbScale
 70
     0
300
8:1
140
8.0
141
1.0
290
     0
  0
SCALE
  5
57
102
{ACAD_REACTORS
330
47
102
}
330
47
100
AcDbScale
 70
     0
300
10:1
140
10.0
141
1.0
290
     0
  0
SCALE
  5
58
102
{ACAD_REACTORS
330
47
102
}
330
47
100
AcDbScale
 70
     0
300
100:1
140
100.0
141
1.0
290
     0
  0
ENDSEC
  0
EOF
