  0
SECTION
  2
HEADER
  9
$ACADVER
  1
AC1015
  9
$ACADMAINTVER
 70
     6
  9
$DWGCODEPAGE
  3
DOS932
  9
$INSBASE
 10
0.0
 20
0.0
 30
0.0
  9
$EXTMIN
 10
0.0
 20
0.0
 30
0.0
  9
$EXTMAX
 10
431.8
 20
279.4
 30
0.0
  9
$LIMMIN
 10
0.0
 20
0.0
  9
$LIMMAX
 10
431.8
 20
279.4
  9
$ORTHOMODE
 70
     0
  9
$REGENMODE
 70
     1
  9
$FILLMODE
 70
     1
  9
$QTEXTMODE
 70
     0
  9
$MIRRTEXT
 70
     1
  9
$LTSCALE
 40
1.0
  9
$ATTMODE
 70
     1
  9
$TEXTSIZE
 40
3.5
  9
$TRACEWID
 40
1.0
  9
$TEXTSTYLE
  7
Standard
  9
$CLAYER
  8
0
  9
$CELTYPE
  6
ByLayer
  9
$CECOLOR
 62
   256
  9
$CELTSCALE
 40
1.0
  9
$DISPSILH
 70
     0
  9
$DIMSCALE
 40
1.0
  9
$DIMASZ
 40
3.556
  9
$DIMEXO
 40
1.0
  9
$DIMDLI
 40
3.75
  9
$DIMRND
 40
0.0
  9
$DIMDLE
 40
0.0
  9
$DIMEXE
 40
1.0
  9
$DIMTP
 40
0.0
  9
$DIMTM
 40
0.0
  9
$DIMTXT
 40
3.5
  9
$DIMCEN
 40
2.5
  9
$DIMTSZ
 40
0.0
  9
$DIMTOL
 70
     0
  9
$DIMLIM
 70
     0
  9
$DIMTIH
 70
     1
  9
$DIMTOH
 70
     1
  9
$DIMSE1
 70
     0
  9
$DIMSE2
 70
     0
  9
$DIMTAD
 70
     1
  9
$DIMZIN
 70
     0
  9
$DIMBLK
  1

  9
$DIMASO
 70
     1
  9
$DIMSHO
 70
     1
  9
$DIMPOST
  1

  9
$DIMAPOST
  1

  9
$DIMALT
 70
     0
  9
$DIMALTD
 70
     3
  9
$DIMALTF
 40
0.0393700787
  9
$DIMLFAC
 40
1.0
  9
$DIMTOFL
 70
     1
  9
$DIMTVP
 40
0.0
  9
$DIMTIX
 70
     0
  9
$DIMSOXD
 70
     0
  9
$DIMSAH
 70
     0
  9
$DIMBLK1
  1

  9
$DIMBLK2
  1

  9
$DIMSTYLE
  2
ISO-25
  9
$DIMCLRD
 70
     0
  9
$DIMCLRE
 70
     0
  9
$DIMCLRT
 70
     0
  9
$DIMTFAC
 40
1.0
  9
$DIMGAP
 40
1.524
  9
$DIMJUST
 70
     0
  9
$DIMSD1
 70
     0
  9
$DIMSD2
 70
     0
  9
$DIMTOLJ
 70
     0
  9
$DIMTZIN
 70
     0
  9
$DIMALTZ
 70
     0
  9
$DIMALTTZ
 70
     0
  9
$DIMUPT
 70
     0
  9
$DIMDEC
 70
     3
  9
$DIMTDEC
 70
     3
  9
$DIMALTU
 70
     2
  9
$DIMALTTD
 70
     3
  9
$DIMTXSTY
  7
Standard
  9
$DIMAUNIT
 70
     0
  9
$DIMADEC
 70
     2
  9
$DIMALTRND
 40
0.0
  9
$DIMAZIN
 70
     0
  9
$DIMDSEP
 70
    44
  9
$DIMATFIT
 70
     3
  9
$DIMFRAC
 70
     0
  9
$DIMLDRBLK
  1

  9
$DIMLUNIT
 70
     2
  9
$DIMLWD
 70
    -2
  9
$DIMLWE
 70
    -2
  9
$DIMTMOVE
 70
     0
  9
$LUNITS
 70
     2
  9
$LUPREC
 70
     3
  9
$SKETCHINC
 40
1.0
  9
$FILLETRAD
 40
0.0
  9
$AUNITS
 70
     0
  9
$AUPREC
 70
     2
  9
$MENU
  1
.
  9
$ELEVATION
 40
0.0
  9
$PELEVATION
 40
0.0
  9
$THICKNESS
 40
0.0
  9
$LIMCHECK
 70
     0
  9
$CHAMFERA
 40
0.0
  9
$CHAMFERB
 40
0.0
  9
$CHAMFERC
 40
0.0
  9
$CHAMFERD
 40
0.0
  9
$SKPOLY
 70
     0
  9
$TDCREATE
 40
2460279.71997463
  9
$TDUCREATE
 40
2460279.34497463
  9
$TDUPDATE
 40
2460279.71997522
  9
$TDUUPDATE
 40
2460279.34497522
  9
$TDINDWG
 40
0.0000000116
  9
$TDUSRTIMER
 40
0.0000000116
  9
$USRTIMER
 70
     1
  9
$ANGBASE
 50
0.0
  9
$ANGDIR
 70
     0
  9
$PDMODE
 70
     0
  9
$PDSIZE
 40
-1.0
  9
$PLINEWID
 40
0.0
  9
$SPLFRAME
 70
     0
  9
$SPLINETYPE
 70
     6
  9
$SPLINESEGS
 70
     8
  9
$HANDSEED
  5
2D3
  9
$SURFTAB1
 70
     6
  9
$SURFTAB2
 70
     6
  9
$SURFTYPE
 70
     6
  9
$SURFU
 70
     6
  9
$SURFV
 70
     6
  9
$UCSBASE
  2

  9
$UCSNAME
  2

  9
$UCSORG
 10
0.0
 20
0.0
 30
0.0
  9
$UCSXDIR
 10
1.0
 20
0.0
 30
0.0
  9
$UCSYDIR
 10
0.0
 20
1.0
 30
0.0
  9
$UCSORTHOREF
  2

  9
$UCSORTHOVIEW
 70
     0
  9
$UCSORGTOP
 10
0.0
 20
0.0
 30
0.0
  9
$UCSORGBOTTOM
 10
0.0
 20
0.0
 30
0.0
  9
$UCSORGLEFT
 10
0.0
 20
0.0
 30
0.0
  9
$UCSORGRIGHT
 10
0.0
 20
0.0
 30
0.0
  9
$UCSORGFRONT
 10
0.0
 20
0.0
 30
0.0
  9
$UCSORGBACK
 10
0.0
 20
0.0
 30
0.0
  9
$PUCSBASE
  2

  9
$PUCSNAME
  2

  9
$PUCSORG
 10
0.0
 20
0.0
 30
0.0
  9
$PUCSXDIR
 10
1.0
 20
0.0
 30
0.0
  9
$PUCSYDIR
 10
0.0
 20
1.0
 30
0.0
  9
$PUCSORTHOREF
  2

  9
$PUCSORTHOVIEW
 70
     0
  9
$PUCSORGTOP
 10
0.0
 20
0.0
 30
0.0
  9
$PUCSORGBOTTOM
 10
0.0
 20
0.0
 30
0.0
  9
$PUCSORGLEFT
 10
0.0
 20
0.0
 30
0.0
  9
$PUCSORGRIGHT
 10
0.0
 20
0.0
 30
0.0
  9
$PUCSORGFRONT
 10
0.0
 20
0.0
 30
0.0
  9
$PUCSORGBACK
 10
0.0
 20
0.0
 30
0.0
  9
$USERI1
 70
     0
  9
$USERI2
 70
     0
  9
$USERI3
 70
     0
  9
$USERI4
 70
     0
  9
$USERI5
 70
     0
  9
$USERR1
 40
0.0
  9
$USERR2
 40
0.0
  9
$USERR3
 40
0.0
  9
$USERR4
 40
0.0
  9
$USERR5
 40
0.0
  9
$WORLDVIEW
 70
     1
  9
$SHADEDGE
 70
     3
  9
$SHADEDIF
 70
    70
  9
$TILEMODE
 70
     1
  9
$MAXACTVP
 70
    64
  9
$PINSBASE
 10
0.0
 20
0.0
 30
0.0
  9
$PLIMCHECK
 70
     0
  9
$PEXTMIN
 10
1.0000000000E+20
 20
1.0000000000E+20
 30
1.0000000000E+20
  9
$PEXTMAX
 10
-1.0000000000E+20
 20
-1.0000000000E+20
 30
-1.0000000000E+20
  9
$PLIMMIN
 10
0.0
 20
0.0
  9
$PLIMMAX
 10
420.0
 20
297.0
  9
$UNITMODE
 70
     0
  9
$VISRETAIN
 70
     1
  9
$PLINEGEN
 70
     0
  9
$PSLTSCALE
 70
     1
  9
$TREEDEPTH
 70
  3020
  9
$CMLSTYLE
  2
Standard
  9
$CMLJUST
 70
     0
  9
$CMLSCALE
 40
20.0
  9
$PROXYGRAPHICS
 70
     1
  9
$MEASUREMENT
 70
     1
  9
$CELWEIGHT
370
    -1
  9
$ENDCAPS
280
     0
  9
$JOINSTYLE
280
     0
  9
$LWDISPLAY
290
     1
  9
$INSUNITS
 70
     4
  9
$HYPERLINKBASE
  1

  9
$STYLESHEET
  1

  9
$XEDIT
290
     1
  9
$CEPSNTYPE
380
     0
  9
$PSTYLEMODE
290
     1
  9
$FINGERPRINTGUID
  2
{325fcb9a-02dc-4b24-a91a-c08d136b4fdb}
  9
$VERSIONGUID
  2
{FAEB1C32-E019-11D5-929B-00C0DF256EC4}
  9
$EXTNAMES
290
     1
  9
$PSVPSCALE
 40
0.0
  9
$OLESTARTUP
290
     0
  0
ENDSEC
  0
SECTION
  2
CLASSES
  0
CLASS
  1
ACDBDICTIONARYWDFLT
  2
AcDbDictionaryWithDefault
  3
ObjectDBX Classes
 90
        0
280
     0
281
     0
  0
CLASS
  1
VISUALSTYLE
  2
AcDbVisualStyle
  3
ObjectDBX Classes
 90
     4095
280
     0
281
     0
  0
CLASS
  1
MATERIAL
  2
AcDbMaterial
  3
ObjectDBX Classes
 90
     1153
280
     0
281
     0
  0
CLASS
  1
SCALE
  2
AcDbScale
  3
ObjectDBX Classes
 90
     1153
280
     0
281
     0
  0
CLASS
  1
TABLESTYLE
  2
AcDbTableStyle
  3
ObjectDBX Classes
 90
     4095
280
     0
281
     0
  0
CLASS
  1
MLEADERSTYLE
  2
AcDbMLeaderStyle
  3
ACDB_MLEADERSTYLE_CLASS
 90
     4095
280
     0
281
     0
  0
CLASS
  1
SUN
  2
AcDbSun
  3
SCENEOE
 90
     1153
280
     0
281
     0
  0
CLASS
  1
ACDBPLACEHOLDER
  2
AcDbPlaceHolder
  3
ObjectDBX Classes
 90
        0
280
     0
281
     0
  0
CLASS
  1
LAYOUT
  2
AcDbLayout
  3
ObjectDBX Classes
 90
        0
280
     0
281
     0
  0
ENDSEC
  0
SECTION
  2
TABLES
  0
TABLE
  2
VPORT
  5
8
330
0
100
AcDbSymbolTable
 70
     1
  0
VPORT
  5
29
330
8
100
AcDbSymbolTableRecord
100
AcDbViewportTableRecord
  2
*Active
 70
     0
 10
0.0
 20
0.0
 11
1.0
 21
1.0
 12
215.9
 22
139.7
 13
0.0
 23
0.0
 14
10.0
 24
10.0
 15
10.0
 25
10.0
 16
0.0
 26
0.0
 36
1.0
 17
0.0
 27
0.0
 37
0.0
 40
279.4
 41
1.5454545455
 42
50.0
 43
0.0
 44
0.0
 50
0.0
 51
0.0
 71
     0
 72
  2000
 73
     1
 74
     3
 75
     0
 76
     0
 77
     0
 78
     0
281
     0
 65
     1
110
0.0
120
0.0
130
0.0
111
1.0
121
0.0
131
0.0
112
0.0
122
1.0
132
0.0
 79
     0
146
0.0
  0
ENDTAB
  0
TABLE
  2
LTYPE
  5
5
330
0
100
AcDbSymbolTable
 70
     6
  0
LTYPE
  5
14
330
5
100
AcDbSymbolTableRecord
100
AcDbLinetypeTableRecord
  2
ByBlock
 70
     0
  3

 72
    65
 73
     0
 40
0.0
  0
LTYPE
  5
15
330
5
100
AcDbSymbolTableRecord
100
AcDbLinetypeTableRecord
  2
ByLayer
 70
     0
  3

 72
    65
 73
     0
 40
0.0
  0
LTYPE
  5
16
330
5
100
AcDbSymbolTableRecord
100
AcDbLinetypeTableRecord
  2
Continuous
 70
     0
  3
Solid line
 72
    65
 73
     0
 40
0.0
  0
LTYPE
  5
5E
330
5
100
AcDbSymbolTableRecord
100
AcDbLinetypeTableRecord
  2
HIDDEN
 70
     0
  3
Hidden __ __ __ __ __ __ __ __ __ __ __ __ __ __
 72
    65
 73
     2
 40
1.905
 49
1.27
 74
     0
 49
-0.635
 74
     0
  0
LTYPE
  5
5F
330
5
100
AcDbSymbolTableRecord
100
AcDbLinetypeTableRecord
  2
PHANTOM
 70
     0
  3
Phantom ______  __  __  ______  __  __  ______
 72
    65
 73
     6
 40
12.7
 49
6.35
 74
     0
 49
-1.27
 74
     0
 49
1.27
 74
     0
 49
-1.27
 74
     0
 49
1.27
 74
     0
 49
-1.27
 74
     0
  0
LTYPE
  5
60
330
5
100
AcDbSymbolTableRecord
100
AcDbLinetypeTableRecord
  2
CENTER
 70
     0
  3
Center ____ _ ____ _ ____ _ ____ _ ____ _ ____
 72
    65
 73
     4
 40
10.16
 49
6.35
 74
     0
 49
-1.27
 74
     0
 49
1.27
 74
     0
 49
-1.27
 74
     0
  0
LTYPE
  5
61
330
5
100
AcDbSymbolTableRecord
100
AcDbLinetypeTableRecord
  2
CENTERX2
 70
     0
  3
Center (2x) ________  __  ________  __  _____
 72
    65
 73
     4
 40
20.32
 49
12.7
 74
     0
 49
-2.54
 74
     0
 49
2.54
 74
     0
 49
-2.54
 74
     0
  0
LTYPE
  5
62
330
5
100
AcDbSymbolTableRecord
100
AcDbLinetypeTableRecord
  2
DOT2
 70
     0
  3
Dot (.5x) ........................................
 72
    65
 73
     2
 40
0.635
 49
0.0
 74
     0
 49
-0.635
 74
     0
  0
ENDTAB
  0
TABLE
  2
LAYER
  5
2
330
0
100
AcDbSymbolTable
 70
     1
  0
LAYER
  5
10
330
2
100
AcDbSymbolTableRecord
100
AcDbLayerTableRecord
  2
0
 70
     0
 62
     7
  6
Continuous
370
    -3
390
F
  0
ENDTAB
  0
TABLE
  2
STYLE
  5
3
330
0
100
AcDbSymbolTable
 70
     2
  0
STYLE
  5
11
330
3
100
AcDbSymbolTableRecord
100
AcDbTextStyleTableRecord
  2
Standard
 70
     0
 40
0.0
 41
1.0
 50
0.0
 71
     0
 42
3.5
  3
txt
  4
bigfont
  0
STYLE
  5
2C4
330
3
100
AcDbSymbolTableRecord
100
AcDbTextStyleTableRecord
  2
SLDTEXTSTYLE0
 70
     0
 40
0.0
 41
0.75
 50
0.0
 71
     0
 42
3.5
  3
TXT
  4
bigfont
  0
ENDTAB
  0
TABLE
  2
VIEW
  5
6
330
0
100
AcDbSymbolTable
 70
     0
  0
ENDTAB
  0
TABLE
  2
UCS
  5
7
330
0
100
AcDbSymbolTable
 70
     0
  0
ENDTAB
  0
TABLE
  2
APPID
  5
9
330
0
100
AcDbSymbolTable
 70
     1
  0
APPID
  5
12
330
9
100
AcDbSymbolTableRecord
100
AcDbRegAppTableRecord
  2
ACAD
 70
     0
  0
ENDTAB
  0
TABLE
  2
DIMSTYLE
  5
A
330
0
100
AcDbSymbolTable
 70
     1
100
AcDbDimStyleTable
  0
DIMSTYLE
105
27
330
A
100
AcDbSymbolTableRecord
100
AcDbDimStyleTableRecord
  2
ISO-25
 70
     0
 41
2.5
 42
0.625
 43
3.75
 44
1.25
 73
     0
 74
     0
 77
     1
 78
     8
140
2.5
141
2.5
143
0.0393700787
147
0.625
171
     3
172
     1
178
     0
271
     2
272
     2
274
     3
278
    44
283
     0
284
     8
340
11
  0
ENDTAB
  0
TABLE
  2
BLOCK_RECORD
  5
1
330
0
100
AcDbSymbolTable
 70
     3
  0
BLOCK_RECORD
  5
1F
330
1
100
AcDbSymbolTableRecord
100
AcDbBlockTableRecord
  2
*Model_Space
340
22
  0
BLOCK_RECORD
  5
1B
330
1
100
AcDbSymbolTableRecord
100
AcDbBlockTableRecord
  2
*Paper_Space
340
1E
  0
BLOCK_RECORD
  5
23
330
1
100
AcDbSymbolTableRecord
100
AcDbBlockTableRecord
  2
*Paper_Space0
340
26
  0
BLOCK_RECORD
  5
216
330
1
100
AcDbSymbolTableRecord
100
AcDbBlockTableRecord
  2
SW_CENTERMARKSYMBOL_0
340
0
102
{BLKREFS
331
221
102
}
  0
BLOCK_RECORD
  5
2C6
330
1
100
AcDbSymbolTableRecord
100
AcDbBlockTableRecord
  2
SW_CENTERMARKSYMBOL_1
340
0
102
{BLKREFS
331
2D1
102
}
  0
ENDTAB
  0
ENDSEC
  0
SECTION
  2
BLOCKS
  0
BLOCK
  5
20
330
1F
100
AcDbEntity
  8
0
100
AcDbBlockBegin
  2
*Model_Space
 70
     0
 10
0.0
 20
0.0
 30
0.0
  3
*Model_Space
  1

  0
ENDBLK
  5
21
330
1F
100
AcDbEntity
  8
0
100
AcDbBlockEnd
  0
BLOCK
  5
1C
330
1B
100
AcDbEntity
 67
     1
  8
0
100
AcDbBlockBegin
  2
*Paper_Space
 70
     0
 10
0.0
 20
0.0
 30
0.0
  3
*Paper_Space
  1

  0
ENDBLK
  5
1D
330
1B
100
AcDbEntity
 67
     1
  8
0
100
AcDbBlockEnd
  0
BLOCK
  5
24
330
23
100
AcDbEntity
  8
0
100
AcDbBlockBegin
  2
*Paper_Space0
 70
     0
 10
0.0
 20
0.0
 30
0.0
  3
*Paper_Space0
  1

  0
ENDBLK
  5
25
330
23
100
AcDbEntity
  8
0
100
AcDbBlockEnd
  0
BLOCK
  5
217
330
216
100
AcDbEntity
  8
0
100
AcDbBlockBegin
  2
SW_CENTERMARKSYMBOL_0
 70
     0
 10
0.0
 20
0.0
 30
0.0
  3
SW_CENTERMARKSYMBOL_0
  1

  0
LINE
  5
219
330
216
100
AcDbEntity
  8
0
  6
Continuous
 62
     0
370
    18
100
AcDbLine
 10
0.0
 20
0.0
 30
0.0
 11
0.0
 21
2.5
 31
0.0
  0
LINE
  5
21A
330
216
100
AcDbEntity
  8
0
  6
Continuous
 62
     0
370
    18
100
AcDbLine
 10
0.0
 20
0.0
 30
0.0
 11
-2.5
 21
0.0
 31
0.0
  0
LINE
  5
21B
330
216
100
AcDbEntity
  8
0
  6
Continuous
 62
     0
370
    18
100
AcDbLine
 10
0.0
 20
0.0
 30
0.0
 11
0.0
 21
-2.5
 31
0.0
  0
LINE
  5
21C
330
216
100
AcDbEntity
  8
0
  6
Continuous
 62
     0
370
    18
100
AcDbLine
 10
0.0
 20
0.0
 30
0.0
 11
2.5
 21
0.0
 31
0.0
  0
LINE
  5
21D
330
216
100
AcDbEntity
  8
0
  6
Continuous
 62
     0
370
    18
100
AcDbLine
 10
0.0
 20
5.0
 30
0.0
 11
0.0
 21
33.3643103842
 31
0.0
  0
LINE
  5
21E
330
216
100
AcDbEntity
  8
0
  6
Continuous
 62
     0
370
    18
100
AcDbLine
 10
-5.0
 20
0.0
 30
0.0
 11
-12.55
 21
0.0
 31
0.0
  0
LINE
  5
21F
330
216
100
AcDbEntity
  8
0
  6
Continuous
 62
     0
370
    18
100
AcDbLine
 10
0.0
 20
-5.0
 30
0.0
 11
0.0
 21
-15.4502629354
 31
0.0
  0
LINE
  5
220
330
216
100
AcDbEntity
  8
0
  6
Continuous
 62
     0
370
    18
100
AcDbLine
 10
5.0
 20
0.0
 30
0.0
 11
12.55
 21
0.0
 31
0.0
  0
ENDBLK
  5
218
330
216
100
AcDbEntity
  8
0
100
AcDbBlockEnd
  0
BLOCK
  5
2C7
330
2C6
100
AcDbEntity
  8
0
100
AcDbBlockBegin
  2
SW_CENTERMARKSYMBOL_1
 70
     0
 10
0.0
 20
0.0
 30
0.0
  3
SW_CENTERMARKSYMBOL_1
  1

  0
LINE
  5
2C9
330
2C6
100
AcDbEntity
  8
0
  6
Continuous
 62
     0
370
    18
100
AcDbLine
 10
0.0
 20
0.0
 30
0.0
 11
0.0
 21
2.5
 31
0.0
  0
LINE
  5
2CA
330
2C6
100
AcDbEntity
  8
0
  6
Continuous
 62
     0
370
    18
100
AcDbLine
 10
0.0
 20
0.0
 30
0.0
 11
-2.5
 21
0.0
 31
0.0
  0
LINE
  5
2CB
330
2C6
100
AcDbEntity
  8
0
  6
Continuous
 62
     0
370
    18
100
AcDbLine
 10
0.0
 20
0.0
 30
0.0
 11
0.0
 21
-2.5
 31
0.0
  0
LINE
  5
2CC
330
2C6
100
AcDbEntity
  8
0
  6
Continuous
 62
     0
370
    18
100
AcDbLine
 10
0.0
 20
0.0
 30
0.0
 11
2.5
 21
0.0
 31
0.0
  0
LINE
  5
2CD
330
2C6
100
AcDbEntity
  8
0
  6
Continuous
 62
     0
370
    18
100
AcDbLine
 10
0.0
 20
5.0
 30
0.0
 11
0.0
 21
12.55
 31
0.0
  0
LINE
  5
2CE
330
2C6
100
AcDbEntity
  8
0
  6
Continuous
 62
     0
370
    18
100
AcDbLine
 10
-5.0
 20
0.0
 30
0.0
 11
-33.0287869774
 21
0.0
 31
0.0
  0
LINE
  5
2CF
330
2C6
100
AcDbEntity
  8
0
  6
Continuous
 62
     0
370
    18
100
AcDbLine
 10
0.0
 20
-5.0
 30
0.0
 11
0.0
 21
-12.55
 31
0.0
  0
LINE
  5
2D0
330
2C6
100
AcDbEntity
  8
0
  6
Continuous
 62
     0
370
    18
100
AcDbLine
 10
5.0
 20
0.0
 30
0.0
 11
34.2614216623
 21
0.0
 31
0.0
  0
ENDBLK
  5
2C8
330
2C6
100
AcDbEntity
  8
0
100
AcDbBlockEnd
  0
ENDSEC
  0
SECTION
  2
ENTITIES
  0
LINE
  5
63
330
1F
100
AcDbEntity
  8
0
  6
Continuous
 62
     7
370
    25
100
AcDbLine
 10
28.6084215565
 20
12.2347461555
 30
0.0
 11
29.6905812973
 21
14.1091018085
 31
0.0
  0
LINE
  5
64
330
1F
100
AcDbEntity
  8
0
  6
Continuous
 62
     7
370
    25
100
AcDbLine
 10
29.6905812973
 20
34.6091018085
 30
0.0
 11
28.6084215565
 21
36.4834574615
 31
0.0
  0
LINE
  5
65
330
1F
100
AcDbEntity
  8
0
  6
Continuous
 62
     7
370
    25
100
AcDbLine
 10
14.8905812973
 20
34.6091018085
 30
0.0
 11
14.6905812973
 21
34.4091018085
 31
0.0
  0
LINE
  5
66
330
1F
100
AcDbEntity
  8
0
  6
Continuous
 62
     7
370
    25
100
AcDbLine
 10
14.6905812973
 20
14.3091018085
 30
0.0
 11
14.8905812973
 21
14.1091018085
 31
0.0
  0
LINE
  5
67
330
1F
100
AcDbEntity
  8
0
  6
Continuous
 62
     7
370
    25
100
AcDbLine
 10
14.8905812973
 20
14.1091018085
 30
0.0
 11
15.6132310281
 21
14.1091018085
 31
0.0
  0
LINE
  5
68
330
1F
100
AcDbEntity
  8
0
  6
Continuous
 62
     7
370
    25
100
AcDbLine
 10
15.6132310281
 20
34.6091018085
 30
0.0
 11
14.8905812973
 21
34.6091018085
 31
0.0
  0
ARC
  5
69
330
1F
100
AcDbEntity
  8
0
  6
Continuous
 62
     7
370
    25
100
AcDbCircle
 10
15.6132310281
 20
35.6091018085
 30
0.0
 40
1.0
100
AcDbArc
 50
270.0
 51
330.0
  0
LINE
  5
6A
330
1F
100
AcDbEntity
  8
0
  6
Continuous
 62
     7
370
    25
100
AcDbLine
 10
17.2727410381
 20
36.4834574615
 30
0.0
 11
16.4792564319
 21
35.1091018085
 31
0.0
  0
LINE
  5
6B
330
1F
100
AcDbEntity
  8
0
  6
Continuous
 62
     7
370
    25
100
AcDbLine
 10
16.4792564319
 20
13.6091018085
 30
0.0
 11
17.2727410381
 21
12.2347461555
 31
0.0
  0
ARC
  5
6C
330
1F
100
AcDbEntity
  8
0
  6
Continuous
 62
     7
370
    25
100
AcDbCircle
 10
15.6132310281
 20
13.1091018085
 30
0.0
 40
1.0
100
AcDbArc
 50
30.0
 51
90.0
  0
LINE
  5
6D
330
1F
100
AcDbEntity
  8
0
  6
Continuous
 62
     7
370
    25
100
AcDbLine
 10
59.9311403482
 20
36.4834574615
 30
0.0
 11
58.8489806074
 21
34.6091018085
 31
0.0
  0
LINE
  5
6E
330
1F
100
AcDbEntity
  8
0
  6
Continuous
 62
     7
370
    25
100
AcDbLine
 10
58.8489806074
 20
14.1091018085
 30
0.0
 11
59.9311403482
 21
12.2347461555
 31
0.0
  0
LINE
  5
6F
330
1F
100
AcDbEntity
  8
0
  6
Continuous
 62
     7
370
    25
100
AcDbLine
 10
73.6489806074
 20
14.1091018085
 30
0.0
 11
73.8489806074
 21
14.3091018085
 31
0.0
  0
LINE
  5
70
330
1F
100
AcDbEntity
  8
0
  6
Continuous
 62
     7
370
    25
100
AcDbLine
 10
73.8489806074
 20
34.4091018085
 30
0.0
 11
73.6489806074
 21
34.6091018085
 31
0.0
  0
LINE
  5
71
330
1F
100
AcDbEntity
  8
0
  6
Continuous
 62
     7
370
    25
100
AcDbLine
 10
73.6489806074
 20
34.6091018085
 30
0.0
 11
72.9263308766
 21
34.6091018085
 31
0.0
  0
LINE
  5
72
330
1F
100
AcDbEntity
  8
0
  6
Continuous
 62
     7
370
    25
100
AcDbLine
 10
72.9263308766
 20
14.1091018085
 30
0.0
 11
73.6489806074
 21
14.1091018085
 31
0.0
  0
ARC
  5
73
330
1F
100
AcDbEntity
  8
0
  6
Continuous
 62
     7
370
    25
100
AcDbCircle
 10
72.9263308766
 20
13.1091018085
 30
0.0
 40
1.0
100
AcDbArc
 50
90.0
 51
150.0
  0
LINE
  5
74
330
1F
100
AcDbEntity
  8
0
  6
Continuous
 62
     7
370
    25
100
AcDbLine
 10
71.2668208666
 20
12.2347461555
 30
0.0
 11
72.0603054728
 21
13.6091018085
 31
0.0
  0
ARC
  5
75
330
1F
100
AcDbEntity
  8
0
  6
Continuous
 62
     7
370
    25
100
AcDbCircle
 10
72.9263308766
 20
35.6091018085
 30
0.0
 40
1.0
100
AcDbArc
 50
210.0
 51
270.0
  0
LINE
  5
76
330
1F
100
AcDbEntity
  8
0
  6
Continuous
 62
     7
370
    25
100
AcDbLine
 10
72.0603054728
 20
35.1091018085
 30
0.0
 11
71.2668208666
 21
36.4834574615
 31
0.0
  0
LINE
  5
77
330
1F
100
AcDbEntity
  8
0
  6
Continuous
 62
     7
370
    25
100
AcDbLine
 10
32.1454252994
 20
40.0204612043
 30
0.0
 11
34.0197809524
 21
38.9383014635
 31
0.0
  0
LINE
  5
78
330
1F
100
AcDbEntity
  8
0
  6
Continuous
 62
     7
370
    25
100
AcDbLine
 10
54.5197809524
 20
38.9383014635
 30
0.0
 11
56.3941366054
 21
40.0204612043
 31
0.0
  0
LINE
  5
79
330
1F
100
AcDbEntity
  8
0
  6
Continuous
 62
     7
370
    25
100
AcDbLine
 10
54.5197809524
 20
53.7383014635
 30
0.0
 11
54.3197809524
 21
53.9383014635
 31
0.0
  0
LINE
  5
7A
330
1F
100
AcDbEntity
  8
0
  6
Continuous
 62
     7
370
    25
100
AcDbLine
 10
34.2197809524
 20
53.9383014635
 30
0.0
 11
34.0197809524
 21
53.7383014635
 31
0.0
  0
LINE
  5
7B
330
1F
100
AcDbEntity
  8
0
  6
Continuous
 62
     7
370
    25
100
AcDbLine
 10
34.0197809524
 20
53.7383014635
 30
0.0
 11
34.0197809524
 21
53.0156517327
 31
0.0
  0
LINE
  5
7C
330
1F
100
AcDbEntity
  8
0
  6
Continuous
 62
     7
370
    25
100
AcDbLine
 10
54.5197809524
 20
53.0156517327
 30
0.0
 11
54.5197809524
 21
53.7383014635
 31
0.0
  0
LINE
  5
7D
330
1F
100
AcDbEntity
  8
0
  6
Continuous
 62
     7
370
    25
100
AcDbLine
 10
33.5197809524
 20
52.1496263289
 30
0.0
 11
32.1454252994
 21
51.3561417227
 31
0.0
  0
ARC
  5
7E
330
1F
100
AcDbEntity
  8
0
  6
Continuous
 62
     7
370
    25
100
AcDbCircle
 10
33.0197809524
 20
53.0156517327
 30
0.0
 40
1.000000000000002
100
AcDbArc
 50
300.0
 51
0.0
  0
ARC
  5
7F
330
1F
100
AcDbEntity
  8
0
  6
Continuous
 62
     7
370
    25
100
AcDbCircle
 10
55.5197809524
 20
53.0156517327
 30
0.0
 40
1.000000000000008
100
AcDbArc
 50
180.0
 51
240.0
  0
LINE
  5
80
330
1F
100
AcDbEntity
  8
0
  6
Continuous
 62
     7
370
    25
100
AcDbLine
 10
56.3941366054
 20
51.3561417227
 30
0.0
 11
55.0197809524
 21
52.1496263289
 31
0.0
  0
LINE
  5
81
330
1F
100
AcDbEntity
  8
0
  6
Continuous
 62
     7
370
    25
100
AcDbLine
 10
29.6905812973
 20
16.0281018085
 30
0.0
 11
32.0185559521
 21
16.0281018085
 31
0.0
  0
LINE
  5
82
330
1F
100
AcDbEntity
  8
0
  6
Continuous
 62
     7
370
    25
100
AcDbLine
 10
32.0185559521
 20
32.6901018085
 30
0.0
 11
29.6905812973
 21
32.6901018085
 31
0.0
  0
ARC
  5
83
330
1F
100
AcDbEntity
  8
0
  6
Continuous
 62
     7
370
    25
100
AcDbCircle
 10
30.7697809524
 20
31.8591018085
 30
0.0
 40
1.500000000000003
100
AcDbArc
 50
11.5369590328
 51
33.6418648557
  0
ARC
  5
84
330
1F
100
AcDbEntity
  8
0
  6
Continuous
 62
     7
370
    25
100
AcDbCircle
 10
30.7697809524
 20
16.8591018085
 30
0.0
 40
1.500000000000003
100
AcDbArc
 50
326.3581351443
 51
348.4630409672
  0
ARC
  5
85
330
1F
100
AcDbEntity
  8
0
  6
Continuous
 62
     7
370
    25
100
AcDbCircle
 10
57.7697809524
 20
31.8591018085
 30
0.0
 40
1.500000000000003
100
AcDbArc
 50
146.3581351443
 51
168.4630409672
  0
ARC
  5
86
330
1F
100
AcDbEntity
  8
0
  6
Continuous
 62
     7
370
    25
100
AcDbCircle
 10
57.7697809524
 20
16.8591018085
 30
0.0
 40
1.500000000000003
100
AcDbArc
 50
191.5369590328
 51
213.6418648557
  0
LINE
  5
87
330
1F
100
AcDbEntity
  8
0
  6
Continuous
 62
     7
370
    25
100
AcDbLine
 10
35.9387809524
 20
38.9383014635
 30
0.0
 11
35.9387809524
 21
36.6103268087
 31
0.0
  0
LINE
  5
88
330
1F
100
AcDbEntity
  8
0
  6
Continuous
 62
     7
370
    25
100
AcDbLine
 10
52.6007809524
 20
36.6103268087
 30
0.0
 11
52.6007809524
 21
38.9383014635
 31
0.0
  0
LINE
  5
89
330
1F
100
AcDbEntity
  8
0
  6
Continuous
 62
     7
370
    25
100
AcDbLine
 10
58.8489806074
 20
32.6901018085
 30
0.0
 11
56.5210059526
 21
32.6901018085
 31
0.0
  0
LINE
  5
8A
330
1F
100
AcDbEntity
  8
0
  6
Continuous
 62
     7
370
    25
100
AcDbLine
 10
56.5210059526
 20
16.0281018085
 30
0.0
 11
58.8489806074
 21
16.0281018085
 31
0.0
  0
ARC
  5
8B
330
1F
100
AcDbEntity
  8
0
  6
Continuous
 62
     7
370
    25
100
AcDbCircle
 10
36.7697809524
 20
37.8591018085
 30
0.0
 40
1.50000000000001
100
AcDbArc
 50
236.3581351443
 51
258.4630409672
  0
ARC
  5
8C
330
1F
100
AcDbEntity
  8
0
  6
Continuous
 62
     7
370
    25
100
AcDbCircle
 10
51.7697809524
 20
37.8591018085
 30
0.0
 40
1.500000000000007
100
AcDbArc
 50
281.5369590328
 51
303.6418648557
  0
ARC
  5
8D
330
1F
100
AcDbEntity
  8
0
  6
Continuous
 62
     7
370
    25
100
AcDbCircle
 10
55.3202912096
 20
32.3591018085
 30
0.0
 40
0.999999999999998
100
AcDbArc
 50
270.0
 51
348.4630409672
  0
ARC
  5
8E
330
1F
100
AcDbEntity
  8
0
  6
Continuous
 62
     7
370
    25
100
AcDbCircle
 10
55.3202912096
 20
16.3591018085
 30
0.0
 40
1.0
100
AcDbArc
 50
11.5369590328
 51
90.0
  0
ARC
  5
8F
330
1F
100
AcDbEntity
  8
0
  6
Continuous
 62
     7
370
    25
100
AcDbCircle
 10
33.2192706952
 20
32.3591018085
 30
0.0
 40
0.999999999999998
100
AcDbArc
 50
191.5369590328
 51
270.0
  0
ARC
  5
90
330
1F
100
AcDbEntity
  8
0
  6
Continuous
 62
     7
370
    25
100
AcDbCircle
 10
33.2192706952
 20
16.3591018085
 30
0.0
 40
1.0
100
AcDbArc
 50
90.0
 51
168.4630409672
  0
ARC
  5
91
330
1F
100
AcDbEntity
  8
0
  6
Continuous
 62
     7
370
    25
100
AcDbCircle
 10
36.2697809524
 20
35.4096120657
 30
0.0
 40
0.999999999999998
100
AcDbArc
 50
0.0
 51
78.4630409672
  0
ARC
  5
92
330
1F
100
AcDbEntity
  8
0
  6
Continuous
 62
     7
370
    25
100
AcDbCircle
 10
52.2697809524
 20
35.4096120657
 30
0.0
 40
1.000000000000001
100
AcDbArc
 50
101.5369590328
 51
180.0
  0
LINE
  5
93
330
1F
100
AcDbEntity
  8
0
  6
Continuous
 62
     7
370
    25
100
AcDbLine
 10
36.7697809524
 20
31.3591018085
 30
0.0
 11
33.2192706952
 21
31.3591018085
 31
0.0
  0
LINE
  5
94
330
1F
100
AcDbEntity
  8
0
  6
Continuous
 62
     7
370
    25
100
AcDbLine
 10
55.3202912096
 20
31.3591018085
 30
0.0
 11
51.7697809524
 21
31.3591018085
 31
0.0
  0
LINE
  5
95
330
1F
100
AcDbEntity
  8
0
  6
Continuous
 62
     7
370
    25
100
AcDbLine
 10
33.2192706952
 20
17.3591018085
 30
0.0
 11
55.3202912096
 21
17.3591018085
 31
0.0
  0
LINE
  5
96
330
1F
100
AcDbEntity
  8
0
  6
Continuous
 62
     7
370
    25
100
AcDbLine
 10
37.2697809524
 20
35.4096120657
 30
0.0
 11
37.2697809524
 21
31.8591018085
 31
0.0
  0
LINE
  5
97
330
1F
100
AcDbEntity
  8
0
  6
Continuous
 62
     7
370
    25
100
AcDbLine
 10
51.2697809524
 20
31.8591018089
 30
0.0
 11
51.2697809524
 21
35.4096120657
 31
0.0
  0
SPLINE
  5
98
330
1F
100
AcDbEntity
  8
0
  6
Continuous
 62
     7
370
    25
100
AcDbSpline
210
0.0
220
0.0
230
1.0
 70
     8
 71
     3
 72
    11
 73
     7
 74
     0
 42
0.00000001
 43
0.00000001
 40
0.0
 40
0.0
 40
0.0
 40
0.0
 40
0.2501294352505486
 40
0.4999999999999998
 40
0.7498705647494501
 40
0.9999999999999999
 40
0.9999999999999999
 40
0.9999999999999999
 40
0.9999999999999999
 10
51.76972540532729
 20
31.35904996457246
 30
0.0
 10
51.70427339997698
 20
31.36678837418529
 30
0.0
 10
51.57343712857865
 20
31.38225718457353
 30
0.0
 10
51.40762280547567
 20
31.49694366158393
 30
0.0
 10
51.29293632846528
 20
31.66275798468691
 30
0.0
 10
51.27746751807702
 20
31.79359425608525
 30
0.0
 10
51.2697291084642
 20
31.85904626143556
 30
0.0
  0
SPLINE
  5
99
330
1F
100
AcDbEntity
  8
0
  6
Continuous
 62
     7
370
    25
100
AcDbSpline
210
0.0
220
0.0
230
1.0
 70
     8
 71
     3
 72
    11
 73
     7
 74
     0
 42
0.00000001
 43
0.00000001
 40
0.0
 40
0.0
 40
0.0
 40
0.0
 40
0.2501294352505052
 40
0.5
 40
0.7498705647494949
 40
1.0
 40
1.0
 40
1.0
 40
1.0
 10
37.26983279629795
 20
31.85904626143534
 30
0.0
 10
37.26209438668505
 20
31.79359425608509
 30
0.0
 10
37.24662557629664
 20
31.66275798468683
 30
0.0
 10
37.13193909928625
 20
31.49694366158397
 30
0.0
 10
36.96612477618338
 20
31.38225718457358
 30
0.0
 10
36.83528850478513
 20
31.36678837418517
 30
0.0
 10
36.76983649943487
 20
31.35904996457227
 30
0.0
  0
SPLINE
  5
9A
330
1F
100
AcDbEntity
  8
0
  6
Continuous
 62
     7
370
    25
100
AcDbSpline
210
0.0
220
0.0
230
1.0
 70
     8
 71
     3
 72
    10
 73
     6
 74
     0
 42
0.00000001
 43
0.00000001
 40
0.0
 40
0.0
 40
0.0
 40
0.0
 40
0.2958756403265932
 40
0.5933360076831715
 40
0.9999999999999999
 40
0.9999999999999999
 40
0.9999999999999999
 40
0.9999999999999999
 10
16.47925643192432
 20
14.11339201159105
 30
0.0
 10
16.43267172105219
 20
14.34009575962071
 30
0.0
 10
16.33925278890409
 20
14.79471749405703
 30
0.0
 10
16.31614762522409
 20
15.56619592609725
 30
0.0
 10
16.41954165512106
 20
16.10632747524457
 30
0.0
 10
16.47925643192432
 20
16.4182781259143
 30
0.0
  0
SPLINE
  5
9B
330
1F
100
AcDbEntity
  8
0
  6
Continuous
 62
     7
370
    25
100
AcDbSpline
210
0.0
220
0.0
230
1.0
 70
     8
 71
     3
 72
     9
 73
     5
 74
     0
 42
0.00000001
 43
0.00000001
 40
0.0
 40
0.0
 40
0.0
 40
0.0
 40
0.4983188677908569
 40
1.0
 40
1.0
 40
1.0
 40
1.0
 10
16.47925643192431
 20
16.4182781259143
 30
0.0
 10
16.57400151216354
 20
16.73424346512382
 30
0.0
 10
16.76413093804552
 20
17.36830602954218
 30
0.0
 10
17.10282474539336
 20
17.98669160590617
 30
0.0
 10
17.27274103813584
 20
18.29692398199826
 30
0.0
  0
LINE
  5
9C
330
1F
100
AcDbEntity
  8
0
  6
Continuous
 62
     7
370
    25
100
AcDbLine
 10
17.2727410381
 20
18.296923982
 30
0.0
 11
28.6084215565
 21
18.296923982
 31
0.0
  0
SPLINE
  5
9D
330
1F
100
AcDbEntity
  8
0
  6
Continuous
 62
     7
370
    25
100
AcDbSpline
210
0.0
220
0.0
230
1.0
 70
     8
 71
     3
 72
    15
 73
    11
 74
     0
 42
0.00000001
 43
0.00000001
 40
0.0
 40
0.0
 40
0.0
 40
0.0
 40
0.1323060649947139
 40
0.264574721625891
 40
0.3998023269484416
 40
0.5350055300348283
 40
0.6501955637891815
 40
0.7654035659406109
 40
0.8826904433746946
 40
1.0
 40
1.0
 40
1.0
 40
1.0
 10
28.60842155652317
 20
18.29692398199826
 30
0.0
 10
28.75118530555041
 20
18.03501213599127
 30
0.0
 10
29.03667243842419
 20
17.51126249722307
 30
0.0
 10
29.34384482511469
 20
16.70473423092
 30
0.0
 10
29.52853753706339
 20
15.88300265782679
 30
0.0
 10
29.56511183739617
 20
15.09104043910352
 30
0.0
 10
29.47021201757026
 20
14.34186742285507
 30
0.0
 10
29.2757645819034
 20
13.63483614935368
 30
0.0
 10
28.99053341407891
 20
12.93100162118043
 30
0.0
 10
28.73580038432863
 20
12.46684626786143
 30
0.0
 10
28.60842155652317
 20
12.23474615550709
 30
0.0
  0
LINE
  5
9E
330
1F
100
AcDbEntity
  8
0
  6
Continuous
 62
     7
370
    25
100
AcDbLine
 10
17.2727410381
 20
12.2347461555
 30
0.0
 11
28.6084215565
 21
12.2347461555
 31
0.0
  0
SPLINE
  5
9F
330
1F
100
AcDbEntity
  8
0
  6
Continuous
 62
     7
370
    25
100
AcDbSpline
210
0.0
220
0.0
230
1.0
 70
     8
 71
     3
 72
     9
 73
     5
 74
     0
 42
0.00000001
 43
0.00000001
 40
0.0
 40
0.0
 40
0.0
 40
0.0
 40
0.49855904612623
 40
1.0
 40
1.0
 40
1.0
 40
1.0
 10
17.27274103813584
 20
12.23474615550709
 30
0.0
 10
17.10382499039023
 20
12.54303706763923
 30
0.0
 10
16.76501648002809
 20
13.16140095959453
 30
0.0
 10
16.57469261323433
 20
13.79545256817784
 30
0.0
 10
16.47925643192432
 20
14.11339201159105
 30
0.0
  0
LINE
  5
A0
330
1F
100
AcDbEntity
  8
0
  6
Continuous
 62
     7
370
    25
100
AcDbLine
 10
16.4792564319
 20
22.0542156942
 30
0.0
 11
16.4792564319
 21
16.4182781259
 31
0.0
  0
SPLINE
  5
A1
330
1F
100
AcDbEntity
  8
0
  6
Continuous
 62
     7
370
    25
100
AcDbSpline
210
0.0
220
0.0
230
1.0
 70
     8
 71
     3
 72
     9
 73
     5
 74
     0
 42
0.00000001
 43
0.00000001
 40
0.0
 40
0.0
 40
0.0
 40
0.0
 40
0.347291977838205
 40
1.0
 40
1.0
 40
1.0
 40
1.0
 10
17.27274103813584
 20
18.29692398199826
 30
0.0
 10
17.15321630350156
 20
18.72569855866746
 30
0.0
 10
16.80905420860294
 20
19.96032130848797
 30
0.0
 10
16.60950427464229
 20
21.22726886220002
 30
0.0
 10
16.47925643192432
 20
22.05421569416613
 30
0.0
  0
SPLINE
  5
A2
330
1F
100
AcDbEntity
  8
0
  6
Continuous
 62
     7
370
    25
100
AcDbSpline
210
0.0
220
0.0
230
1.0
 70
     8
 71
     3
 72
    14
 73
    10
 74
     0
 42
0.00000001
 43
0.00000001
 40
0.0
 40
0.0
 40
0.0
 40
0.0
 40
0.1873722419904734
 40
0.3764490827567588
 40
0.5018747878402348
 40
0.6273008674777947
 40
0.7560704865177478
 40
0.8848757314984603
 40
1.0
 40
1.0
 40
1.0
 40
1.0
 10
28.60842155652317
 20
30.42127963498044
 30
0.0
 10
28.80619086131806
 20
29.6780682894744
 30
0.0
 10
29.20352865584189
 20
28.18488431335276
 30
0.0
 10
29.49266000102821
 20
26.14029226805571
 30
0.0
 10
29.56743761989928
 20
24.33558504761323
 30
0.0
 10
29.50011799229053
 20
22.77772790907677
 30
0.0
 10
29.29918250998501
 20
21.218038820942
 30
0.0
 10
28.99863289750167
 20
19.71748568214368
 30
0.0
 10
28.73353594730595
 20
18.75240206020418
 30
0.0
 10
28.60842155652317
 20
18.29692398199826
 30
0.0
  0
SPLINE
  5
A3
330
1F
100
AcDbEntity
  8
0
  6
Continuous
 62
     7
370
    25
100
AcDbSpline
210
0.0
220
0.0
230
1.0
 70
     8
 71
     3
 72
    15
 73
    11
 74
     0
 42
0.00000001
 43
0.00000001
 40
0.0
 40
0.0
 40
0.0
 40
0.0
 40
0.1323060649947156
 40
0.2645747216258945
 40
0.3998023269484466
 40
0.5350055300348351
 40
0.6501955637891869
 40
0.7654035659406143
 40
0.8826904433746965
 40
1.0
 40
1.0
 40
1.0
 40
1.0
 10
28.60842155652317
 20
36.48345746147139
 30
0.0
 10
28.75118530555041
 20
36.2215456154644
 30
0.0
 10
29.03667243842417
 20
35.69779597669621
 30
0.0
 10
29.34384482511468
 20
34.89126771039317
 30
0.0
 10
29.52853753706337
 20
34.06953613729998
 30
0.0
 10
29.56511183739615
 20
33.27757391857673
 30
0.0
 10
29.47021201757023
 20
32.52840090232831
 30
0.0
 10
29.27576458190338
 20
31.82136962882695
 30
0.0
 10
28.9905334140789
 20
31.11753510065374
 30
0.0
 10
28.73580038432863
 20
30.65337974733477
 30
0.0
 10
28.60842155652317
 20
30.42127963498044
 30
0.0
  0
LINE
  5
A4
330
1F
100
AcDbEntity
  8
0
  6
Continuous
 62
     7
370
    25
100
AcDbLine
 10
29.6905812973
 20
34.6091018085
 30
0.0
 11
29.6905812973
 21
14.1091018085
 31
0.0
  0
SPLINE
  5
A5
330
1F
100
AcDbEntity
  8
0
  6
Continuous
 62
     7
370
    25
100
AcDbSpline
210
0.0
220
0.0
230
1.0
 70
     8
 71
     3
 72
     9
 73
     5
 74
     0
 42
0.00000001
 43
0.00000001
 40
0.0
 40
0.0
 40
0.0
 40
0.0
 40
0.4983188677908569
 40
1.0
 40
1.0
 40
1.0
 40
1.0
 10
16.47925643192431
 20
26.66398792281257
 30
0.0
 10
16.57400151216354
 20
27.2959186012316
 30
0.0
 10
16.76413093804552
 20
28.56404373006829
 30
0.0
 10
17.10282474539336
 20
29.80081488279626
 30
0.0
 10
17.27274103813584
 20
30.42127963498044
 30
0.0
  0
LINE
  5
A6
330
1F
100
AcDbEntity
  8
0
  6
Continuous
 62
     7
370
    25
100
AcDbLine
 10
16.4792564319
 20
32.2999254911
 30
0.0
 11
16.4792564319
 21
26.6639879228
 31
0.0
  0
SPLINE
  5
A7
330
1F
100
AcDbEntity
  8
0
  6
Continuous
 62
     7
370
    25
100
AcDbSpline
210
0.0
220
0.0
230
1.0
 70
     8
 71
     3
 72
     9
 73
     5
 74
     0
 42
0.00000001
 43
0.00000001
 40
0.0
 40
0.0
 40
0.0
 40
0.0
 40
0.4985590461262295
 40
1.0
 40
1.0
 40
1.0
 40
1.0
 10
17.27274103813584
 20
30.42127963498044
 30
0.0
 10
17.10382499039024
 20
30.72957054711258
 30
0.0
 10
16.76501648002809
 20
31.34793443906789
 30
0.0
 10
16.57469261323433
 20
31.9819860476512
 30
0.0
 10
16.47925643192432
 20
32.29992549106441
 30
0.0
  0
SPLINE
  5
A8
330
1F
100
AcDbEntity
  8
0
  6
Continuous
 62
     7
370
    25
100
AcDbSpline
210
0.0
220
0.0
230
1.0
 70
     8
 71
     3
 72
    10
 73
     6
 74
     0
 42
0.00000001
 43
0.00000001
 40
0.0
 40
0.0
 40
0.0
 40
0.0
 40
0.4053531160021641
 40
0.814880754313758
 40
1.0
 40
1.0
 40
1.0
 40
1.0
 10
16.47925643192432
 20
22.05421569416613
 30
0.0
 10
16.41983988655479
 20
22.6760624982897
 30
0.0
 10
16.3003948955135
 20
23.92616018548524
 30
0.0
 10
16.34806075757249
 20
25.47038079198612
 30
0.0
 10
16.44811011336962
 20
26.38062135520616
 30
0.0
 10
16.47925643192432
 20
26.66398792281257
 30
0.0
  0
LINE
  5
A9
330
1F
100
AcDbEntity
  8
0
  6
Continuous
 62
     7
370
    25
100
AcDbLine
 10
17.2727410381
 20
30.421279635
 30
0.0
 11
28.6084215565
 21
30.421279635
 31
0.0
  0
SPLINE
  5
AA
330
1F
100
AcDbEntity
  8
0
  6
Continuous
 62
     7
370
    25
100
AcDbSpline
210
0.0
220
0.0
230
1.0
 70
     8
 71
     3
 72
    11
 73
     7
 74
     0
 42
0.00000001
 43
0.00000001
 40
0.0
 40
0.0
 40
0.0
 40
0.0
 40
0.2730181757683342
 40
0.5498580878853421
 40
0.7738734731750891
 40
1.0
 40
1.0
 40
1.0
 40
1.0
 10
15.61323102813988
 20
22.16141969948349
 30
0.0
 10
15.62456924885915
 20
22.55811061837402
 30
0.0
 10
15.64740440387102
 20
23.35704537621121
 30
0.0
 10
15.68856720415749
 20
24.50293983504883
 30
0.0
 10
15.63558226458352
 20
25.57533835670068
 30
0.0
 10
15.62070469861778
 20
26.22861412107797
 30
0.0
 10
15.61323102813988
 20
26.5567839174952
 30
0.0
  0
ARC
  5
AB
330
1F
100
AcDbEntity
  8
0
  6
Continuous
 62
     7
370
    25
100
AcDbCircle
 10
15.7032397391
 20
29.3812727807
 30
0.0
 40
2.825922664588639
100
AcDbArc
 50
268.1747583904
 51
285.938564681
  0
ARC
  5
AC
330
1F
100
AcDbEntity
  8
0
  6
Continuous
 62
     7
370
    25
100
AcDbCircle
 10
15.7032397391
 20
19.3369308363
 30
0.0
 40
2.825922664588994
100
AcDbArc
 50
74.061435319
 51
91.8252416096
  0
LINE
  5
AD
330
1F
100
AcDbEntity
  8
0
  6
Continuous
 62
     7
370
    25
100
AcDbLine
 10
15.6132310281
 20
16.7876187623
 30
0.0
 11
15.6132310281
 21
22.1614196995
 31
0.0
  0
ARC
  5
AE
330
1F
100
AcDbEntity
  8
0
  6
Continuous
 62
     7
370
    25
100
AcDbCircle
 10
15.6560970699
 20
15.6881373306
 30
0.0
 40
1.100316734466431
100
AcDbArc
 50
41.5729649515
 51
92.2326889081
  0
LINE
  5
AF
330
1F
100
AcDbEntity
  8
0
  6
Continuous
 62
     7
370
    25
100
AcDbLine
 10
15.6132310281
 20
26.5567839175
 30
0.0
 11
15.6132310281
 21
31.9305848547
 31
0.0
  0
ARC
  5
B0
330
1F
100
AcDbEntity
  8
0
  6
Continuous
 62
     7
370
    25
100
AcDbCircle
 10
15.6560970699
 20
33.0300662863
 30
0.0
 40
1.100316734458215
100
AcDbArc
 50
267.7673110917
 51
318.4270350487
  0
SPLINE
  5
B1
330
1F
100
AcDbEntity
  8
0
  6
Continuous
 62
     7
370
    25
100
AcDbSpline
210
0.0
220
0.0
230
1.0
 70
     8
 71
     3
 72
    10
 73
     6
 74
     0
 42
0.00000001
 43
0.00000001
 40
0.0
 40
0.0
 40
0.0
 40
0.0
 40
0.2958756403266054
 40
0.5933360076831963
 40
1.0
 40
1.0
 40
1.0
 40
1.0
 10
16.47925643192432
 20
32.29992549106441
 30
0.0
 10
16.4326717210522
 20
32.52662923909406
 30
0.0
 10
16.33925278890413
 20
32.98125097353035
 30
0.0
 10
16.31614762522409
 20
33.75272940557048
 30
0.0
 10
16.41954165512107
 20
34.29286095471774
 30
0.0
 10
16.47925643192431
 20
34.60481160538741
 30
0.0
  0
SPLINE
  5
B2
330
1F
100
AcDbEntity
  8
0
  6
Continuous
 62
     7
370
    25
100
AcDbSpline
210
0.0
220
0.0
230
1.0
 70
     8
 71
     3
 72
     9
 73
     5
 74
     0
 42
0.00000001
 43
0.00000001
 40
0.0
 40
0.0
 40
0.0
 40
0.0
 40
0.4983188677908566
 40
0.9999999999999999
 40
0.9999999999999999
 40
0.9999999999999999
 40
0.9999999999999999
 10
16.47925643192431
 20
34.60481160538741
 30
0.0
 10
16.57400151216354
 20
34.92077694459694
 30
0.0
 10
16.76413093804551
 20
35.5548395090153
 30
0.0
 10
17.10282474539335
 20
36.17322508537929
 30
0.0
 10
17.27274103813584
 20
36.48345746147139
 30
0.0
  0
LINE
  5
B3
330
1F
100
AcDbEntity
  8
0
  6
Continuous
 62
     7
370
    25
100
AcDbLine
 10
17.2727410381
 20
36.4834574615
 30
0.0
 11
28.6084215565
 21
36.4834574615
 31
0.0
  0
LINE
  5
B4
330
1F
100
AcDbEntity
  8
0
  6
Continuous
 62
     7
370
    25
100
AcDbLine
 10
14.6905812973
 20
24.3591018085
 30
0.0
 11
14.6905812973
 21
34.4091018085
 31
0.0
  0
LINE
  5
B5
330
1F
100
AcDbEntity
  8
0
  6
Continuous
 62
     7
370
    25
100
AcDbLine
 10
14.6905812973
 20
14.3091018085
 30
0.0
 11
14.6905812973
 21
24.3591018085
 31
0.0
  0
LINE
  5
B6
330
1F
100
AcDbEntity
  8
0
  6
Continuous
 62
     7
370
    25
100
AcDbLine
 10
14.8905812973
 20
24.3591018085
 30
0.0
 11
14.8905812973
 21
14.1091018085
 31
0.0
  0
LINE
  5
B7
330
1F
100
AcDbEntity
  8
0
  6
Continuous
 62
     7
370
    25
100
AcDbLine
 10
14.8905812973
 20
34.6091018085
 30
0.0
 11
14.8905812973
 21
24.3591018085
 31
0.0
  0
SPLINE
  5
B8
330
1F
100
AcDbEntity
  8
0
  6
Continuous
 62
     7
370
    25
100
AcDbSpline
210
0.0
220
0.0
230
1.0
 70
     8
 71
     3
 72
    11
 73
     7
 74
     0
 42
0.00000001
 43
0.00000001
 40
0.0
 40
0.0
 40
0.0
 40
0.0
 40
0.273018175748604
 40
0.5498580878450678
 40
0.7738734731546593
 40
1.0
 40
1.0
 40
1.0
 40
1.0
 10
15.61323102813988
 20
14.58993665330725
 30
0.0
 10
15.62456924885735
 20
14.72494500177932
 30
0.0
 10
15.64740440386554
 20
14.99685155939375
 30
0.0
 10
15.68856720415929
 20
15.54011414849577
 30
0.0
 10
15.63558226458788
 20
16.13508370572098
 30
0.0
 10
15.62070469861924
 20
16.56942805950561
 30
0.0
 10
15.61323102813988
 20
16.78761876231313
 30
0.0
  0
SPLINE
  5
B9
330
1F
100
AcDbEntity
  8
0
  6
Continuous
 62
     7
370
    25
100
AcDbSpline
210
0.0
220
0.0
230
1.0
 70
     8
 71
     3
 72
    11
 73
     7
 74
     0
 42
0.00000001
 43
0.00000001
 40
0.0
 40
0.0
 40
0.0
 40
0.0
 40
0.2730181757486327
 40
0.5498580878451258
 40
0.7738734731546892
 40
1.0
 40
1.0
 40
1.0
 40
1.0
 10
15.61323102813988
 20
31.93058485466557
 30
0.0
 10
15.62456924885735
 20
32.19226742505517
 30
0.0
 10
15.64740440386553
 20
32.71929562521903
 30
0.0
 10
15.68856720415926
 20
33.3219274949228
 30
0.0
 10
15.63558226458785
 20
33.79935645938027
 30
0.0
 10
15.62070469861924
 20
34.0182878700317
 30
0.0
 10
15.61323102813988
 20
34.12826696367122
 30
0.0
  0
ARC
  5
BA
330
1F
100
AcDbEntity
  8
0
  6
Continuous
 62
     7
370
    25
100
AcDbCircle
 10
15.6218750735
 20
13.580458437
 30
0.0
 40
1.009515224614213
100
AcDbArc
 50
31.8643766325
 51
90.4906051502
  0
ARC
  5
BB
330
1F
100
AcDbEntity
  8
0
  6
Continuous
 62
     7
370
    25
100
AcDbCircle
 10
15.6218750735
 20
35.13774518
 30
0.0
 40
1.009515224614223
100
AcDbArc
 50
269.5093948498
 51
328.1356233675
  0
SPLINE
  5
BC
330
1F
100
AcDbEntity
  8
0
  6
Continuous
 62
     7
370
    25
100
AcDbSpline
210
0.0
220
0.0
230
1.0
 70
     8
 71
     3
 72
    10
 73
     6
 74
     0
 42
0.00000001
 43
0.00000001
 40
0.0
 40
0.0
 40
0.0
 40
0.0
 40
0.4053531160021641
 40
0.814880754313758
 40
1.0
 40
1.0
 40
1.0
 40
1.0
 10
72.06030547283764
 20
26.66398792281234
 30
0.0
 10
72.11972201820716
 20
26.04214111868878
 30
0.0
 10
72.23916700924845
 20
24.79204343149323
 30
0.0
 10
72.19150114718944
 20
23.24782282499235
 30
0.0
 10
72.09145179139234
 20
22.33758226177232
 30
0.0
 10
72.06030547283764
 20
22.05421569416591
 30
0.0
  0
SPLINE
  5
BD
330
1F
100
AcDbEntity
  8
0
  6
Continuous
 62
     7
370
    25
100
AcDbSpline
210
0.0
220
0.0
230
1.0
 70
     8
 71
     3
 72
     9
 73
     5
 74
     0
 42
0.00000001
 43
0.00000001
 40
0.0
 40
0.0
 40
0.0
 40
0.0
 40
0.4983188677908569
 40
1.0
 40
1.0
 40
1.0
 40
1.0
 10
72.06030547283764
 20
22.05421569416591
 30
0.0
 10
71.9655603925984
 20
21.42228501574688
 30
0.0
 10
71.77543096671641
 20
20.15415988691019
 30
0.0
 10
71.4367371593686
 20
18.91738873418221
 30
0.0
 10
71.26682086662612
 20
18.29692398199804
 30
0.0
  0
LINE
  5
BE
330
1F
100
AcDbEntity
  8
0
  6
Continuous
 62
     7
370
    25
100
AcDbLine
 10
71.2668208666
 20
18.296923982
 30
0.0
 11
59.9311403482
 21
18.296923982
 31
0.0
  0
SPLINE
  5
BF
330
1F
100
AcDbEntity
  8
0
  6
Continuous
 62
     7
370
    25
100
AcDbSpline
210
0.0
220
0.0
230
1.0
 70
     8
 71
     3
 72
    14
 73
    10
 74
     0
 42
0.00000001
 43
0.00000001
 40
0.0
 40
0.0
 40
0.0
 40
0.0
 40
0.1873722419904734
 40
0.3764490827567588
 40
0.5018747878402348
 40
0.6273008674777947
 40
0.7560704865177478
 40
0.8848757314984603
 40
1.0
 40
1.0
 40
1.0
 40
1.0
 10
59.93114034823878
 20
18.29692398199804
 30
0.0
 10
59.73337104344389
 20
19.04013532750407
 30
0.0
 10
59.33603324892005
 20
20.53331930362572
 30
0.0
 10
59.04690190373374
 20
22.57791134892277
 30
0.0
 10
58.97212428486267
 20
24.38261856936525
 30
0.0
 10
59.03944391247141
 20
25.94047570790171
 30
0.0
 10
59.24037939477694
 20
27.50016479603648
 30
0.0
 10
59.54092900726029
 20
29.0007179348348
 30
0.0
 10
59.806025957456
 20
29.9658015567743
 30
0.0
 10
59.93114034823878
 20
30.42127963498022
 30
0.0
  0
LINE
  5
C0
330
1F
100
AcDbEntity
  8
0
  6
Continuous
 62
     7
370
    25
100
AcDbLine
 10
71.2668208666
 20
30.421279635
 30
0.0
 11
59.9311403482
 21
30.421279635
 31
0.0
  0
SPLINE
  5
C1
330
1F
100
AcDbEntity
  8
0
  6
Continuous
 62
     7
370
    25
100
AcDbSpline
210
0.0
220
0.0
230
1.0
 70
     8
 71
     3
 72
     9
 73
     5
 74
     0
 42
0.00000001
 43
0.00000001
 40
0.0
 40
0.0
 40
0.0
 40
0.0
 40
0.347291977838205
 40
1.0
 40
1.0
 40
1.0
 40
1.0
 10
71.26682086662612
 20
30.42127963498022
 30
0.0
 10
71.38634560126039
 20
29.99250505831101
 30
0.0
 10
71.73050769615902
 20
28.7578823084905
 30
0.0
 10
71.93005763011966
 20
27.49093475477846
 30
0.0
 10
72.06030547283764
 20
26.66398792281234
 30
0.0
  0
SPLINE
  5
C2
330
1F
100
AcDbEntity
  8
0
  6
Continuous
 62
     7
370
    25
100
AcDbSpline
210
0.0
220
0.0
230
1.0
 70
     8
 71
     3
 72
    15
 73
    11
 74
     0
 42
0.00000001
 43
0.00000001
 40
0.0
 40
0.0
 40
0.0
 40
0.0
 40
0.1323060649947139
 40
0.2645747216258911
 40
0.3998023269484416
 40
0.5350055300348283
 40
0.6501955637891815
 40
0.7654035659406109
 40
0.8826904433746946
 40
1.0
 40
1.0
 40
1.0
 40
1.0
 10
59.93114034823878
 20
30.42127963498022
 30
0.0
 10
59.78837659921154
 20
30.68319148098721
 30
0.0
 10
59.50288946633777
 20
31.20694111975541
 30
0.0
 10
59.19571707964727
 20
32.01346938605847
 30
0.0
 10
59.01102436769856
 20
32.83520095915168
 30
0.0
 10
58.97445006736579
 20
33.62716317787496
 30
0.0
 10
59.06934988719169
 20
34.3763361941234
 30
0.0
 10
59.26379732285854
 20
35.08336746762479
 30
0.0
 10
59.54902849068304
 20
35.78720199579804
 30
0.0
 10
59.80376152043332
 20
36.25135734911704
 30
0.0
 10
59.93114034823878
 20
36.48345746147139
 30
0.0
  0
SPLINE
  5
C3
330
1F
100
AcDbEntity
  8
0
  6
Continuous
 62
     7
370
    25
100
AcDbSpline
210
0.0
220
0.0
230
1.0
 70
     8
 71
     3
 72
    15
 73
    11
 74
     0
 42
0.00000001
 43
0.00000001
 40
0.0
 40
0.0
 40
0.0
 40
0.0
 40
0.1323060649947156
 40
0.2645747216258945
 40
0.3998023269484466
 40
0.5350055300348351
 40
0.6501955637891869
 40
0.7654035659406145
 40
0.8826904433746966
 40
1.0
 40
1.0
 40
1.0
 40
1.0
 10
59.93114034823878
 20
12.23474615550709
 30
0.0
 10
59.78837659921155
 20
12.49665800151407
 30
0.0
 10
59.50288946633778
 20
13.02040764028226
 30
0.0
 10
59.19571707964727
 20
13.82693590658531
 30
0.0
 10
59.01102436769858
 20
14.6486674796785
 30
0.0
 10
58.97445006736581
 20
15.44062969840174
 30
0.0
 10
59.06934988719172
 20
16.18980271465017
 30
0.0
 10
59.26379732285857
 20
16.89683398815152
 30
0.0
 10
59.54902849068306
 20
17.60066851632473
 30
0.0
 10
59.80376152043332
 20
18.06482386964371
 30
0.0
 10
59.93114034823878
 20
18.29692398199804
 30
0.0
  0
LINE
  5
C4
330
1F
100
AcDbEntity
  8
0
  6
Continuous
 62
     7
370
    25
100
AcDbLine
 10
58.8489806074
 20
14.1091018085
 30
0.0
 11
58.8489806074
 21
34.6091018085
 31
0.0
  0
SPLINE
  5
C5
330
1F
100
AcDbEntity
  8
0
  6
Continuous
 62
     7
370
    25
100
AcDbSpline
210
0.0
220
0.0
230
1.0
 70
     8
 71
     3
 72
    10
 73
     6
 74
     0
 42
0.00000001
 43
0.00000001
 40
0.0
 40
0.0
 40
0.0
 40
0.0
 40
0.2958756403265932
 40
0.5933360076831716
 40
1.0
 40
1.0
 40
1.0
 40
1.0
 10
72.06030547283764
 20
34.60481160538742
 30
0.0
 10
72.10689018370975
 20
34.37810785735776
 30
0.0
 10
72.20030911585783
 20
33.92348612292144
 30
0.0
 10
72.22341427953788
 20
33.15200769088123
 30
0.0
 10
72.1200202496409
 20
32.61187614173391
 30
0.0
 10
72.06030547283764
 20
32.29992549106417
 30
0.0
  0
SPLINE
  5
C6
330
1F
100
AcDbEntity
  8
0
  6
Continuous
 62
     7
370
    25
100
AcDbSpline
210
0.0
220
0.0
230
1.0
 70
     8
 71
     3
 72
     9
 73
     5
 74
     0
 42
0.00000001
 43
0.00000001
 40
0.0
 40
0.0
 40
0.0
 40
0.0
 40
0.498318867790857
 40
1.0
 40
1.0
 40
1.0
 40
1.0
 10
72.06030547283764
 20
32.29992549106417
 30
0.0
 10
71.96556039259839
 20
31.98396015185466
 30
0.0
 10
71.7754309667164
 20
31.3498975874363
 30
0.0
 10
71.43673715936859
 20
30.7315120110723
 30
0.0
 10
71.26682086662612
 20
30.42127963498022
 30
0.0
  0
LINE
  5
C7
330
1F
100
AcDbEntity
  8
0
  6
Continuous
 62
     7
370
    25
100
AcDbLine
 10
71.2668208666
 20
36.4834574615
 30
0.0
 11
59.9311403482
 21
36.4834574615
 31
0.0
  0
SPLINE
  5
C8
330
1F
100
AcDbEntity
  8
0
  6
Continuous
 62
     7
370
    25
100
AcDbSpline
210
0.0
220
0.0
230
1.0
 70
     8
 71
     3
 72
     9
 73
     5
 74
     0
 42
0.00000001
 43
0.00000001
 40
0.0
 40
0.0
 40
0.0
 40
0.0
 40
0.49855904612623
 40
1.0
 40
1.0
 40
1.0
 40
1.0
 10
71.26682086662612
 20
36.48345746147139
 30
0.0
 10
71.43573691437172
 20
36.17516654933925
 30
0.0
 10
71.77454542473386
 20
35.55680265738395
 30
0.0
 10
71.96486929152762
 20
34.92275104880063
 30
0.0
 10
72.06030547283764
 20
34.60481160538742
 30
0.0
  0
LINE
  5
C9
330
1F
100
AcDbEntity
  8
0
  6
Continuous
 62
     7
370
    25
100
AcDbLine
 10
72.0603054728
 20
16.4182781259
 30
0.0
 11
72.0603054728
 21
22.0542156942
 31
0.0
  0
SPLINE
  5
CA
330
1F
100
AcDbEntity
  8
0
  6
Continuous
 62
     7
370
    25
100
AcDbSpline
210
0.0
220
0.0
230
1.0
 70
     8
 71
     3
 72
     9
 73
     5
 74
     0
 42
0.00000001
 43
0.00000001
 40
0.0
 40
0.0
 40
0.0
 40
0.0
 40
0.4985590461262293
 40
1.0
 40
1.0
 40
1.0
 40
1.0
 10
71.26682086662612
 20
18.29692398199804
 30
0.0
 10
71.43573691437172
 20
17.9886330698659
 30
0.0
 10
71.77454542473386
 20
17.37026917791059
 30
0.0
 10
71.96486929152762
 20
16.73621756932728
 30
0.0
 10
72.06030547283764
 20
16.41827812591406
 30
0.0
  0
SPLINE
  5
CB
330
1F
100
AcDbEntity
  8
0
  6
Continuous
 62
     7
370
    25
100
AcDbSpline
210
0.0
220
0.0
230
1.0
 70
     8
 71
     3
 72
    11
 73
     7
 74
     0
 42
0.00000001
 43
0.00000001
 40
0.0
 40
0.0
 40
0.0
 40
0.0
 40
0.2730181757683343
 40
0.5498580878853421
 40
0.7738734731750891
 40
1.0
 40
1.0
 40
1.0
 40
1.0
 10
72.92633087662206
 20
26.55678391749499
 30
0.0
 10
72.9149926559028
 20
26.16009299860446
 30
0.0
 10
72.89215750089093
 20
25.36115824076726
 30
0.0
 10
72.85099470060443
 20
24.21526378192965
 30
0.0
 10
72.90397964017843
 20
23.1428652602778
 30
0.0
 10
72.91885720614417
 20
22.4895894959005
 30
0.0
 10
72.92633087662206
 20
22.16141969948328
 30
0.0
  0
ARC
  5
CC
330
1F
100
AcDbEntity
  8
0
  6
Continuous
 62
     7
370
    25
100
AcDbCircle
 10
72.8363221656
 20
19.3369308363
 30
0.0
 40
2.825922664588264
100
AcDbArc
 50
88.1747583904
 51
105.938564681
  0
ARC
  5
CD
330
1F
100
AcDbEntity
  8
0
  6
Continuous
 62
     7
370
    25
100
AcDbCircle
 10
72.8363221656
 20
29.3812727807
 30
0.0
 40
2.825922664588778
100
AcDbArc
 50
254.061435319
 51
271.8252416096
  0
LINE
  5
CE
330
1F
100
AcDbEntity
  8
0
  6
Continuous
 62
     7
370
    25
100
AcDbLine
 10
72.0603054728
 20
26.6639879228
 30
0.0
 11
72.0603054728
 21
32.2999254911
 31
0.0
  0
LINE
  5
CF
330
1F
100
AcDbEntity
  8
0
  6
Continuous
 62
     7
370
    25
100
AcDbLine
 10
72.9263308766
 20
31.9305848547
 30
0.0
 11
72.9263308766
 21
26.5567839175
 31
0.0
  0
ARC
  5
D0
330
1F
100
AcDbEntity
  8
0
  6
Continuous
 62
     7
370
    25
100
AcDbCircle
 10
72.8834648348
 20
33.0300662863
 30
0.0
 40
1.100316734466383
100
AcDbArc
 50
221.5729649515
 51
272.2326889081
  0
LINE
  5
D1
330
1F
100
AcDbEntity
  8
0
  6
Continuous
 62
     7
370
    25
100
AcDbLine
 10
72.9263308766
 20
22.1614196995
 30
0.0
 11
72.9263308766
 21
16.7876187623
 31
0.0
  0
ARC
  5
D2
330
1F
100
AcDbEntity
  8
0
  6
Continuous
 62
     7
370
    25
100
AcDbCircle
 10
72.8834648348
 20
15.6881373306
 30
0.0
 40
1.100316734458209
100
AcDbArc
 50
87.7673110917
 51
138.4270350487
  0
SPLINE
  5
D3
330
1F
100
AcDbEntity
  8
0
  6
Continuous
 62
     7
370
    25
100
AcDbSpline
210
0.0
220
0.0
230
1.0
 70
     8
 71
     3
 72
    10
 73
     6
 74
     0
 42
0.00000001
 43
0.00000001
 40
0.0
 40
0.0
 40
0.0
 40
0.0
 40
0.2958756403266054
 40
0.5933360076831963
 40
1.0
 40
1.0
 40
1.0
 40
1.0
 10
72.06030547283764
 20
16.41827812591406
 30
0.0
 10
72.10689018370975
 20
16.19157437788441
 30
0.0
 10
72.20030911585782
 20
15.73695264344813
 30
0.0
 10
72.22341427953785
 20
14.96547421140799
 30
0.0
 10
72.12002024964089
 20
14.42534266226074
 30
0.0
 10
72.06030547283764
 20
14.11339201159106
 30
0.0
  0
SPLINE
  5
D4
330
1F
100
AcDbEntity
  8
0
  6
Continuous
 62
     7
370
    25
100
AcDbSpline
210
0.0
220
0.0
230
1.0
 70
     8
 71
     3
 72
     9
 73
     5
 74
     0
 42
0.00000001
 43
0.00000001
 40
0.0
 40
0.0
 40
0.0
 40
0.0
 40
0.4983188677908567
 40
1.0
 40
1.0
 40
1.0
 40
1.0
 10
72.06030547283764
 20
14.11339201159106
 30
0.0
 10
71.96556039259839
 20
13.79742667238154
 30
0.0
 10
71.77543096671641
 20
13.16336410796318
 30
0.0
 10
71.4367371593686
 20
12.54497853159918
 30
0.0
 10
71.26682086662612
 20
12.23474615550709
 30
0.0
  0
LINE
  5
D5
330
1F
100
AcDbEntity
  8
0
  6
Continuous
 62
     7
370
    25
100
AcDbLine
 10
71.2668208666
 20
12.2347461555
 30
0.0
 11
59.9311403482
 21
12.2347461555
 31
0.0
  0
LINE
  5
D6
330
1F
100
AcDbEntity
  8
0
  6
Continuous
 62
     7
370
    25
100
AcDbLine
 10
73.8489806074
 20
24.3591018085
 30
0.0
 11
73.8489806074
 21
14.3091018085
 31
0.0
  0
LINE
  5
D7
330
1F
100
AcDbEntity
  8
0
  6
Continuous
 62
     7
370
    25
100
AcDbLine
 10
73.8489806074
 20
34.4091018085
 30
0.0
 11
73.8489806074
 21
24.3591018085
 31
0.0
  0
LINE
  5
D8
330
1F
100
AcDbEntity
  8
0
  6
Continuous
 62
     7
370
    25
100
AcDbLine
 10
73.6489806074
 20
24.3591018085
 30
0.0
 11
73.6489806074
 21
34.6091018085
 31
0.0
  0
LINE
  5
D9
330
1F
100
AcDbEntity
  8
0
  6
Continuous
 62
     7
370
    25
100
AcDbLine
 10
73.6489806074
 20
14.1091018085
 30
0.0
 11
73.6489806074
 21
24.3591018085
 31
0.0
  0
SPLINE
  5
DA
330
1F
100
AcDbEntity
  8
0
  6
Continuous
 62
     7
370
    25
100
AcDbSpline
210
0.0
220
0.0
230
1.0
 70
     8
 71
     3
 72
    11
 73
     7
 74
     0
 42
0.00000001
 43
0.00000001
 40
0.0
 40
0.0
 40
0.0
 40
0.0
 40
0.273018175748604
 40
0.5498580878450681
 40
0.7738734731546595
 40
1.0
 40
1.0
 40
1.0
 40
1.0
 10
72.92633087662206
 20
34.12826696367123
 30
0.0
 10
72.9149926559046
 20
33.99325861519915
 30
0.0
 10
72.8921575008964
 20
33.72135205758472
 30
0.0
 10
72.85099470060266
 20
33.1780894684827
 30
0.0
 10
72.90397964017407
 20
32.5831199112575
 30
0.0
 10
72.9188572061427
 20
32.14877555747287
 30
0.0
 10
72.92633087662206
 20
31.93058485466534
 30
0.0
  0
SPLINE
  5
DB
330
1F
100
AcDbEntity
  8
0
  6
Continuous
 62
     7
370
    25
100
AcDbSpline
210
0.0
220
0.0
230
1.0
 70
     8
 71
     3
 72
    11
 73
     7
 74
     0
 42
0.00000001
 43
0.00000001
 40
0.0
 40
0.0
 40
0.0
 40
0.0
 40
0.2730181757486329
 40
0.549858087845126
 40
0.7738734731546895
 40
1.0
 40
1.0
 40
1.0
 40
1.0
 10
72.92633087662206
 20
16.7876187623129
 30
0.0
 10
72.9149926559046
 20
16.52593619192331
 30
0.0
 10
72.8921575008964
 20
15.99890799175945
 30
0.0
 10
72.85099470060268
 20
15.39627612205567
 30
0.0
 10
72.90397964017409
 20
14.9188471575982
 30
0.0
 10
72.9188572061427
 20
14.69991574694678
 30
0.0
 10
72.92633087662206
 20
14.58993665330726
 30
0.0
  0
ARC
  5
DC
330
1F
100
AcDbEntity
  8
0
  6
Continuous
 62
     7
370
    25
100
AcDbCircle
 10
72.9176868313
 20
35.13774518
 30
0.0
 40
1.009515224614159
100
AcDbArc
 50
211.8643766325
 51
270.4906051502
  0
ARC
  5
DD
330
1F
100
AcDbEntity
  8
0
  6
Continuous
 62
     7
370
    25
100
AcDbCircle
 10
72.9176868313
 20
13.580458437
 30
0.0
 40
1.009515224614137
100
AcDbArc
 50
89.5093948498
 51
148.1356233675
  0
SPLINE
  5
DE
330
1F
100
AcDbEntity
  8
0
  6
Continuous
 62
     7
370
    25
100
AcDbSpline
210
0.0
220
0.0
230
1.0
 70
     8
 71
     3
 72
    11
 73
     7
 74
     0
 42
0.00000001
 43
0.00000001
 40
0.0
 40
0.0
 40
0.0
 40
0.0
 40
0.2730181757486071
 40
0.5498580878450745
 40
0.7738734731546629
 40
1.0
 40
1.0
 40
1.0
 40
1.0
 10
42.07209884337514
 20
53.01565173273033
 30
0.0
 10
42.46878976223682
 20
53.00431351201286
 30
0.0
 10
43.26772452001512
 20
52.98147835700466
 30
0.0
 10
44.41361897882096
 20
52.94031555671094
 30
0.0
 10
45.48601750050371
 20
52.99330049628234
 30
0.0
 10
46.13929326493981
 20
53.00817806225096
 30
0.0
 10
46.46746306138686
 20
53.01565173273034
 30
0.0
  0
ARC
  5
DF
330
1F
100
AcDbEntity
  8
0
  6
Continuous
 62
     7
370
    25
100
AcDbCircle
 10
49.2919519246
 20
52.9256430217
 30
0.0
 40
2.825922664582873
100
AcDbArc
 50
178.1747583904
 51
195.9385646811
  0
SPLINE
  5
E0
330
1F
100
AcDbEntity
  8
0
  6
Continuous
 62
     7
370
    25
100
AcDbSpline
210
0.0
220
0.0
230
1.0
 70
     8
 71
     3
 72
    10
 73
     6
 74
     0
 42
0.00000001
 43
0.00000001
 40
0.0
 40
0.0
 40
0.0
 40
0.0
 40
0.1851192069214108
 40
0.5904327338990519
 40
1.0
 40
1.0
 40
1.0
 40
1.0
 10
41.96489483805777
 20
52.14962632894595
 30
0.0
 10
42.24826157282334
 20
52.18077289503159
 30
0.0
 10
43.15205215558398
 20
52.28011403024573
 30
0.0
 10
44.6961696870971
 20
52.32862297582917
 30
0.0
 10
45.94632597017864
 20
52.20949915634403
 30
0.0
 10
46.57466706670422
 20
52.1496263289459
 30
0.0
  0
ARC
  5
E1
330
1F
100
AcDbEntity
  8
0
  6
Continuous
 62
     7
370
    25
100
AcDbCircle
 10
39.2476099802
 20
52.9256430217
 30
0.0
 40
2.825922664590133
100
AcDbArc
 50
344.061435319
 51
1.8252416096
  0
SPLINE
  5
E2
330
1F
100
AcDbEntity
  8
0
  6
Continuous
 62
     7
370
    25
100
AcDbSpline
210
0.0
220
0.0
230
1.0
 70
     8
 71
     3
 72
     9
 73
     5
 74
     0
 42
0.00000001
 43
0.00000001
 40
0.0
 40
0.0
 40
0.0
 40
0.0
 40
0.4983188677908569
 40
1.0
 40
1.0
 40
1.0
 40
1.0
 10
36.32895726980598
 20
52.14962632894589
 30
0.0
 10
36.6449226090155
 20
52.05488124870666
 30
0.0
 10
37.27898517343384
 20
51.86475182282467
 30
0.0
 10
37.89737074979783
 20
51.52605801547686
 30
0.0
 10
38.20760312588992
 20
51.35614172273436
 30
0.0
  0
LINE
  5
E3
330
1F
100
AcDbEntity
  8
0
  6
Continuous
 62
     7
370
    25
100
AcDbLine
 10
41.9648948381
 20
52.1496263289
 30
0.0
 11
36.3289572698
 21
52.1496263289
 31
0.0
  0
SPLINE
  5
E4
330
1F
100
AcDbEntity
  8
0
  6
Continuous
 62
     7
370
    25
100
AcDbSpline
210
0.0
220
0.0
230
1.0
 70
     8
 71
     3
 72
     9
 73
     5
 74
     0
 42
0.00000001
 43
0.00000001
 40
0.0
 40
0.0
 40
0.0
 40
0.0
 40
0.4985590461262311
 40
1.0
 40
1.0
 40
1.0
 40
1.0
 10
38.20760312588992
 20
51.35614172273436
 30
0.0
 10
38.82418495015419
 20
51.52505777047996
 30
0.0
 10
40.06091273406477
 20
51.86386628084211
 30
0.0
 10
41.32901595123136
 20
52.05419014763591
 30
0.0
 10
41.96489483805777
 20
52.14962632894594
 30
0.0
  0
SPLINE
  5
E5
330
1F
100
AcDbEntity
  8
0
  6
Continuous
 62
     7
370
    25
100
AcDbSpline
210
0.0
220
0.0
230
1.0
 70
     8
 71
     3
 72
    10
 73
     6
 74
     0
 42
0.00000001
 43
0.00000001
 40
0.0
 40
0.0
 40
0.0
 40
0.0
 40
0.2958756403265934
 40
0.5933360076831719
 40
1.0
 40
1.0
 40
1.0
 40
1.0
 10
34.02407115548275
 20
52.14962632894589
 30
0.0
 10
34.25077490351241
 20
52.19621103981802
 30
0.0
 10
34.70539663794874
 20
52.2896299719661
 30
0.0
 10
35.47687506998894
 20
52.31273513564613
 30
0.0
 10
36.01700661913625
 20
52.20934110574915
 30
0.0
 10
36.32895726980598
 20
52.14962632894589
 30
0.0
  0
LINE
  5
E6
330
1F
100
AcDbEntity
  8
0
  6
Continuous
 62
     7
370
    25
100
AcDbLine
 10
38.2076031259
 20
51.3561417227
 30
0.0
 11
38.2076031259
 21
40.0204612043
 31
0.0
  0
SPLINE
  5
E7
330
1F
100
AcDbEntity
  8
0
  6
Continuous
 62
     7
370
    25
100
AcDbSpline
210
0.0
220
0.0
230
1.0
 70
     8
 71
     3
 72
    15
 73
    11
 74
     0
 42
0.00000001
 43
0.00000001
 40
0.0
 40
0.0
 40
0.0
 40
0.0
 40
0.1323060649947138
 40
0.2645747216258911
 40
0.3998023269484415
 40
0.5350055300348282
 40
0.6501955637891815
 40
0.7654035659406109
 40
0.8826904433746946
 40
1.0
 40
1.0
 40
1.0
 40
1.0
 10
38.20760312588992
 20
40.02046120434704
 30
0.0
 10
37.94569127988294
 20
39.8776974553198
 30
0.0
 10
37.42194164111474
 20
39.59221032244603
 30
0.0
 10
36.61541337481168
 20
39.28503793575553
 30
0.0
 10
35.79368180171848
 20
39.10034522380682
 30
0.0
 10
35.00171958299522
 20
39.06377092347405
 30
0.0
 10
34.25254656674678
 20
39.15867074329996
 30
0.0
 10
33.5455152932454
 20
39.35311817896681
 30
0.0
 10
32.84168076507216
 20
39.6383493467913
 30
0.0
 10
32.37752541175316
 20
39.89308237654159
 30
0.0
 10
32.14542529939882
 20
40.02046120434704
 30
0.0
  0
LINE
  5
E8
330
1F
100
AcDbEntity
  8
0
  6
Continuous
 62
     7
370
    25
100
AcDbLine
 10
32.1454252994
 20
51.3561417227
 30
0.0
 11
32.1454252994
 21
40.0204612043
 31
0.0
  0
SPLINE
  5
E9
330
1F
100
AcDbEntity
  8
0
  6
Continuous
 62
     7
370
    25
100
AcDbSpline
210
0.0
220
0.0
230
1.0
 70
     8
 71
     3
 72
     9
 73
     5
 74
     0
 42
0.00000001
 43
0.00000001
 40
0.0
 40
0.0
 40
0.0
 40
0.0
 40
0.49855904612623
 40
1.0
 40
1.0
 40
1.0
 40
1.0
 10
32.14542529939882
 20
51.35614172273437
 30
0.0
 10
32.45371621153095
 20
51.52505777047998
 30
0.0
 10
33.07208010348625
 20
51.86386628084211
 30
0.0
 10
33.70613171206955
 20
52.05419014763589
 30
0.0
 10
34.02407115548275
 20
52.14962632894589
 30
0.0
  0
SPLINE
  5
EA
330
1F
100
AcDbEntity
  8
0
  6
Continuous
 62
     7
370
    25
100
AcDbSpline
210
0.0
220
0.0
230
1.0
 70
     8
 71
     3
 72
     9
 73
     5
 74
     0
 42
0.00000001
 43
0.00000001
 40
0.0
 40
0.0
 40
0.0
 40
0.0
 40
0.6527080222302645
 40
1.0
 40
1.0
 40
1.0
 40
1.0
 10
46.57466706670422
 20
52.1496263289459
 30
0.0
 10
47.40161389875671
 20
52.01937848621159
 30
0.0
 10
48.6685614524682
 20
51.81982855224686
 30
0.0
 10
49.90318420228775
 20
51.4756664573459
 30
0.0
 10
50.33195877887209
 20
51.35614172273438
 30
0.0
  0
LINE
  5
EB
330
1F
100
AcDbEntity
  8
0
  6
Continuous
 62
     7
370
    25
100
AcDbLine
 10
52.210604635
 20
52.1496263289
 30
0.0
 11
46.5746670667
 21
52.1496263289
 31
0.0
  0
SPLINE
  5
EC
330
1F
100
AcDbEntity
  8
0
  6
Continuous
 62
     7
370
    25
100
AcDbSpline
210
0.0
220
0.0
230
1.0
 70
     8
 71
     3
 72
     9
 73
     5
 74
     0
 42
0.00000001
 43
0.00000001
 40
0.0
 40
0.0
 40
0.0
 40
0.0
 40
0.4985590461262299
 40
1.0
 40
1.0
 40
1.0
 40
1.0
 10
50.33195877887209
 20
51.35614172273438
 30
0.0
 10
50.64024969100422
 20
51.52505777047998
 30
0.0
 10
51.25861358295951
 20
51.86386628084212
 30
0.0
 10
51.8926651915428
 20
52.05419014763591
 30
0.0
 10
52.21060463495601
 20
52.1496263289459
 30
0.0
  0
SPLINE
  5
ED
330
1F
100
AcDbEntity
  8
0
  6
Continuous
 62
     7
370
    25
100
AcDbSpline
210
0.0
220
0.0
230
1.0
 70
     8
 71
     3
 72
    14
 73
    10
 74
     0
 42
0.00000001
 43
0.00000001
 40
0.0
 40
0.0
 40
0.0
 40
0.0
 40
0.1151243318578366
 40
0.2407086666576223
 40
0.3662606839605835
 40
0.4949058486143957
 40
0.623549906266141
 40
0.8107620412704866
 40
0.9999999999999999
 40
0.9999999999999999
 40
0.9999999999999999
 40
0.9999999999999999
 10
50.33195877887209
 20
40.02046120434704
 30
0.0
 10
49.87648225466761
 20
39.89533824401914
 30
0.0
 10
48.9241453762178
 20
39.63372386187464
 30
0.0
 10
47.4498267741961
 20
39.33715428982183
 30
0.0
 10
45.90393453305622
 20
39.13346123842921
 30
0.0
 10
44.33299005857904
 20
39.06047617481548
 30
0.0
 10
42.50933404681915
 20
39.13401694778056
 30
0.0
 10
40.45156596548667
 20
39.42379512429228
 30
0.0
 10
38.9582694080944
 20
39.82086025725083
 30
0.0
 10
38.20760312588992
 20
40.02046120434704
 30
0.0
  0
SPLINE
  5
EE
330
1F
100
AcDbEntity
  8
0
  6
Continuous
 62
     7
370
    25
100
AcDbSpline
210
0.0
220
0.0
230
1.0
 70
     8
 71
     3
 72
    15
 73
    11
 74
     0
 42
0.00000001
 43
0.00000001
 40
0.0
 40
0.0
 40
0.0
 40
0.0
 40
0.1323060649947141
 40
0.2645747216258912
 40
0.3998023269484417
 40
0.5350055300348284
 40
0.6501955637891816
 40
0.7654035659406111
 40
0.8826904433746947
 40
1.0
 40
1.0
 40
1.0
 40
1.0
 10
56.39413660536312
 20
40.02046120434705
 30
0.0
 10
56.13222475935613
 20
39.87769745531981
 30
0.0
 10
55.60847512058795
 20
39.59221032244604
 30
0.0
 10
54.80194685428491
 20
39.28503793575554
 30
0.0
 10
53.9802152811917
 20
39.10034522380683
 30
0.0
 10
53.18825306246847
 20
39.06377092347406
 30
0.0
 10
52.43908004622003
 20
39.15867074329996
 30
0.0
 10
51.73204877271866
 20
39.35311817896682
 30
0.0
 10
51.02821424454542
 20
39.63834934679131
 30
0.0
 10
50.56405889122644
 20
39.89308237654159
 30
0.0
 10
50.33195877887209
 20
40.02046120434705
 30
0.0
  0
LINE
  5
EF
330
1F
100
AcDbEntity
  8
0
  6
Continuous
 62
     7
370
    25
100
AcDbLine
 10
44.2697809524
 20
38.9383014635
 30
0.0
 11
34.0197809524
 21
38.9383014635
 31
0.0
  0
LINE
  5
F0
330
1F
100
AcDbEntity
  8
0
  6
Continuous
 62
     7
370
    25
100
AcDbLine
 10
54.5197809524
 20
38.9383014635
 30
0.0
 11
44.2697809524
 21
38.9383014635
 31
0.0
  0
LINE
  5
F1
330
1F
100
AcDbEntity
  8
0
  6
Continuous
 62
     7
370
    25
100
AcDbLine
 10
50.3319587789
 20
51.3561417227
 30
0.0
 11
50.3319587789
 21
40.0204612043
 31
0.0
  0
ARC
  5
F2
330
1F
100
AcDbEntity
  8
0
  6
Continuous
 62
     7
370
    25
100
AcDbCircle
 10
35.5988164745
 20
52.9727856909
 30
0.0
 40
1.100316734465941
100
AcDbArc
 50
311.5729649515
 51
2.2326889081
  0
LINE
  5
F3
330
1F
100
AcDbEntity
  8
0
  6
Continuous
 62
     7
370
    25
100
AcDbLine
 10
36.6982979062
 20
53.0156517327
 30
0.0
 11
42.0720988434
 21
53.0156517327
 31
0.0
  0
LINE
  5
F4
330
1F
100
AcDbEntity
  8
0
  6
Continuous
 62
     7
370
    25
100
AcDbLine
 10
46.4674630614
 20
53.0156517327
 30
0.0
 11
51.8412639986
 21
53.0156517327
 31
0.0
  0
ARC
  5
F5
330
1F
100
AcDbEntity
  8
0
  6
Continuous
 62
     7
370
    25
100
AcDbCircle
 10
52.9407454302
 20
52.9727856909
 30
0.0
 40
1.100316734466025
100
AcDbArc
 50
177.7673110919
 51
228.4270350485
  0
SPLINE
  5
F6
330
1F
100
AcDbEntity
  8
0
  6
Continuous
 62
     7
370
    25
100
AcDbSpline
210
0.0
220
0.0
230
1.0
 70
     8
 71
     3
 72
    10
 73
     6
 74
     0
 42
0.00000001
 43
0.00000001
 40
0.0
 40
0.0
 40
0.0
 40
0.0
 40
0.295875640326593
 40
0.5933360076831717
 40
0.9999999999999999
 40
0.9999999999999999
 40
0.9999999999999999
 40
0.9999999999999999
 10
52.21060463495601
 20
52.1496263289459
 30
0.0
 10
52.43730838298566
 20
52.19621103981803
 30
0.0
 10
52.89193011742198
 20
52.28962997196611
 30
0.0
 10
53.66340854946218
 20
52.31273513564614
 30
0.0
 10
54.20354009860948
 20
52.20934110574916
 30
0.0
 10
54.5154907492792
 20
52.1496263289459
 30
0.0
  0
SPLINE
  5
F7
330
1F
100
AcDbEntity
  8
0
  6
Continuous
 62
     7
370
    25
100
AcDbSpline
210
0.0
220
0.0
230
1.0
 70
     8
 71
     3
 72
     9
 73
     5
 74
     0
 42
0.00000001
 43
0.00000001
 40
0.0
 40
0.0
 40
0.0
 40
0.0
 40
0.4983188677908571
 40
1.0
 40
1.0
 40
1.0
 40
1.0
 10
54.5154907492792
 20
52.1496263289459
 30
0.0
 10
54.83145608848871
 20
52.05488124870666
 30
0.0
 10
55.46551865290705
 20
51.86475182282469
 30
0.0
 10
56.08390422927103
 20
51.52605801547686
 30
0.0
 10
56.39413660536312
 20
51.35614172273438
 30
0.0
  0
LINE
  5
F8
330
1F
100
AcDbEntity
  8
0
  6
Continuous
 62
     7
370
    25
100
AcDbLine
 10
56.3941366054
 20
51.3561417227
 30
0.0
 11
56.3941366054
 21
40.0204612043
 31
0.0
  0
LINE
  5
F9
330
1F
100
AcDbEntity
  8
0
  6
Continuous
 62
     7
370
    25
100
AcDbLine
 10
34.2197809524
 20
53.9383014635
 30
0.0
 11
54.3197809524
 21
53.9383014635
 31
0.0
  0
LINE
  5
FA
330
1F
100
AcDbEntity
  8
0
  6
Continuous
 62
     7
370
    25
100
AcDbLine
 10
54.5197809524
 20
53.7383014635
 30
0.0
 11
34.0197809524
 21
53.7383014635
 31
0.0
  0
SPLINE
  5
FB
330
1F
100
AcDbEntity
  8
0
  6
Continuous
 62
     7
370
    25
100
AcDbSpline
210
0.0
220
0.0
230
1.0
 70
     8
 71
     3
 72
    11
 73
     7
 74
     0
 42
0.00000001
 43
0.00000001
 40
0.0
 40
0.0
 40
0.0
 40
0.0
 40
0.2730181757486086
 40
0.5498580878450773
 40
0.7738734731546646
 40
1.0
 40
1.0
 40
1.0
 40
1.0
 10
51.84126399855717
 20
53.01565173273035
 30
0.0
 10
52.10294656894678
 20
53.00431351201287
 30
0.0
 10
52.62997476911065
 20
52.98147835700467
 30
0.0
 10
53.23260663881447
 20
52.94031555671094
 30
0.0
 10
53.71003560327201
 20
52.99330049628235
 30
0.0
 10
53.92896701392347
 20
53.00817806225098
 30
0.0
 10
54.03894610756301
 20
53.01565173273035
 30
0.0
  0
SPLINE
  5
FC
330
1F
100
AcDbEntity
  8
0
  6
Continuous
 62
     7
370
    25
100
AcDbSpline
210
0.0
220
0.0
230
1.0
 70
     8
 71
     3
 72
    11
 73
     7
 74
     0
 42
0.00000001
 43
0.00000001
 40
0.0
 40
0.0
 40
0.0
 40
0.0
 40
0.2730181757485959
 40
0.5498580878450514
 40
0.7738734731546514
 40
1.0
 40
1.0
 40
1.0
 40
1.0
 10
34.50061579719895
 20
53.01565173273033
 30
0.0
 10
34.63562414567102
 20
53.00431351201286
 30
0.0
 10
34.90753070328544
 20
52.98147835700467
 30
0.0
 10
35.45079329238744
 20
52.94031555671093
 30
0.0
 10
36.04576284961263
 20
52.99330049628234
 30
0.0
 10
36.48010720339729
 20
53.00817806225097
 30
0.0
 10
36.69829790620481
 20
53.01565173273033
 30
0.0
  0
ARC
  5
FD
330
1F
100
AcDbEntity
  8
0
  6
Continuous
 62
     7
370
    25
100
AcDbCircle
 10
33.4911375809
 20
53.0070076874
 30
0.0
 40
1.009515224607399
100
AcDbArc
 50
301.8643766323
 51
0.4906051505
  0
ARC
  5
FE
330
1F
100
AcDbEntity
  8
0
  6
Continuous
 62
     7
370
    25
100
AcDbCircle
 10
55.0484243239
 20
53.0070076874
 30
0.0
 40
1.009515224614072
100
AcDbArc
 50
179.5093948497
 51
238.1356233675
  0
LINE
  5
FF
330
1F
100
AcDbEntity
  8
0
  6
Continuous
 62
     7
370
    25
100
AcDbLine
 10
32.0185559521
 20
16.0281018085
 30
0.0
 11
32.0185559521
 21
32.6901018085
 31
0.0
  0
LINE
  5
100
330
1F
100
AcDbEntity
  8
0
  6
Continuous
 62
     7
370
    25
100
AcDbLine
 10
56.5210059526
 20
16.0281018085
 30
0.0
 11
56.5210059526
 21
32.6901018085
 31
0.0
  0
LINE
  5
101
330
1F
100
AcDbEntity
  8
0
  6
Continuous
 62
     7
370
    25
100
AcDbLine
 10
35.9387809524
 20
36.6103268087
 30
0.0
 11
52.6007809524
 21
36.6103268087
 31
0.0
  0
LINE
  5
102
330
1F
100
AcDbEntity
  8
0
  6
Continuous
 62
     7
370
    25
100
AcDbLine
 10
45.7694730778
 20
20.714191709
 30
0.0
 11
46.458691025
 21
19.4003123819
 31
0.0
  0
ARC
  5
103
330
1F
100
AcDbEntity
  8
0
  6
Continuous
 62
     7
370
    25
100
AcDbCircle
 10
46.5255427319
 20
19.435380592
 30
0.0
 40
0.0754912582857663
100
AcDbArc
 50
207.6800279694
 51
311.070386533
  0
ARC
  5
104
330
1F
100
AcDbEntity
  8
0
  6
Continuous
 62
     7
370
    25
100
AcDbCircle
 10
48.2697809524
 20
17.4338353924
 30
0.0
 40
2.579419315655413
100
AcDbArc
 50
48.929613467
 51
131.070386533
  0
ARC
  5
105
330
1F
100
AcDbEntity
  8
0
  6
Continuous
 62
     7
370
    25
100
AcDbCircle
 10
50.0140191729
 20
19.435380592
 30
0.0
 40
0.0754912582857732
100
AcDbArc
 50
228.929613467
 51
332.3199720306
  0
LINE
  5
106
330
1F
100
AcDbEntity
  8
0
  6
Continuous
 62
     7
370
    25
100
AcDbLine
 10
50.0808708798
 20
19.4003123819
 30
0.0
 11
50.770088827
 21
20.714191709
 31
0.0
  0
LINE
  5
107
330
1F
100
AcDbEntity
  8
0
  6
Continuous
 62
     7
370
    25
100
AcDbLine
 10
50.770088827
 20
20.714191709
 30
0.0
 11
50.7302737135
 21
20.691438951
 31
0.0
  0
ARC
  5
108
330
1F
100
AcDbEntity
  8
0
  6
Continuous
 62
     7
370
    25
100
AcDbCircle
 10
50.4329751782
 20
21.2116824731
 30
0.0
 40
0.5991992501208387
100
AcDbArc
 50
199.6800689411
 51
299.7462530425
  0
LINE
  5
109
330
1F
100
AcDbEntity
  8
0
  6
Continuous
 62
     7
370
    25
100
AcDbLine
 10
49.8687765041
 20
21.0098914984
 30
0.0
 11
48.7822702219
 21
24.0477151912
 31
0.0
  0
SPLINE
  5
10A
330
1F
100
AcDbEntity
  8
0
  6
Continuous
 62
     7
370
    25
100
AcDbSpline
210
0.0
220
0.0
230
1.0
 70
     8
 71
     3
 72
    16
 73
    12
 74
     0
 42
0.00000001
 43
0.00000001
 40
0.0
 40
0.0
 40
0.0
 40
0.0
 40
0.1113160552874951
 40
0.2221777142163596
 40
0.333357231917414
 40
0.4444842326561919
 40
0.5552113451997907
 40
0.6662702792617305
 40
0.7776772343596836
 40
0.888683744007764
 40
1.0
 40
1.0
 40
1.0
 40
1.0
 10
48.78227022194008
 20
24.04771519122215
 30
0.0
 10
48.75840627880213
 20
24.08823739327487
 30
0.0
 10
48.710775806047
 20
24.16911638421499
 30
0.0
 10
48.60304337398109
 20
24.26216979402825
 30
0.0
 10
48.47792976284796
 20
24.32723090490772
 30
0.0
 10
48.34052891491764
 20
24.36038780065537
 30
0.0
 10
48.19943546250155
 20
24.36045107356438
 30
0.0
 10
48.06193735824533
 20
24.32739487491317
 30
0.0
 10
47.93669396485322
 20
24.26229725838186
 30
0.0
 10
47.82879647907539
 20
24.16918575145242
 30
0.0
 10
47.78114874296277
 20
24.08824296855443
 30
0.0
 10
47.75729168282191
 20
24.04771519122203
 30
0.0
  0
LINE
  5
10B
330
1F
100
AcDbEntity
  8
0
  6
Continuous
 62
     7
370
    25
100
AcDbLine
 10
47.7572916828
 20
24.0477151912
 30
0.0
 11
46.6710634917
 21
21.0106690287
 31
0.0
  0
ARC
  5
10C
330
1F
100
AcDbEntity
  8
0
  6
Continuous
 62
     7
370
    25
100
AcDbCircle
 10
46.1068648176
 20
21.2124600034
 30
0.0
 40
0.5991992501208343
100
AcDbArc
 50
241.1755227373
 51
340.3199310589
  0
LINE
  5
10D
330
1F
100
AcDbEntity
  8
0
  6
Continuous
 62
     7
370
    25
100
AcDbLine
 10
45.8179740839
 20
20.6875010666
 30
0.0
 11
45.7694730778
 21
20.714191709
 31
0.0
  0
SPLINE
  5
10E
330
1F
100
AcDbEntity
  8
0
  6
Continuous
 62
     7
370
    25
100
AcDbSpline
210
0.0
220
0.0
230
1.0
 70
     8
 71
     3
 72
    16
 73
    12
 74
     0
 42
0.00000001
 43
0.00000001
 40
0.0
 40
0.0
 40
0.0
 40
0.0
 40
0.0739298478380645
 40
0.1513677900875573
 40
0.2324450724520033
 40
0.3172760505712285
 40
0.4059605604870915
 40
0.4985859785248051
 40
0.6141264807254729
 40
0.7496239523722917
 40
1.0
 40
1.0
 40
1.0
 40
1.0
 10
37.26978095238098
 20
21.76102559713592
 30
0.0
 10
37.26886564708825
 20
21.82643723163085
 30
0.0
 10
37.26699160374222
 20
21.96036439162177
 30
0.0
 10
37.25261685218193
 20
22.16560636715702
 30
0.0
 10
37.22992350668873
 20
22.37973393472738
 30
0.0
 10
37.19796094746328
 20
22.60274902210513
 30
0.0
 10
37.15701816629348
 20
22.83465933751173
 30
0.0
 10
37.10355047555333
 20
23.09182703825519
 30
0.0
 10
37.03294781506774
 20
23.38760116136297
 30
0.0
 10
36.92044111260023
 20
23.81672851679523
 30
0.0
 10
36.82906852979233
 20
24.14566782255453
 30
0.0
 10
36.76978095238098
 20
24.35910180848924
 30
0.0
  0
SPLINE
  5
10F
330
1F
100
AcDbEntity
  8
0
  6
Continuous
 62
     7
370
    25
100
AcDbSpline
210
0.0
220
0.0
230
1.0
 70
     8
 71
     3
 72
    14
 73
    10
 74
     0
 42
0.00000001
 43
0.00000001
 40
0.0
 40
0.0
 40
0.0
 40
0.0
 40
0.2503818975769405
 40
0.3853960642454612
 40
0.5014219062737861
 40
0.6386745024418747
 40
0.7672919706928744
 40
0.8876008223903926
 40
1.0
 40
1.0
 40
1.0
 40
1.0
 10
36.76978095238098
 20
24.35910180848924
 30
0.0
 10
36.82931403611079
 20
24.57247151618532
 30
0.0
 10
36.92094931958739
 20
24.90089719859715
 30
0.0
 10
37.03347537376499
 20
25.33003009117116
 30
0.0
 10
37.11313358344826
 20
25.6642279882022
 30
0.0
 10
37.17980404924562
 20
25.99559085803883
 30
0.0
 10
37.23082635308728
 20
26.33350310510988
 30
0.0
 10
37.26334164510766
 20
26.65181916557738
 30
0.0
 10
37.267683711792
 20
26.85772462273196
 30
0.0
 10
37.26978095238098
 20
26.95717801984256
 30
0.0
  0
LINE
  5
110
330
1F
100
AcDbEntity
  8
0
  6
Continuous
 62
     7
370
    25
100
AcDbLine
 10
37.2697809524
 20
26.9571780198
 30
0.0
 11
37.2697809524
 21
29.8591478765
 31
0.0
  0
SPLINE
  5
111
330
1F
100
AcDbEntity
  8
0
  6
Continuous
 62
     7
370
    25
100
AcDbSpline
210
0.0
220
0.0
230
1.0
 70
     8
 71
     3
 72
    19
 73
    15
 74
     0
 42
0.00000001
 43
0.00000001
 40
0.0
 40
0.0
 40
0.0
 40
0.0
 40
0.0504323727095946
 40
0.1003565609002702
 40
0.1500822900422585
 40
0.199922985600534
 40
0.250189922563005
 40
0.3750855037481943
 40
0.5000544104077007
 40
0.6247887185113573
 40
0.7499189120354086
 40
0.8333029051587477
 40
0.9161791203953933
 40
1.0
 40
1.0
 40
1.0
 40
1.0
 10
38.7697348843358
 20
31.35910180848924
 30
0.0
 10
38.76884610104348
 20
31.31952083978477
 30
0.0
 10
38.76707749033155
 20
31.24075774213805
 30
0.0
 10
38.7528381365412
 20
31.12367729988386
 30
0.0
 10
38.73007669969668
 20
31.00851389102775
 30
0.0
 10
38.69797753229926
 20
30.89526717536839
 30
0.0
 10
38.63667314379413
 20
30.72958548964835
 30
0.0
 10
38.52543795181865
 20
30.52008568573521
 30
0.0
 10
38.337225660851
 20
30.29191658128567
 30
0.0
 10
38.10894085739587
 20
30.10356690558957
 30
0.0
 10
37.87640810110378
 20
29.97994005196179
 30
0.0
 10
37.65955091498
 20
29.90614132250046
 30
0.0
 10
37.46648961710477
 20
29.8664102742851
 30
0.0
 10
37.33559775989536
 20
29.86157780424261
 30
0.0
 10
37.26978095238098
 20
29.85914787653445
 30
0.0
  0
LINE
  5
112
330
1F
100
AcDbEntity
  8
0
  6
Continuous
 62
     7
370
    25
100
AcDbLine
 10
38.7697348843
 20
31.3591018085
 30
0.0
 11
41.671704741
 21
31.3591018085
 31
0.0
  0
SPLINE
  5
113
330
1F
100
AcDbEntity
  8
0
  6
Continuous
 62
     7
370
    25
100
AcDbSpline
210
0.0
220
0.0
230
1.0
 70
     8
 71
     3
 72
    10
 73
     6
 74
     0
 42
0.00000001
 43
0.00000001
 40
-0.796694357225795
 40
-0.796694357225795
 40
-0.796694357225795
 40
-0.796694357225795
 40
-0.533073702210409
 40
-0.533073702210409
 40
-0.532116113157305
 40
-0.532116113157305
 40
-0.532116113157305
 40
-0.532116113157305
 10
41.67170474102766
 20
31.35910180849649
 30
0.0
 10
42.55044025774409
 20
31.35910180849366
 30
0.0
 10
43.41272819367901
 20
31.6255692115537
 30
0.0
 10
44.26363199403898
 20
31.85738574051691
 30
0.0
 10
44.26670509937899
 20
31.85824872035736
 30
0.0
 10
44.26978095238098
 20
31.85910180848924
 30
0.0
  0
SPLINE
  5
114
330
1F
100
AcDbEntity
  8
0
  6
Continuous
 62
     7
370
    25
100
AcDbSpline
210
0.0
220
0.0
230
1.0
 70
     8
 71
     3
 72
    10
 73
     6
 74
     0
 42
0.00000001
 43
0.00000001
 40
-0.263620655015386
 40
-0.263620655015386
 40
-0.263620655015386
 40
-0.263620655015386
 40
-0.2626630659468851
 40
-0.2626630659468851
 40
0.0009575890685009
 40
0.0009575890685009
 40
0.0009575890685009
 40
0.0009575890685009
 10
44.26978095238098
 20
31.85910180848924
 30
0.0
 10
44.27285680543243
 20
31.85824872034364
 30
0.0
 10
44.2759308037379
 20
31.85738927507158
 30
0.0
 10
45.1264831692466
 20
31.62418852610205
 30
0.0
 10
45.98912164701634
 20
31.35910180848924
 30
0.0
 10
46.86785716373429
 20
31.35910180848924
 30
0.0
  0
LINE
  5
115
330
1F
100
AcDbEntity
  8
0
  6
Continuous
 62
     7
370
    25
100
AcDbLine
 10
46.8678571629
 20
31.3591018085
 30
0.0
 11
49.7698270204
 21
31.3591018085
 31
0.0
  0
SPLINE
  5
116
330
1F
100
AcDbEntity
  8
0
  6
Continuous
 62
     7
370
    25
100
AcDbSpline
210
0.0
220
0.0
230
1.0
 70
     8
 71
     3
 72
    19
 73
    15
 74
     0
 42
0.00000001
 43
0.00000001
 40
0.0
 40
0.0
 40
0.0
 40
0.0
 40
0.0504323727096602
 40
0.1003565609003688
 40
0.1500822900423565
 40
0.199922985600599
 40
0.2501899225630071
 40
0.3750855037480327
 40
0.5000544104076973
 40
0.624788718511343
 40
0.7499189120354135
 40
0.8333029051590075
 40
0.916179120395655
 40
1.0
 40
1.0
 40
1.0
 40
1.0
 10
51.26978095238098
 20
29.85914787653442
 30
0.0
 10
51.23019998367646
 20
29.86003665982673
 30
0.0
 10
51.15143688602967
 20
29.86180527053866
 30
0.0
 10
51.03435644377541
 20
29.87604462432901
 30
0.0
 10
50.9191930349193
 20
29.89880606117352
 30
0.0
 10
50.80594631926004
 20
29.93090522857094
 30
0.0
 10
50.64026463354023
 20
29.99220961707608
 30
0.0
 10
50.43076482962726
 20
30.10344480905169
 30
0.0
 10
50.20259572517757
 20
30.29165710001908
 30
0.0
 10
50.01424604948105
 20
30.51994190347404
 30
0.0
 10
49.89061919585348
 20
30.75247465976648
 30
0.0
 10
49.81682046639231
 20
30.9693318458905
 30
0.0
 10
49.77708941817685
 20
31.16239314376569
 30
0.0
 10
49.77225694813433
 20
31.29328500097489
 30
0.0
 10
49.76982702042617
 20
31.35910180848907
 30
0.0
  0
LINE
  5
117
330
1F
100
AcDbEntity
  8
0
  6
Continuous
 62
     7
370
    25
100
AcDbLine
 10
51.2697809524
 20
29.8591478765
 30
0.0
 11
51.2697809524
 21
26.9571780198
 31
0.0
  0
SPLINE
  5
118
330
1F
100
AcDbEntity
  8
0
  6
Continuous
 62
     7
370
    25
100
AcDbSpline
210
0.0
220
0.0
230
1.0
 70
     8
 71
     3
 72
    16
 73
    12
 74
     0
 42
0.00000001
 43
0.00000001
 40
0.0
 40
0.0
 40
0.0
 40
0.0
 40
0.0739298478317502
 40
0.1513677900738161
 40
0.2324450724296886
 40
0.3172760505391666
 40
0.4059605604440887
 40
0.4985859784696513
 40
0.6141264806631028
 40
0.7496239522892343
 40
1.0
 40
1.0
 40
1.0
 40
1.0
 10
51.26978095238098
 20
26.95717801984256
 30
0.0
 10
51.27069625767351
 20
26.89176638535321
 30
0.0
 10
51.27257030101914
 20
26.75783922537445
 30
0.0
 10
51.28694505257659
 20
26.55259724985881
 30
0.0
 10
51.30963839806535
 20
26.33846968231088
 30
0.0
 10
51.34160095728454
 20
26.11545459495839
 30
0.0
 10
51.38254373844633
 20
25.88354427957988
 30
0.0
 10
51.43601142917771
 20
25.62637657886198
 30
0.0
 10
51.50661408965093
 20
25.33060245578767
 30
0.0
 10
51.61912079212632
 20
24.90147510030699
 30
0.0
 10
51.71049337494958
 20
24.57253579449466
 30
0.0
 10
51.76978095238098
 20
24.35910180848924
 30
0.0
  0
SPLINE
  5
119
330
1F
100
AcDbEntity
  8
0
  6
Continuous
 62
     7
370
    25
100
AcDbSpline
210
0.0
220
0.0
230
1.0
 70
     8
 71
     3
 72
    14
 73
    10
 74
     0
 42
0.00000001
 43
0.00000001
 40
0.0
 40
0.0
 40
0.0
 40
0.0
 40
0.250381897495202
 40
0.3853960641816825
 40
0.5014219062198584
 40
0.6386745024049088
 40
0.7672919706705007
 40
0.8876008223803089
 40
0.9999999999999999
 40
0.9999999999999999
 40
0.9999999999999999
 40
0.9999999999999999
 10
51.76978095238098
 20
24.35910180848924
 30
0.0
 10
51.71024786867097
 20
24.14573210086272
 30
0.0
 10
51.61861258521014
 20
23.8173064185051
 30
0.0
 10
51.50608653103966
 20
23.38817352597858
 30
0.0
 10
51.42642832134271
 20
23.05397562891009
 30
0.0
 10
51.35975785553372
 20
22.72261275903843
 30
0.0
 10
51.3087355516823
 20
22.38470051192961
 30
0.0
 10
51.27622025965563
 20
22.06638445142982
 30
0.0
 10
51.27187819297038
 20
21.86047899425543
 30
0.0
 10
51.26978095238098
 20
21.76102559713592
 30
0.0
  0
LINE
  5
11A
330
1F
100
AcDbEntity
  8
0
  6
Continuous
 62
     7
370
    25
100
AcDbLine
 10
51.2697809524
 20
21.761025598
 30
0.0
 11
51.2697809524
 21
18.8591018085
 31
0.0
  0
LINE
  5
11B
330
1F
100
AcDbEntity
  8
0
  6
Continuous
 62
     7
370
    25
100
AcDbLine
 10
37.2697809524
 20
18.8591018085
 30
0.0
 11
51.2697809524
 21
18.8591018085
 31
0.0
  0
LINE
  5
11C
330
1F
100
AcDbEntity
  8
0
  6
Continuous
 62
     7
370
    25
100
AcDbLine
 10
37.2697809524
 20
18.8591018085
 30
0.0
 11
37.2697809524
 21
21.7610255971
 31
0.0
  0
SPLINE
  5
11D
330
1F
100
AcDbEntity
  8
0
  6
Continuous
 62
     7
370
    25
100
AcDbSpline
210
0.0
220
0.0
230
1.0
 70
     8
 71
     3
 72
    13
 73
     9
 74
     0
 42
0.00000001
 43
0.00000001
 40
0.0
 40
0.0
 40
0.0
 40
0.0
 40
0.1856794033212272
 40
0.3634611737568169
 40
0.533542336720674
 40
0.6961479207300177
 40
0.8515354443703902
 40
1.0
 40
1.0
 40
1.0
 40
1.0
 10
36.42532413492329
 20
26.78397293907126
 30
0.0
 10
36.40899582908014
 20
26.85129573623971
 30
0.0
 10
36.3770337207307
 20
26.98307784261099
 30
0.0
 10
36.33831486749874
 20
27.17517025931708
 30
0.0
 10
36.30776078841104
 20
27.35775734148879
 30
0.0
 10
36.28614405150191
 20
27.53083118026856
 30
0.0
 10
36.27243635701315
 20
27.69479118115594
 30
0.0
 10
36.27065253975653
 20
27.79993920448331
 30
0.0
 10
36.26978095238098
 20
27.85131536947825
 30
0.0
  0
SPLINE
  5
11E
330
1F
100
AcDbEntity
  8
0
  6
Continuous
 62
     7
370
    25
100
AcDbSpline
210
0.0
220
0.0
230
1.0
 70
     8
 71
     3
 72
    17
 73
    13
 74
     0
 42
0.00000001
 43
0.00000001
 40
0.0
 40
0.0
 40
0.0
 40
0.0
 40
0.1130667886658668
 40
0.2142471894553318
 40
0.3035410226158834
 40
0.3809482842621089
 40
0.4464692357998273
 40
0.5001045924259258
 40
0.6375226532033567
 40
0.75004211245356
 40
0.8820380142920121
 40
1.0
 40
1.0
 40
1.0
 40
1.0
 10
36.76978095238098
 20
24.35910180848924
 30
0.0
 10
36.75955132627703
 20
24.45281927975116
 30
0.0
 10
36.74016748538253
 20
24.6304019727563
 30
0.0
 10
36.71227324082467
 20
24.88156129378839
 30
0.0
 10
36.68728043312716
 20
25.10260001550942
 30
0.0
 10
36.66515103559315
 20
25.29354701842762
 30
0.0
 10
36.64595120886683
 20
25.45456346627183
 30
0.0
 10
36.61976944351377
 20
25.66388557334244
 30
0.0
 10
36.58678790192278
 20
25.90986852220753
 30
0.0
 10
36.54119362750856
 20
26.21551869318056
 30
0.0
 10
36.49128497082972
 20
26.50165574128104
 30
0.0
 10
36.44647241135004
 20
26.6934567705472
 30
0.0
 10
36.42532413492329
 20
26.78397293907126
 30
0.0
  0
SPLINE
  5
11F
330
1F
100
AcDbEntity
  8
0
  6
Continuous
 62
     7
370
    25
100
AcDbSpline
210
0.0
220
0.0
230
1.0
 70
     8
 71
     3
 72
    14
 73
    10
 74
     0
 42
0.00000001
 43
0.00000001
 40
0.0
 40
0.0
 40
0.0
 40
0.0
 40
0.0771019312675692
 40
0.1604220743863116
 40
0.2500134455674957
 40
0.3625277428666271
 40
0.4999872826714505
 40
0.6965319275930101
 40
1.0
 40
1.0
 40
1.0
 40
1.0
 10
36.42532413492329
 20
21.93423067790722
 30
0.0
 10
36.43945341182649
 20
21.99322413878051
 30
0.0
 10
36.46885148102044
 20
22.11596883807578
 30
0.0
 10
36.50736937723141
 20
22.31106031512876
 30
0.0
 10
36.54643190372048
 20
22.53651859198576
 30
0.0
 10
36.58671241012269
 20
22.80835709858821
 30
0.0
 10
36.63537110467118
 20
23.17003115511527
 30
0.0
 10
36.696805944207
 20
23.69292511575522
 30
0.0
 10
36.74221889321622
 20
24.10749236192985
 30
0.0
 10
36.76978095238098
 20
24.35910180848924
 30
0.0
  0
SPLINE
  5
120
330
1F
100
AcDbEntity
  8
0
  6
Continuous
 62
     7
370
    25
100
AcDbSpline
210
0.0
220
0.0
230
1.0
 70
     8
 71
     3
 72
    13
 73
     9
 74
     0
 42
0.00000001
 43
0.00000001
 40
0.0
 40
0.0
 40
0.0
 40
0.0
 40
0.1484645556296105
 40
0.303852079269983
 40
0.4664576632793263
 40
0.6365388262431836
 40
0.8143205966787732
 40
1.0
 40
1.0
 40
1.0
 40
1.0
 10
36.26978095238098
 20
20.86688824750023
 30
0.0
 10
36.27065253975653
 20
20.91826441249517
 30
0.0
 10
36.27243635701315
 20
21.02341243582254
 30
0.0
 10
36.28614405150191
 20
21.18737243670992
 30
0.0
 10
36.30776078841104
 20
21.36044627548969
 30
0.0
 10
36.33831486749874
 20
21.5430333576614
 30
0.0
 10
36.37703372073069
 20
21.73512577436749
 30
0.0
 10
36.40899582908014
 20
21.86690788073878
 30
0.0
 10
36.42532413492329
 20
21.93423067790722
 30
0.0
  0
LINE
  5
121
330
1F
100
AcDbEntity
  8
0
  6
Continuous
 62
     7
370
    25
100
AcDbLine
 10
36.2697809524
 20
18.2924351418
 30
0.0
 11
36.2697809524
 21
20.8668882475
 31
0.0
  0
LINE
  5
122
330
1F
100
AcDbEntity
  8
0
  6
Continuous
 62
     7
370
    25
100
AcDbLine
 10
52.2697809524
 20
18.2924351418
 30
0.0
 11
36.2697809524
 21
18.2924351418
 31
0.0
  0
LINE
  5
123
330
1F
100
AcDbEntity
  8
0
  6
Continuous
 62
     7
370
    25
100
AcDbLine
 10
52.2697809524
 20
20.8668882475
 30
0.0
 11
52.2697809524
 21
18.2924351418
 31
0.0
  0
SPLINE
  5
124
330
1F
100
AcDbEntity
  8
0
  6
Continuous
 62
     7
370
    25
100
AcDbSpline
210
0.0
220
0.0
230
1.0
 70
     8
 71
     3
 72
    13
 73
     9
 74
     0
 42
0.00000001
 43
0.00000001
 40
0.0
 40
0.0
 40
0.0
 40
0.0
 40
0.1856794033212448
 40
0.3634611737568449
 40
0.5335423367206995
 40
0.6961479207300406
 40
0.8515354443704051
 40
0.9999999999999999
 40
0.9999999999999999
 40
0.9999999999999999
 40
0.9999999999999999
 10
52.11423776983867
 20
21.93423067790722
 30
0.0
 10
52.13056607568182
 20
21.86690788073877
 30
0.0
 10
52.16252818403125
 20
21.73512577436748
 30
0.0
 10
52.20124703726322
 20
21.54303335766138
 30
0.0
 10
52.23180111635091
 20
21.36044627548966
 30
0.0
 10
52.25341785326005
 20
21.1873724367099
 30
0.0
 10
52.26712554774881
 20
21.02341243582253
 30
0.0
 10
52.26890936500543
 20
20.91826441249516
 30
0.0
 10
52.26978095238098
 20
20.86688824750023
 30
0.0
  0
SPLINE
  5
125
330
1F
100
AcDbEntity
  8
0
  6
Continuous
 62
     7
370
    25
100
AcDbSpline
210
0.0
220
0.0
230
1.0
 70
     8
 71
     3
 72
    16
 73
    12
 74
     0
 42
0.00000001
 43
0.00000001
 40
0.0
 40
0.0
 40
0.0
 40
0.0
 40
0.1113707256031287
 40
0.2115306859456111
 40
0.3004797843893181
 40
0.3782180970979205
 40
0.444745959733242
 40
0.5000641419851813
 40
0.7004020768438615
 40
0.8669907153098478
 40
1.0
 40
1.0
 40
1.0
 40
1.0
 10
51.76978095238098
 20
24.35910180848924
 30
0.0
 10
51.77985863139466
 20
24.26679810937302
 30
0.0
 10
51.79899955323887
 20
24.09148215732518
 30
0.0
 10
51.82664527128475
 20
23.8428695092772
 30
0.0
 10
51.85159405979289
 20
23.62268772020565
 30
0.0
 10
51.87387519292244
 20
23.43092110628526
 30
0.0
 10
51.89345431540586
 20
23.26743570598497
 30
0.0
 10
51.92634203546412
 20
23.00458301179045
 30
0.0
 10
51.97422069254007
 20
22.66352269599749
 30
0.0
 10
52.03873405168977
 20
22.26679644279633
 30
0.0
 10
52.09102341889795
 20
22.03648125001524
 30
0.0
 10
52.11423776983867
 20
21.93423067790722
 30
0.0
  0
SPLINE
  5
126
330
1F
100
AcDbEntity
  8
0
  6
Continuous
 62
     7
370
    25
100
AcDbSpline
210
0.0
220
0.0
230
1.0
 70
     8
 71
     3
 72
    14
 73
    10
 74
     0
 42
0.00000001
 43
0.00000001
 40
0.0
 40
0.0
 40
0.0
 40
0.0
 40
0.0771019312872794
 40
0.1604220744063169
 40
0.2500134455684252
 40
0.3625277428809286
 40
0.4999872826729911
 40
0.6965319256112464
 40
1.0
 40
1.0
 40
1.0
 40
1.0
 10
52.11423776983867
 20
26.78397293907126
 30
0.0
 10
52.10010849293156
 20
26.72497947818301
 30
0.0
 10
52.07071042373336
 20
26.60223477887271
 30
0.0
 10
52.03219252752101
 20
26.40714330181913
 30
0.0
 10
51.99313000103608
 20
26.18168502496598
 30
0.0
 10
51.95284949464254
 20
25.90984651837791
 30
0.0
 10
51.90419080028473
 20
25.54817246345977
 30
0.0
 10
51.84275596083432
 20
25.02527850285972
 30
0.0
 10
51.79734301176332
 20
24.6107112566897
 30
0.0
 10
51.76978095238098
 20
24.35910180848924
 30
0.0
  0
SPLINE
  5
127
330
1F
100
AcDbEntity
  8
0
  6
Continuous
 62
     7
370
    25
100
AcDbSpline
210
0.0
220
0.0
230
1.0
 70
     8
 71
     3
 72
    13
 73
     9
 74
     0
 42
0.00000001
 43
0.00000001
 40
0.0
 40
0.0
 40
0.0
 40
0.0
 40
0.1484645556295969
 40
0.303852079269964
 40
0.4664576632793
 40
0.6365388262431574
 40
0.814320596678755
 40
1.0
 40
1.0
 40
1.0
 40
1.0
 10
52.26978095238098
 20
27.85131536947825
 30
0.0
 10
52.26890936500543
 20
27.79993920448332
 30
0.0
 10
52.26712554774881
 20
27.69479118115595
 30
0.0
 10
52.25341785326005
 20
27.53083118026858
 30
0.0
 10
52.23180111635091
 20
27.35775734148881
 30
0.0
 10
52.20124703726322
 20
27.1751702593171
 30
0.0
 10
52.16252818403125
 20
26.983077842611
 30
0.0
 10
52.13056607568182
 20
26.85129573623971
 30
0.0
 10
52.11423776983867
 20
26.78397293907126
 30
0.0
  0
LINE
  5
128
330
1F
100
AcDbEntity
  8
0
  6
Continuous
 62
     7
370
    25
100
AcDbLine
 10
52.2697809524
 20
29.4924351418
 30
0.0
 11
52.2697809524
 21
27.8513153695
 31
0.0
  0
SPLINE
  5
129
330
1F
100
AcDbEntity
  8
0
  6
Continuous
 62
     7
370
    25
100
AcDbSpline
210
0.0
220
0.0
230
1.0
 70
     8
 71
     3
 72
    13
 73
     9
 74
     0
 42
0.00000001
 43
0.00000001
 40
0.0
 40
0.0
 40
0.0
 40
0.0
 40
0.1257153360577753
 40
0.250986709269415
 40
0.3762164861937409
 40
0.5018074329537138
 40
0.7521854029755236
 40
1.0
 40
1.0
 40
1.0
 40
1.0
 10
52.05142532582545
 20
30.07457787498332
 30
0.0
 10
52.0686196029968
 20
30.05349203513262
 30
0.0
 10
52.10294743586771
 20
30.01139481992988
 30
0.0
 10
52.14651698410286
 20
29.94448210409799
 30
0.0
 10
52.18412478774755
 20
29.87496685244653
 30
0.0
 10
52.22514806532857
 20
29.77863341512077
 30
0.0
 10
52.26167662008333
 20
29.65279959957951
 30
0.0
 10
52.26708879077822
 20
29.54570628369637
 30
0.0
 10
52.26978095238098
 20
29.49243514182257
 30
0.0
  0
SPLINE
  5
12A
330
1F
100
AcDbEntity
  8
0
  6
Continuous
 62
     7
370
    25
100
AcDbSpline
210
0.0
220
0.0
230
1.0
 70
     8
 71
     3
 72
    16
 73
    12
 74
     0
 42
0.00000001
 43
0.00000001
 40
0.0
 40
0.0
 40
0.0
 40
0.0
 40
0.065953468215878
 40
0.1324870475734065
 40
0.2006767984510681
 40
0.2715233530653123
 40
0.3459202143274948
 40
0.4246400792148715
 40
0.5083359903947017
 40
0.7405135829365557
 40
1.0
 40
1.0
 40
1.0
 40
1.0
 10
51.26978095238098
 20
30.4257684751559
 30
0.0
 10
51.29329300480799
 20
30.4253164497953
 30
0.0
 10
51.34052391612641
 20
30.42440842316569
 30
0.0
 10
51.41084200242054
 20
30.41717550050334
 30
0.0
 10
51.4805011170932
 20
30.40560753906616
 30
0.0
 10
51.54947744757498
 20
30.38922015336928
 30
0.0
 10
51.61776882171782
 20
30.36804711623752
 30
0.0
 10
51.68539590595809
 20
30.34192991925343
 30
0.0
 10
51.79039737560781
 20
30.29300687092218
 30
0.0
 10
51.92418102314508
 20
30.20882443674747
 30
0.0
 10
52.00746852699795
 20
30.12095361821461
 30
0.0
 10
52.05142532582545
 20
30.07457787498332
 30
0.0
  0
SPLINE
  5
12B
330
1F
100
AcDbEntity
  8
0
  6
Continuous
 62
     7
370
    25
100
AcDbSpline
210
0.0
220
0.0
230
1.0
 70
     8
 71
     3
 72
    13
 73
     9
 74
     0
 42
0.00000001
 43
0.00000001
 40
0.0
 40
0.0
 40
0.0
 40
0.0
 40
0.1759205118839867
 40
0.3391896075500394
 40
0.4921931780779421
 40
0.6738397335242767
 40
0.8395017852842264
 40
1.0
 40
1.0
 40
1.0
 40
1.0
 10
50.91622756178771
 20
30.56245197726885
 30
0.0
 10
50.9293261063343
 20
30.55092679987166
 30
0.0
 10
50.95458120670124
 20
30.52870528427675
 30
0.0
 10
51.00042427328159
 20
30.49830166498322
 30
0.0
 10
51.05431525471104
 20
30.47009795253436
 30
0.0
 10
51.11766317597439
 20
30.44617202428851
 30
0.0
 10
51.19221737187195
 20
30.42904577729579
 30
0.0
 10
51.24420076282343
 20
30.42684931760058
 30
0.0
 10
51.26978095238098
 20
30.4257684751559
 30
0.0
  0
SPLINE
  5
12C
330
1F
100
AcDbEntity
  8
0
  6
Continuous
 62
     7
370
    25
100
AcDbSpline
210
0.0
220
0.0
230
1.0
 70
     8
 71
     3
 72
    14
 73
    10
 74
     0
 42
0.00000001
 43
0.00000001
 40
0.0
 40
0.0
 40
0.0
 40
0.0
 40
0.0960186407856747
 40
0.1924368822044046
 40
0.2917857869559113
 40
0.3963838799166358
 40
0.5082236945494524
 40
0.7392053714339348
 40
1.0
 40
1.0
 40
1.0
 40
1.0
 10
37.26978095238098
 20
30.42576847515591
 30
0.0
 10
37.2850614593229
 20
30.42616656305056
 30
0.0
 10
37.31568606606949
 20
30.42696439556167
 30
0.0
 10
37.3608109871594
 20
30.43297091808807
 30
0.0
 10
37.40473406451929
 20
30.44244857701842
 30
0.0
 10
37.44743033169079
 20
30.45565740475854
 30
0.0
 10
37.50244281084286
 20
30.47782216040021
 30
0.0
 10
37.56609772830092
 20
30.51319326619444
 30
0.0
 10
37.60349966561774
 20
30.54538194881355
 30
0.0
 10
37.62333434297425
 20
30.56245197726885
 30
0.0
  0
SPLINE
  5
12D
330
1F
100
AcDbEntity
  8
0
  6
Continuous
 62
     7
370
    25
100
AcDbSpline
210
0.0
220
0.0
230
1.0
 70
     8
 71
     3
 72
    15
 73
    11
 74
     0
 42
0.00000001
 43
0.00000001
 40
0.0
 40
0.0
 40
0.0
 40
0.0
 40
0.1336726496021612
 40
0.2596519444552429
 40
0.3787836139818168
 40
0.4920668899310182
 40
0.6351830136473593
 40
0.7645526196418757
 40
0.8844004131119898
 40
1.0
 40
1.0
 40
1.0
 40
1.0
 10
36.4881365789365
 20
30.07457787498332
 30
0.0
 10
36.51003206937313
 20
30.09882291333477
 30
0.0
 10
36.55256288389347
 20
30.14591759852341
 30
0.0
 10
36.6257587420363
 20
30.20892244253195
 30
0.0
 10
36.70353482160592
 20
30.26401468473047
 30
0.0
 10
36.79517326473034
 20
30.31591568140205
 30
0.0
 10
36.90050164591224
 20
30.36224022605712
 30
0.0
 10
37.02105052821943
 20
30.39871806283907
 30
0.0
 10
37.14446998688879
 20
30.42153310416852
 30
0.0
 10
37.22851611549299
 20
30.42437376965453
 30
0.0
 10
37.26978095238098
 20
30.42576847515591
 30
0.0
  0
SPLINE
  5
12E
330
1F
100
AcDbEntity
  8
0
  6
Continuous
 62
     7
370
    25
100
AcDbSpline
210
0.0
220
0.0
230
1.0
 70
     8
 71
     3
 72
    13
 73
     9
 74
     0
 42
0.00000001
 43
0.00000001
 40
0.0
 40
0.0
 40
0.0
 40
0.0
 40
0.123835855545221
 40
0.2479006248871513
 40
0.3726202178325717
 40
0.4984138930967346
 40
0.7490996844582696
 40
1.0
 40
1.0
 40
1.0
 40
1.0
 10
36.26978095238098
 20
29.49243514182257
 30
0.0
 10
36.27045248369734
 20
29.51918680661178
 30
0.0
 10
36.27179678767316
 20
29.57273958733768
 30
0.0
 10
36.2826987713236
 20
29.65105628988695
 30
0.0
 10
36.300060454936
 20
29.72785592091937
 30
0.0
 10
36.33274809636913
 20
29.82738255659403
 30
0.0
 10
36.38863289729357
 20
29.94654568044852
 30
0.0
 10
36.45495922931649
 20
30.0318883100289
 30
0.0
 10
36.4881365789365
 20
30.07457787498332
 30
0.0
  0
LINE
  5
12F
330
1F
100
AcDbEntity
  8
0
  6
Continuous
 62
     7
370
    25
100
AcDbLine
 10
36.2697809524
 20
27.8513153695
 30
0.0
 11
36.2697809524
 21
29.4924351418
 31
0.0
  0
LINE
  5
130
330
1F
100
AcDbEntity
  8
0
  6
Continuous
 62
     7
370
    25
100
AcDbLine
 10
40.5281235656
 20
31.8591018085
 30
0.0
 11
38.7697809524
 21
31.8591018085
 31
0.0
  0
SPLINE
  5
131
330
1F
100
AcDbEntity
  8
0
  6
Continuous
 62
     7
370
    25
100
AcDbSpline
210
0.0
220
0.0
230
1.0
 70
     8
 71
     3
 72
     8
 73
     4
 74
     0
 42
0.00000001
 43
0.00000001
 40
0.0000000000000001
 40
0.0000000000000001
 40
0.0000000000000001
 40
0.0000000000000001
 40
0.127234597098751
 40
0.127234597098751
 40
0.127234597098751
 40
0.127234597098751
 10
40.52812356560704
 20
31.85910180848924
 30
0.0
 10
40.8956901794479
 20
31.85910180848924
 30
0.0
 10
41.28311874632669
 20
31.82683831947629
 30
0.0
 10
41.67170474104011
 20
31.78133021721843
 30
0.0
  0
SPLINE
  5
132
330
1F
100
AcDbEntity
  8
0
  6
Continuous
 62
     7
370
    25
100
AcDbSpline
210
0.0
220
0.0
230
1.0
 70
    24
 71
     3
 72
    10
 73
     6
 74
     0
 42
0.00000001
 43
0.00000001
 40
0.0
 40
0.0
 40
0.0
 40
0.0
 40
0.5
 40
0.5
 40
1.0
 40
1.0
 40
1.0
 40
1.0
 10
41.67170474102766
 20
31.35910180848924
 30
0.0
 10
41.67170474102766
 20
31.44289766203552
 30
0.0
 10
41.67170474102766
 20
31.52660534276098
 30
0.0
 10
41.67170474102766
 20
31.67345736163785
 30
0.0
 10
41.67170474102766
 20
31.73644717714644
 30
0.0
 10
41.67170474102766
 20
31.78133021721809
 30
0.0
  0
SPLINE
  5
133
330
1F
100
AcDbEntity
  8
0
  6
Continuous
 62
     7
370
    25
100
AcDbSpline
210
0.0
220
0.0
230
1.0
 70
     8
 71
     3
 72
    14
 73
    10
 74
     0
 42
0.00000001
 43
0.00000001
 40
0.0
 40
0.0
 40
0.0
 40
0.0
 40
0.1488603597576148
 40
0.3150273328471772
 40
0.4987646698883385
 40
0.5951853465608922
 40
0.7494349165377944
 40
0.8793203508289453
 40
1.0
 40
1.0
 40
1.0
 40
1.0
 10
38.40476416758201
 20
31.70080745201157
 30
0.0
 10
38.42124255049633
 20
31.68559669459986
 30
0.0
 10
38.4561151050675
 20
31.65340676609372
 30
0.0
 10
38.51526548079764
 20
31.59878273498943
 30
0.0
 10
38.56984200424825
 20
31.54807707254018
 30
0.0
 10
38.62439814444717
 20
31.49806043295723
 30
0.0
 10
38.67256390883855
 20
31.45338673744608
 30
0.0
 10
38.72365311642374
 20
31.40480947496623
 30
0.0
 10
38.75475519278472
 20
31.37395989176963
 30
0.0
 10
38.7697348843358
 20
31.35910180848924
 30
0.0
  0
ARC
  5
134
330
1F
100
AcDbEntity
  8
0
  6
Continuous
 62
     7
370
    25
100
AcDbCircle
 10
38.7697809524
 20
31.3591018085
 30
0.0
 40
0.5
100
AcDbArc
 50
90.0
 51
136.8892083855
  0
LINE
  5
135
330
1F
100
AcDbEntity
  8
0
  6
Continuous
 62
     7
370
    25
100
AcDbLine
 10
51.7697809524
 20
29.8591018085
 30
0.0
 11
51.7697809524
 21
28.1007591953
 31
0.0
  0
SPLINE
  5
136
330
1F
100
AcDbEntity
  8
0
  6
Continuous
 62
     7
370
    25
100
AcDbSpline
210
0.0
220
0.0
230
1.0
 70
     8
 71
     3
 72
    11
 73
     7
 74
     0
 42
0.00000001
 43
0.00000001
 40
0.0
 40
0.0
 40
0.0
 40
0.0
 40
0.2815942436633383
 40
0.5420860673673156
 40
0.7815308548566234
 40
1.0
 40
1.0
 40
1.0
 40
1.0
 10
51.69200936110982
 20
26.95717801983367
 30
0.0
 10
51.70405321810435
 20
27.06514235351656
 30
0.0
 10
51.72723837625658
 20
27.27298027058729
 30
0.0
 10
51.75136606028769
 20
27.57147095625596
 30
0.0
 10
51.76677447873084
 20
27.84498118644406
 30
0.0
 10
51.76880987289981
 20
28.01814387745109
 30
0.0
 10
51.76978095238098
 20
28.10075919526318
 30
0.0
  0
SPLINE
  5
137
330
1F
100
AcDbEntity
  8
0
  6
Continuous
 62
     7
370
    25
100
AcDbSpline
210
0.0
220
0.0
230
1.0
 70
    24
 71
     3
 72
    10
 73
     6
 74
     0
 42
0.00000001
 43
0.00000001
 40
0.0
 40
0.0
 40
0.0
 40
0.0
 40
0.5
 40
0.5
 40
1.0
 40
1.0
 40
1.0
 40
1.0
 10
51.26978095238098
 20
26.95717801984256
 30
0.0
 10
51.35357680592726
 20
26.95717801984256
 30
0.0
 10
51.43728448665272
 20
26.95717801984256
 30
0.0
 10
51.58413650552959
 20
26.95717801984256
 30
0.0
 10
51.64712632103817
 20
26.95717801984256
 30
0.0
 10
51.69200936110982
 20
26.95717801984256
 30
0.0
  0
SPLINE
  5
138
330
1F
100
AcDbEntity
  8
0
  6
Continuous
 62
     7
370
    25
100
AcDbSpline
210
0.0
220
0.0
230
1.0
 70
     8
 71
     3
 72
    14
 73
    10
 74
     0
 42
0.00000001
 43
0.00000001
 40
0.0
 40
0.0
 40
0.0
 40
0.0
 40
0.1488603598374869
 40
0.3150273329269794
 40
0.4987646698885773
 40
0.5951853465829806
 40
0.7494349165379153
 40
0.8793203509512854
 40
1.0
 40
1.0
 40
1.0
 40
1.0
 10
51.61148659590329
 20
30.22411859328822
 30
0.0
 10
51.59627583848296
 20
30.20764021036538
 30
0.0
 10
51.56408590996767
 20
30.17276765578604
 30
0.0
 10
51.50946187885991
 20
30.11361728005698
 30
0.0
 10
51.45875621642011
 20
30.05904075660943
 30
0.0
 10
51.40873957684769
 20
30.00448461641898
 30
0.0
 10
51.36406588132058
 20
29.95631885201371
 30
0.0
 10
51.31548861884296
 20
29.90522964443119
 30
0.0
 10
51.28463903564633
 20
29.87412756807029
 30
0.0
 10
51.26978095238098
 20
29.85914787653442
 30
0.0
  0
ARC
  5
139
330
1F
100
AcDbEntity
  8
0
  6
Continuous
 62
     7
370
    25
100
AcDbCircle
 10
51.2697809524
 20
29.8591018085
 30
0.0
 40
0.5
100
AcDbArc
 50
0.0
 51
46.8892083855
  0
SPLINE
  5
13A
330
1F
100
AcDbEntity
  8
0
  6
Continuous
 62
     7
370
    25
100
AcDbSpline
210
0.0
220
0.0
230
1.0
 70
     8
 71
     3
 72
    11
 73
     7
 74
     0
 42
0.00000001
 43
0.00000001
 40
0.0
 40
0.0
 40
0.0
 40
0.0
 40
0.2815942436632133
 40
0.5420860673671491
 40
0.7815308548564992
 40
1.0
 40
1.0
 40
1.0
 40
1.0
 10
36.84755254365213
 20
21.76102559714481
 30
0.0
 10
36.83550868665761
 20
21.65306126346196
 30
0.0
 10
36.81232352850538
 20
21.4452233463913
 30
0.0
 10
36.78819584447427
 20
21.14673266072268
 30
0.0
 10
36.77278742603112
 20
20.87322243053453
 30
0.0
 10
36.77075203186215
 20
20.70005973952744
 30
0.0
 10
36.76978095238098
 20
20.6174444217153
 30
0.0
  0
SPLINE
  5
13B
330
1F
100
AcDbEntity
  8
0
  6
Continuous
 62
     7
370
    25
100
AcDbSpline
210
0.0
220
0.0
230
1.0
 70
    24
 71
     3
 72
    10
 73
     6
 74
     0
 42
0.00000001
 43
0.00000001
 40
0.0
 40
0.0
 40
0.0
 40
0.0
 40
0.5
 40
0.5
 40
1.0
 40
1.0
 40
1.0
 40
1.0
 10
37.26978095238098
 20
21.76102559713592
 30
0.0
 10
37.18598509883469
 20
21.76102559713592
 30
0.0
 10
37.10227741810923
 20
21.76102559713592
 30
0.0
 10
36.95542539923236
 20
21.76102559713592
 30
0.0
 10
36.89243558372378
 20
21.76102559713592
 30
0.0
 10
36.84755254365213
 20
21.76102559713592
 30
0.0
  0
LINE
  5
13C
330
1F
100
AcDbEntity
  8
0
  6
Continuous
 62
     7
370
    25
100
AcDbLine
 10
36.7697809524
 20
18.8591018085
 30
0.0
 11
37.2697809524
 21
18.8591018085
 31
0.0
  0
LINE
  5
13D
330
1F
100
AcDbEntity
  8
0
  6
Continuous
 62
     7
370
    25
100
AcDbLine
 10
36.7697809524
 20
18.8591018085
 30
0.0
 11
36.7697809524
 21
20.6174444217
 31
0.0
  0
SPLINE
  5
13E
330
1F
100
AcDbEntity
  8
0
  6
Continuous
 62
     7
370
    25
100
AcDbSpline
210
0.0
220
0.0
230
1.0
 70
     8
 71
     3
 72
    14
 73
    10
 74
     0
 42
0.00000001
 43
0.00000001
 40
0.0
 40
0.0
 40
0.0
 40
0.0
 40
0.096021547728022
 40
0.1924412985067401
 40
0.2917902771809186
 40
0.396387075314727
 40
0.508224361229722
 40
0.7392002680930558
 40
1.0
 40
1.0
 40
1.0
 40
1.0
 10
50.33644761904765
 20
31.35910180848924
 30
0.0
 10
50.33684569297127
 20
31.34382079400544
 30
0.0
 10
50.33764349163812
 20
31.31319539440148
 30
0.0
 10
50.3436498655978
 20
31.26806952583254
 30
0.0
 10
50.35312733662775
 20
31.22414606564706
 30
0.0
 10
50.36633592453239
 20
31.18145001114706
 30
0.0
 10
50.38850030312298
 20
31.12643853867748
 30
0.0
 10
50.42387184871203
 20
31.06278496846331
 30
0.0
 10
50.45606066476635
 20
31.02538334423671
 30
0.0
 10
50.47313112116058
 20
31.00554841789597
 30
0.0
  0
SPLINE
  5
13F
330
1F
100
AcDbEntity
  8
0
  6
Continuous
 62
     7
370
    25
100
AcDbSpline
210
0.0
220
0.0
230
1.0
 70
     8
 71
     3
 72
    15
 73
    11
 74
     0
 42
0.00000001
 43
0.00000001
 40
0.0
 40
0.0
 40
0.0
 40
0.0
 40
0.1307681764282987
 40
0.2557775964014054
 40
0.375854271439311
 40
0.4919295877812418
 40
0.6226338248371327
 40
0.7437286717850853
 40
0.8761291708518495
 40
1.0
 40
1.0
 40
1.0
 40
1.0
 10
49.98525701887506
 20
32.14074618193371
 30
0.0
 10
50.00895634454559
 20
32.11930032325331
 30
0.0
 10
50.05531132724786
 20
32.07735303656734
 30
0.0
 10
50.11775981372368
 20
32.00451276433554
 30
0.0
 10
50.17324106573142
 20
31.92608579374317
 30
0.0
 10
50.22426905752115
 20
31.83731157187201
 30
0.0
 10
50.26908738327863
 20
31.73793663667841
 30
0.0
 10
50.30565710121684
 20
31.62105157696195
 30
0.0
 10
50.33121187014697
 20
31.49471868151728
 30
0.0
 10
50.33474152950988
 20
31.40329310425341
 30
0.0
 10
50.33644761904765
 20
31.35910180848924
 30
0.0
  0
SPLINE
  5
140
330
1F
100
AcDbEntity
  8
0
  6
Continuous
 62
     7
370
    25
100
AcDbSpline
210
0.0
220
0.0
230
1.0
 70
     8
 71
     3
 72
    13
 73
     9
 74
     0
 42
0.00000001
 43
0.00000001
 40
0.0
 40
0.0
 40
0.0
 40
0.0
 40
0.1238371160455669
 40
0.247902303023111
 40
0.3726214666345126
 40
0.4984138700895143
 40
0.7490979627897995
 40
1.0
 40
1.0
 40
1.0
 40
1.0
 10
49.4031142857143
 20
32.35910180848924
 30
0.0
 10
49.42986622614189
 20
32.35843029089696
 30
0.0
 10
49.48341937607069
 20
32.35708601897782
 30
0.0
 10
49.56173634737063
 20
32.34618420895179
 30
0.0
 10
49.63853572869673
 20
32.32882277152962
 30
0.0
 10
49.73806171679941
 20
32.29613548616254
 30
0.0
 10
49.85722456509883
 20
32.24025035868264
 30
0.0
 10
49.94256717352587
 20
32.17392384737496
 30
0.0
 10
49.98525701887506
 20
32.14074618193371
 30
0.0
  0
LINE
  5
141
330
1F
100
AcDbEntity
  8
0
  6
Continuous
 62
     7
370
    25
100
AcDbLine
 10
47.7619945134
 20
32.3591018085
 30
0.0
 11
49.4031142857
 21
32.3591018085
 31
0.0
  0
SPLINE
  5
142
330
1F
100
AcDbEntity
  8
0
  6
Continuous
 62
     7
370
    25
100
AcDbSpline
210
0.0
220
0.0
230
1.0
 70
     8
 71
     3
 72
    13
 73
     9
 74
     0
 42
0.00000001
 43
0.00000001
 40
0.0
 40
0.0
 40
0.0
 40
0.0
 40
0.1856794033212454
 40
0.3634611737568486
 40
0.5335423367207065
 40
0.6961479207300426
 40
0.8515354443704023
 40
1.0
 40
1.0
 40
1.0
 40
1.0
 10
46.694652082963
 20
32.20355862594693
 30
0.0
 10
46.76197488013145
 20
32.21988693179008
 30
0.0
 10
46.89375698650274
 20
32.25184904013952
 30
0.0
 10
47.08584940320885
 20
32.29056789337148
 30
0.0
 10
47.26843648538056
 20
32.32112197245917
 30
0.0
 10
47.44151032416033
 20
32.34273870936831
 30
0.0
 10
47.60547032504769
 20
32.35644640385707
 30
0.0
 10
47.71061834837505
 20
32.35823022111369
 30
0.0
 10
47.76199451336998
 20
32.35910180848924
 30
0.0
  0
SPLINE
  5
143
330
1F
100
AcDbEntity
  8
0
  6
Continuous
 62
     7
370
    25
100
AcDbSpline
210
0.0
220
0.0
230
1.0
 70
     8
 71
     3
 72
    17
 73
    13
 74
     0
 42
0.00000001
 43
0.00000001
 40
0.0
 40
0.0
 40
0.0
 40
0.0
 40
0.1130667887614413
 40
0.214247189583317
 40
0.3035410227131065
 40
0.3809482842653933
 40
0.4464692356459874
 40
0.5001045920517729
 40
0.6375226522804812
 40
0.750042112035746
 40
0.8820380142736961
 40
0.9999999999999999
 40
0.9999999999999999
 40
0.9999999999999999
 40
0.9999999999999999
 10
44.26978095238098
 20
31.85910180848924
 30
0.0
 10
44.36349842372164
 20
31.86933143460453
 30
0.0
 10
44.54108111683195
 20
31.88871527551573
 30
0.0
 10
44.79224043794292
 20
31.91660952008698
 30
0.0
 10
45.01327915958625
 20
31.94160232777797
 30
0.0
 10
45.20422616227187
 20
31.96373172528518
 30
0.0
 10
45.36524260973024
 20
31.98293155196481
 30
0.0
 10
45.57456471604827
 20
32.00911331722206
 30
0.0
 10
45.82054766470637
 20
32.04209485880988
 30
0.0
 10
46.12619783597871
 20
32.08768913328937
 30
0.0
 10
46.4123348848304
 20
32.13759778999832
 30
0.0
 10
46.6041359144224
 20
32.18241034952844
 30
0.0
 10
46.694652082963
 20
32.20355862594693
 30
0.0
  0
SPLINE
  5
144
330
1F
100
AcDbEntity
  8
0
  6
Continuous
 62
     7
370
    25
100
AcDbSpline
210
0.0
220
0.0
230
1.0
 70
     8
 71
     3
 72
    14
 73
    10
 74
     0
 42
0.00000001
 43
0.00000001
 40
0.0
 40
0.0
 40
0.0
 40
0.0
 40
0.0771019312304826
 40
0.1604220744887596
 40
0.2500134459863516
 40
0.3625277438465788
 40
0.4999872830472304
 40
0.6965319249886696
 40
1.0
 40
1.0
 40
1.0
 40
1.0
 10
41.84490982179896
 20
32.20355862594693
 30
0.0
 10
41.90390328264478
 20
32.18942934905607
 30
0.0
 10
42.02664798202029
 20
32.16003127985489
 30
0.0
 10
42.22173945940901
 20
32.12151338362683
 30
0.0
 10
42.44719773708336
 20
32.08245085705465
 30
0.0
 10
42.71903624391783
 20
32.0421703505983
 30
0.0
 10
43.08071029800567
 20
31.99351165632799
 30
0.0
 10
43.6036042578103
 20
31.93207681702278
 30
0.0
 10
44.01817150366648
 20
31.8866638679499
 30
0.0
 10
44.26978095238098
 20
31.85910180848924
 30
0.0
  0
SPLINE
  5
145
330
1F
100
AcDbEntity
  8
0
  6
Continuous
 62
     7
370
    25
100
AcDbSpline
210
0.0
220
0.0
230
1.0
 70
     8
 71
     3
 72
    13
 73
     9
 74
     0
 42
0.00000001
 43
0.00000001
 40
0.0
 40
0.0
 40
0.0
 40
0.0
 40
0.1484645556295968
 40
0.3038520792699616
 40
0.4664576632792965
 40
0.6365388262431637
 40
0.8143205966787558
 40
1.0
 40
1.0
 40
1.0
 40
1.0
 10
40.77756739139196
 20
32.35910180848924
 30
0.0
 10
40.8289435563869
 20
32.35823022111369
 30
0.0
 10
40.93409157971426
 20
32.35644640385707
 30
0.0
 10
41.09805158060163
 20
32.34273870936832
 30
0.0
 10
41.2711254193814
 20
32.32112197245916
 30
0.0
 10
41.45371250155311
 20
32.29056789337148
 30
0.0
 10
41.64580491825922
 20
32.25184904013952
 30
0.0
 10
41.77758702463051
 20
32.21988693179008
 30
0.0
 10
41.84490982179896
 20
32.20355862594693
 30
0.0
  0
LINE
  5
146
330
1F
100
AcDbEntity
  8
0
  6
Continuous
 62
     7
370
    25
100
AcDbLine
 10
39.136447619
 20
32.3591018085
 30
0.0
 11
40.7775673914
 21
32.3591018085
 31
0.0
  0
SPLINE
  5
147
330
1F
100
AcDbEntity
  8
0
  6
Continuous
 62
     7
370
    25
100
AcDbSpline
210
0.0
220
0.0
230
1.0
 70
     8
 71
     3
 72
    13
 73
     9
 74
     0
 42
0.00000001
 43
0.00000001
 40
0.0
 40
0.0
 40
0.0
 40
0.0
 40
0.1257153360429536
 40
0.2509867092496626
 40
0.3762164861788906
 40
0.5018074329534182
 40
0.7521854029562103
 40
1.0
 40
1.0
 40
1.0
 40
1.0
 10
38.55430488588689
 20
32.14074618193371
 30
0.0
 10
38.57539072573513
 20
32.1579404591029
 30
0.0
 10
38.61748794093459
 20
32.19226829197088
 30
0.0
 10
38.6844006567638
 20
32.23583784020367
 30
0.0
 10
38.75391590841769
 20
32.27344564384991
 30
0.0
 10
38.85024934574262
 20
32.31446892143575
 30
0.0
 10
38.97608316128649
 20
32.35099747619381
 30
0.0
 10
39.08317647716969
 20
32.35640964688708
 30
0.0
 10
39.13644761904764
 20
32.35910180848924
 30
0.0
  0
SPLINE
  5
148
330
1F
100
AcDbEntity
  8
0
  6
Continuous
 62
     7
370
    25
100
AcDbSpline
210
0.0
220
0.0
230
1.0
 70
     8
 71
     3
 72
    16
 73
    12
 74
     0
 42
0.00000001
 43
0.00000001
 40
0.0
 40
0.0
 40
0.0
 40
0.0
 40
0.0659534682181705
 40
0.1324870475771656
 40
0.2006767984554997
 40
0.2715233530696834
 40
0.3459202143311513
 40
0.4246400792172604
 40
0.5083359903953556
 40
0.740513582944488
 40
1.0
 40
1.0
 40
1.0
 40
1.0
 10
38.20311428571431
 20
31.35910180848924
 30
0.0
 10
38.20356631107488
 20
31.3826138609171
 30
0.0
 10
38.20447433770441
 20
31.42984477223691
 30
0.0
 10
38.21170726036667
 20
31.50016285853274
 30
0.0
 10
38.22327522180378
 20
31.56982197320631
 30
0.0
 10
38.23966260750067
 20
31.63879830368814
 30
0.0
 10
38.26083564463246
 20
31.70708967783018
 30
0.0
 10
38.2869528416166
 20
31.77471676206885
 30
0.0
 10
38.33587588994976
 20
31.87971823171749
 30
0.0
 10
38.42005832412445
 20
32.01350187925359
 30
0.0
 10
38.50792914265708
 20
32.09678938310714
 30
0.0
 10
38.55430488588689
 20
32.14074618193371
 30
0.0
  0
SPLINE
  5
149
330
1F
100
AcDbEntity
  8
0
  6
Continuous
 62
     7
370
    25
100
AcDbSpline
210
0.0
220
0.0
230
1.0
 70
     8
 71
     3
 72
    13
 73
     9
 74
     0
 42
0.00000001
 43
0.00000001
 40
0.0
 40
0.0
 40
0.0
 40
0.0
 40
0.1759205118839894
 40
0.33918960755005
 40
0.4921931780779566
 40
0.6738397335242725
 40
0.8395017852842178
 40
1.0
 40
1.0
 40
1.0
 40
1.0
 10
38.06643078360136
 20
31.00554841789597
 30
0.0
 10
38.07795596099855
 20
31.01864696244256
 30
0.0
 10
38.10017747659347
 20
31.04390206280951
 30
0.0
 10
38.130581095887
 20
31.08974512938985
 30
0.0
 10
38.15878480833586
 20
31.1436361108193
 30
0.0
 10
38.1827107365817
 20
31.20698403208265
 30
0.0
 10
38.19983698357441
 20
31.2815382279802
 30
0.0
 10
38.20203344326963
 20
31.33352161893169
 30
0.0
 10
38.20311428571431
 20
31.35910180848924
 30
0.0
  0
SPLINE
  5
14A
330
1F
100
AcDbEntity
  8
0
  6
Continuous
 62
     7
370
    25
100
AcDbSpline
210
0.0
220
0.0
230
1.0
 70
    24
 71
     3
 72
    10
 73
     6
 74
     0
 42
0.00000001
 43
0.00000001
 40
0.0
 40
0.0
 40
0.0
 40
0.0
 40
0.5
 40
0.5
 40
1.0
 40
1.0
 40
1.0
 40
1.0
 10
36.84755254365214
 20
26.95717801983367
 30
0.0
 10
36.89243558372378
 20
26.95717801983367
 30
0.0
 10
36.95542539923237
 20
26.95717801983367
 30
0.0
 10
37.10227741810923
 20
26.95717801983367
 30
0.0
 10
37.18598509883469
 20
26.95717801983367
 30
0.0
 10
37.26978095238098
 20
26.95717801983367
 30
0.0
  0
SPLINE
  5
14B
330
1F
100
AcDbEntity
  8
0
  6
Continuous
 62
     7
370
    25
100
AcDbSpline
210
0.0
220
0.0
230
1.0
 70
     8
 71
     3
 72
    12
 73
     8
 74
     0
 42
0.00000001
 43
0.00000001
 40
0.0
 40
0.0
 40
0.0
 40
0.0
 40
0.1731008601133525
 40
0.359615337634814
 40
0.5595829448172194
 40
0.773035722531595
 40
1.0
 40
1.0
 40
1.0
 40
1.0
 10
36.76978095238098
 20
28.10075919526318
 30
0.0
 10
36.77039478006962
 20
28.03532631101773
 30
0.0
 10
36.77167000106712
 20
27.89939013632202
 30
0.0
 10
36.7813533063743
 20
27.68667826346231
 30
0.0
 10
36.79690858949429
 20
27.4579332337945
 30
0.0
 10
36.81876748995534
 20
27.21308230726466
 30
0.0
 10
36.83776326937286
 20
27.04420642302127
 30
0.0
 10
36.84755254365214
 20
26.95717801983367
 30
0.0
  0
LINE
  5
14C
330
1F
100
AcDbEntity
  8
0
  6
Continuous
 62
     7
370
    25
100
AcDbLine
 10
36.7697809524
 20
28.1007591953
 30
0.0
 11
36.7697809524
 21
29.8591018085
 31
0.0
  0
ARC
  5
14D
330
1F
100
AcDbEntity
  8
0
  6
Continuous
 62
     7
370
    25
100
AcDbCircle
 10
37.2697809524
 20
29.8591018085
 30
0.0
 40
0.5000000000000026
100
AcDbArc
 50
133.1107916145
 51
180.0
  0
SPLINE
  5
14E
330
1F
100
AcDbEntity
  8
0
  6
Continuous
 62
     7
370
    25
100
AcDbSpline
210
0.0
220
0.0
230
1.0
 70
     8
 71
     3
 72
    13
 73
     9
 74
     0
 42
0.00000001
 43
0.00000001
 40
0.0
 40
0.0
 40
0.0
 40
0.0
 40
0.1206933098378984
 40
0.2506349558807637
 40
0.4049363563536673
 40
0.5013750994399903
 40
0.7702864430522399
 40
1.0
 40
1.0
 40
1.0
 40
1.0
 10
37.26978095238098
 20
29.85914787653444
 30
0.0
 10
37.25492517418909
 20
29.87412542598459
 30
0.0
 10
37.22407526778832
 20
29.90522820583778
 30
0.0
 10
37.17550011617117
 20
29.95631303658556
 30
0.0
 10
37.13081043378585
 20
30.00450225717476
 30
0.0
 10
37.0710467244441
 20
30.06966527006442
 30
0.0
 10
37.00325471139653
 20
30.14258965749157
 30
0.0
 10
36.95178643901819
 20
30.19840485863233
 30
0.0
 10
36.9280753088586
 20
30.22411859328818
 30
0.0
  0
SPLINE
  5
14F
330
1F
100
AcDbEntity
  8
0
  6
Continuous
 62
     7
370
    25
100
AcDbSpline
210
0.0
220
0.0
230
1.0
 70
    24
 71
     3
 72
    10
 73
     6
 74
     0
 42
0.00000001
 43
0.00000001
 40
0.0
 40
0.0
 40
0.0
 40
0.0
 40
0.5
 40
0.5
 40
1.0
 40
1.0
 40
1.0
 40
1.0
 10
46.8678571637254
 20
31.78133021721809
 30
0.0
 10
46.8678571637254
 20
31.73644717714644
 30
0.0
 10
46.8678571637254
 20
31.67345736163785
 30
0.0
 10
46.8678571637254
 20
31.52660534276098
 30
0.0
 10
46.8678571637254
 20
31.44289766203552
 30
0.0
 10
46.8678571637254
 20
31.35910180848924
 30
0.0
  0
SPLINE
  5
150
330
1F
100
AcDbEntity
  8
0
  6
Continuous
 62
     7
370
    25
100
AcDbSpline
210
0.0
220
0.0
230
1.0
 70
     8
 71
     3
 72
     8
 73
     4
 74
     0
 42
0.00000001
 43
0.00000001
 40
-0.0000000000002226
 40
-0.0000000000002226
 40
-0.0000000000002226
 40
-0.0000000000002226
 40
0.127234597098529
 40
0.127234597098529
 40
0.127234597098529
 40
0.127234597098529
 10
46.86785716372184
 20
31.78133021721843
 30
0.0
 10
47.25644315843526
 20
31.82683831947629
 30
0.0
 10
47.64387172531402
 20
31.85910180848924
 30
0.0
 10
48.01143833915493
 20
31.85910180848924
 30
0.0
  0
LINE
  5
151
330
1F
100
AcDbEntity
  8
0
  6
Continuous
 62
     7
370
    25
100
AcDbLine
 10
49.7697809524
 20
31.8591018085
 30
0.0
 11
48.0114383392
 21
31.8591018085
 31
0.0
  0
ARC
  5
152
330
1F
100
AcDbEntity
  8
0
  6
Continuous
 62
     7
370
    25
100
AcDbCircle
 10
49.7697809524
 20
31.3591018085
 30
0.0
 40
0.500000000000003
100
AcDbArc
 50
43.1107916145
 51
90.0
  0
SPLINE
  5
153
330
1F
100
AcDbEntity
  8
0
  6
Continuous
 62
     7
370
    25
100
AcDbSpline
210
0.0
220
0.0
230
1.0
 70
     8
 71
     3
 72
    13
 73
     9
 74
     0
 42
0.00000001
 43
0.00000001
 40
0.0
 40
0.0
 40
0.0
 40
0.0
 40
0.1206933106363776
 40
0.2506349558809258
 40
0.4049363551860728
 40
0.501375099440844
 40
0.7702864432344702
 40
1.0
 40
1.0
 40
1.0
 40
1.0
 10
49.76982702042623
 20
31.35910180848924
 30
0.0
 10
49.78480456997395
 20
31.37395758678105
 30
0.0
 10
49.81590734982401
 20
31.40480749318525
 30
0.0
 10
49.86699218042997
 20
31.4533826446537
 30
0.0
 10
49.91518140093106
 20
31.49807232693541
 30
0.0
 10
49.98034441382782
 20
31.55783603632283
 30
0.0
 10
50.05326880139972
 20
31.62562804949773
 30
0.0
 10
50.10908400254318
 20
31.67709632187246
 30
0.0
 10
50.13479773717993
 20
31.70080745201161
 30
0.0
  0
SPLINE
  5
154
330
1F
100
AcDbEntity
  8
0
  6
Continuous
 62
     7
370
    25
100
AcDbSpline
210
0.0
220
0.0
230
1.0
 70
    24
 71
     3
 72
    10
 73
     6
 74
     0
 42
0.00000001
 43
0.00000001
 40
0.0
 40
0.0
 40
0.0
 40
0.0
 40
0.5
 40
0.5
 40
1.0
 40
1.0
 40
1.0
 40
1.0
 10
51.69200936110982
 20
21.76102559714481
 30
0.0
 10
51.64712632103817
 20
21.76102559714481
 30
0.0
 10
51.58413650552959
 20
21.76102559714481
 30
0.0
 10
51.43728448665272
 20
21.76102559714481
 30
0.0
 10
51.35357680592725
 20
21.76102559714481
 30
0.0
 10
51.26978095238098
 20
21.76102559714481
 30
0.0
  0
SPLINE
  5
155
330
1F
100
AcDbEntity
  8
0
  6
Continuous
 62
     7
370
    25
100
AcDbSpline
210
0.0
220
0.0
230
1.0
 70
     8
 71
     3
 72
    12
 73
     8
 74
     0
 42
0.00000001
 43
0.00000001
 40
0.0
 40
0.0
 40
0.0
 40
0.0
 40
0.1731008601132462
 40
0.3596153376346544
 40
0.5595829448170604
 40
0.7730357225314888
 40
1.0
 40
1.0
 40
1.0
 40
1.0
 10
51.76978095238098
 20
20.6174444217153
 30
0.0
 10
51.76916712469233
 20
20.68287730596071
 30
0.0
 10
51.76789190369483
 20
20.81881348065636
 30
0.0
 10
51.75820859838768
 20
21.03152535351601
 30
0.0
 10
51.74265331526767
 20
21.26027038318382
 30
0.0
 10
51.72079441480663
 20
21.50512130971372
 30
0.0
 10
51.70179863538909
 20
21.67399719395717
 30
0.0
 10
51.69200936110982
 20
21.76102559714481
 30
0.0
  0
LINE
  5
156
330
1F
100
AcDbEntity
  8
0
  6
Continuous
 62
     7
370
    25
100
AcDbLine
 10
51.7697809524
 20
20.6174444217
 30
0.0
 11
51.7697809524
 21
18.8591018085
 31
0.0
  0
LINE
  5
157
330
1F
100
AcDbEntity
  8
0
  6
Continuous
 62
     7
370
    25
100
AcDbLine
 10
51.2697809524
 20
18.8591018085
 30
0.0
 11
51.7697809524
 21
18.8591018085
 31
0.0
  0
SPLINE
  5
158
330
1F
100
AcDbEntity
  8
0
  6
Continuous
 62
     7
370
    25
100
AcDbSpline
210
0.0
220
0.0
230
1.0
 70
     8
 71
     3
 72
    12
 73
     8
 74
     0
 42
0.00000001
 43
0.00000001
 40
-0.267217449764123
 40
-0.267217449764123
 40
-0.267217449764123
 40
-0.267217449764123
 40
-0.160856558527433
 40
-0.107676112909088
 40
-0.001315221672398
 40
-0.001315221672398
 40
0.0
 40
0.0
 40
0.0
 40
0.0
 10
36.84755254365213
 20
21.7610255971537
 30
0.0
 10
36.88559473048461
 20
22.13510606773226
 30
0.0
 10
36.88009885832331
 20
22.65480723320863
 30
0.0
 10
36.83820227879639
 20
23.50705240183902
 30
0.0
 10
36.79707612104017
 20
24.01126384405145
 30
0.0
 10
36.77042874352684
 20
24.35080324063847
 30
0.0
 10
36.77010524185935
 20
24.35495300914833
 30
0.0
 10
36.76978095238098
 20
24.35910180848924
 30
0.0
  0
SPLINE
  5
159
330
1F
100
AcDbEntity
  8
0
  6
Continuous
 62
     7
370
    25
100
AcDbSpline
210
0.0
220
0.0
230
1.0
 70
     8
 71
     3
 72
    12
 73
     8
 74
     0
 42
0.00000001
 43
0.00000001
 40
0.0
 40
0.0
 40
0.0
 40
0.0
 40
0.106360891224351
 40
0.159541336836527
 40
0.265902228060878
 40
0.265902228060878
 40
0.267217449764311
 40
0.267217449764311
 40
0.267217449764311
 40
0.267217449764311
 10
51.69200936110982
 20
26.95717801982478
 30
0.0
 10
51.65396717428176
 20
26.58309754928962
 30
0.0
 10
51.65946304643488
 20
26.06339638386997
 30
0.0
 10
51.70135962595173
 20
25.21115121533644
 30
0.0
 10
51.7424857836957
 20
24.70693977318186
 30
0.0
 10
51.76913316122
 20
24.36740037653566
 30
0.0
 10
51.76945666289496
 20
24.36325060792712
 30
0.0
 10
51.76978095238098
 20
24.35910180848924
 30
0.0
  0
SPLINE
  5
15A
330
1F
100
AcDbEntity
  8
0
  6
Continuous
 62
     7
370
    25
100
AcDbSpline
210
0.0
220
0.0
230
1.0
 70
     8
 71
     3
 72
    12
 73
     8
 74
     0
 42
0.00000001
 43
0.00000001
 40
0.0
 40
0.0
 40
0.0
 40
0.0
 40
0.106360889128132
 40
0.159541333692198
 40
0.26590222282033
 40
0.26590222282033
 40
0.267217449923961
 40
0.267217449923961
 40
0.267217449923961
 40
0.267217449923961
 10
41.67170474104544
 20
31.78133021721808
 30
0.0
 10
42.04578520420802
 20
31.74328803113978
 30
0.0
 10
42.56548636163813
 20
31.74878390233881
 30
0.0
 10
43.4177315109126
 20
31.79068047990602
 30
0.0
 10
43.92194294320902
 20
31.83180663633145
 30
0.0
 10
44.26148235026147
 20
31.85845401466842
 30
0.0
 10
44.26563213590812
 20
31.85877751767198
 30
0.0
 10
44.26978095238098
 20
31.85910180848924
 30
0.0
  0
SPLINE
  5
15B
330
1F
100
AcDbEntity
  8
0
  6
Continuous
 62
     7
370
    25
100
AcDbSpline
210
0.0
220
0.0
230
1.0
 70
     8
 71
     3
 72
     8
 73
     4
 74
     0
 42
0.00000001
 43
0.00000001
 40
0.0
 40
0.0
 40
0.0
 40
0.0
 40
1.0
 40
1.0
 40
1.0
 40
1.0
 10
36.42532413492329
 20
21.93423067790722
 30
0.0
 10
36.59532801475899
 20
21.89918995298896
 30
0.0
 10
36.76213247711151
 20
21.83076400207107
 30
0.0
 10
36.84755254365213
 20
21.7610255971537
 30
0.0
  0
SPLINE
  5
15C
330
1F
100
AcDbEntity
  8
0
  6
Continuous
 62
     7
370
    25
100
AcDbSpline
210
0.0
220
0.0
230
1.0
 70
     8
 71
     3
 72
     9
 73
     5
 74
     0
 42
0.00000001
 43
0.00000001
 40
0.0
 40
0.0
 40
0.0
 40
0.0
 40
0.571428571428571
 40
1.0
 40
1.0
 40
1.0
 40
1.0
 10
52.11423776983867
 20
26.78397293907126
 30
0.0
 10
52.01709269564684
 20
26.80399621045313
 30
0.0
 10
51.84743135692918
 20
26.85751452792845
 30
0.0
 10
51.72861796105581
 20
26.92729013200305
 30
0.0
 10
51.69200936110982
 20
26.95717801982478
 30
0.0
  0
SPLINE
  5
15D
330
1F
100
AcDbEntity
  8
0
  6
Continuous
 62
     7
370
    25
100
AcDbSpline
210
0.0
220
0.0
230
1.0
 70
     8
 71
     3
 72
     9
 73
     5
 74
     0
 42
0.00000001
 43
0.00000001
 40
0.0
 40
0.0
 40
0.0
 40
0.0
 40
0.5
 40
1.0
 40
1.0
 40
1.0
 40
1.0
 10
52.11423776983981
 20
21.93423067790267
 30
0.0
 10
52.02923582992172
 20
21.91671031544312
 30
0.0
 10
51.85934191167294
 20
21.86558809646068
 30
0.0
 10
51.73471939438053
 20
21.79589479960552
 30
0.0
 10
51.69200936111039
 20
21.76102559714648
 30
0.0
  0
SPLINE
  5
15E
330
1F
100
AcDbEntity
  8
0
  6
Continuous
 62
     7
370
    25
100
AcDbSpline
210
0.0
220
0.0
230
1.0
 70
     8
 71
     3
 72
    12
 73
     8
 74
     0
 42
0.00000001
 43
0.00000001
 40
-0.0013152216724614
 40
-0.0013152216724614
 40
-0.0013152216724614
 40
-0.0013152216724614
 40
0.0
 40
0.0
 40
0.159541336854997
 40
0.212721782473329
 40
0.265902228091661
 40
0.265902228091661
 40
0.265902228091661
 40
0.265902228091661
 10
51.76978095238098
 20
24.35910180848924
 30
0.0
 10
51.76945666290264
 20
24.35495300914905
 30
0.0
 10
51.76913134317208
 20
24.35080546254516
 30
0.0
 10
51.72965159312366
 20
23.84317124936238
 30
0.0
 10
51.67458367844819
 20
23.1705413489877
 30
0.0
 10
51.65877137031329
 20
22.30602527220694
 30
0.0
 10
51.67298826769358
 20
21.94806583244294
 30
0.0
 10
51.69200936110982
 20
21.7610255971537
 30
0.0
  0
SPLINE
  5
15F
330
1F
100
AcDbEntity
  8
0
  6
Continuous
 62
     7
370
    25
100
AcDbSpline
210
0.0
220
0.0
230
1.0
 70
     8
 71
     3
 72
    12
 73
     8
 74
     0
 42
0.00000001
 43
0.00000001
 40
-0.265902228061387
 40
-0.265902228061387
 40
-0.265902228061387
 40
-0.265902228061387
 40
-0.2645870063584663
 40
-0.2645870063584663
 40
-0.1582261151339113
 40
-0.1050456695216343
 40
0.0013152217029208
 40
0.0013152217029208
 40
0.0013152217029208
 40
0.0013152217029208
 10
36.76978095238098
 20
24.35910180848924
 30
0.0
 10
36.77010524186682
 20
24.36325060792578
 30
0.0
 10
36.77042874354158
 20
24.36740037653245
 30
0.0
 10
36.79707612106803
 20
24.70693977318097
 30
0.0
 10
36.83820227881045
 20
25.21115121533386
 30
0.0
 10
36.88009885832781
 20
26.06339638386954
 30
0.0
 10
36.88559473048026
 20
26.5830975492889
 30
0.0
 10
36.84755254365214
 20
26.95717801982478
 30
0.0
  0
SPLINE
  5
160
330
1F
100
AcDbEntity
  8
0
  6
Continuous
 62
     7
370
    25
100
AcDbSpline
210
0.0
220
0.0
230
1.0
 70
     8
 71
     3
 72
     9
 73
     5
 74
     0
 42
0.00000001
 43
0.00000001
 40
0.0
 40
0.0
 40
0.0
 40
0.0
 40
0.5
 40
1.0
 40
1.0
 40
1.0
 40
1.0
 10
36.42532413492259
 20
26.78397293907405
 30
0.0
 10
36.51032607484061
 20
26.8014933015336
 30
0.0
 10
36.68021999308925
 20
26.85261552051601
 30
0.0
 10
36.80484251038162
 20
26.9223088173711
 30
0.0
 10
36.84755254365177
 20
26.95717801983011
 30
0.0
  0
SPLINE
  5
161
330
1F
100
AcDbEntity
  8
0
  6
Continuous
 62
     7
370
    25
100
AcDbSpline
210
0.0
220
0.0
230
1.0
 70
     8
 71
     3
 72
     9
 73
     5
 74
     0
 42
0.00000001
 43
0.00000001
 40
0.0
 40
0.0
 40
0.0
 40
0.0
 40
0.571428571428571
 40
1.0
 40
1.0
 40
1.0
 40
1.0
 10
41.84490982179896
 20
32.20355862594693
 30
0.0
 10
41.8248865504171
 20
32.1064135517551
 30
0.0
 10
41.77136823294177
 20
31.93675221303744
 30
0.0
 10
41.70159262886717
 20
31.81793881716407
 30
0.0
 10
41.67170474104544
 20
31.78133021721808
 30
0.0
  0
SPLINE
  5
162
330
1F
100
AcDbEntity
  8
0
  6
Continuous
 62
     7
370
    25
100
AcDbSpline
210
0.0
220
0.0
230
1.0
 70
     8
 71
     3
 72
    12
 73
     8
 74
     0
 42
0.00000001
 43
0.00000001
 40
-0.0013152270871416
 40
-0.0013152270871416
 40
-0.0013152270871416
 40
-0.0013152270871416
 40
0.0
 40
0.0
 40
0.106360889134687
 40
0.159541333702031
 40
0.265902222836718
 40
0.265902222836718
 40
0.265902222836718
 40
0.265902222836718
 10
44.26978095238098
 20
31.85910180848924
 30
0.0
 10
44.27392976880205
 20
31.85877751767604
 30
0.0
 10
44.27807955439643
 20
31.85845401467656
 30
0.0
 10
44.61761896141677
 20
31.83180663634288
 30
0.0
 10
45.12183039374441
 20
31.79068047991287
 30
0.0
 10
45.97407554307037
 20
31.74878390233993
 30
0.0
 10
46.49377670053089
 20
31.74328803113743
 30
0.0
 10
46.86785716371651
 20
31.78133021721808
 30
0.0
  0
SPLINE
  5
163
330
1F
100
AcDbEntity
  8
0
  6
Continuous
 62
     7
370
    25
100
AcDbSpline
210
0.0
220
0.0
230
1.0
 70
     8
 71
     3
 72
     9
 73
     5
 74
     0
 42
0.00000001
 43
0.00000001
 40
0.0
 40
0.0
 40
0.0
 40
0.0
 40
0.5
 40
1.0
 40
1.0
 40
1.0
 40
1.0
 10
46.69465208296769
 20
32.20355862594811
 30
0.0
 10
46.71217244542724
 20
32.11855668603001
 30
0.0
 10
46.76329466440967
 20
31.94866276778122
 30
0.0
 10
46.83298796126484
 20
31.82404025048881
 30
0.0
 10
46.86785716372389
 20
31.78133021721867
 30
0.0
  0
SPLINE
  5
164
330
1F
100
AcDbEntity
  8
0
  6
Continuous
 62
     7
370
    25
100
AcDbSpline
210
0.0
220
0.0
230
1.0
 70
     8
 71
     3
 72
    13
 73
     9
 74
     0
 42
0.00000001
 43
0.00000001
 40
0.0
 40
0.0
 40
0.0
 40
0.0
 40
0.1162222239500744
 40
0.2381780213579675
 40
0.3660917905452749
 40
0.5001580142688472
 40
0.7504239388829979
 40
1.0
 40
1.0
 40
1.0
 40
1.0
 10
50.13479773717993
 20
31.70080745201161
 30
0.0
 10
50.14578185967506
 20
31.68835944139353
 30
0.0
 10
50.1682919827249
 20
31.66284932432563
 30
0.0
 10
50.19640310988968
 20
31.62134215130892
 30
0.0
 10
50.22092710648788
 20
31.57674940060393
 30
0.0
 10
50.24630069135166
 20
31.51624331729997
 30
0.0
 10
50.26616036922414
 20
31.4408395336381
 30
0.0
 10
50.26857520228324
 20
31.3863226486556
 30
0.0
 10
50.26978095238098
 20
31.35910182726262
 30
0.0
  0
SPLINE
  5
165
330
1F
100
AcDbEntity
  8
0
  6
Continuous
 62
     7
370
    25
100
AcDbSpline
210
0.0
220
0.0
230
1.0
 70
     8
 71
     3
 72
    10
 73
     6
 74
     0
 42
0.00000001
 43
0.00000001
 40
0.0
 40
0.0
 40
0.0
 40
0.0
 40
0.5
 40
0.5
 40
1.0
 40
1.0
 40
1.0
 40
1.0
 10
50.26978095238098
 20
31.35910180848924
 30
0.0
 10
50.26978095238098
 20
31.0973024175609
 30
0.0
 10
50.37755405145867
 20
30.83711514356279
 30
0.0
 10
50.7477943042062
 20
30.46687489776658
 30
0.0
 10
51.00798158022776
 20
30.35910180357393
 30
0.0
 10
51.26978097115609
 20
30.35910180848924
 30
0.0
  0
SPLINE
  5
166
330
1F
100
AcDbEntity
  8
0
  6
Continuous
 62
     7
370
    25
100
AcDbSpline
210
0.0
220
0.0
230
1.0
 70
     8
 71
     3
 72
    12
 73
     8
 74
     0
 42
0.00000001
 43
0.00000001
 40
0.0
 40
0.0
 40
0.0
 40
0.0
 40
0.1664616503807027
 40
0.3330491366093241
 40
0.5001938540683241
 40
0.7619811741357122
 40
1.0
 40
1.0
 40
1.0
 40
1.0
 10
51.26978097115436
 20
30.35910180848924
 30
0.0
 10
51.28775479490614
 20
30.35855942905779
 30
0.0
 10
51.32371602963143
 20
30.3574742601859
 30
0.0
 10
51.38143295870484
 20
30.34769111182605
 30
0.0
 10
51.45171767019722
 20
30.32701104004643
 30
0.0
 10
51.53106042464028
 20
30.29070977062983
 30
0.0
 10
51.58554149566334
 20
30.24560059030602
 30
0.0
 10
51.61148659590329
 20
30.22411859328824
 30
0.0
  0
SPLINE
  5
167
330
1F
100
AcDbEntity
  8
0
  6
Continuous
 62
     7
370
    25
100
AcDbSpline
210
0.0
220
0.0
230
1.0
 70
     8
 71
     3
 72
    13
 73
     9
 74
     0
 42
0.00000001
 43
0.00000001
 40
0.0
 40
0.0
 40
0.0
 40
0.0
 40
0.1162222239446788
 40
0.2381780213507807
 40
0.3660917905398808
 40
0.5001580142687957
 40
0.7504239388759752
 40
1.0
 40
1.0
 40
1.0
 40
1.0
 10
36.9280753088586
 20
30.22411859328818
 30
0.0
 10
36.94052331947608
 20
30.23510271578281
 30
0.0
 10
36.96603343654314
 20
30.25761283883199
 30
0.0
 10
37.00754060955903
 20
30.28572396599654
 30
0.0
 10
37.05213336026451
 20
30.31024796259536
 30
0.0
 10
37.1126394435689
 20
30.33562154745947
 30
0.0
 10
37.18804322723158
 20
30.35548122533232
 30
0.0
 10
37.24256011221393
 20
30.35789605839145
 30
0.0
 10
37.2697809336076
 20
30.35910180848924
 30
0.0
  0
SPLINE
  5
168
330
1F
100
AcDbEntity
  8
0
  6
Continuous
 62
     7
370
    25
100
AcDbSpline
210
0.0
220
0.0
230
1.0
 70
     8
 71
     3
 72
    10
 73
     6
 74
     0
 42
0.00000001
 43
0.00000001
 40
0.0
 40
0.0
 40
0.0
 40
0.0
 40
0.5
 40
0.5
 40
1.0
 40
1.0
 40
1.0
 40
1.0
 10
37.26978093360587
 20
30.35910180848924
 30
0.0
 10
37.53158032766339
 20
30.35910180357393
 30
0.0
 10
37.79176760671893
 20
30.46687490045409
 30
0.0
 10
38.16200786041613
 20
30.8371151541513
 30
0.0
 10
38.26978095729628
 20
31.09730243320683
 30
0.0
 10
38.26978095238098
 20
31.35910182726435
 30
0.0
  0
SPLINE
  5
169
330
1F
100
AcDbEntity
  8
0
  6
Continuous
 62
     7
370
    25
100
AcDbSpline
210
0.0
220
0.0
230
1.0
 70
     8
 71
     3
 72
    12
 73
     8
 74
     0
 42
0.00000001
 43
0.00000001
 40
0.0
 40
0.0
 40
0.0
 40
0.0
 40
0.1664615763807151
 40
0.3330490665505926
 40
0.500193865880855
 40
0.7619811797519991
 40
1.0
 40
1.0
 40
1.0
 40
1.0
 10
38.26978095238098
 20
31.35910180848924
 30
0.0
 10
38.27032333071279
 20
31.37707562525077
 30
0.0
 10
38.27140849763874
 20
31.41303685441208
 30
0.0
 10
38.28119164295131
 20
31.47075379177237
 30
0.0
 10
38.30187171637972
 20
31.54103851692604
 30
0.0
 10
38.33817299017956
 20
31.62038128052781
 30
0.0
 10
38.38328217054402
 20
31.67486235169974
 30
0.0
 10
38.40476416758199
 20
31.70080745201157
 30
0.0
  0
SPLINE
  5
16A
330
1F
100
AcDbEntity
  8
0
  6
Continuous
 62
     7
370
    25
100
AcDbSpline
210
0.0
220
0.0
230
1.0
 70
    24
 71
     3
 72
    14
 73
    10
 74
     0
 42
0.00000001
 43
0.00000001
 40
0.0
 40
0.0
 40
0.0
 40
0.0
 40
0.25
 40
0.25
 40
0.5
 40
0.5
 40
0.75
 40
0.75
 40
1.0
 40
1.0
 40
1.0
 40
1.0
 10
37.26978095238098
 20
18.35910180848924
 30
0.0
 10
37.26978095238098
 20
18.35910180848924
 30
0.0
 10
37.26978095238098
 20
18.36984117789599
 30
0.0
 10
37.26978095238098
 20
18.41857413802006
 30
0.0
 10
37.26978095238098
 20
18.45673288142705
 30
0.0
 10
37.26978095238098
 20
18.55436395436487
 30
0.0
 10
37.26978095238098
 20
18.61350597851636
 30
0.0
 10
37.26978095238098
 20
18.73660292890024
 30
0.0
 10
37.26978095238098
 20
18.80017624339036
 30
0.0
 10
37.26978095238098
 20
18.85910180848924
 30
0.0
  0
SPLINE
  5
16B
330
1F
100
AcDbEntity
  8
0
  6
Continuous
 62
     7
370
    25
100
AcDbSpline
210
0.0
220
0.0
230
1.0
 70
     8
 71
     3
 72
    10
 73
     6
 74
     0
 42
0.00000001
 43
0.00000001
 40
0.0
 40
0.0
 40
0.0
 40
0.0
 40
0.5
 40
0.5
 40
1.0
 40
1.0
 40
1.0
 40
1.0
 10
37.26978095238098
 20
18.35910180848924
 30
0.0
 10
37.1388812584814
 20
18.35910180848924
 30
0.0
 10
37.00878762299933
 20
18.41298835668433
 30
0.0
 10
36.82366750057607
 20
18.5981084791076
 30
0.0
 10
36.76978095238098
 20
18.72820211458966
 30
0.0
 10
36.76978095238098
 20
18.85910180848924
 30
0.0
  0
SPLINE
  5
16C
330
1F
100
AcDbEntity
  8
0
  6
Continuous
 62
     7
370
    25
100
AcDbSpline
210
0.0
220
0.0
230
1.0
 70
     8
 71
     3
 72
    14
 73
    10
 74
     0
 42
0.00000001
 43
0.00000001
 40
0.0
 40
0.0
 40
0.0
 40
0.0
 40
0.25
 40
0.25
 40
0.5
 40
0.5
 40
0.75
 40
0.75
 40
1.0
 40
1.0
 40
1.0
 40
1.0
 10
51.26978095238098
 20
18.35910180848924
 30
0.0
 10
51.32870651747986
 20
18.35910180848924
 30
0.0
 10
51.39227983196998
 20
18.36984117789599
 30
0.0
 10
51.51537678235385
 20
18.41857413802006
 30
0.0
 10
51.57451880650534
 20
18.45673288142705
 30
0.0
 10
51.67214987944316
 20
18.55436395436487
 30
0.0
 10
51.71030862285016
 20
18.61350597851636
 30
0.0
 10
51.75904158297423
 20
18.73660292890024
 30
0.0
 10
51.76978095238098
 20
18.80017624339036
 30
0.0
 10
51.76978095238098
 20
18.85910180848924
 30
0.0
  0
SPLINE
  5
16D
330
1F
100
AcDbEntity
  8
0
  6
Continuous
 62
     7
370
    25
100
AcDbSpline
210
0.0
220
0.0
230
1.0
 70
    24
 71
     3
 72
    10
 73
     6
 74
     0
 42
0.00000001
 43
0.00000001
 40
0.0
 40
0.0
 40
0.0
 40
0.0
 40
0.5
 40
0.5
 40
1.0
 40
1.0
 40
1.0
 40
1.0
 10
51.26978095238098
 20
18.35910180848924
 30
0.0
 10
51.26978095238108
 20
18.35910180848924
 30
0.0
 10
51.26978095238112
 20
18.41298835668433
 30
0.0
 10
51.2697809523811
 20
18.59810847910759
 30
0.0
 10
51.26978095238103
 20
18.72820211458966
 30
0.0
 10
51.26978095238098
 20
18.85910180848924
 30
0.0
  0
LINE
  5
16E
330
1F
100
AcDbEntity
  8
0
  6
Continuous
 62
     7
370
    25
100
AcDbLine
 10
51.2697809524
 20
18.3591018085
 30
0.0
 11
37.2697809524
 21
18.3591018085
 31
0.0
  0
SPLINE
  5
16F
330
1F
100
AcDbEntity
  8
0
  6
Continuous
 62
     7
370
    25
100
AcDbSpline
210
0.0
220
0.0
230
1.0
 70
     8
 71
     3
 72
    15
 73
    11
 74
     0
 42
0.00000001
 43
0.00000001
 40
0.0
 40
0.0
 40
0.0
 40
0.0
 40
0.1255482376299943
 40
0.2506612331927046
 40
0.3755698012986847
 40
0.5003109015749712
 40
0.6252467103373207
 40
0.7502075817355112
 40
0.874985997901262
 40
1.0
 40
1.0
 40
1.0
 40
1.0
 10
48.60237609788501
 20
21.08823914013554
 30
0.0
 10
48.60399114335226
 20
21.08272395343253
 30
0.0
 10
48.60721563535729
 20
21.07171269969961
 30
0.0
 10
48.60655813163905
 20
21.05434364043023
 30
0.0
 10
48.60182757051523
 20
21.03779879979743
 30
0.0
 10
48.59308099738208
 20
21.02294763038797
 30
0.0
 10
48.58105129231969
 20
21.0106171414235
 30
0.0
 10
48.56647334359694
 20
21.00152473393018
 30
0.0
 10
48.55021990001605
 20
20.99567306088166
 30
0.0
 10
48.53882477665064
 20
20.99493752413948
 30
0.0
 10
48.5331218414446
 20
20.99456940891618
 30
0.0
  0
SPLINE
  5
170
330
1F
100
AcDbEntity
  8
0
  6
Continuous
 62
     7
370
    25
100
AcDbSpline
210
0.0
220
0.0
230
1.0
 70
     8
 71
     3
 72
    15
 73
    11
 74
     0
 42
0.00000001
 43
0.00000001
 40
0.0
 40
0.0
 40
0.0
 40
0.0
 40
0.1247517205531464
 40
0.2498857245441838
 40
0.3745674687454417
 40
0.4993106804387823
 40
0.6244677860264319
 40
0.7493917290903895
 40
0.8741574726928457
 40
1.0
 40
1.0
 40
1.0
 40
1.0
 10
48.00644006372193
 20
20.99456940891618
 30
0.0
 10
48.00074893893214
 20
20.99493415140572
 30
0.0
 10
47.98934924973136
 20
20.99566475408491
 30
0.0
 10
47.97310245216624
 20
21.00151671134355
 30
0.0
 10
47.95853452499789
 20
21.01061090215248
 30
0.0
 10
47.94648744601651
 20
21.02291942656655
 30
0.0
 10
47.93773254484034
 20
21.03778315933673
 30
0.0
 10
47.93301865867325
 20
21.05433531815509
 30
0.0
 10
47.9323445177828
 20
21.07170017498304
 30
0.0
 10
47.93556742824293
 20
21.08271038279963
 30
0.0
 10
47.93718580738148
 20
21.08823914038128
 30
0.0
  0
LINE
  5
171
330
1F
100
AcDbEntity
  8
0
  6
Continuous
 62
     7
370
    25
100
AcDbLine
 10
48.2005266977
 20
21.791060957
 30
0.0
 11
47.9371858074
 21
21.0882391404
 31
0.0
  0
SPLINE
  5
172
330
1F
100
AcDbEntity
  8
0
  6
Continuous
 62
     7
370
    25
100
AcDbSpline
210
0.0
220
0.0
230
1.0
 70
     8
 71
     3
 72
    31
 73
    27
 74
     0
 42
0.00000001
 43
0.00000001
 40
0.0
 40
0.0
 40
0.0
 40
0.0
 40
0.041802146707033
 40
0.0834773119907251
 40
0.1252067539465352
 40
0.1667553111646444
 40
0.208343789897431
 40
0.2500683763875439
 40
0.2917172802014936
 40
0.3332298152280506
 40
0.3749213178163661
 40
0.4166401475748497
 40
0.4581957047388333
 40
0.4998271904370101
 40
0.5415736637950209
 40
0.5832410842716478
 40
0.624816154537611
 40
0.6665619264699779
 40
0.7082962697793289
 40
0.7498773808560844
 40
0.7916005699338539
 40
0.8333637303001521
 40
0.8749600854558802
 40
0.9166279211224443
 40
0.9583871623503707
 40
1.0
 40
1.0
 40
1.0
 40
1.0
 10
48.20052669773995
 20
21.7910609569985
 30
0.0
 10
48.20146754340006
 20
21.79334929241006
 30
0.0
 10
48.20334637673497
 20
21.79791901200912
 30
0.0
 10
48.20709021876238
 20
21.80433096983052
 30
0.0
 10
48.2114183523242
 20
21.81033099226129
 30
0.0
 10
48.21635804516262
 20
21.81583834792309
 30
0.0
 10
48.2218467959943
 20
21.82079507898205
 30
0.0
 10
48.22780945903288
 20
21.82517910552083
 30
0.0
 10
48.23417100743877
 20
21.82895265213882
 30
0.0
 10
48.24087782769737
 20
21.83206707332353
 30
0.0
 10
48.2478611224975
 20
21.83450912589782
 30
0.0
 10
48.25504747636695
 20
21.83627522113262
 30
0.0
 10
48.26236702259062
 20
21.83734389783968
 30
0.0
 10
48.26975745952996
 20
21.83769212969391
 30
0.0
 10
48.27715362673909
 20
21.83733861661183
 30
0.0
 10
48.28448048384356
 20
21.83628757667422
 30
0.0
 10
48.2916698856288
 20
21.83452547047933
 30
0.0
 10
48.2986574871381
 20
21.83207213315901
 30
0.0
 10
48.30537713861985
 20
21.8289574211125
 30
0.0
 10
48.31175352597511
 20
21.82519056851972
 30
0.0
 10
48.3177160120037
 20
21.82079474199417
 30
0.0
 10
48.32320893184772
 20
21.81582415246456
 30
0.0
 10
48.32816465571705
 20
21.81031832684679
 30
0.0
 10
48.33248855344494
 20
21.80430924903334
 30
0.0
 10
48.33621777700722
 20
21.79790077503748
 30
0.0
 10
48.3380971661072
 20
21.79333822569233
 30
0.0
 10
48.33903521052868
 20
21.7910609569985
 30
0.0
  0
LINE
  5
173
330
1F
100
AcDbEntity
  8
0
  6
Continuous
 62
     7
370
    25
100
AcDbLine
 10
48.0064400637
 20
20.9945694089
 30
0.0
 11
48.5331218414
 21
20.9945694089
 31
0.0
  0
LINE
  5
174
330
1F
100
AcDbEntity
  8
0
  6
Continuous
 62
     7
370
    25
100
AcDbLine
 10
48.6023760979
 20
21.0882391401
 30
0.0
 11
48.3390352105
 21
21.791060957
 31
0.0
  0
SPLINE
  5
175
330
1F
100
AcDbEntity
  8
0
  6
Continuous
 62
     7
370
    25
100
AcDbSpline
210
0.0
220
0.0
230
1.0
 70
     8
 71
     3
 72
     9
 73
     5
 74
     0
 42
0.00000001
 43
0.00000001
 40
0.0
 40
0.0
 40
0.0
 40
0.0
 40
0.5
 40
1.0
 40
1.0
 40
1.0
 40
1.0
 10
36.26978095238098
 20
20.86688824750022
 30
0.0
 10
36.40068064628055
 20
20.86688824750022
 30
0.0
 10
36.66149708219601
 20
20.81286676180075
 30
0.0
 10
36.76978095238098
 20
20.68274866259607
 30
0.0
 10
36.76978095238098
 20
20.6174444217153
 30
0.0
  0
SPLINE
  5
176
330
1F
100
AcDbEntity
  8
0
  6
Continuous
 62
     7
370
    25
100
AcDbSpline
210
0.0
220
0.0
230
1.0
 70
     8
 71
     3
 72
     9
 73
     5
 74
     0
 42
0.00000001
 43
0.00000001
 40
0.0
 40
0.0
 40
0.0
 40
0.0
 40
0.5
 40
1.0
 40
1.0
 40
1.0
 40
1.0
 10
52.26978095238098
 20
27.85131536947825
 30
0.0
 10
52.1388812584814
 20
27.85131536947825
 30
0.0
 10
51.87806482256594
 20
27.90533685517772
 30
0.0
 10
51.76978095238098
 20
28.03545495438241
 30
0.0
 10
51.76978095238098
 20
28.10075919526318
 30
0.0
  0
SPLINE
  5
177
330
1F
100
AcDbEntity
  8
0
  6
Continuous
 62
     7
370
    25
100
AcDbSpline
210
0.0
220
0.0
230
1.0
 70
     8
 71
     3
 72
     9
 73
     5
 74
     0
 42
0.00000001
 43
0.00000001
 40
0.0
 40
0.0
 40
0.0
 40
0.0
 40
0.5
 40
1.0
 40
1.0
 40
1.0
 40
1.0
 10
40.77756739139197
 20
32.35910180848924
 30
0.0
 10
40.77756739139197
 20
32.22820211458967
 30
0.0
 10
40.7235459056925
 20
31.9673856786742
 30
0.0
 10
40.59342780648781
 20
31.85910180848924
 30
0.0
 10
40.52812356560704
 20
31.85910180848924
 30
0.0
  0
SPLINE
  5
178
330
1F
100
AcDbEntity
  8
0
  6
Continuous
 62
     7
370
    25
100
AcDbSpline
210
0.0
220
0.0
230
1.0
 70
     8
 71
     3
 72
     9
 73
     5
 74
     0
 42
0.00000001
 43
0.00000001
 40
0.0
 40
0.0
 40
0.0
 40
0.0
 40
0.5
 40
1.0
 40
1.0
 40
1.0
 40
1.0
 10
48.01143833915493
 20
31.85910180848924
 30
0.0
 10
47.94613409827415
 20
31.85910180848924
 30
0.0
 10
47.81601599906946
 20
31.9673856786742
 30
0.0
 10
47.76199451337
 20
32.22820211458966
 30
0.0
 10
47.76199451337
 20
32.35910180848924
 30
0.0
  0
SPLINE
  5
179
330
1F
100
AcDbEntity
  8
0
  6
Continuous
 62
     7
370
    25
100
AcDbSpline
210
0.0
220
0.0
230
1.0
 70
     8
 71
     3
 72
     9
 73
     5
 74
     0
 42
0.00000001
 43
0.00000001
 40
0.0
 40
0.0
 40
0.0
 40
0.0
 40
0.5
 40
1.0
 40
1.0
 40
1.0
 40
1.0
 10
51.76978095238098
 20
20.6174444217153
 30
0.0
 10
51.76978095238098
 20
20.68274866259607
 30
0.0
 10
51.87806482256594
 20
20.81286676180076
 30
0.0
 10
52.1388812584814
 20
20.86688824750023
 30
0.0
 10
52.26978095238098
 20
20.86688824750023
 30
0.0
  0
SPLINE
  5
17A
330
1F
100
AcDbEntity
  8
0
  6
Continuous
 62
     7
370
    25
100
AcDbSpline
210
0.0
220
0.0
230
1.0
 70
     8
 71
     3
 72
     9
 73
     5
 74
     0
 42
0.00000001
 43
0.00000001
 40
0.0
 40
0.0
 40
0.0
 40
0.0
 40
0.5
 40
1.0
 40
1.0
 40
1.0
 40
1.0
 10
36.76978095238098
 20
28.10075919526318
 30
0.0
 10
36.76978095238098
 20
28.03545495438241
 30
0.0
 10
36.66149708219601
 20
27.90533685517772
 30
0.0
 10
36.40068064628056
 20
27.85131536947825
 30
0.0
 10
36.26978095238098
 20
27.85131536947825
 30
0.0
  0
LINE
  5
17B
330
1F
100
AcDbEntity
  8
0
  6
Continuous
 62
     7
370
    25
100
AcDbLine
 10
36.7514406261
 20
18.8053070152
 30
0.0
 11
36.7697809524
 21
18.8590082489
 31
0.0
  0
SPLINE
  5
17C
330
1F
100
AcDbEntity
  8
0
  6
Continuous
 62
     7
370
    25
100
AcDbSpline
210
0.0
220
0.0
230
1.0
 70
     8
 71
     3
 72
    11
 73
     7
 74
     0
 42
0.00000001
 43
0.00000001
 40
0.0
 40
0.0
 40
0.0
 40
0.0
 40
0.2813371813345898
 40
0.4847351098322705
 40
0.7599089647777694
 40
1.0
 40
1.0
 40
1.0
 40
1.0
 10
36.26978095238098
 20
18.29243514182257
 30
0.0
 10
36.2946888698103
 20
18.31681044879031
 30
0.0
 10
36.33760442769542
 20
18.35880833561122
 30
0.0
 10
36.40473104667949
 20
18.41719784320403
 30
0.0
 10
36.46867068594214
 20
18.46722952349459
 30
0.0
 10
36.51380208600008
 20
18.4954034488896
 30
0.0
 10
36.53483135612446
 20
18.50853127312805
 30
0.0
  0
LINE
  5
17D
330
1F
100
AcDbEntity
  8
0
  6
Continuous
 62
     7
370
    25
100
AcDbLine
 10
37.0860483097
 20
18.3941297828
 30
0.0
 11
37.2696873928
 21
18.3591018085
 31
0.0
  0
SPLINE
  5
17E
330
1F
100
AcDbEntity
  8
0
  6
Continuous
 62
     7
370
    25
100
AcDbSpline
210
0.0
220
0.0
230
1.0
 70
     8
 71
     3
 72
    12
 73
     8
 74
     0
 42
0.00000001
 43
0.00000001
 40
0.0
 40
0.0
 40
0.0
 40
0.0
 40
0.156133543665343
 40
0.327879147000269
 40
0.5152978781378685
 40
0.7186269797895557
 40
1.0
 40
1.0
 40
1.0
 40
1.0
 10
52.00472946188108
 20
18.50855236192957
 30
0.0
 10
52.01838094031977
 20
18.50022164105372
 30
0.0
 10
52.04704893183968
 20
18.48272719629478
 30
0.0
 10
52.0926215154985
 20
18.45004370068753
 30
0.0
 10
52.14256728230047
 20
18.41056450372682
 30
0.0
 10
52.20195379108821
 20
18.35877779050292
 30
0.0
 10
52.24486860086724
 20
18.31680224421601
 30
0.0
 10
52.26978095238098
 20
18.29243514182257
 30
0.0
  0
LINE
  5
17F
330
1F
100
AcDbEntity
  8
0
  6
Continuous
 62
     7
370
    25
100
AcDbLine
 10
51.7697809524
 20
18.8590725815
 30
0.0
 11
51.788053702
 21
18.8053947362
 31
0.0
  0
SPLINE
  5
180
330
1F
100
AcDbEntity
  8
0
  6
Continuous
 62
     7
370
    25
100
AcDbSpline
210
0.0
220
0.0
230
1.0
 70
     8
 71
     3
 72
     9
 73
     5
 74
     0
 42
0.00000001
 43
0.00000001
 40
0.0
 40
0.0
 40
0.0
 40
0.0
 40
0.5
 40
1.0
 40
1.0
 40
1.0
 40
1.0
 10
49.40311428571431
 20
32.35910180848924
 30
0.0
 10
49.40311428571431
 20
32.22820211458967
 30
0.0
 10
49.48252449912113
 20
31.9673884631349
 30
0.0
 10
49.67378784352129
 20
31.85910180848924
 30
0.0
 10
49.76978095238098
 20
31.85910180848924
 30
0.0
  0
SPLINE
  5
181
330
1F
100
AcDbEntity
  8
0
  6
Continuous
 62
     7
370
    25
100
AcDbSpline
210
0.0
220
0.0
230
1.0
 70
     8
 71
     3
 72
     9
 73
     5
 74
     0
 42
0.00000001
 43
0.00000001
 40
0.0
 40
0.0
 40
0.0
 40
0.0
 40
0.5
 40
1.0
 40
1.0
 40
1.0
 40
1.0
 10
36.26978095238098
 20
29.49243514182258
 30
0.0
 10
36.40068064628056
 20
29.49243514182258
 30
0.0
 10
36.66149429773532
 20
29.57184535522939
 30
0.0
 10
36.76978095238098
 20
29.76310869962955
 30
0.0
 10
36.76978095238098
 20
29.85910180848924
 30
0.0
  0
SPLINE
  5
182
330
1F
100
AcDbEntity
  8
0
  6
Continuous
 62
     7
370
    25
100
AcDbSpline
210
0.0
220
0.0
230
1.0
 70
     8
 71
     3
 72
     9
 73
     5
 74
     0
 42
0.00000001
 43
0.00000001
 40
0.0
 40
0.0
 40
0.0
 40
0.0
 40
0.5
 40
1.0
 40
1.0
 40
1.0
 40
1.0
 10
51.76978095238098
 20
29.85910180848924
 30
0.0
 10
51.76978095238098
 20
29.76310869962955
 30
0.0
 10
51.87806760702664
 20
29.57184535522939
 30
0.0
 10
52.1388812584814
 20
29.49243514182257
 30
0.0
 10
52.26978095238098
 20
29.49243514182257
 30
0.0
  0
SPLINE
  5
183
330
1F
100
AcDbEntity
  8
0
  6
Continuous
 62
     7
370
    25
100
AcDbSpline
210
0.0
220
0.0
230
1.0
 70
     8
 71
     3
 72
     9
 73
     5
 74
     0
 42
0.00000001
 43
0.00000001
 40
0.0
 40
0.0
 40
0.0
 40
0.0
 40
0.5
 40
1.0
 40
1.0
 40
1.0
 40
1.0
 10
38.76978095238098
 20
31.85910180848924
 30
0.0
 10
38.86577406124067
 20
31.85910180848924
 30
0.0
 10
39.05703740564083
 20
31.9673884631349
 30
0.0
 10
39.13644761904765
 20
32.22820211458967
 30
0.0
 10
39.13644761904765
 20
32.35910180848924
 30
0.0
  0
SPLINE
  5
184
330
1F
100
AcDbEntity
  8
0
  6
Continuous
 62
     7
370
    25
100
AcDbSpline
210
0.0
220
0.0
230
1.0
 70
     8
 71
     3
 72
     8
 73
     4
 74
     0
 42
0.00000001
 43
0.00000001
 40
0.0
 40
0.0
 40
0.0
 40
0.0
 40
1.0
 40
1.0
 40
1.0
 40
1.0
 10
49.98525701887506
 20
32.14074618193371
 30
0.0
 10
49.94352511572009
 20
31.98385232202433
 30
0.0
 10
49.98151190705101
 20
31.82982514374328
 30
0.0
 10
50.08164313085995
 20
31.74992399521147
 30
0.0
  0
SPLINE
  5
185
330
1F
100
AcDbEntity
  8
0
  6
Continuous
 62
     7
370
    25
100
AcDbSpline
210
0.0
220
0.0
230
1.0
 70
     8
 71
     3
 72
     9
 73
     5
 74
     0
 42
0.00000001
 43
0.00000001
 40
0.0
 40
0.0
 40
0.0
 40
0.0
 40
0.5
 40
1.0
 40
1.0
 40
1.0
 40
1.0
 10
52.05142532582545
 20
30.07457787498332
 30
0.0
 10
51.97297839587075
 20
30.05371192340584
 30
0.0
 10
51.81618317478278
 20
30.04938010875528
 30
0.0
 10
51.70055371336912
 20
30.12089837506375
 30
0.0
 10
51.66060313910321
 20
30.17096398696821
 30
0.0
  0
SPLINE
  5
186
330
1F
100
AcDbEntity
  8
0
  6
Continuous
 62
     7
370
    25
100
AcDbSpline
210
0.0
220
0.0
230
1.0
 70
     8
 71
     3
 72
     9
 73
     5
 74
     0
 42
0.00000001
 43
0.00000001
 40
0.0
 40
0.0
 40
0.0
 40
0.0
 40
0.5
 40
1.0
 40
1.0
 40
1.0
 40
1.0
 10
38.5543048858869
 20
32.14074618193371
 30
0.0
 10
38.57517083746438
 20
32.06229925197901
 30
0.0
 10
38.57950265211494
 20
31.90550403089103
 30
0.0
 10
38.50798438580647
 20
31.78987456947738
 30
0.0
 10
38.45791877390202
 20
31.74992399521147
 30
0.0
  0
SPLINE
  5
187
330
1F
100
AcDbEntity
  8
0
  6
Continuous
 62
     7
370
    25
100
AcDbSpline
210
0.0
220
0.0
230
1.0
 70
     8
 71
     3
 72
     9
 73
     5
 74
     0
 42
0.00000001
 43
0.00000001
 40
0.0
 40
0.0
 40
0.0
 40
0.0
 40
0.5
 40
1.0
 40
1.0
 40
1.0
 40
1.0
 10
36.87895876565875
 20
30.17096398696821
 30
0.0
 10
36.83900819139284
 20
30.12089837506375
 30
0.0
 10
36.72337872997919
 20
30.04938010875528
 30
0.0
 10
36.5665835088912
 20
30.05371192340584
 30
0.0
 10
36.4881365789365
 20
30.07457787498332
 30
0.0
  0
SPLINE
  5
188
330
1F
100
AcDbEntity
  8
0
  6
Continuous
 62
     7
370
    25
100
AcDbSpline
210
0.0
220
0.0
230
1.0
 70
     8
 71
     3
 72
    10
 73
     6
 74
     0
 42
0.00000001
 43
0.00000001
 40
0.0
 40
0.0
 40
0.0
 40
0.0
 40
0.499999999999999
 40
0.499999999999999
 40
1.0
 40
1.0
 40
1.0
 40
1.0
 10
52.00472946188108
 20
18.50855236192956
 30
0.0
 10
51.97114993920761
 20
18.46260888851151
 30
0.0
 10
51.9293431114556
 20
18.42389165411314
 30
0.0
 10
51.83742432790131
 20
18.37205977761402
 30
0.0
 10
51.78759021635896
 20
18.35910180848924
 30
0.0
 10
51.73969346469922
 20
18.35910180848924
 30
0.0
  0
SPLINE
  5
189
330
1F
100
AcDbEntity
  8
0
  6
Continuous
 62
     7
370
    25
100
AcDbSpline
210
0.0
220
0.0
230
1.0
 70
    24
 71
     3
 72
     9
 73
     5
 74
     0
 42
0.00000001
 43
0.00000001
 40
0.0
 40
0.0
 40
0.0
 40
0.0
 40
0.5623869448019412
 40
1.0
 40
1.0
 40
1.0
 40
1.0
 10
51.73969346469919
 20
18.35910180848924
 30
0.0
 10
51.60692397990525
 20
18.35910180848924
 30
0.0
 10
51.37084189083631
 20
18.35910180848924
 30
0.0
 10
51.33043603344905
 20
18.35910180848924
 30
0.0
 10
51.31275390274992
 20
18.35910180848924
 30
0.0
  0
SPLINE
  5
18A
330
1F
100
AcDbEntity
  8
0
  6
Continuous
 62
     7
370
    25
100
AcDbSpline
210
0.0
220
0.0
230
1.0
 70
     8
 71
     3
 72
    10
 73
     6
 74
     0
 42
0.00000001
 43
0.00000001
 40
0.0
 40
0.0
 40
0.0
 40
0.0
 40
0.5
 40
0.5
 40
1.0
 40
1.0
 40
1.0
 40
1.0
 10
36.53483135612447
 20
18.50853127312805
 30
0.0
 10
36.56840656172944
 20
18.46259423254221
 30
0.0
 10
36.61020787843128
 20
18.42388247772538
 30
0.0
 10
36.70211440953342
 20
18.37205794233646
 30
0.0
 10
36.75194182391137
 20
18.35910180848924
 30
0.0
 10
36.79983216387588
 20
18.35910180848924
 30
0.0
  0
SPLINE
  5
18B
330
1F
100
AcDbEntity
  8
0
  6
Continuous
 62
     7
370
    25
100
AcDbSpline
210
0.0
220
0.0
230
1.0
 70
    24
 71
     3
 72
     9
 73
     5
 74
     0
 42
0.00000001
 43
0.00000001
 40
0.0
 40
0.0
 40
0.0
 40
0.0
 40
0.4389747160663242
 40
1.0
 40
1.0
 40
1.0
 40
1.0
 10
37.22636844011097
 20
18.35910180848924
 30
0.0
 10
37.20860172751922
 20
18.35910180848924
 30
0.0
 10
37.16812852498274
 20
18.35910180848924
 30
0.0
 10
36.93219617661053
 20
18.35910180848924
 30
0.0
 10
36.79983216387588
 20
18.35910180848924
 30
0.0
  0
SPLINE
  5
18C
330
1F
100
AcDbEntity
  8
0
  6
Continuous
 62
     7
370
    25
100
AcDbSpline
210
0.0
220
0.0
230
1.0
 70
    24
 71
     3
 72
     8
 73
     4
 74
     0
 42
0.00000001
 43
0.00000001
 40
0.0
 40
0.0
 40
0.0
 40
0.0
 40
1.0
 40
1.0
 40
1.0
 40
1.0
 10
51.26978095238098
 20
30.4257684751559
 30
0.0
 10
51.26978095238098
 20
30.38233907268408
 30
0.0
 10
51.26978095238098
 20
30.35910180848924
 30
0.0
 10
51.26978095238098
 20
30.35910180848924
 30
0.0
  0
SPLINE
  5
18D
330
1F
100
AcDbEntity
  8
0
  6
Continuous
 62
     7
370
    25
100
AcDbSpline
210
0.0
220
0.0
230
1.0
 70
    24
 71
     3
 72
     8
 73
     4
 74
     0
 42
0.00000001
 43
0.00000001
 40
0.0
 40
0.0
 40
0.0
 40
0.0
 40
1.0
 40
1.0
 40
1.0
 40
1.0
 10
38.20311428571431
 20
31.35910180848924
 30
0.0
 10
38.24654368818614
 20
31.35910180848924
 30
0.0
 10
38.26978095238098
 20
31.35910180848924
 30
0.0
 10
38.26978095238098
 20
31.35910180848924
 30
0.0
  0
SPLINE
  5
18E
330
1F
100
AcDbEntity
  8
0
  6
Continuous
 62
     7
370
    25
100
AcDbSpline
210
0.0
220
0.0
230
1.0
 70
    24
 71
     3
 72
     8
 73
     4
 74
     0
 42
0.00000001
 43
0.00000001
 40
0.0
 40
0.0
 40
0.0
 40
0.0
 40
1.0
 40
1.0
 40
1.0
 40
1.0
 10
37.26978095238098
 20
30.35910180848924
 30
0.0
 10
37.26978095238098
 20
30.35910180848924
 30
0.0
 10
37.26978095238098
 20
30.38233907268408
 30
0.0
 10
37.26978095238098
 20
30.42576847515591
 30
0.0
  0
SPLINE
  5
18F
330
1F
100
AcDbEntity
  8
0
  6
Continuous
 62
     7
370
    25
100
AcDbSpline
210
0.0
220
0.0
230
1.0
 70
    24
 71
     3
 72
     8
 73
     4
 74
     0
 42
0.00000001
 43
0.00000001
 40
0.0
 40
0.0
 40
0.0
 40
0.0
 40
1.0
 40
1.0
 40
1.0
 40
1.0
 10
50.33644761904765
 20
31.35910180848924
 30
0.0
 10
50.29301821657582
 20
31.35910180848924
 30
0.0
 10
50.26978095238098
 20
31.35910180848924
 30
0.0
 10
50.26978095238098
 20
31.35910180848924
 30
0.0
  0
SPLINE
  5
190
330
1F
100
AcDbEntity
  8
0
  6
Continuous
 62
     7
370
    25
100
AcDbSpline
210
0.0
220
0.0
230
1.0
 70
     8
 71
     3
 72
    11
 73
     7
 74
     0
 42
0.00000001
 43
0.00000001
 40
0.0
 40
0.0
 40
0.0
 40
0.0
 40
0.2796925902103931
 40
0.4824920995717302
 40
0.7583389673489331
 40
0.9999999999999999
 40
0.9999999999999999
 40
0.9999999999999999
 40
0.9999999999999999
 10
52.26978095238098
 20
18.29243514182257
 30
0.0
 10
52.21978329073608
 20
18.30322462076688
 30
0.0
 10
52.13353332350393
 20
18.32183733533758
 30
0.0
 10
51.99854887684099
 20
18.34226848598083
 30
0.0
 10
51.87125733412638
 20
18.35621353182133
 30
0.0
 10
51.78157328770037
 20
18.35818240321363
 30
0.0
 10
51.73969346469922
 20
18.35910180848924
 30
0.0
  0
SPLINE
  5
191
330
1F
100
AcDbEntity
  8
0
  6
Continuous
 62
     7
370
    25
100
AcDbSpline
210
0.0
220
0.0
230
1.0
 70
     8
 71
     3
 72
    12
 73
     8
 74
     0
 42
0.00000001
 43
0.00000001
 40
0.0
 40
0.0
 40
0.0
 40
0.0
 40
0.1573492972449686
 40
0.3298380470016292
 40
0.5175259235705421
 40
0.7203120516631307
 40
1.0
 40
1.0
 40
1.0
 40
1.0
 10
36.79983216387586
 20
18.35910180848924
 30
0.0
 10
36.77262510634807
 20
18.35870664504134
 30
0.0
 10
36.7155932487119
 20
18.35787829726869
 30
0.0
 10
36.62481619195471
 20
18.35127785816509
 30
0.0
 10
36.52534697122933
 20
18.33998324648023
 30
0.0
 10
36.40601227649238
 20
18.32180310101578
 30
0.0
 10
36.31977328773987
 20
18.30321219970093
 30
0.0
 10
36.26978095238098
 20
18.29243514182257
 30
0.0
  0
SPLINE
  5
192
330
1F
100
AcDbEntity
  8
0
  6
Continuous
 62
     7
370
    25
100
AcDbSpline
210
0.0
220
0.0
230
1.0
 70
     8
 71
     3
 72
     9
 73
     5
 74
     0
 42
0.00000001
 43
0.00000001
 40
0.0
 40
0.0
 40
0.0
 40
0.0
 40
0.5
 40
1.0
 40
1.0
 40
1.0
 40
1.0
 10
50.47313112115731
 20
31.00554841789244
 30
0.0
 10
50.49511526890653
 20
30.90313564991242
 30
0.0
 10
50.60938566037853
 20
30.69870651648679
 30
0.0
 10
50.81381479380416
 20
30.58443612501479
 30
0.0
 10
50.91622756178419
 20
30.56245197726556
 30
0.0
  0
SPLINE
  5
193
330
1F
100
AcDbEntity
  8
0
  6
Continuous
 62
     7
370
    25
100
AcDbSpline
210
0.0
220
0.0
230
1.0
 70
     8
 71
     3
 72
     9
 73
     5
 74
     0
 42
0.00000001
 43
0.00000001
 40
0.0
 40
0.0
 40
0.0
 40
0.0
 40
0.5
 40
1.0
 40
1.0
 40
1.0
 40
1.0
 10
37.62333434297427
 20
30.56245197726883
 30
0.0
 10
37.72574711095439
 20
30.58443612501799
 30
0.0
 10
37.93017624438023
 20
30.69870651648999
 30
0.0
 10
38.04444663585222
 20
30.90313564991582
 30
0.0
 10
38.06643078360139
 20
31.00554841789595
 30
0.0
  0
LINE
  5
194
330
1F
100
AcDbEntity
  8
0
  6
Continuous
 62
     7
370
    25
100
AcDbLine
 10
15.6132310281
 20
14.1091018085
 30
0.0
 11
15.6132310281
 21
14.5899366533
 31
0.0
  0
LINE
  5
195
330
1F
100
AcDbEntity
  8
0
  6
Continuous
 62
     7
370
    25
100
AcDbLine
 10
15.6132310281
 20
34.1282669637
 30
0.0
 11
15.6132310281
 21
34.6091018085
 31
0.0
  0
LINE
  5
196
330
1F
100
AcDbEntity
  8
0
  6
Continuous
 62
     7
370
    25
100
AcDbLine
 10
16.4792564319
 20
35.1091018085
 30
0.0
 11
16.4792564319
 21
34.6048116054
 31
0.0
  0
LINE
  5
197
330
1F
100
AcDbEntity
  8
0
  6
Continuous
 62
     7
370
    25
100
AcDbLine
 10
16.4792564319
 20
14.1133920116
 30
0.0
 11
16.4792564319
 21
13.6091018085
 31
0.0
  0
LINE
  5
198
330
1F
100
AcDbEntity
  8
0
  6
Continuous
 62
     7
370
    25
100
AcDbLine
 10
72.9263308766
 20
34.6091018085
 30
0.0
 11
72.9263308766
 21
34.1282669637
 31
0.0
  0
LINE
  5
199
330
1F
100
AcDbEntity
  8
0
  6
Continuous
 62
     7
370
    25
100
AcDbLine
 10
72.9263308766
 20
14.5899366533
 30
0.0
 11
72.9263308766
 21
14.1091018085
 31
0.0
  0
LINE
  5
19A
330
1F
100
AcDbEntity
  8
0
  6
Continuous
 62
     7
370
    25
100
AcDbLine
 10
72.0603054728
 20
13.6091018085
 30
0.0
 11
72.0603054728
 21
14.1133920116
 31
0.0
  0
LINE
  5
19B
330
1F
100
AcDbEntity
  8
0
  6
Continuous
 62
     7
370
    25
100
AcDbLine
 10
72.0603054728
 20
34.6048116054
 30
0.0
 11
72.0603054728
 21
35.1091018085
 31
0.0
  0
LINE
  5
19C
330
1F
100
AcDbEntity
  8
0
  6
Continuous
 62
     7
370
    25
100
AcDbLine
 10
54.0389461076
 20
53.0156517327
 30
0.0
 11
54.5197809524
 21
53.0156517327
 31
0.0
  0
LINE
  5
19D
330
1F
100
AcDbEntity
  8
0
  6
Continuous
 62
     7
370
    25
100
AcDbLine
 10
34.0197809524
 20
53.0156517327
 30
0.0
 11
34.5006157972
 21
53.0156517327
 31
0.0
  0
LINE
  5
19E
330
1F
100
AcDbEntity
  8
0
  6
Continuous
 62
     7
370
    25
100
AcDbLine
 10
34.0240711555
 20
52.1496263289
 30
0.0
 11
33.5197809524
 21
52.1496263289
 31
0.0
  0
LINE
  5
19F
330
1F
100
AcDbEntity
  8
0
  6
Continuous
 62
     7
370
    25
100
AcDbLine
 10
55.0197809524
 20
52.1496263289
 30
0.0
 11
54.5154907493
 21
52.1496263289
 31
0.0
  0
LINE
  5
1A0
330
1F
100
AcDbEntity
  8
0
  6
Continuous
 62
     7
370
    25
100
AcDbLine
 10
32.2394747981
 20
16.5591018085
 30
0.0
 11
32.2394747981
 21
32.1591018085
 31
0.0
  0
LINE
  5
1A1
330
1F
100
AcDbEntity
  8
0
  6
Continuous
 62
     7
370
    25
100
AcDbLine
 10
56.3000871067
 20
32.1591018085
 30
0.0
 11
56.3000871067
 21
16.5591018085
 31
0.0
  0
LINE
  5
1A2
330
1F
100
AcDbEntity
  8
0
  6
Continuous
 62
     7
370
    25
100
AcDbLine
 10
36.4697809524
 20
36.3894079628
 30
0.0
 11
52.0697809524
 21
36.3894079628
 31
0.0
  0
LINE
  5
1A3
330
1F
100
AcDbEntity
  8
0
  6
Continuous
 62
     7
370
    25
100
AcDbLine
 10
55.3202912096
 20
17.3591018085
 30
0.0
 11
55.3202912096
 21
31.3591018085
 31
0.0
  0
LINE
  5
1A4
330
1F
100
AcDbEntity
  8
0
  6
Continuous
 62
     7
370
    25
100
AcDbLine
 10
33.2192706952
 20
31.3591018085
 30
0.0
 11
33.2192706952
 21
17.3591018085
 31
0.0
  0
LINE
  5
1A5
330
1F
100
AcDbEntity
  8
0
  6
Continuous
 62
     7
370
    25
100
AcDbLine
 10
51.2697809524
 20
35.4096120657
 30
0.0
 11
37.2697809524
 21
35.4096120657
 31
0.0
  0
SPLINE
  5
1A6
330
1F
100
AcDbEntity
  8
0
  6
Continuous
 62
     7
370
    25
100
AcDbSpline
210
0.0
220
0.0
230
1.0
 70
     8
 71
     3
 72
    19
 73
    15
 74
     0
 42
0.00000001
 43
0.00000001
 40
0.0
 40
0.0
 40
0.0
 40
0.0
 40
0.0606727911759613
 40
0.1214874002500031
 40
0.1825081921874955
 40
0.2437988823827704
 40
0.305422349054305
 40
0.3674404582537827
 40
0.4299139036268473
 40
0.4929020625848005
 40
0.6146975824539129
 40
0.7395812568283596
 40
0.8679067285909485
 40
1.0
 40
1.0
 40
1.0
 40
1.0
 10
51.76978095238256
 20
31.35910180848924
 30
0.0
 10
51.76910965073482
 20
31.3584780403356
 30
0.0
 10
51.76776547832431
 20
31.35722904601912
 30
0.0
 10
51.75690576845099
 20
31.34712218521318
 30
0.0
 10
51.73957633721295
 20
31.33097043070003
 30
0.0
 10
51.71513849347873
 20
31.30817114633105
 30
0.0
 10
51.68376486993849
 20
31.27888123189923
 30
0.0
 10
51.6454091376199
 20
31.2430604449446
 30
0.0
 10
51.60008551400238
 20
31.2007311944485
 30
0.0
 10
51.53167431542396
 20
31.1368580454493
 30
0.0
 10
51.43062880247116
 20
31.04259985062255
 30
0.0
 10
51.28511055444817
 20
30.90682255180233
 30
0.0
 10
51.11505840120387
 20
30.74806311663485
 30
0.0
 10
50.98314071364
 20
30.62491626294175
 30
0.0
 10
50.91622756178771
 20
30.56245197726885
 30
0.0
  0
SPLINE
  5
1A7
330
1F
100
AcDbEntity
  8
0
  6
Continuous
 62
     7
370
    25
100
AcDbSpline
210
0.0
220
0.0
230
1.0
 70
     8
 71
     3
 72
    18
 73
    14
 74
     0
 42
0.00000001
 43
0.00000001
 40
0.0
 40
0.0
 40
0.0
 40
0.0
 40
0.0759716985786636
 40
0.1506710093718998
 40
0.2241554833695644
 40
0.296485571458475
 40
0.3677246633008381
 40
0.4379391034842293
 40
0.5071981812646982
 40
0.6326267587182068
 40
0.7562404532922335
 40
0.8785294569469952
 40
1.0
 40
1.0
 40
1.0
 40
1.0
 10
37.62333434297425
 20
30.56245197726885
 30
0.0
 10
37.5844154293216
 20
30.59878047825012
 30
0.0
 10
37.50722942304017
 20
30.67082904388996
 30
0.0
 10
37.40053640025347
 20
30.7704443589312
 30
0.0
 10
37.30183306068763
 20
30.86258867466731
 30
0.0
 10
37.2116691201693
 20
30.94674197644912
 30
0.0
 10
37.1299035452522
 20
31.0230350572118
 30
0.0
 10
37.05656811475694
 20
31.09144903807234
 30
0.0
 10
36.97386689813899
 20
31.16860910382301
 30
0.0
 10
36.89102366643615
 20
31.24598148616046
 30
0.0
 10
36.82149830247305
 20
31.3109123031181
 30
0.0
 10
36.77789181158028
 20
31.35156891138613
 30
0.0
 10
36.77247851345007
 20
31.35659646972464
 30
0.0
 10
36.76978095238029
 20
31.35910180848924
 30
0.0
  0
SPLINE
  5
1A8
330
1F
100
AcDbEntity
  8
0
  6
Continuous
 62
     7
370
    25
100
AcDbSpline
210
0.0
220
0.0
230
1.0
 70
    24
 71
     3
 72
     9
 73
     5
 74
     0
 42
0.00000001
 43
0.00000001
 40
-0.481733964059299
 40
-0.481733964059299
 40
-0.481733964059299
 40
-0.481733964059299
 40
-0.4129148263141916
 40
0.0000000001423258
 40
0.0000000001423258
 40
0.0000000001423258
 40
0.0000000001423258
 10
51.26972901273454
 20
31.85904615886806
 30
0.0
 10
51.2697555976407
 20
31.85907464269609
 30
0.0
 10
51.2311824304597
 20
31.81774624928786
 30
0.0
 10
50.91952170757028
 20
31.48382404619206
 30
0.0
 10
50.47313112115731
 20
31.00554841789244
 30
0.0
  0
SPLINE
  5
1A9
330
1F
100
AcDbEntity
  8
0
  6
Continuous
 62
     7
370
    25
100
AcDbSpline
210
0.0
220
0.0
230
1.0
 70
    24
 71
     3
 72
     9
 73
     5
 74
     0
 42
0.00000001
 43
0.00000001
 40
-0.0000000000005272
 40
-0.0000000000005272
 40
-0.0000000000005272
 40
-0.0000000000005272
 40
0.4129148263355832
 40
0.481733964058292
 40
0.481733964058292
 40
0.481733964058292
 40
0.481733964058292
 10
38.06643078360139
 20
31.00554841789595
 30
0.0
 10
37.62004019731944
 20
31.48382404605517
 30
0.0
 10
37.30837947446056
 20
31.81774624911825
 30
0.0
 10
37.26980630714409
 20
31.85907464267162
 30
0.0
 10
37.26983289202744
 20
31.85904615886803
 30
0.0
  0
SPLINE
  5
1AA
330
1F
100
AcDbEntity
  8
0
  6
Continuous
 62
     7
370
    25
100
AcDbSpline
210
0.0
220
0.0
230
1.0
 70
     8
 71
     3
 72
     9
 73
     5
 74
     0
 42
0.00000001
 43
0.00000001
 40
0.0
 40
0.0
 40
0.0
 40
0.0
 40
0.7280206975459762
 40
1.0
 40
1.0
 40
1.0
 40
1.0
 10
36.53483135612447
 20
18.50853127312805
 30
0.0
 10
36.60418099193402
 20
18.55815455213999
 30
0.0
 10
36.6994387724385
 20
18.62631645904623
 30
0.0
 10
36.71873994785788
 20
18.70384321613823
 30
0.0
 10
36.72398946808499
 20
18.72492888945363
 30
0.0
  0
SPLINE
  5
1AB
330
1F
100
AcDbEntity
  8
0
  6
Continuous
 62
     7
370
    25
100
AcDbSpline
210
0.0
220
0.0
230
1.0
 70
     8
 71
     3
 72
     9
 73
     5
 74
     0
 42
0.00000001
 43
0.00000001
 40
0.0
 40
0.0
 40
0.0
 40
0.0
 40
0.2693343955357199
 40
1.0
 40
1.0
 40
1.0
 40
1.0
 10
51.81542491032403
 20
18.72498934993977
 30
0.0
 10
51.82062113978898
 20
18.70410464056606
 30
0.0
 10
51.8399139948832
 20
18.62656270860385
 30
0.0
 10
51.93514641099681
 20
18.55837487013877
 30
0.0
 10
52.00472946188106
 20
18.50855236192957
 30
0.0
  0
SPLINE
  5
1AC
330
1F
100
AcDbEntity
  8
0
  6
Continuous
 62
     7
370
    25
100
AcDbSpline
210
0.0
220
0.0
230
1.0
 70
     8
 71
     3
 72
    10
 73
     6
 74
     0
 42
0.00000001
 43
0.00000001
 40
0.0
 40
0.0
 40
0.0
 40
0.0
 40
0.2485725929039654
 40
0.6467860824307444
 40
1.0
 40
1.0
 40
1.0
 40
1.0
 10
50.49571394541503
 20
30.75220808884259
 30
0.0
 10
50.48798200402789
 20
30.77095319918277
 30
0.0
 10
50.46786348645139
 20
30.81972799104545
 30
0.0
 10
50.45800239474156
 20
30.90652091397664
 30
0.0
 10
50.46829364440956
 20
30.97388393837177
 30
0.0
 10
50.47313112116059
 20
31.00554841789597
 30
0.0
  0
SPLINE
  5
1AD
330
1F
100
AcDbEntity
  8
0
  6
Continuous
 62
     7
370
    25
100
AcDbSpline
210
0.0
220
0.0
230
1.0
 70
     8
 71
     3
 72
    10
 73
     6
 74
     0
 42
0.00000001
 43
0.00000001
 40
0.0
 40
0.0
 40
0.0
 40
0.0
 40
0.2485725983683955
 40
0.646786085007593
 40
1.0
 40
1.0
 40
1.0
 40
1.0
 10
37.8766746737048
 20
30.58503480214227
 30
0.0
 10
37.85792956282233
 20
30.57730286051753
 30
0.0
 10
37.8091547704265
 20
30.55718434268491
 30
0.0
 10
37.72236184690009
 20
30.54732325083575
 30
0.0
 10
37.65499882250003
 20
30.5576145005134
 30
0.0
 10
37.62333434297425
 20
30.56245197726885
 30
0.0
  0
SPLINE
  5
1AE
330
1F
100
AcDbEntity
  8
0
  6
Continuous
 62
     7
370
    25
100
AcDbSpline
210
0.0
220
0.0
230
1.0
 70
     8
 71
     3
 72
    10
 73
     6
 74
     0
 42
0.00000001
 43
0.00000001
 40
0.0
 40
0.0
 40
0.0
 40
0.0
 40
0.3531918697999403
 40
0.7514413222591404
 40
1.0
 40
1.0
 40
1.0
 40
1.0
 10
50.91622756178771
 20
30.56245197726885
 30
0.0
 10
50.88456583476088
 20
30.55761453816567
 30
0.0
 10
50.81720321388425
 20
30.54732253558332
 30
0.0
 10
50.73041102094889
 20
30.55718363095552
 30
0.0
 10
50.6816348404223
 20
30.57730140166165
 30
0.0
 10
50.66289088472529
 20
30.58503235965728
 30
0.0
  0
SPLINE
  5
1AF
330
1F
100
AcDbEntity
  8
0
  6
Continuous
 62
     7
370
    25
100
AcDbSpline
210
0.0
220
0.0
230
1.0
 70
     8
 71
     3
 72
    10
 73
     6
 74
     0
 42
0.00000001
 43
0.00000001
 40
0.0
 40
0.0
 40
0.0
 40
0.0
 40
0.353191875852283
 40
0.7514413351453536
 40
1.0
 40
1.0
 40
1.0
 40
1.0
 10
38.06643078360136
 20
31.00554841789597
 30
0.0
 10
38.07126822269409
 20
30.97388669087517
 30
0.0
 10
38.08156022525434
 20
30.9065240700105
 30
0.0
 10
38.07169913021038
 20
30.81973187847808
 30
0.0
 10
38.05158136010827
 20
30.77095569920643
 30
0.0
 10
38.04385040267321
 20
30.75221174478803
 30
0.0
  0
LINE
  5
1B0
330
1F
100
AcDbEntity
  8
0
  6
CENTERX2
 62
     7
370
    18
100
AcDbLine
 10
77.0586144365
 20
24.3591018085
 30
0.0
 11
9.9814129184
 21
24.3591018085
 31
0.0
  0
LINE
  5
1B1
330
1F
100
AcDbEntity
  8
0
  6
CENTERX2
 62
     7
370
    18
100
AcDbLine
 10
44.2697809524
 20
57.931628294
 30
0.0
 11
44.2697809524
 21
13.7588370504
 31
0.0
  0
LINE
  5
1B2
330
1F
100
AcDbEntity
  8
0
  6
Continuous
 62
     7
370
    25
100
AcDbLine
 10
102.6316
 20
39.0826390308
 30
0.0
 11
102.8816
 21
38.9383014635
 31
0.0
  0
LINE
  5
1B3
330
1F
100
AcDbEntity
  8
0
  6
Continuous
 62
     7
370
    25
100
AcDbLine
 10
123.3816
 20
38.9383014635
 30
0.0
 11
123.6316
 21
39.0826390308
 31
0.0
  0
LINE
  5
1B4
330
1F
100
AcDbEntity
  8
0
  6
Continuous
 62
     7
370
    25
100
AcDbLine
 10
123.3816
 20
53.7383014635
 30
0.0
 11
123.1816
 21
53.9383014635
 31
0.0
  0
LINE
  5
1B5
330
1F
100
AcDbEntity
  8
0
  6
Continuous
 62
     7
370
    25
100
AcDbLine
 10
103.0816
 20
53.9383014635
 30
0.0
 11
102.8816
 21
53.7383014635
 31
0.0
  0
LINE
  5
1B6
330
1F
100
AcDbEntity
  8
0
  6
Continuous
 62
     7
370
    25
100
AcDbLine
 10
102.8816
 20
53.7383014635
 30
0.0
 11
102.8816
 21
52.9609893507
 31
0.0
  0
LINE
  5
1B7
330
1F
100
AcDbEntity
  8
0
  6
Continuous
 62
     7
370
    25
100
AcDbLine
 10
123.3816
 20
52.9609893507
 30
0.0
 11
123.3816
 21
53.7383014635
 31
0.0
  0
SPLINE
  5
1B8
330
1F
100
AcDbEntity
  8
0
  6
Continuous
 62
     7
370
    25
100
AcDbSpline
210
0.0
220
0.0
230
1.0
 70
     8
 71
     3
 72
    12
 73
     8
 74
     0
 42
0.00000001
 43
0.00000001
 40
0.0
 40
0.0
 40
0.0
 40
0.0
 40
0.2612321449636982
 40
0.5173999078331891
 40
0.7474598241018232
 40
0.9501566627571892
 40
1.0
 40
1.0
 40
1.0
 40
1.0
 10
102.8798265442417
 20
52.96220664574276
 30
0.0
 10
102.877126073939
 20
52.89645005658836
 30
0.0
 10
102.8717774860539
 20
52.76621166968297
 30
0.0
 10
102.8154210504036
 20
52.5851743977403
 30
0.0
 10
102.7381031033288
 20
52.43380302886327
 30
0.0
 10
102.6681269696052
 20
52.33469488475851
 30
0.0
 10
102.6305019342068
 20
52.29604571922326
 30
0.0
 10
102.623075958037
 20
52.28841761258607
 30
0.0
  0
SPLINE
  5
1B9
330
1F
100
AcDbEntity
  8
0
  6
Continuous
 62
     7
370
    25
100
AcDbSpline
210
0.0
220
0.0
230
1.0
 70
     8
 71
     3
 72
    12
 73
     8
 74
     0
 42
0.00000001
 43
0.00000001
 40
0.0
 40
0.0
 40
0.0
 40
0.0
 40
0.0134989634258254
 40
0.2294144781161965
 40
0.4800810014839277
 40
0.7599934969558386
 40
1.0
 40
1.0
 40
1.0
 40
1.0
 10
123.6424531421387
 20
52.28452315993628
 30
0.0
 10
123.6404708467123
 20
52.28648389272814
 30
0.0
 10
123.6067817954579
 20
52.31980648765469
 30
0.0
 10
123.5338062272383
 20
52.41872458401784
 30
0.0
 10
123.4483913318392
 20
52.58145996759634
 30
0.0
 10
123.3893658315179
 20
52.76975321427105
 30
0.0
 10
123.3875485577689
 20
52.90133479441258
 30
0.0
 10
123.3867096626356
 20
52.96207586178062
 30
0.0
  0
LINE
  5
1BA
330
1F
100
AcDbEntity
  8
0
  6
Continuous
 62
     7
370
    25
100
AcDbLine
 10
104.8006
 20
38.9383014635
 30
0.0
 11
104.8006
 21
36.6103268087
 31
0.0
  0
LINE
  5
1BB
330
1F
100
AcDbEntity
  8
0
  6
Continuous
 62
     7
370
    25
100
AcDbLine
 10
121.4626
 20
36.6103268087
 30
0.0
 11
121.4626
 21
38.9383014635
 31
0.0
  0
ARC
  5
1BC
330
1F
100
AcDbEntity
  8
0
  6
Continuous
 62
     7
370
    25
100
AcDbCircle
 10
105.6316
 20
37.8591018085
 30
0.0
 40
1.500000000000008
100
AcDbArc
 50
236.3581351443
 51
258.4630409672
  0
ARC
  5
1BD
330
1F
100
AcDbEntity
  8
0
  6
Continuous
 62
     7
370
    25
100
AcDbCircle
 10
120.6316
 20
37.8591018085
 30
0.0
 40
1.500000000000011
100
AcDbArc
 50
281.5369590328
 51
303.6418648557
  0
ARC
  5
1BE
330
1F
100
AcDbEntity
  8
0
  6
Continuous
 62
     7
370
    25
100
AcDbCircle
 10
105.1316
 20
35.4096120657
 30
0.0
 40
1.0
100
AcDbArc
 50
0.0
 51
78.4630409672
  0
ARC
  5
1BF
330
1F
100
AcDbEntity
  8
0
  6
Continuous
 62
     7
370
    25
100
AcDbCircle
 10
121.1316
 20
35.4096120657
 30
0.0
 40
1.0
100
AcDbArc
 50
101.5369590328
 51
180.0
  0
LINE
  5
1C0
330
1F
100
AcDbEntity
  8
0
  6
Continuous
 62
     7
370
    25
100
AcDbLine
 10
106.1316
 20
35.4096120657
 30
0.0
 11
106.1316
 21
32.4420055771
 31
0.0
  0
LINE
  5
1C1
330
1F
100
AcDbEntity
  8
0
  6
Continuous
 62
     7
370
    25
100
AcDbLine
 10
120.1316
 20
32.4420055771
 30
0.0
 11
120.1316
 21
35.4096120657
 31
0.0
  0
CIRCLE
  5
1C2
330
1F
100
AcDbEntity
  8
0
  6
Continuous
 62
     7
370
    25
100
AcDbCircle
 10
113.1316
 20
24.3591018085
 30
0.0
 40
10.04999999999998
  0
CIRCLE
  5
1C3
330
1F
100
AcDbEntity
  8
0
  6
Continuous
 62
     7
370
    25
100
AcDbCircle
 10
113.1316
 20
24.3591018085
 30
0.0
 40
5.175000000000011
  0
CIRCLE
  5
1C4
330
1F
100
AcDbEntity
  8
0
  6
Continuous
 62
     7
370
    25
100
AcDbCircle
 10
113.1316
 20
24.3591018085
 30
0.0
 40
10.24999999999999
  0
CIRCLE
  5
1C5
330
1F
100
AcDbEntity
  8
0
  6
Continuous
 62
     7
370
    25
100
AcDbCircle
 10
113.1316
 20
24.3591018085
 30
0.0
 40
5.074999999999989
  0
LINE
  5
1C6
330
1F
100
AcDbEntity
  8
0
  6
Continuous
 62
     7
370
    25
100
AcDbLine
 10
123.6316
 20
26.6639879228
 30
0.0
 11
123.143227907
 21
26.5567839175
 31
0.0
  0
SPLINE
  5
1C7
330
1F
100
AcDbEntity
  8
0
  6
Continuous
 62
     7
370
    25
100
AcDbSpline
210
0.0
220
0.0
230
1.0
 70
    24
 71
     3
 72
    10
 73
     6
 74
     0
 42
0.00000001
 43
0.00000001
 40
0.0
 40
0.0
 40
0.0
 40
0.0
 40
0.4053531160021641
 40
0.814880754313758
 40
1.0
 40
1.0
 40
1.0
 40
1.0
 10
123.6316
 20
22.05421569416613
 30
0.0
 10
123.6316
 20
22.6760624982897
 30
0.0
 10
123.6316
 20
23.92616018548524
 30
0.0
 10
123.6316
 20
25.47038079198612
 30
0.0
 10
123.6316
 20
26.38062135520616
 30
0.0
 10
123.6316
 20
26.66398792281257
 30
0.0
  0
LINE
  5
1C8
330
1F
100
AcDbEntity
  8
0
  6
Continuous
 62
     7
370
    25
100
AcDbLine
 10
123.143227907
 20
22.1614196995
 30
0.0
 11
123.6316
 21
22.0542156942
 31
0.0
  0
LINE
  5
1C9
330
1F
100
AcDbEntity
  8
0
  6
Continuous
 62
     7
370
    25
100
AcDbLine
 10
103.119972093
 20
22.1614196995
 30
0.0
 11
102.6316
 21
22.0542156942
 31
0.0
  0
SPLINE
  5
1CA
330
1F
100
AcDbEntity
  8
0
  6
Continuous
 62
     7
370
    25
100
AcDbSpline
210
0.0
220
0.0
230
1.0
 70
    24
 71
     3
 72
    10
 73
     6
 74
     0
 42
0.00000001
 43
0.00000001
 40
0.0
 40
0.0
 40
0.0
 40
0.0
 40
0.1851192069214107
 40
0.5904327338990519
 40
1.0
 40
1.0
 40
1.0
 40
1.0
 10
102.6316
 20
26.66398792281244
 30
0.0
 10
102.6316
 20
26.38062118804686
 30
0.0
 10
102.6316
 20
25.47683060528623
 30
0.0
 10
102.6316
 20
23.93271307377312
 30
0.0
 10
102.6316
 20
22.68255679069156
 30
0.0
 10
102.6316
 20
22.05421569416599
 30
0.0
  0
LINE
  5
1CB
330
1F
100
AcDbEntity
  8
0
  6
Continuous
 62
     7
370
    25
100
AcDbLine
 10
102.6316
 20
26.6639879228
 30
0.0
 11
103.119972093
 21
26.5567839175
 31
0.0
  0
LINE
  5
1CC
330
1F
100
AcDbEntity
  8
0
  6
Continuous
 62
     7
370
    25
100
AcDbLine
 10
110.0290345824
 20
14.5899366533
 30
0.0
 11
109.8776899278
 21
14.1133920116
 31
0.0
  0
SPLINE
  5
1CD
330
1F
100
AcDbEntity
  8
0
  6
Continuous
 62
     7
370
    25
100
AcDbSpline
210
0.0
220
0.0
230
1.0
 70
    24
 71
     3
 72
    10
 73
     6
 74
     0
 42
0.00000001
 43
0.00000001
 40
0.0
 40
0.0
 40
0.0
 40
0.0
 40
0.295875640326593
 40
0.5933360076831717
 40
0.9999999999999999
 40
0.9999999999999999
 40
0.9999999999999999
 40
0.9999999999999999
 10
105.8855100721661
 20
16.4182781259142
 30
0.0
 10
106.2781724820198
 20
16.19157437788454
 30
0.0
 10
107.0656004242886
 20
15.73695264344823
 30
0.0
 10
108.4018402655258
 20
14.96547421140804
 30
0.0
 10
109.3373755514198
 20
14.42534266226072
 30
0.0
 10
109.877689927834
 20
14.113392011591
 30
0.0
  0
LINE
  5
1CE
330
1F
100
AcDbEntity
  8
0
  6
Continuous
 62
     7
370
    25
100
AcDbLine
 10
106.2225375107
 20
16.7876187623
 30
0.0
 11
105.8855100722
 21
16.4182781259
 31
0.0
  0
SPLINE
  5
1CF
330
1F
100
AcDbEntity
  8
0
  6
Continuous
 62
     7
370
    25
100
AcDbSpline
210
0.0
220
0.0
230
1.0
 70
    24
 71
     3
 72
    10
 73
     6
 74
     0
 42
0.00000001
 43
0.00000001
 40
0.0
 40
0.0
 40
0.0
 40
0.0
 40
0.2958756403265932
 40
0.5933360076831716
 40
0.9999999999999999
 40
0.9999999999999999
 40
0.9999999999999999
 40
0.9999999999999999
 10
109.8776899278339
 20
34.60481160538745
 30
0.0
 10
109.4850275179802
 20
34.37810785735779
 30
0.0
 10
108.6975995757114
 20
33.92348612292147
 30
0.0
 10
107.3613597344742
 20
33.15200769088127
 30
0.0
 10
106.4258244485802
 20
32.61187614173396
 30
0.0
 10
105.8855100721661
 20
32.29992549106423
 30
0.0
  0
LINE
  5
1D0
330
1F
100
AcDbEntity
  8
0
  6
Continuous
 62
     7
370
    25
100
AcDbLine
 10
109.8776899278
 20
34.6048116054
 30
0.0
 11
110.0290345824
 21
34.1282669637
 31
0.0
  0
LINE
  5
1D1
330
1F
100
AcDbEntity
  8
0
  6
Continuous
 62
     7
370
    25
100
AcDbLine
 10
105.8855100722
 20
32.2999254911
 30
0.0
 11
106.2225375107
 21
31.9305848547
 31
0.0
  0
SPLINE
  5
1D2
330
1F
100
AcDbEntity
  8
0
  6
Continuous
 62
     7
370
    25
100
AcDbSpline
210
0.0
220
0.0
230
1.0
 70
    24
 71
     3
 72
    10
 73
     6
 74
     0
 42
0.00000001
 43
0.00000001
 40
0.0
 40
0.0
 40
0.0
 40
0.0
 40
0.2958756403266054
 40
0.5933360076831963
 40
1.0
 40
1.0
 40
1.0
 40
1.0
 10
120.3776899278337
 20
32.29992549106441
 30
0.0
 10
119.98502751798
 20
32.52662923909406
 30
0.0
 10
119.1975995757113
 20
32.98125097353035
 30
0.0
 10
117.8613597344742
 20
33.75272940557048
 30
0.0
 10
116.9258244485803
 20
34.29286095471774
 30
0.0
 10
116.3855100721662
 20
34.60481160538741
 30
0.0
  0
LINE
  5
1D3
330
1F
100
AcDbEntity
  8
0
  6
Continuous
 62
     7
370
    25
100
AcDbLine
 10
120.3776899278
 20
32.2999254911
 30
0.0
 11
120.0406624893
 21
31.9305848547
 31
0.0
  0
LINE
  5
1D4
330
1F
100
AcDbEntity
  8
0
  6
Continuous
 62
     7
370
    25
100
AcDbLine
 10
116.3855100722
 20
34.6048116054
 30
0.0
 11
116.2341654176
 21
34.1282669637
 31
0.0
  0
LINE
  5
1D5
330
1F
100
AcDbEntity
  8
0
  6
Continuous
 62
     7
370
    25
100
AcDbLine
 10
120.0406624893
 20
16.7876187623
 30
0.0
 11
120.3776899278
 21
16.4182781259
 31
0.0
  0
SPLINE
  5
1D6
330
1F
100
AcDbEntity
  8
0
  6
Continuous
 62
     7
370
    25
100
AcDbSpline
210
0.0
220
0.0
230
1.0
 70
    24
 71
     3
 72
    10
 73
     6
 74
     0
 42
0.00000001
 43
0.00000001
 40
0.0
 40
0.0
 40
0.0
 40
0.0
 40
0.2958756403265932
 40
0.5933360076831715
 40
0.9999999999999999
 40
0.9999999999999999
 40
0.9999999999999999
 40
0.9999999999999999
 10
116.3855100721662
 20
14.11339201159105
 30
0.0
 10
116.7781724820198
 20
14.34009575962071
 30
0.0
 10
117.5656004242886
 20
14.79471749405703
 30
0.0
 10
118.9018402655258
 20
15.56619592609725
 30
0.0
 10
119.8373755514198
 20
16.10632747524457
 30
0.0
 10
120.377689927834
 20
16.4182781259143
 30
0.0
  0
LINE
  5
1D7
330
1F
100
AcDbEntity
  8
0
  6
Continuous
 62
     7
370
    25
100
AcDbLine
 10
116.2341654176
 20
14.5899366533
 30
0.0
 11
116.3855100722
 21
14.1133920116
 31
0.0
  0
ARC
  5
1D8
330
1F
100
AcDbEntity
  8
0
  6
Continuous
 62
     7
370
    25
100
AcDbCircle
 10
113.1316
 20
24.3591018085
 30
0.0
 40
10.75000000000001
100
AcDbArc
 50
192.3807989171
 51
227.6192010829
  0
ARC
  5
1D9
330
1F
100
AcDbEntity
  8
0
  6
Continuous
 62
     7
370
    25
100
AcDbCircle
 10
113.1316
 20
24.3591018085
 30
0.0
 40
10.75000000000001
100
AcDbArc
 50
132.3807989171
 51
167.6192010829
  0
ARC
  5
1DA
330
1F
100
AcDbEntity
  8
0
  6
Continuous
 62
     7
370
    25
100
AcDbCircle
 10
113.1316
 20
24.3591018085
 30
0.0
 40
10.75
100
AcDbArc
 50
252.3807989171
 51
287.6192010829
  0
ARC
  5
1DB
330
1F
100
AcDbEntity
  8
0
  6
Continuous
 62
     7
370
    25
100
AcDbCircle
 10
113.1316
 20
24.3591018085
 30
0.0
 40
10.75
100
AcDbArc
 50
72.3807989171
 51
107.6192010829
  0
ARC
  5
1DC
330
1F
100
AcDbEntity
  8
0
  6
Continuous
 62
     7
370
    25
100
AcDbCircle
 10
113.1316
 20
24.3591018085
 30
0.0
 40
10.74999999999999
100
AcDbArc
 50
12.3807989171
 51
47.6192010829
  0
ARC
  5
1DD
330
1F
100
AcDbEntity
  8
0
  6
Continuous
 62
     7
370
    25
100
AcDbCircle
 10
113.1316
 20
24.3591018085
 30
0.0
 40
10.74999999999999
100
AcDbArc
 50
312.3807989171
 51
347.6192010829
  0
SPLINE
  5
1DE
330
1F
100
AcDbEntity
  8
0
  6
Continuous
 62
     7
370
    25
100
AcDbSpline
210
0.0
220
0.0
230
1.0
 70
    24
 71
     3
 72
     9
 73
     5
 74
     0
 42
0.00000001
 43
0.00000001
 40
0.0
 40
0.0
 40
0.0
 40
0.0
 40
0.4983188677908572
 40
1.0
 40
1.0
 40
1.0
 40
1.0
 10
105.8855100721661
 20
32.29992549106423
 30
0.0
 10
105.3382420512245
 20
31.98396015185471
 30
0.0
 10
104.2400134744745
 20
31.34989758743637
 30
0.0
 10
103.1689382375443
 20
30.73151201107238
 30
0.0
 10
102.6316
 20
30.42127963498029
 30
0.0
  0
SPLINE
  5
1DF
330
1F
100
AcDbEntity
  8
0
  6
Continuous
 62
     7
370
    25
100
AcDbSpline
210
0.0
220
0.0
230
1.0
 70
    24
 71
     3
 72
     9
 73
     5
 74
     0
 42
0.00000001
 43
0.00000001
 40
0.0
 40
0.0
 40
0.0
 40
0.0
 40
0.4985590461262307
 40
1.0
 40
1.0
 40
1.0
 40
1.0
 10
102.6316
 20
30.42127963498029
 30
0.0
 10
102.6316
 20
29.80469781071602
 30
0.0
 10
102.6316
 20
28.56797002680543
 30
0.0
 10
102.6316
 20
27.29986680963885
 30
0.0
 10
102.6316
 20
26.66398792281244
 30
0.0
  0
SPLINE
  5
1E0
330
1F
100
AcDbEntity
  8
0
  6
Continuous
 62
     7
370
    25
100
AcDbSpline
210
0.0
220
0.0
230
1.0
 70
    24
 71
     3
 72
     9
 73
     5
 74
     0
 42
0.00000001
 43
0.00000001
 40
0.0
 40
0.0
 40
0.0
 40
0.0
 40
0.6527080222302645
 40
1.0
 40
1.0
 40
1.0
 40
1.0
 10
102.6316
 20
22.05421569416599
 30
0.0
 10
102.6316
 20
21.22726886211349
 30
0.0
 10
102.6316
 20
19.960321308402
 30
0.0
 10
102.6316
 20
18.72569855858246
 30
0.0
 10
102.6316
 20
18.29692398199811
 30
0.0
  0
SPLINE
  5
1E1
330
1F
100
AcDbEntity
  8
0
  6
Continuous
 62
     7
370
    25
100
AcDbSpline
210
0.0
220
0.0
230
1.0
 70
    24
 71
     3
 72
     9
 73
     5
 74
     0
 42
0.00000001
 43
0.00000001
 40
0.0
 40
0.0
 40
0.0
 40
0.0
 40
0.4985590461262297
 40
1.0
 40
1.0
 40
1.0
 40
1.0
 10
102.6316
 20
18.29692398199811
 30
0.0
 10
103.1655755233246
 20
17.98863306986598
 30
0.0
 10
104.2366132017572
 20
17.37026917791069
 30
0.0
 10
105.3348228024443
 20
16.7362175693274
 30
0.0
 10
105.8855100721661
 20
16.4182781259142
 30
0.0
  0
SPLINE
  5
1E2
330
1F
100
AcDbEntity
  8
0
  6
Continuous
 62
     7
370
    25
100
AcDbSpline
210
0.0
220
0.0
230
1.0
 70
    24
 71
     3
 72
     9
 73
     5
 74
     0
 42
0.00000001
 43
0.00000001
 40
0.0
 40
0.0
 40
0.0
 40
0.0
 40
0.4983188677908566
 40
0.9999999999999999
 40
0.9999999999999999
 40
0.9999999999999999
 40
0.9999999999999999
 10
116.3855100721662
 20
34.60481160538741
 30
0.0
 10
115.8382420512246
 20
34.92077694459694
 30
0.0
 10
114.7400134744746
 20
35.5548395090153
 30
0.0
 10
113.6689382375443
 20
36.17322508537929
 30
0.0
 10
113.1316
 20
36.48345746147139
 30
0.0
  0
SPLINE
  5
1E3
330
1F
100
AcDbEntity
  8
0
  6
Continuous
 62
     7
370
    25
100
AcDbSpline
210
0.0
220
0.0
230
1.0
 70
    24
 71
     3
 72
     9
 73
     5
 74
     0
 42
0.00000001
 43
0.00000001
 40
0.0
 40
0.0
 40
0.0
 40
0.0
 40
0.4985590461262299
 40
1.0
 40
1.0
 40
1.0
 40
1.0
 10
113.1316
 20
36.48345746147139
 30
0.0
 10
112.5976244766754
 20
36.17516654933925
 30
0.0
 10
111.5265867982428
 20
35.55680265738396
 30
0.0
 10
110.4283771975557
 20
34.92275104880066
 30
0.0
 10
109.8776899278339
 20
34.60481160538745
 30
0.0
  0
SPLINE
  5
1E4
330
1F
100
AcDbEntity
  8
0
  6
Continuous
 62
     7
370
    25
100
AcDbSpline
210
0.0
220
0.0
230
1.0
 70
    24
 71
     3
 72
     9
 73
     5
 74
     0
 42
0.00000001
 43
0.00000001
 40
0.0
 40
0.0
 40
0.0
 40
0.0
 40
0.49855904612623
 40
1.0
 40
1.0
 40
1.0
 40
1.0
 10
113.1316000000001
 20
12.23474615550709
 30
0.0
 10
113.6655755233247
 20
12.54303706763923
 30
0.0
 10
114.7366132017573
 20
13.16140095959453
 30
0.0
 10
115.8348228024443
 20
13.79545256817784
 30
0.0
 10
116.3855100721662
 20
14.11339201159105
 30
0.0
  0
SPLINE
  5
1E5
330
1F
100
AcDbEntity
  8
0
  6
Continuous
 62
     7
370
    25
100
AcDbSpline
210
0.0
220
0.0
230
1.0
 70
    24
 71
     3
 72
     9
 73
     5
 74
     0
 42
0.00000001
 43
0.00000001
 40
0.0
 40
0.0
 40
0.0
 40
0.0
 40
0.4983188677908571
 40
1.0
 40
1.0
 40
1.0
 40
1.0
 10
109.877689927834
 20
14.113392011591
 30
0.0
 10
110.4249579487756
 20
13.79742667238149
 30
0.0
 10
111.5231865255256
 20
13.16336410796316
 30
0.0
 10
112.5942617624558
 20
12.54497853159917
 30
0.0
 10
113.1316000000001
 20
12.23474615550709
 30
0.0
  0
SPLINE
  5
1E6
330
1F
100
AcDbEntity
  8
0
  6
Continuous
 62
     7
370
    25
100
AcDbSpline
210
0.0
220
0.0
230
1.0
 70
    24
 71
     3
 72
     9
 73
     5
 74
     0
 42
0.00000001
 43
0.00000001
 40
0.0
 40
0.0
 40
0.0
 40
0.0
 40
0.347291977838205
 40
1.0
 40
1.0
 40
1.0
 40
1.0
 10
123.6316
 20
18.29692398199826
 30
0.0
 10
123.6316
 20
18.72569855866746
 30
0.0
 10
123.6316
 20
19.96032130848797
 30
0.0
 10
123.6316
 20
21.22726886220002
 30
0.0
 10
123.6316
 20
22.05421569416613
 30
0.0
  0
SPLINE
  5
1E7
330
1F
100
AcDbEntity
  8
0
  6
Continuous
 62
     7
370
    25
100
AcDbSpline
210
0.0
220
0.0
230
1.0
 70
    24
 71
     3
 72
     9
 73
     5
 74
     0
 42
0.00000001
 43
0.00000001
 40
0.0
 40
0.0
 40
0.0
 40
0.0
 40
0.4983188677908569
 40
1.0
 40
1.0
 40
1.0
 40
1.0
 10
120.377689927834
 20
16.4182781259143
 30
0.0
 10
120.9249579487756
 20
16.73424346512382
 30
0.0
 10
122.0231865255256
 20
17.36830602954218
 30
0.0
 10
123.0942617624557
 20
17.98669160590617
 30
0.0
 10
123.6316
 20
18.29692398199826
 30
0.0
  0
SPLINE
  5
1E8
330
1F
100
AcDbEntity
  8
0
  6
Continuous
 62
     7
370
    25
100
AcDbSpline
210
0.0
220
0.0
230
1.0
 70
    24
 71
     3
 72
     9
 73
     5
 74
     0
 42
0.00000001
 43
0.00000001
 40
0.0
 40
0.0
 40
0.0
 40
0.0
 40
0.4983188677908569
 40
1.0
 40
1.0
 40
1.0
 40
1.0
 10
123.6316
 20
26.66398792281257
 30
0.0
 10
123.6315999999999
 20
27.2959186012316
 30
0.0
 10
123.6315999999999
 20
28.56404373006829
 30
0.0
 10
123.6315999999999
 20
29.80081488279626
 30
0.0
 10
123.6315999999999
 20
30.42127963498044
 30
0.0
  0
SPLINE
  5
1E9
330
1F
100
AcDbEntity
  8
0
  6
Continuous
 62
     7
370
    25
100
AcDbSpline
210
0.0
220
0.0
230
1.0
 70
    24
 71
     3
 72
     9
 73
     5
 74
     0
 42
0.00000001
 43
0.00000001
 40
0.0
 40
0.0
 40
0.0
 40
0.0
 40
0.4985590461262295
 40
1.0
 40
1.0
 40
1.0
 40
1.0
 10
123.6315999999999
 20
30.42127963498044
 30
0.0
 10
123.0976244766753
 20
30.72957054711258
 30
0.0
 10
122.0265867982426
 20
31.34793443906789
 30
0.0
 10
120.9283771975556
 20
31.9819860476512
 30
0.0
 10
120.3776899278337
 20
32.29992549106441
 30
0.0
  0
SPLINE
  5
1EA
330
1F
100
AcDbEntity
  8
0
  6
Continuous
 62
     7
370
    25
100
AcDbSpline
210
0.0
220
0.0
230
1.0
 70
     8
 71
     3
 72
    10
 73
     6
 74
     0
 42
0.00000001
 43
0.00000001
 40
0.0
 40
0.0
 40
0.0
 40
0.0
 40
0.2958756403266055
 40
0.5933360076831964
 40
1.0
 40
1.0
 40
1.0
 40
1.0
 10
105.8855100721663
 20
52.14962632894589
 30
0.0
 10
106.2781724820199
 20
52.19621103981802
 30
0.0
 10
107.0656004242887
 20
52.28962997196608
 30
0.0
 10
108.4018402655258
 20
52.31273513564611
 30
0.0
 10
109.3373755514197
 20
52.20934110574914
 30
0.0
 10
109.8776899278338
 20
52.14962632894589
 30
0.0
  0
SPLINE
  5
1EB
330
1F
100
AcDbEntity
  8
0
  6
Continuous
 62
     7
370
    25
100
AcDbSpline
210
0.0
220
0.0
230
1.0
 70
     8
 71
     3
 72
     9
 73
     5
 74
     0
 42
0.00000001
 43
0.00000001
 40
0.0
 40
0.0
 40
0.0
 40
0.0
 40
0.4983188677908567
 40
1.0
 40
1.0
 40
1.0
 40
1.0
 10
109.8776899278338
 20
52.14962632894589
 30
0.0
 10
110.4249579487754
 20
52.05488124870667
 30
0.0
 10
111.5231865255254
 20
51.8647518228247
 30
0.0
 10
112.5942617624557
 20
51.52605801547686
 30
0.0
 10
113.1316
 20
51.35614172273436
 30
0.0
  0
LINE
  5
1EC
330
1F
100
AcDbEntity
  8
0
  6
Continuous
 62
     7
370
    25
100
AcDbLine
 10
113.1316
 20
51.3561417227
 30
0.0
 11
113.1316
 21
40.0204612043
 31
0.0
  0
SPLINE
  5
1ED
330
1F
100
AcDbEntity
  8
0
  6
Continuous
 62
     7
370
    25
100
AcDbSpline
210
0.0
220
0.0
230
1.0
 70
     8
 71
     3
 72
    15
 73
    11
 74
     0
 42
0.00000001
 43
0.00000001
 40
0.0
 40
0.0
 40
0.0
 40
0.0
 40
0.1323060649947156
 40
0.2645747216258945
 40
0.3998023269484466
 40
0.5350055300348351
 40
0.6501955637891869
 40
0.7654035659406145
 40
0.8826904433746966
 40
1.0
 40
1.0
 40
1.0
 40
1.0
 10
113.1316
 20
40.02046120434704
 30
0.0
 10
112.6779553756117
 20
39.8776974553198
 30
0.0
 10
111.7707943908194
 20
39.59221032244604
 30
0.0
 10
110.373846455842
 20
39.28503793575553
 30
0.0
 10
108.9505656210611
 20
39.10034522380684
 30
0.0
 10
107.5788468205574
 20
39.06377092347407
 30
0.0
 10
106.2812410927555
 20
39.15867074329999
 30
0.0
 10
105.056627004511
 20
39.35311817896684
 30
0.0
 10
103.8375498415938
 20
39.63834934679132
 30
0.0
 10
103.0336091870402
 20
39.89308237654159
 30
0.0
 10
102.6316
 20
40.02046120434704
 30
0.0
  0
LINE
  5
1EE
330
1F
100
AcDbEntity
  8
0
  6
Continuous
 62
     7
370
    25
100
AcDbLine
 10
102.6316
 20
51.3561417227
 30
0.0
 11
102.6316
 21
40.0204612043
 31
0.0
  0
SPLINE
  5
1EF
330
1F
100
AcDbEntity
  8
0
  6
Continuous
 62
     7
370
    25
100
AcDbSpline
210
0.0
220
0.0
230
1.0
 70
     8
 71
     3
 72
     9
 73
     5
 74
     0
 42
0.00000001
 43
0.00000001
 40
0.0
 40
0.0
 40
0.0
 40
0.0
 40
0.4985590461262294
 40
0.9999999999999999
 40
0.9999999999999999
 40
0.9999999999999999
 40
0.9999999999999999
 10
102.6316
 20
51.35614172273436
 30
0.0
 10
103.1655755233247
 20
51.52505777047997
 30
0.0
 10
104.2366132017573
 20
51.86386628084211
 30
0.0
 10
105.3348228024444
 20
52.05419014763588
 30
0.0
 10
105.8855100721663
 20
52.14962632894589
 30
0.0
  0
SPLINE
  5
1F0
330
1F
100
AcDbEntity
  8
0
  6
Continuous
 62
     7
370
    25
100
AcDbSpline
210
0.0
220
0.0
230
1.0
 70
     8
 71
     3
 72
    15
 73
    11
 74
     0
 42
0.00000001
 43
0.00000001
 40
0.0
 40
0.0
 40
0.0
 40
0.0
 40
0.1323060649947138
 40
0.2645747216258911
 40
0.3998023269484415
 40
0.5350055300348282
 40
0.6501955637891815
 40
0.7654035659406109
 40
0.8826904433746946
 40
1.0
 40
1.0
 40
1.0
 40
1.0
 10
123.6316
 20
40.02046120434704
 30
0.0
 10
123.1779553756117
 20
39.8776974553198
 30
0.0
 10
122.2707943908194
 20
39.59221032244603
 30
0.0
 10
120.8738464558421
 20
39.28503793575553
 30
0.0
 10
119.4505656210611
 20
39.10034522380682
 30
0.0
 10
118.0788468205575
 20
39.06377092347405
 30
0.0
 10
116.7812410927556
 20
39.15867074329996
 30
0.0
 10
115.556627004511
 20
39.35311817896681
 30
0.0
 10
114.3375498415937
 20
39.6383493467913
 30
0.0
 10
113.5336091870402
 20
39.89308237654159
 30
0.0
 10
113.1316
 20
40.02046120434704
 30
0.0
  0
SPLINE
  5
1F1
330
1F
100
AcDbEntity
  8
0
  6
Continuous
 62
     7
370
    25
100
AcDbSpline
210
0.0
220
0.0
230
1.0
 70
    24
 71
     3
 72
    10
 73
     6
 74
     0
 42
0.00000001
 43
0.00000001
 40
0.0
 40
0.0
 40
0.0
 40
0.0
 40
0.247090193501433
 40
0.6215192471436838
 40
1.0
 40
1.0
 40
1.0
 40
1.0
 10
123.6316
 20
39.08585203668994
 30
0.0
 10
123.6316
 20
39.09753914756138
 30
0.0
 10
123.6316
 20
39.1269363658288
 30
0.0
 10
123.6316
 20
39.42674615723186
 30
0.0
 10
123.6316
 20
39.82184745761187
 30
0.0
 10
123.6316
 20
40.02046120434704
 30
0.0
  0
SPLINE
  5
1F2
330
1F
100
AcDbEntity
  8
0
  6
Continuous
 62
     7
370
    25
100
AcDbSpline
210
0.0
220
0.0
230
1.0
 70
    24
 71
     3
 72
    10
 73
     6
 74
     0
 42
0.00000001
 43
0.00000001
 40
0.0
 40
0.0
 40
0.0
 40
0.0
 40
0.3747486647006368
 40
0.7529065649865443
 40
0.9999999999999999
 40
0.9999999999999999
 40
0.9999999999999999
 40
0.9999999999999999
 10
102.6316
 20
40.02046120434704
 30
0.0
 10
102.6316
 20
39.8235999470819
 30
0.0
 10
102.6316
 20
39.42808650848209
 30
0.0
 10
102.6316
 20
39.12785689514651
 30
0.0
 10
102.6316
 20
39.09653928952942
 30
0.0
 10
102.6316
 20
39.08416286694311
 30
0.0
  0
LINE
  5
1F3
330
1F
100
AcDbEntity
  8
0
  6
Continuous
 62
     7
370
    25
100
AcDbLine
 10
123.3816
 20
38.9383014635
 30
0.0
 11
102.8816
 21
38.9383014635
 31
0.0
  0
LINE
  5
1F4
330
1F
100
AcDbEntity
  8
0
  6
Continuous
 62
     7
370
    25
100
AcDbLine
 10
116.3855100722
 20
52.1496263289
 30
0.0
 11
109.8776899278
 21
52.1496263289
 31
0.0
  0
SPLINE
  5
1F5
330
1F
100
AcDbEntity
  8
0
  6
Continuous
 62
     7
370
    25
100
AcDbSpline
210
0.0
220
0.0
230
1.0
 70
     8
 71
     3
 72
     9
 73
     5
 74
     0
 42
0.00000001
 43
0.00000001
 40
0.0
 40
0.0
 40
0.0
 40
0.0
 40
0.49855904612623
 40
1.0
 40
1.0
 40
1.0
 40
1.0
 10
113.1316
 20
51.35614172273437
 30
0.0
 10
113.6655755233246
 20
51.52505777047998
 30
0.0
 10
114.7366132017572
 20
51.86386628084211
 30
0.0
 10
115.8348228024442
 20
52.05419014763589
 30
0.0
 10
116.3855100721661
 20
52.14962632894589
 30
0.0
  0
SPLINE
  5
1F6
330
1F
100
AcDbEntity
  8
0
  6
Continuous
 62
     7
370
    25
100
AcDbSpline
210
0.0
220
0.0
230
1.0
 70
     8
 71
     3
 72
    10
 73
     6
 74
     0
 42
0.00000001
 43
0.00000001
 40
0.0
 40
0.0
 40
0.0
 40
0.0
 40
0.2958756403265934
 40
0.5933360076831719
 40
1.0
 40
1.0
 40
1.0
 40
1.0
 10
116.3855100721661
 20
52.14962632894589
 30
0.0
 10
116.7781724820198
 20
52.19621103981802
 30
0.0
 10
117.5656004242885
 20
52.2896299719661
 30
0.0
 10
118.9018402655257
 20
52.31273513564613
 30
0.0
 10
119.8373755514198
 20
52.20934110574915
 30
0.0
 10
120.3776899278339
 20
52.14962632894589
 30
0.0
  0
SPLINE
  5
1F7
330
1F
100
AcDbEntity
  8
0
  6
Continuous
 62
     7
370
    25
100
AcDbSpline
210
0.0
220
0.0
230
1.0
 70
     8
 71
     3
 72
     9
 73
     5
 74
     0
 42
0.00000001
 43
0.00000001
 40
0.0
 40
0.0
 40
0.0
 40
0.0
 40
0.4983188677908569
 40
1.0
 40
1.0
 40
1.0
 40
1.0
 10
120.3776899278339
 20
52.14962632894589
 30
0.0
 10
120.9249579487755
 20
52.05488124870666
 30
0.0
 10
122.0231865255255
 20
51.86475182282467
 30
0.0
 10
123.0942617624557
 20
51.52605801547686
 30
0.0
 10
123.6316
 20
51.35614172273436
 30
0.0
  0
LINE
  5
1F8
330
1F
100
AcDbEntity
  8
0
  6
Continuous
 62
     7
370
    25
100
AcDbLine
 10
123.6316
 20
51.3561417227
 30
0.0
 11
123.6316
 21
40.0204612043
 31
0.0
  0
ARC
  5
1F9
330
1F
100
AcDbEntity
  8
0
  6
Continuous
 62
     7
370
    25
100
AcDbCircle
 10
107.9659775825
 20
52.9299499127
 30
0.0
 40
2.064836309838032
100
AcDbArc
 50
337.7956780275
 51
2.378766539
  0
LINE
  5
1FA
330
1F
100
AcDbEntity
  8
0
  6
Continuous
 62
     7
370
    25
100
AcDbLine
 10
110.0290345824
 20
53.0156517327
 30
0.0
 11
116.2341654176
 21
53.0156517327
 31
0.0
  0
ARC
  5
1FB
330
1F
100
AcDbEntity
  8
0
  6
Continuous
 62
     7
370
    25
100
AcDbCircle
 10
118.2972224174
 20
52.9299499127
 30
0.0
 40
2.064836309822529
100
AcDbArc
 50
177.6212334609
 51
202.2043219726
  0
LINE
  5
1FC
330
1F
100
AcDbEntity
  8
0
  6
Continuous
 62
     7
370
    25
100
AcDbLine
 10
103.0816
 20
53.9383014635
 30
0.0
 11
123.1816
 21
53.9383014635
 31
0.0
  0
LINE
  5
1FD
330
1F
100
AcDbEntity
  8
0
  6
Continuous
 62
     7
370
    25
100
AcDbLine
 10
123.3816
 20
53.7383014635
 30
0.0
 11
102.8816
 21
53.7383014635
 31
0.0
  0
LINE
  5
1FE
330
1F
100
AcDbEntity
  8
0
  6
Continuous
 62
     7
370
    25
100
AcDbLine
 10
120.0406624893
 20
53.0156517327
 30
0.0
 11
123.143227907
 21
53.0156517327
 31
0.0
  0
SPLINE
  5
1FF
330
1F
100
AcDbEntity
  8
0
  6
Continuous
 62
     7
370
    25
100
AcDbSpline
210
0.0
220
0.0
230
1.0
 70
     8
 71
     3
 72
    11
 73
     7
 74
     0
 42
0.00000001
 43
0.00000001
 40
0.0
 40
0.0
 40
0.0
 40
0.0
 40
0.2730181757485959
 40
0.5498580878450514
 40
0.7738734731546514
 40
1.0
 40
1.0
 40
1.0
 40
1.0
 10
116.2341654176467
 20
53.01565173273033
 30
0.0
 10
116.6142775288933
 20
53.00431351201286
 30
0.0
 10
117.3798225995966
 20
52.98147835700467
 30
0.0
 10
118.3893347460468
 20
52.94031555671093
 30
0.0
 10
119.2841280623674
 20
52.99330049628234
 30
0.0
 10
119.7876971096934
 20
53.00817806225097
 30
0.0
 10
120.04066248933
 20
53.01565173273033
 30
0.0
  0
SPLINE
  5
200
330
1F
100
AcDbEntity
  8
0
  6
Continuous
 62
     7
370
    25
100
AcDbSpline
210
0.0
220
0.0
230
1.0
 70
     8
 71
     3
 72
    11
 73
     7
 74
     0
 42
0.00000001
 43
0.00000001
 40
0.0
 40
0.0
 40
0.0
 40
0.0
 40
0.2730181757486326
 40
0.5498580878451259
 40
0.7738734731546894
 40
1.0
 40
1.0
 40
1.0
 40
1.0
 10
106.2225375106702
 20
53.01565173273033
 30
0.0
 10
106.5295142257932
 20
53.00431351201286
 30
0.0
 10
107.1477647474946
 20
52.98147835700466
 30
0.0
 10
108.1230000238077
 20
52.94031555671097
 30
0.0
 10
109.0856554330033
 20
52.99330049628234
 30
0.0
 10
109.713593201034
 20
53.00817806225097
 30
0.0
 10
110.0290345823531
 20
53.01565173273033
 30
0.0
  0
LINE
  5
201
330
1F
100
AcDbEntity
  8
0
  6
Continuous
 62
     7
370
    25
100
AcDbLine
 10
103.119972093
 20
53.0156517327
 30
0.0
 11
106.2225375107
 21
53.0156517327
 31
0.0
  0
ARC
  5
202
330
1F
100
AcDbEntity
  8
0
  6
Continuous
 62
     7
370
    25
100
AcDbCircle
 10
121.1895627505
 20
52.9641719091
 30
0.0
 40
1.150053034581384
100
AcDbArc
 50
177.4344117638
 51
225.0941563294
  0
ARC
  5
203
330
1F
100
AcDbEntity
  8
0
  6
Continuous
 62
     7
370
    25
100
AcDbCircle
 10
105.0736372495
 20
52.9641719091
 30
0.0
 40
1.150053034573078
100
AcDbArc
 50
314.9058436705
 51
2.5655882364
  0
SPLINE
  5
204
330
1F
100
AcDbEntity
  8
0
  6
Continuous
 62
     7
370
    25
100
AcDbSpline
210
0.0
220
0.0
230
1.0
 70
    24
 71
     3
 72
     9
 73
     5
 74
     0
 42
0.00000001
 43
0.00000001
 40
0.0
 40
0.0
 40
0.0
 40
0.0
 40
0.4983188677908569
 40
0.9999999999999999
 40
0.9999999999999999
 40
0.9999999999999999
 40
0.9999999999999999
 10
102.6316
 20
52.1496263289459
 30
0.0
 10
102.6316
 20
52.05488124870666
 30
0.0
 10
102.6316
 20
51.86475182282467
 30
0.0
 10
102.6316
 20
51.52605801547685
 30
0.0
 10
102.6316
 20
51.35614172273436
 30
0.0
  0
LINE
  5
205
330
1F
100
AcDbEntity
  8
0
  6
Continuous
 62
     7
370
    25
100
AcDbLine
 10
105.8855100722
 20
52.1496263289
 30
0.0
 11
102.6316
 21
52.1496263289
 31
0.0
  0
ARC
  5
206
330
1F
100
AcDbEntity
  8
0
  6
Continuous
 62
     7
370
    25
100
AcDbCircle
 10
102.1156199367
 20
53.0113145783
 30
0.0
 40
1.004361520936642
100
AcDbArc
 50
300.9132304404
 51
0.2474222794
  0
LINE
  5
207
330
1F
100
AcDbEntity
  8
0
  6
Continuous
 62
     7
370
    25
100
AcDbLine
 10
123.6316
 20
52.1496263289
 30
0.0
 11
120.3776899278
 21
52.1496263289
 31
0.0
  0
ARC
  5
208
330
1F
100
AcDbEntity
  8
0
  6
Continuous
 62
     7
370
    25
100
AcDbCircle
 10
124.1475800633
 20
53.0113145783
 30
0.0
 40
1.004361520936869
100
AcDbArc
 50
179.7525777206
 51
239.0867695596
  0
SPLINE
  5
209
330
1F
100
AcDbEntity
  8
0
  6
Continuous
 62
     7
370
    25
100
AcDbSpline
210
0.0
220
0.0
230
1.0
 70
    24
 71
     3
 72
     9
 73
     5
 74
     0
 42
0.00000001
 43
0.00000001
 40
0.0
 40
0.0
 40
0.0
 40
0.0
 40
0.4985590461262311
 40
1.0
 40
1.0
 40
1.0
 40
1.0
 10
123.6316
 20
51.35614172273436
 30
0.0
 10
123.6316
 20
51.52505777047996
 30
0.0
 10
123.6316
 20
51.86386628084211
 30
0.0
 10
123.6316
 20
52.05419014763591
 30
0.0
 10
123.6316
 20
52.14962632894594
 30
0.0
  0
SPLINE
  5
20A
330
1F
100
AcDbEntity
  8
0
  6
Continuous
 62
     7
370
    25
100
AcDbSpline
210
0.0
220
0.0
230
1.0
 70
    24
 71
     3
 72
     9
 73
     5
 74
     0
 42
0.00000001
 43
0.00000001
 40
0.0
 40
0.0
 40
0.0
 40
0.0
 40
0.6511912908528834
 40
1.0
 40
1.0
 40
1.0
 40
1.0
 10
102.6316
 20
52.28049878809323
 30
0.0
 10
102.6316
 20
52.27841202510482
 30
0.0
 10
102.6316
 20
52.27520749362885
 30
0.0
 10
102.6316
 20
52.18210224910359
 30
0.0
 10
102.6316
 20
52.1496263289459
 30
0.0
  0
SPLINE
  5
20B
330
1F
100
AcDbEntity
  8
0
  6
Continuous
 62
     7
370
    25
100
AcDbSpline
210
0.0
220
0.0
230
1.0
 70
    24
 71
     3
 72
     9
 73
     5
 74
     0
 42
0.00000001
 43
0.00000001
 40
0.0
 40
0.0
 40
0.0
 40
0.0
 40
0.3944133048175374
 40
1.0
 40
1.0
 40
1.0
 40
1.0
 10
123.6316
 20
52.14962632894594
 30
0.0
 10
123.6316
 20
52.18254894795136
 30
0.0
 10
123.6316
 20
52.26602133238486
 30
0.0
 10
123.6316
 20
52.27056631499435
 30
0.0
 10
123.6316
 20
52.2733186959925
 30
0.0
  0
CIRCLE
  5
20C
330
1F
100
AcDbEntity
  8
0
  6
Continuous
 62
     7
370
    25
100
AcDbCircle
 10
113.1316
 20
24.3591018085
 30
0.0
 40
5.050000000000016
  0
CIRCLE
  5
20D
330
1F
100
AcDbEntity
  8
0
  6
Continuous
 62
     7
370
    25
100
AcDbCircle
 10
113.1316
 20
24.3591018085
 30
0.0
 40
3.999999999999986
  0
LINE
  5
20E
330
1F
100
AcDbEntity
  8
0
  6
Continuous
 62
     7
370
    25
100
AcDbLine
 10
104.8006
 20
36.6103268087
 30
0.0
 11
121.4626
 21
36.6103268087
 31
0.0
  0
LINE
  5
20F
330
1F
100
AcDbEntity
  8
0
  6
Continuous
 62
     7
370
    25
100
AcDbLine
 10
106.1316
 20
31.8591018085
 30
0.0
 11
106.1414540288
 21
31.8352295858
 31
0.0
  0
SPLINE
  5
210
330
1F
100
AcDbEntity
  8
0
  6
Continuous
 62
     7
370
    25
100
AcDbSpline
210
0.0
220
0.0
230
1.0
 70
     8
 71
     3
 72
     9
 73
     5
 74
     0
 42
0.00000001
 43
0.00000001
 40
0.0
 40
0.0
 40
0.0
 40
0.0
 40
0.546075527101121
 40
1.0
 40
1.0
 40
1.0
 40
1.0
 10
123.1432279069767
 20
53.01565173273033
 30
0.0
 10
123.2192619462081
 20
53.00263454773182
 30
0.0
 10
123.358499167907
 20
52.97879684698808
 30
0.0
 10
123.3669337487934
 20
52.96654896433358
 30
0.0
 10
123.3707624114764
 20
52.9609893506555
 30
0.0
  0
SPLINE
  5
211
330
1F
100
AcDbEntity
  8
0
  6
Continuous
 62
     7
370
    25
100
AcDbSpline
210
0.0
220
0.0
230
1.0
 70
     8
 71
     3
 72
    10
 73
     6
 74
     0
 42
0.00000001
 43
0.00000001
 40
0.0
 40
0.0
 40
0.0
 40
0.0
 40
0.0997807577392202
 40
0.5477793887774386
 40
1.0
 40
1.0
 40
1.0
 40
1.0
 10
102.8924375885314
 20
52.96098935065977
 30
0.0
 10
102.8889925545522
 20
52.95920042640871
 30
0.0
 10
102.8700799039552
 20
52.94937953653957
 30
0.0
 10
102.9392440926905
 20
52.99609412475057
 30
0.0
 10
103.0595413636529
 20
53.00911217874435
 30
0.0
 10
103.1199720930233
 20
53.01565173273033
 30
0.0
  0
LINE
  5
212
330
1F
100
AcDbEntity
  8
0
  6
Continuous
 62
     7
370
    25
100
AcDbLine
 10
105.3316
 20
36.3894079628
 30
0.0
 11
112.9679770741
 21
36.3894079628
 31
0.0
  0
LINE
  5
213
330
1F
100
AcDbEntity
  8
0
  6
Continuous
 62
     7
370
    25
100
AcDbLine
 10
113.2959925187
 20
36.3894079628
 30
0.0
 11
120.9316
 21
36.3894079628
 31
0.0
  0
LINE
  5
214
330
1F
100
AcDbEntity
  8
0
  6
Continuous
 62
     7
370
    25
100
AcDbLine
 10
120.1316
 20
35.4096120657
 30
0.0
 11
114.992602469
 21
35.4096120657
 31
0.0
  0
LINE
  5
215
330
1F
100
AcDbEntity
  8
0
  6
Continuous
 62
     7
370
    25
100
AcDbLine
 10
111.2601926182
 20
35.4096120657
 30
0.0
 11
106.1316
 21
35.4096120657
 31
0.0
  0
INSERT
  5
221
330
1F
100
AcDbEntity
  8
0
  6
Continuous
 62
     7
370
    18
100
AcDbBlockReference
  2
SW_CENTERMARKSYMBOL_0
 10
113.1316
 20
24.3591018085
 30
0.0
  0
LINE
  5
222
330
1F
100
AcDbEntity
  8
0
  6
Continuous
 62
     7
370
    25
100
AcDbLine
 10
29.54624373
 20
70.9811023332
 30
0.0
 11
29.6905812973
 21
71.2311023332
 31
0.0
  0
LINE
  5
223
330
1F
100
AcDbEntity
  8
0
  6
Continuous
 62
     7
370
    25
100
AcDbLine
 10
29.6905812973
 20
91.7311023332
 30
0.0
 11
29.54624373
 21
91.9811023332
 31
0.0
  0
LINE
  5
224
330
1F
100
AcDbEntity
  8
0
  6
Continuous
 62
     7
370
    25
100
AcDbLine
 10
14.8905812973
 20
71.2311023332
 30
0.0
 11
15.6678934102
 21
71.2311023332
 31
0.0
  0
LINE
  5
225
330
1F
100
AcDbEntity
  8
0
  6
Continuous
 62
     7
370
    25
100
AcDbLine
 10
15.6678934102
 20
91.7311023332
 30
0.0
 11
14.8905812973
 21
91.7311023332
 31
0.0
  0
LINE
  5
226
330
1F
100
AcDbEntity
  8
0
  6
Continuous
 62
     7
370
    25
100
AcDbLine
 10
14.8905812973
 20
91.7311023332
 30
0.0
 11
14.6905812973
 21
91.5311023332
 31
0.0
  0
LINE
  5
227
330
1F
100
AcDbEntity
  8
0
  6
Continuous
 62
     7
370
    25
100
AcDbLine
 10
14.6905812973
 20
71.4311023332
 30
0.0
 11
14.8905812973
 21
71.2311023332
 31
0.0
  0
SPLINE
  5
228
330
1F
100
AcDbEntity
  8
0
  6
Continuous
 62
     7
370
    25
100
AcDbSpline
210
0.0
220
0.0
230
1.0
 70
     8
 71
     3
 72
    12
 73
     8
 74
     0
 42
0.00000001
 43
0.00000001
 40
0.0
 40
0.0
 40
0.0
 40
0.0
 40
0.2612321213055544
 40
0.5173998863701421
 40
0.7474598048368412
 40
0.9501566459087085
 40
1.0
 40
1.0
 40
1.0
 40
1.0
 10
15.66667611520725
 20
71.22932887567502
 30
0.0
 10
15.73243269848057
 20
71.22662840673206
 30
0.0
 10
15.86267108013008
 20
71.22127982127766
 30
0.0
 10
16.04370834833985
 20
71.16492338950277
 30
0.0
 10
16.19507972041458
 20
71.08760544387144
 30
0.0
 10
16.29418786953501
 20
71.017629308164
 30
0.0
 10
16.3328370387655
 20
70.98000426967904
 30
0.0
 10
16.34046514812862
 20
70.97257829095636
 30
0.0
  0
SPLINE
  5
229
330
1F
100
AcDbEntity
  8
0
  6
Continuous
 62
     7
370
    25
100
AcDbSpline
210
0.0
220
0.0
230
1.0
 70
     8
 71
     3
 72
    12
 73
     8
 74
     0
 42
0.00000001
 43
0.00000001
 40
0.0
 40
0.0
 40
0.0
 40
0.0
 40
0.0134989634259016
 40
0.2294144781162221
 40
0.4800810014862375
 40
0.7599934969575303
 40
1.0
 40
1.0
 40
1.0
 40
1.0
 10
16.34435960093393
 20
91.99195547535925
 30
0.0
 10
16.34239886814207
 20
91.98997317993278
 30
0.0
 10
16.3090762732155
 20
91.95628412867839
 30
0.0
 10
16.21015817685193
 20
91.88330856045852
 30
0.0
 10
16.04742279327293
 20
91.79789366505936
 30
0.0
 10
15.85912954659819
 20
91.73886816473826
 30
0.0
 10
15.72754796645724
 20
91.73705089098947
 30
0.0
 10
15.66680689908961
 20
91.73621199585625
 30
0.0
  0
LINE
  5
22A
330
1F
100
AcDbEntity
  8
0
  6
Continuous
 62
     7
370
    25
100
AcDbLine
 10
58.9933181747
 20
91.9811023332
 30
0.0
 11
58.8489806074
 21
91.7311023332
 31
0.0
  0
LINE
  5
22B
330
1F
100
AcDbEntity
  8
0
  6
Continuous
 62
     7
370
    25
100
AcDbLine
 10
58.8489806074
 20
71.2311023332
 30
0.0
 11
58.9933181747
 21
70.9811023332
 31
0.0
  0
LINE
  5
22C
330
1F
100
AcDbEntity
  8
0
  6
Continuous
 62
     7
370
    25
100
AcDbLine
 10
73.6489806074
 20
71.2311023332
 30
0.0
 11
73.8489806074
 21
71.4311023332
 31
0.0
  0
LINE
  5
22D
330
1F
100
AcDbEntity
  8
0
  6
Continuous
 62
     7
370
    25
100
AcDbLine
 10
73.8489806074
 20
91.5311023332
 30
0.0
 11
73.6489806074
 21
91.7311023332
 31
0.0
  0
LINE
  5
22E
330
1F
100
AcDbEntity
  8
0
  6
Continuous
 62
     7
370
    25
100
AcDbLine
 10
73.6489806074
 20
91.7311023332
 30
0.0
 11
72.8716684945
 21
91.7311023332
 31
0.0
  0
LINE
  5
22F
330
1F
100
AcDbEntity
  8
0
  6
Continuous
 62
     7
370
    25
100
AcDbLine
 10
72.8716684946
 20
71.2311023332
 30
0.0
 11
73.6489806074
 21
71.2311023332
 31
0.0
  0
SPLINE
  5
230
330
1F
100
AcDbEntity
  8
0
  6
Continuous
 62
     7
370
    25
100
AcDbSpline
210
0.0
220
0.0
230
1.0
 70
     8
 71
     3
 72
    12
 73
     8
 74
     0
 42
0.00000001
 43
0.00000001
 40
0.0
 40
0.0
 40
0.0
 40
0.0
 40
0.2592549943346382
 40
0.513484124550108
 40
0.7418029894383356
 40
0.9429658590273843
 40
1.0
 40
1.0
 40
1.0
 40
1.0
 10
72.87288578903461
 20
91.73287580230345
 30
0.0
 10
72.80712683522435
 20
91.73557607888003
 30
0.0
 10
72.67688371718816
 20
91.74092428502561
 30
0.0
 10
72.49588052942117
 20
91.79728328772248
 30
0.0
 10
72.34439725468707
 20
91.8745926958313
 30
0.0
 10
72.24400197917
 20
91.9456958026686
 30
0.0
 10
72.20428921557584
 20
91.98446485747473
 30
0.0
 10
72.19551690890849
 20
91.99302870464079
 30
0.0
  0
SPLINE
  5
231
330
1F
100
AcDbEntity
  8
0
  6
Continuous
 62
     7
370
    25
100
AcDbSpline
210
0.0
220
0.0
230
1.0
 70
     8
 71
     3
 72
    12
 73
     8
 74
     0
 42
0.00000001
 43
0.00000001
 40
0.0
 40
0.0
 40
0.0
 40
0.0
 40
0.0060950048689111
 40
0.2236310242307897
 40
0.4761788680020788
 40
0.7581921828359932
 40
1.0
 40
1.0
 40
1.0
 40
1.0
 10
72.1984750250267
 20
70.97353322367992
 30
0.0
 10
72.19935759065682
 20
70.97442192264761
 30
0.0
 10
72.23173969043475
 20
71.00702905990994
 30
0.0
 10
72.3295524215903
 20
71.0789087237172
 30
0.0
 10
72.49209127652759
 20
71.16430694223565
 30
0.0
 10
72.68044281171746
 20
71.22333738876002
 30
0.0
 10
72.8120172398362
 20
71.22515405561111
 30
0.0
 10
72.87275500567748
 20
71.22599267058662
 30
0.0
  0
LINE
  5
232
330
1F
100
AcDbEntity
  8
0
  6
Continuous
 62
     7
370
    25
100
AcDbLine
 10
58.8489806074
 20
89.8121023332
 30
0.0
 11
56.5210059526
 21
89.8121023332
 31
0.0
  0
LINE
  5
233
330
1F
100
AcDbEntity
  8
0
  6
Continuous
 62
     7
370
    25
100
AcDbLine
 10
56.5210059526
 20
73.1501023332
 30
0.0
 11
58.8489806074
 21
73.1501023332
 31
0.0
  0
LINE
  5
234
330
1F
100
AcDbEntity
  8
0
  6
Continuous
 62
     7
370
    25
100
AcDbLine
 10
29.6905812973
 20
73.1501023332
 30
0.0
 11
32.0185559521
 21
73.1501023332
 31
0.0
  0
LINE
  5
235
330
1F
100
AcDbEntity
  8
0
  6
Continuous
 62
     7
370
    25
100
AcDbLine
 10
32.0185559521
 20
89.8121023332
 30
0.0
 11
29.6905812973
 21
89.8121023332
 31
0.0
  0
ARC
  5
236
330
1F
100
AcDbEntity
  8
0
  6
Continuous
 62
     7
370
    25
100
AcDbCircle
 10
30.7697809524
 20
88.9811023332
 30
0.0
 40
1.499999999999998
100
AcDbArc
 50
11.5369590328
 51
33.6418648557
  0
ARC
  5
237
330
1F
100
AcDbEntity
  8
0
  6
Continuous
 62
     7
370
    25
100
AcDbCircle
 10
30.7697809524
 20
73.9811023332
 30
0.0
 40
1.500000000000004
100
AcDbArc
 50
326.3581351443
 51
348.4630409672
  0
ARC
  5
238
330
1F
100
AcDbEntity
  8
0
  6
Continuous
 62
     7
370
    25
100
AcDbCircle
 10
57.7697809524
 20
88.9811023332
 30
0.0
 40
1.499999999999998
100
AcDbArc
 50
146.3581351443
 51
168.4630409672
  0
ARC
  5
239
330
1F
100
AcDbEntity
  8
0
  6
Continuous
 62
     7
370
    25
100
AcDbCircle
 10
57.7697809524
 20
73.9811023332
 30
0.0
 40
1.500000000000004
100
AcDbArc
 50
191.5369590328
 51
213.6418648557
  0
ARC
  5
23A
330
1F
100
AcDbEntity
  8
0
  6
Continuous
 62
     7
370
    25
100
AcDbCircle
 10
33.2192706952
 20
89.4811023332
 30
0.0
 40
1.000000000000002
100
AcDbArc
 50
191.5369590328
 51
270.0
  0
ARC
  5
23B
330
1F
100
AcDbEntity
  8
0
  6
Continuous
 62
     7
370
    25
100
AcDbCircle
 10
33.2192706952
 20
73.4811023332
 30
0.0
 40
1.0
100
AcDbArc
 50
90.0
 51
168.4630409672
  0
ARC
  5
23C
330
1F
100
AcDbEntity
  8
0
  6
Continuous
 62
     7
370
    25
100
AcDbCircle
 10
55.3202912096
 20
89.4811023332
 30
0.0
 40
1.000000000000002
100
AcDbArc
 50
270.0
 51
348.4630409672
  0
ARC
  5
23D
330
1F
100
AcDbEntity
  8
0
  6
Continuous
 62
     7
370
    25
100
AcDbCircle
 10
55.3202912096
 20
73.4811023332
 30
0.0
 40
1.0
100
AcDbArc
 50
11.5369590328
 51
90.0
  0
LINE
  5
23E
330
1F
100
AcDbEntity
  8
0
  6
Continuous
 62
     7
370
    25
100
AcDbLine
 10
36.1868771837
 20
88.4811023332
 30
0.0
 11
33.2192706952
 21
88.4811023332
 31
0.0
  0
LINE
  5
23F
330
1F
100
AcDbEntity
  8
0
  6
Continuous
 62
     7
370
    25
100
AcDbLine
 10
55.3202912096
 20
88.4811023332
 30
0.0
 11
52.352684721
 21
88.4811023332
 31
0.0
  0
LINE
  5
240
330
1F
100
AcDbEntity
  8
0
  6
Continuous
 62
     7
370
    25
100
AcDbLine
 10
52.352684721
 20
74.4811023332
 30
0.0
 11
55.3202912096
 21
74.4811023332
 31
0.0
  0
LINE
  5
241
330
1F
100
AcDbEntity
  8
0
  6
Continuous
 62
     7
370
    25
100
AcDbLine
 10
33.2192706952
 20
74.4811023332
 30
0.0
 11
36.1868771837
 21
74.4811023332
 31
0.0
  0
SPLINE
  5
242
330
1F
100
AcDbEntity
  8
0
  6
Continuous
 62
     7
370
    25
100
AcDbSpline
210
0.0
220
0.0
230
1.0
 70
     8
 71
     3
 72
    10
 73
     6
 74
     0
 42
0.00000001
 43
0.00000001
 40
0.0
 40
0.0
 40
0.0
 40
0.0
 40
0.2958756403265932
 40
0.5933360076831716
 40
0.9999999999999999
 40
0.9999999999999999
 40
0.9999999999999999
 40
0.9999999999999999
 10
16.47925643192432
 20
84.73501240538661
 30
0.0
 10
16.43267172105219
 20
85.12767481524028
 30
0.0
 10
16.33925278890411
 20
85.91510275750905
 30
0.0
 10
16.31614762522408
 20
87.25134259874626
 30
0.0
 10
16.41954165512107
 20
88.1868778846403
 30
0.0
 10
16.47925643192432
 20
88.72719226105443
 30
0.0
  0
SPLINE
  5
243
330
1F
100
AcDbEntity
  8
0
  6
Continuous
 62
     7
370
    25
100
AcDbSpline
210
0.0
220
0.0
230
1.0
 70
     8
 71
     3
 72
     9
 73
     5
 74
     0
 42
0.00000001
 43
0.00000001
 40
0.0
 40
0.0
 40
0.0
 40
0.0
 40
0.4983188677908572
 40
1.0
 40
1.0
 40
1.0
 40
1.0
 10
16.47925643192431
 20
88.72719226105443
 30
0.0
 10
16.57400151216354
 20
89.27446028199606
 30
0.0
 10
16.76413093804552
 20
90.37268885874603
 30
0.0
 10
17.10282474539335
 20
91.44376409567623
 30
0.0
 10
17.27274103813584
 20
91.98110233322053
 30
0.0
  0
LINE
  5
244
330
1F
100
AcDbEntity
  8
0
  6
Continuous
 62
     7
370
    25
100
AcDbLine
 10
17.2727410381
 20
91.9811023332
 30
0.0
 11
28.6084215565
 21
91.9811023332
 31
0.0
  0
SPLINE
  5
245
330
1F
100
AcDbEntity
  8
0
  6
Continuous
 62
     7
370
    25
100
AcDbSpline
210
0.0
220
0.0
230
1.0
 70
     8
 71
     3
 72
    15
 73
    11
 74
     0
 42
0.00000001
 43
0.00000001
 40
0.0
 40
0.0
 40
0.0
 40
0.0
 40
0.1323060649947138
 40
0.2645747216258911
 40
0.3998023269484416
 40
0.5350055300348283
 40
0.6501955637891816
 40
0.765403565940611
 40
0.8826904433746947
 40
1.0
 40
1.0
 40
1.0
 40
1.0
 10
28.60842155652317
 20
91.98110233322053
 30
0.0
 10
28.75118530555042
 20
91.52745770883227
 30
0.0
 10
29.03667243842418
 20
90.62029672403992
 30
0.0
 10
29.34384482511469
 20
89.22334878906258
 30
0.0
 10
29.52853753706339
 20
87.80006795428166
 30
0.0
 10
29.56511183739617
 20
86.428349153778
 30
0.0
 10
29.47021201757026
 20
85.13074342597608
 30
0.0
 10
29.2757645819034
 20
83.90612933773156
 30
0.0
 10
28.99053341407891
 20
82.68705217481424
 30
0.0
 10
28.73580038432863
 20
81.88311152026067
 30
0.0
 10
28.60842155652317
 20
81.4811023332205
 30
0.0
  0
LINE
  5
246
330
1F
100
AcDbEntity
  8
0
  6
Continuous
 62
     7
370
    25
100
AcDbLine
 10
17.2727410381
 20
81.4811023332
 30
0.0
 11
28.6084215565
 21
81.4811023332
 31
0.0
  0
SPLINE
  5
247
330
1F
100
AcDbEntity
  8
0
  6
Continuous
 62
     7
370
    25
100
AcDbSpline
210
0.0
220
0.0
230
1.0
 70
     8
 71
     3
 72
     9
 73
     5
 74
     0
 42
0.00000001
 43
0.00000001
 40
0.0
 40
0.0
 40
0.0
 40
0.0
 40
0.4985590461262299
 40
1.0
 40
1.0
 40
1.0
 40
1.0
 10
17.27274103813584
 20
81.4811023332205
 30
0.0
 10
17.10382499039024
 20
82.01507785654512
 30
0.0
 10
16.76501648002809
 20
83.08611553497772
 30
0.0
 10
16.57469261323432
 20
84.18432513566476
 30
0.0
 10
16.47925643192432
 20
84.73501240538661
 30
0.0
  0
SPLINE
  5
248
330
1F
100
AcDbEntity
  8
0
  6
Continuous
 62
     7
370
    25
100
AcDbSpline
210
0.0
220
0.0
230
1.0
 70
    24
 71
     3
 72
    10
 73
     6
 74
     0
 42
0.00000001
 43
0.00000001
 40
0.0
 40
0.0
 40
0.0
 40
0.0
 40
0.2470901935014431
 40
0.6215192471436888
 40
0.9999999999999999
 40
0.9999999999999999
 40
0.9999999999999999
 40
0.9999999999999999
 10
29.54303072418028
 20
91.98110233322052
 30
0.0
 10
29.53134361330884
 20
91.98110233322052
 30
0.0
 10
29.50194639504141
 20
91.98110233322052
 30
0.0
 10
29.20213660363836
 20
91.98110233322053
 30
0.0
 10
28.80703530325835
 20
91.98110233322053
 30
0.0
 10
28.60842155652317
 20
91.98110233322053
 30
0.0
  0
SPLINE
  5
249
330
1F
100
AcDbEntity
  8
0
  6
Continuous
 62
     7
370
    25
100
AcDbSpline
210
0.0
220
0.0
230
1.0
 70
    24
 71
     3
 72
    10
 73
     6
 74
     0
 42
0.00000001
 43
0.00000001
 40
0.0
 40
0.0
 40
0.0
 40
0.0
 40
0.3747486647006408
 40
0.7529065649865525
 40
1.0
 40
1.0
 40
1.0
 40
1.0
 10
28.60842155652317
 20
70.98110233322058
 30
0.0
 10
28.80528281378832
 20
70.98110233322056
 30
0.0
 10
29.20079625238812
 20
70.98110233322055
 30
0.0
 10
29.50102586572371
 20
70.98110233322052
 30
0.0
 10
29.53234347134079
 20
70.98110233322052
 30
0.0
 10
29.5447198939271
 20
70.9811023332205
 30
0.0
  0
SPLINE
  5
24A
330
1F
100
AcDbEntity
  8
0
  6
Continuous
 62
     7
370
    25
100
AcDbSpline
210
0.0
220
0.0
230
1.0
 70
     8
 71
     3
 72
    15
 73
    11
 74
     0
 42
0.00000001
 43
0.00000001
 40
0.0
 40
0.0
 40
0.0
 40
0.0
 40
0.1323060649947156
 40
0.2645747216258945
 40
0.3998023269484466
 40
0.5350055300348351
 40
0.6501955637891869
 40
0.7654035659406143
 40
0.8826904433746965
 40
1.0
 40
1.0
 40
1.0
 40
1.0
 10
28.60842155652317
 20
81.4811023332205
 30
0.0
 10
28.75118530555041
 20
81.02745770883224
 30
0.0
 10
29.03667243842417
 20
80.12029672403989
 30
0.0
 10
29.34384482511468
 20
78.72334878906256
 30
0.0
 10
29.52853753706337
 20
77.30006795428162
 30
0.0
 10
29.56511183739615
 20
75.92834915377797
 30
0.0
 10
29.47021201757023
 20
74.63074342597606
 30
0.0
 10
29.27576458190338
 20
73.40612933773158
 30
0.0
 10
28.9905334140789
 20
72.18705217481427
 30
0.0
 10
28.73580038432863
 20
71.38311152026074
 30
0.0
 10
28.60842155652317
 20
70.98110233322058
 30
0.0
  0
LINE
  5
24B
330
1F
100
AcDbEntity
  8
0
  6
Continuous
 62
     7
370
    25
100
AcDbLine
 10
29.6905812973
 20
91.7311023332
 30
0.0
 11
29.6905812973
 21
71.2311023332
 31
0.0
  0
SPLINE
  5
24C
330
1F
100
AcDbEntity
  8
0
  6
Continuous
 62
     7
370
    25
100
AcDbSpline
210
0.0
220
0.0
230
1.0
 70
     8
 71
     3
 72
     9
 73
     5
 74
     0
 42
0.00000001
 43
0.00000001
 40
0.0
 40
0.0
 40
0.0
 40
0.0
 40
0.4983188677908566
 40
0.9999999999999999
 40
0.9999999999999999
 40
0.9999999999999999
 40
0.9999999999999999
 10
16.47925643192431
 20
78.22719226105428
 30
0.0
 10
16.57400151216354
 20
78.77446028199591
 30
0.0
 10
16.76413093804551
 20
79.87268885874595
 30
0.0
 10
17.10282474539335
 20
80.94376409567617
 30
0.0
 10
17.27274103813584
 20
81.4811023332205
 30
0.0
  0
LINE
  5
24D
330
1F
100
AcDbEntity
  8
0
  6
Continuous
 62
     7
370
    25
100
AcDbLine
 10
16.4792564319
 20
84.7350124054
 30
0.0
 11
16.4792564319
 21
78.2271922611
 31
0.0
  0
SPLINE
  5
24E
330
1F
100
AcDbEntity
  8
0
  6
Continuous
 62
     7
370
    25
100
AcDbSpline
210
0.0
220
0.0
230
1.0
 70
     8
 71
     3
 72
    10
 73
     6
 74
     0
 42
0.00000001
 43
0.00000001
 40
0.0
 40
0.0
 40
0.0
 40
0.0
 40
0.2958756403266054
 40
0.5933360076831963
 40
1.0
 40
1.0
 40
1.0
 40
1.0
 10
16.47925643192432
 20
74.2350124053868
 30
0.0
 10
16.4326717210522
 20
74.62767481524045
 30
0.0
 10
16.33925278890413
 20
75.41510275750919
 30
0.0
 10
16.31614762522409
 20
76.75134259874629
 30
0.0
 10
16.41954165512107
 20
77.68687788464024
 30
0.0
 10
16.47925643192431
 20
78.22719226105428
 30
0.0
  0
LINE
  5
24F
330
1F
100
AcDbEntity
  8
0
  6
Continuous
 62
     7
370
    25
100
AcDbLine
 10
17.2727410381
 20
70.9811023332
 30
0.0
 11
28.6084215565
 21
70.9811023332
 31
0.0
  0
SPLINE
  5
250
330
1F
100
AcDbEntity
  8
0
  6
Continuous
 62
     7
370
    25
100
AcDbSpline
210
0.0
220
0.0
230
1.0
 70
     8
 71
     3
 72
     9
 73
     5
 74
     0
 42
0.00000001
 43
0.00000001
 40
0.0
 40
0.0
 40
0.0
 40
0.0
 40
0.4985590461262295
 40
1.0
 40
1.0
 40
1.0
 40
1.0
 10
17.27274103813584
 20
70.98110233322058
 30
0.0
 10
17.10382499039024
 20
71.5150778565452
 30
0.0
 10
16.76501648002809
 20
72.58611553497785
 30
0.0
 10
16.57469261323433
 20
73.68432513566493
 30
0.0
 10
16.47925643192432
 20
74.2350124053868
 30
0.0
  0
ARC
  5
251
330
1F
100
AcDbEntity
  8
0
  6
Continuous
 62
     7
370
    25
100
AcDbCircle
 10
15.6989328482
 20
76.3154799158
 30
0.0
 40
2.064836309838723
100
AcDbArc
 50
67.7956780275
 51
92.378766539
  0
LINE
  5
252
330
1F
100
AcDbEntity
  8
0
  6
Continuous
 62
     7
370
    25
100
AcDbLine
 10
15.6132310281
 20
78.3785369156
 30
0.0
 11
15.6132310281
 21
84.5836677509
 31
0.0
  0
ARC
  5
253
330
1F
100
AcDbEntity
  8
0
  6
Continuous
 62
     7
370
    25
100
AcDbCircle
 10
15.6989328482
 20
86.6467247507
 30
0.0
 40
2.064836309822571
100
AcDbArc
 50
267.6212334609
 51
292.2043219726
  0
LINE
  5
254
330
1F
100
AcDbEntity
  8
0
  6
Continuous
 62
     7
370
    25
100
AcDbLine
 10
14.8905812973
 20
91.7311023332
 30
0.0
 11
14.8905812973
 21
71.2311023332
 31
0.0
  0
LINE
  5
255
330
1F
100
AcDbEntity
  8
0
  6
Continuous
 62
     7
370
    25
100
AcDbLine
 10
15.6132310281
 20
88.3901648226
 30
0.0
 11
15.6132310281
 21
91.4927302402
 31
0.0
  0
SPLINE
  5
256
330
1F
100
AcDbEntity
  8
0
  6
Continuous
 62
     7
370
    25
100
AcDbSpline
210
0.0
220
0.0
230
1.0
 70
     8
 71
     3
 72
    11
 73
     7
 74
     0
 42
0.00000001
 43
0.00000001
 40
0.0
 40
0.0
 40
0.0
 40
0.0
 40
0.2730181757485956
 40
0.5498580878450512
 40
0.773873473154651
 40
1.0
 40
1.0
 40
1.0
 40
1.0
 10
15.61323102813987
 20
84.58366775086726
 30
0.0
 10
15.62456924885735
 20
84.96377986211378
 30
0.0
 10
15.64740440386554
 20
85.72932493281714
 30
0.0
 10
15.68856720415929
 20
86.73883707926733
 30
0.0
 10
15.63558226458789
 20
87.63363039558793
 30
0.0
 10
15.62070469861924
 20
88.13719944291388
 30
0.0
 10
15.61323102813987
 20
88.39016482255052
 30
0.0
  0
SPLINE
  5
257
330
1F
100
AcDbEntity
  8
0
  6
Continuous
 62
     7
370
    25
100
AcDbSpline
210
0.0
220
0.0
230
1.0
 70
     8
 71
     3
 72
    11
 73
     7
 74
     0
 42
0.00000001
 43
0.00000001
 40
0.0
 40
0.0
 40
0.0
 40
0.0
 40
0.2730181757486327
 40
0.5498580878451258
 40
0.7738734731546892
 40
1.0
 40
1.0
 40
1.0
 40
1.0
 10
15.61323102813988
 20
74.57203984389069
 30
0.0
 10
15.62456924885735
 20
74.87901655901376
 30
0.0
 10
15.64740440386553
 20
75.49726708071515
 30
0.0
 10
15.68856720415926
 20
76.47250235702826
 30
0.0
 10
15.63558226458785
 20
77.43515776622385
 30
0.0
 10
15.62070469861924
 20
78.06309553425451
 30
0.0
 10
15.61323102813988
 20
78.37853691557365
 30
0.0
  0
LINE
  5
258
330
1F
100
AcDbEntity
  8
0
  6
Continuous
 62
     7
370
    25
100
AcDbLine
 10
15.6132310281
 20
71.4694744262
 30
0.0
 11
15.6132310281
 21
74.5720398439
 31
0.0
  0
LINE
  5
259
330
1F
100
AcDbEntity
  8
0
  6
Continuous
 62
     7
370
    25
100
AcDbLine
 10
14.6905812973
 20
71.4311023332
 30
0.0
 11
14.6905812973
 21
91.5311023332
 31
0.0
  0
ARC
  5
25A
330
1F
100
AcDbEntity
  8
0
  6
Continuous
 62
     7
370
    25
100
AcDbCircle
 10
15.6647108518
 20
89.5390650837
 30
0.0
 40
1.15005303458129
100
AcDbArc
 50
267.4344117638
 51
315.0941563294
  0
ARC
  5
25B
330
1F
100
AcDbEntity
  8
0
  6
Continuous
 62
     7
370
    25
100
AcDbCircle
 10
15.6647108518
 20
73.4231395827
 30
0.0
 40
1.15005303457321
100
AcDbArc
 50
44.9058436705
 51
92.5655882364
  0
LINE
  5
25C
330
1F
100
AcDbEntity
  8
0
  6
Continuous
 62
     7
370
    25
100
AcDbLine
 10
16.4792564319
 20
74.2350124054
 30
0.0
 11
16.4792564319
 21
70.9811023332
 31
0.0
  0
ARC
  5
25D
330
1F
100
AcDbEntity
  8
0
  6
Continuous
 62
     7
370
    25
100
AcDbCircle
 10
15.6175681826
 20
70.46512227
 30
0.0
 40
1.004361520936589
100
AcDbArc
 50
30.9132304404
 51
90.2474222794
  0
SPLINE
  5
25E
330
1F
100
AcDbEntity
  8
0
  6
Continuous
 62
     7
370
    25
100
AcDbSpline
210
0.0
220
0.0
230
1.0
 70
    24
 71
     3
 72
     9
 73
     5
 74
     0
 42
0.00000001
 43
0.00000001
 40
0.0
 40
0.0
 40
0.0
 40
0.0
 40
0.4983188677908569
 40
1.0
 40
1.0
 40
1.0
 40
1.0
 10
16.47925643192431
 20
70.98110233322052
 30
0.0
 10
16.57400151216354
 20
70.98110233322053
 30
0.0
 10
16.76413093804552
 20
70.98110233322055
 30
0.0
 10
17.10282474539336
 20
70.98110233322056
 30
0.0
 10
17.27274103813584
 20
70.98110233322058
 30
0.0
  0
LINE
  5
25F
330
1F
100
AcDbEntity
  8
0
  6
Continuous
 62
     7
370
    25
100
AcDbLine
 10
16.4792564319
 20
91.9811023332
 30
0.0
 11
16.4792564319
 21
88.7271922611
 31
0.0
  0
SPLINE
  5
260
330
1F
100
AcDbEntity
  8
0
  6
Continuous
 62
     7
370
    25
100
AcDbSpline
210
0.0
220
0.0
230
1.0
 70
    24
 71
     3
 72
     9
 73
     5
 74
     0
 42
0.00000001
 43
0.00000001
 40
0.0
 40
0.0
 40
0.0
 40
0.0
 40
0.4985590461262307
 40
1.0
 40
1.0
 40
1.0
 40
1.0
 10
17.27274103813584
 20
91.98110233322053
 30
0.0
 10
17.10382499039025
 20
91.98110233322053
 30
0.0
 10
16.76501648002811
 20
91.98110233322053
 30
0.0
 10
16.5746926132343
 20
91.98110233322052
 30
0.0
 10
16.47925643192427
 20
91.98110233322052
 30
0.0
  0
ARC
  5
261
330
1F
100
AcDbEntity
  8
0
  6
Continuous
 62
     7
370
    25
100
AcDbCircle
 10
15.6175681826
 20
92.4970823965
 30
0.0
 40
1.004361520936756
100
AcDbArc
 50
269.7525777206
 51
329.0867695596
  0
SPLINE
  5
262
330
1F
100
AcDbEntity
  8
0
  6
Continuous
 62
     7
370
    25
100
AcDbSpline
210
0.0
220
0.0
230
1.0
 70
    24
 71
     3
 72
     9
 73
     5
 74
     0
 42
0.00000001
 43
0.00000001
 40
0.0
 40
0.0
 40
0.0
 40
0.0
 40
0.6511912909724976
 40
1.0
 40
1.0
 40
1.0
 40
1.0
 10
16.34838397275362
 20
70.9811023332205
 30
0.0
 10
16.35047073574079
 20
70.9811023332205
 30
0.0
 10
16.35367526721427
 20
70.98110233322052
 30
0.0
 10
16.44678051176788
 20
70.98110233322052
 30
0.0
 10
16.47925643192431
 20
70.98110233322052
 30
0.0
  0
SPLINE
  5
263
330
1F
100
AcDbEntity
  8
0
  6
Continuous
 62
     7
370
    25
100
AcDbSpline
210
0.0
220
0.0
230
1.0
 70
    24
 71
     3
 72
     9
 73
     5
 74
     0
 42
0.00000001
 43
0.00000001
 40
0.0
 40
0.0
 40
0.0
 40
0.0
 40
0.3944133048175134
 40
1.0
 40
1.0
 40
1.0
 40
1.0
 10
16.47925643192427
 20
91.98110233322052
 30
0.0
 10
16.44633381291885
 20
91.98110233322052
 30
0.0
 10
16.36286142848534
 20
91.98110233322052
 30
0.0
 10
16.35831644587586
 20
91.98110233322052
 30
0.0
 10
16.35556406487771
 20
91.98110233322052
 30
0.0
  0
SPLINE
  5
264
330
1F
100
AcDbEntity
  8
0
  6
Continuous
 62
     7
370
    25
100
AcDbSpline
210
0.0
220
0.0
230
1.0
 70
     8
 71
     3
 72
    10
 73
     6
 74
     0
 42
0.00000001
 43
0.00000001
 40
0.0
 40
0.0
 40
0.0
 40
0.0
 40
0.295875640326593
 40
0.5933360076831717
 40
0.9999999999999999
 40
0.9999999999999999
 40
0.9999999999999999
 40
0.9999999999999999
 10
72.06030547283764
 20
88.72719226105437
 30
0.0
 10
72.10689018370975
 20
88.3345298512007
 30
0.0
 10
72.20030911585783
 20
87.54710190893194
 30
0.0
 10
72.22341427953786
 20
86.2108620676947
 30
0.0
 10
72.12002024964089
 20
85.27532678180067
 30
0.0
 10
72.06030547283764
 20
84.73501240538654
 30
0.0
  0
SPLINE
  5
265
330
1F
100
AcDbEntity
  8
0
  6
Continuous
 62
     7
370
    25
100
AcDbSpline
210
0.0
220
0.0
230
1.0
 70
     8
 71
     3
 72
     9
 73
     5
 74
     0
 42
0.00000001
 43
0.00000001
 40
0.0
 40
0.0
 40
0.0
 40
0.0
 40
0.4983188677908571
 40
0.9999999999999999
 40
0.9999999999999999
 40
0.9999999999999999
 40
0.9999999999999999
 10
72.06030547283764
 20
84.73501240538654
 30
0.0
 10
71.96556039259839
 20
84.18774438444493
 30
0.0
 10
71.7754309667164
 20
83.08951580769492
 30
0.0
 10
71.43673715936859
 20
82.01844057076474
 30
0.0
 10
71.26682086662612
 20
81.48110233322042
 30
0.0
  0
LINE
  5
266
330
1F
100
AcDbEntity
  8
0
  6
Continuous
 62
     7
370
    25
100
AcDbLine
 10
71.2668208666
 20
81.4811023332
 30
0.0
 11
59.9311403482
 21
81.4811023332
 31
0.0
  0
SPLINE
  5
267
330
1F
100
AcDbEntity
  8
0
  6
Continuous
 62
     7
370
    25
100
AcDbSpline
210
0.0
220
0.0
230
1.0
 70
     8
 71
     3
 72
    15
 73
    11
 74
     0
 42
0.00000001
 43
0.00000001
 40
0.0
 40
0.0
 40
0.0
 40
0.0
 40
0.132306064994714
 40
0.2645747216258912
 40
0.3998023269484417
 40
0.5350055300348284
 40
0.6501955637891816
 40
0.765403565940611
 40
0.8826904433746947
 40
1.0
 40
1.0
 40
1.0
 40
1.0
 10
59.93114034823878
 20
81.48110233322042
 30
0.0
 10
59.78837659921154
 20
81.9347469576087
 30
0.0
 10
59.50288946633777
 20
82.84190794240104
 30
0.0
 10
59.19571707964726
 20
84.23885587737838
 30
0.0
 10
59.01102436769856
 20
85.66213671215932
 30
0.0
 10
58.97445006736579
 20
87.03385551266298
 30
0.0
 10
59.0693498871917
 20
88.3314612404649
 30
0.0
 10
59.26379732285854
 20
89.55607532870943
 30
0.0
 10
59.54902849068304
 20
90.77515249162676
 30
0.0
 10
59.80376152043333
 20
91.57909314618033
 30
0.0
 10
59.93114034823878
 20
91.98110233322049
 30
0.0
  0
LINE
  5
268
330
1F
100
AcDbEntity
  8
0
  6
Continuous
 62
     7
370
    25
100
AcDbLine
 10
71.2668208666
 20
91.9811023332
 30
0.0
 11
59.9311403482
 21
91.9811023332
 31
0.0
  0
SPLINE
  5
269
330
1F
100
AcDbEntity
  8
0
  6
Continuous
 62
     7
370
    25
100
AcDbSpline
210
0.0
220
0.0
230
1.0
 70
     8
 71
     3
 72
     9
 73
     5
 74
     0
 42
0.00000001
 43
0.00000001
 40
0.0
 40
0.0
 40
0.0
 40
0.0
 40
0.4985590461262298
 40
1.0
 40
1.0
 40
1.0
 40
1.0
 10
71.26682086662612
 20
91.98110233322049
 30
0.0
 10
71.43573691437172
 20
91.44712680989588
 30
0.0
 10
71.77454542473386
 20
90.37608913146327
 30
0.0
 10
71.96486929152762
 20
89.27787953077622
 30
0.0
 10
72.06030547283764
 20
88.72719226105437
 30
0.0
  0
SPLINE
  5
26A
330
1F
100
AcDbEntity
  8
0
  6
Continuous
 62
     7
370
    25
100
AcDbSpline
210
0.0
220
0.0
230
1.0
 70
    24
 71
     3
 72
    12
 73
     8
 74
     0
 42
0.00000001
 43
0.00000001
 40
0.0
 40
0.0
 40
0.0
 40
0.0
 40
0.2302457221406203
 40
0.4814111828985824
 40
0.7325120094886495
 40
0.989799051746517
 40
1.0
 40
1.0
 40
1.0
 40
1.0
 10
59.93114034823878
 20
91.98110233322049
 30
0.0
 10
59.80619980431015
 20
91.98110233322049
 30
0.0
 10
59.5449668290111
 20
91.98110233322049
 30
0.0
 10
59.24533733873434
 20
91.9811023332205
 30
0.0
 10
59.05356805822032
 20
91.9811023332205
 30
0.0
 10
58.9732615703333
 20
91.98110233322052
 30
0.0
 10
58.99567636767095
 20
91.98110233322052
 30
0.0
 10
58.99653118058166
 20
91.98110233322052
 30
0.0
  0
SPLINE
  5
26B
330
1F
100
AcDbEntity
  8
0
  6
Continuous
 62
     7
370
    25
100
AcDbSpline
210
0.0
220
0.0
230
1.0
 70
     8
 71
     3
 72
    15
 73
    11
 74
     0
 42
0.00000001
 43
0.00000001
 40
0.0
 40
0.0
 40
0.0
 40
0.0
 40
0.1323060649947139
 40
0.2645747216258911
 40
0.3998023269484416
 40
0.5350055300348283
 40
0.6501955637891815
 40
0.7654035659406109
 40
0.8826904433746946
 40
1.0
 40
1.0
 40
1.0
 40
1.0
 10
59.93114034823878
 20
70.98110233322045
 30
0.0
 10
59.78837659921154
 20
71.43474695760871
 30
0.0
 10
59.50288946633777
 20
72.34190794240105
 30
0.0
 10
59.19571707964727
 20
73.73885587737837
 30
0.0
 10
59.01102436769856
 20
75.1621367121593
 30
0.0
 10
58.97445006736579
 20
76.53385551266295
 30
0.0
 10
59.06934988719169
 20
77.83146124046486
 30
0.0
 10
59.26379732285854
 20
79.05607532870938
 30
0.0
 10
59.54902849068304
 20
80.2751524916267
 30
0.0
 10
59.80376152043332
 20
81.07909314618027
 30
0.0
 10
59.93114034823878
 20
81.48110233322042
 30
0.0
  0
SPLINE
  5
26C
330
1F
100
AcDbEntity
  8
0
  6
Continuous
 62
     7
370
    25
100
AcDbSpline
210
0.0
220
0.0
230
1.0
 70
    24
 71
     3
 72
    12
 73
     8
 74
     0
 42
0.00000001
 43
0.00000001
 40
0.0
 40
0.0
 40
0.0
 40
0.0
 40
0.0037606897889159
 40
0.2546100505727787
 40
0.5121464155607883
 40
0.7697540316354351
 40
1.0
 40
1.0
 40
1.0
 40
1.0
 10
58.99484201083484
 20
70.9811023332205
 30
0.0
 10
58.99452540419607
 20
70.9811023332205
 30
0.0
 10
58.97309017905461
 20
70.98110233322059
 30
0.0
 10
59.04932457983477
 20
70.98110233322045
 30
0.0
 10
59.23770449864772
 20
70.98110233322048
 30
0.0
 10
59.54151559742677
 20
70.98110233322045
 30
0.0
 10
59.8062140372569
 20
70.98110233322045
 30
0.0
 10
59.93114034823878
 20
70.98110233322045
 30
0.0
  0
LINE
  5
26D
330
1F
100
AcDbEntity
  8
0
  6
Continuous
 62
     7
370
    25
100
AcDbLine
 10
58.8489806074
 20
71.2311023332
 30
0.0
 11
58.8489806074
 21
91.7311023332
 31
0.0
  0
LINE
  5
26E
330
1F
100
AcDbEntity
  8
0
  6
Continuous
 62
     7
370
    25
100
AcDbLine
 10
72.0603054728
 20
78.2271922611
 30
0.0
 11
72.0603054728
 21
84.7350124054
 31
0.0
  0
SPLINE
  5
26F
330
1F
100
AcDbEntity
  8
0
  6
Continuous
 62
     7
370
    25
100
AcDbSpline
210
0.0
220
0.0
230
1.0
 70
     8
 71
     3
 72
     9
 73
     5
 74
     0
 42
0.00000001
 43
0.00000001
 40
0.0
 40
0.0
 40
0.0
 40
0.0
 40
0.49855904612623
 40
1.0
 40
1.0
 40
1.0
 40
1.0
 10
71.26682086662612
 20
81.48110233322042
 30
0.0
 10
71.43573691437172
 20
80.9471268098958
 30
0.0
 10
71.77454542473386
 20
79.87608913146322
 30
0.0
 10
71.96486929152762
 20
78.77787953077618
 30
0.0
 10
72.06030547283764
 20
78.22719226105433
 30
0.0
  0
SPLINE
  5
270
330
1F
100
AcDbEntity
  8
0
  6
Continuous
 62
     7
370
    25
100
AcDbSpline
210
0.0
220
0.0
230
1.0
 70
     8
 71
     3
 72
    10
 73
     6
 74
     0
 42
0.00000001
 43
0.00000001
 40
0.0
 40
0.0
 40
0.0
 40
0.0
 40
0.2958756403265932
 40
0.5933360076831716
 40
1.0
 40
1.0
 40
1.0
 40
1.0
 10
72.06030547283764
 20
78.22719226105433
 30
0.0
 10
72.10689018370975
 20
77.83452985120068
 30
0.0
 10
72.20030911585783
 20
77.0471019089319
 30
0.0
 10
72.22341427953788
 20
75.7108620676947
 30
0.0
 10
72.1200202496409
 20
74.77532678180066
 30
0.0
 10
72.06030547283764
 20
74.23501240538653
 30
0.0
  0
SPLINE
  5
271
330
1F
100
AcDbEntity
  8
0
  6
Continuous
 62
     7
370
    25
100
AcDbSpline
210
0.0
220
0.0
230
1.0
 70
     8
 71
     3
 72
     9
 73
     5
 74
     0
 42
0.00000001
 43
0.00000001
 40
0.0
 40
0.0
 40
0.0
 40
0.0
 40
0.498318867790857
 40
1.0
 40
1.0
 40
1.0
 40
1.0
 10
72.06030547283764
 20
74.23501240538653
 30
0.0
 10
71.96556039259839
 20
73.68774438444493
 30
0.0
 10
71.7754309667164
 20
72.58951580769495
 30
0.0
 10
71.43673715936859
 20
71.51844057076475
 30
0.0
 10
71.26682086662612
 20
70.98110233322045
 30
0.0
  0
LINE
  5
272
330
1F
100
AcDbEntity
  8
0
  6
Continuous
 62
     7
370
    25
100
AcDbLine
 10
71.2668208666
 20
70.9811023332
 30
0.0
 11
59.9311403482
 21
70.9811023332
 31
0.0
  0
LINE
  5
273
330
1F
100
AcDbEntity
  8
0
  6
Continuous
 62
     7
370
    25
100
AcDbLine
 10
72.9263308766
 20
84.5836677509
 30
0.0
 11
72.9263308766
 21
78.3785369156
 31
0.0
  0
ARC
  5
274
330
1F
100
AcDbEntity
  8
0
  6
Continuous
 62
     7
370
    25
100
AcDbCircle
 10
72.8406290565
 20
76.3154799158
 30
0.0
 40
2.064836309838509
100
AcDbArc
 50
87.621233461
 51
112.2043219725
  0
ARC
  5
275
330
1F
100
AcDbEntity
  8
0
  6
Continuous
 62
     7
370
    25
100
AcDbCircle
 10
72.8406290565
 20
86.6467247507
 30
0.0
 40
2.064836309841753
100
AcDbArc
 50
247.7956780275
 51
272.378766539
  0
LINE
  5
276
330
1F
100
AcDbEntity
  8
0
  6
Continuous
 62
     7
370
    25
100
AcDbLine
 10
73.8489806074
 20
91.5311023332
 30
0.0
 11
73.8489806074
 21
71.4311023332
 31
0.0
  0
LINE
  5
277
330
1F
100
AcDbEntity
  8
0
  6
Continuous
 62
     7
370
    25
100
AcDbLine
 10
73.6489806074
 20
71.2311023332
 30
0.0
 11
73.6489806074
 21
91.7311023332
 31
0.0
  0
SPLINE
  5
278
330
1F
100
AcDbEntity
  8
0
  6
Continuous
 62
     7
370
    25
100
AcDbSpline
210
0.0
220
0.0
230
1.0
 70
     8
 71
     3
 72
    11
 73
     7
 74
     0
 42
0.00000001
 43
0.00000001
 40
0.0
 40
0.0
 40
0.0
 40
0.0
 40
0.273018175748604
 40
0.5498580878450681
 40
0.7738734731546595
 40
1.0
 40
1.0
 40
1.0
 40
1.0
 10
72.92633087662206
 20
78.3785369155737
 30
0.0
 10
72.9149926559046
 20
77.99842480432716
 30
0.0
 10
72.8921575008964
 20
77.23287973362378
 30
0.0
 10
72.85099470060266
 20
76.22336758717357
 30
0.0
 10
72.90397964017407
 20
75.328574270853
 30
0.0
 10
72.9188572061427
 20
74.82500522352707
 30
0.0
 10
72.92633087662206
 20
74.57203984389044
 30
0.0
  0
SPLINE
  5
279
330
1F
100
AcDbEntity
  8
0
  6
Continuous
 62
     7
370
    25
100
AcDbSpline
210
0.0
220
0.0
230
1.0
 70
     8
 71
     3
 72
    11
 73
     7
 74
     0
 42
0.00000001
 43
0.00000001
 40
0.0
 40
0.0
 40
0.0
 40
0.0
 40
0.2730181757486083
 40
0.5498580878450771
 40
0.7738734731546646
 40
1.0
 40
1.0
 40
1.0
 40
1.0
 10
72.92633087662206
 20
88.39016482255047
 30
0.0
 10
72.9149926559046
 20
88.0831881074274
 30
0.0
 10
72.89215750089639
 20
87.46493758572603
 30
0.0
 10
72.85099470060266
 20
86.48970230941288
 30
0.0
 10
72.90397964017409
 20
85.52704690021717
 30
0.0
 10
72.9188572061427
 20
84.89910913218638
 30
0.0
 10
72.92633087662206
 20
84.58366775086719
 30
0.0
  0
LINE
  5
27A
330
1F
100
AcDbEntity
  8
0
  6
Continuous
 62
     7
370
    25
100
AcDbLine
 10
72.9263308766
 20
91.4927302402
 30
0.0
 11
72.9263308766
 21
88.3901648226
 31
0.0
  0
LINE
  5
27B
330
1F
100
AcDbEntity
  8
0
  6
Continuous
 62
     7
370
    25
100
AcDbLine
 10
72.9263308766
 20
74.5720398439
 30
0.0
 11
72.9263308766
 21
71.4694744262
 31
0.0
  0
ARC
  5
27C
330
1F
100
AcDbEntity
  8
0
  6
Continuous
 62
     7
370
    25
100
AcDbCircle
 10
72.874851053
 20
89.5390650837
 30
0.0
 40
1.1500530345813
100
AcDbArc
 50
224.9058436706
 51
272.5655882362
  0
ARC
  5
27D
330
1F
100
AcDbEntity
  8
0
  6
Continuous
 62
     7
370
    25
100
AcDbCircle
 10
72.874851053
 20
73.4231395827
 30
0.0
 40
1.150053034580665
100
AcDbArc
 50
87.4344117638
 51
135.0941563294
  0
SPLINE
  5
27E
330
1F
100
AcDbEntity
  8
0
  6
Continuous
 62
     7
370
    25
100
AcDbSpline
210
0.0
220
0.0
230
1.0
 70
    24
 71
     3
 72
     9
 73
     5
 74
     0
 42
0.00000001
 43
0.00000001
 40
0.0
 40
0.0
 40
0.0
 40
0.0
 40
0.6527080222302645
 40
1.0
 40
1.0
 40
1.0
 40
1.0
 10
72.06030547283764
 20
91.9811023332205
 30
0.0
 10
71.93005763010332
 20
91.9811023332205
 30
0.0
 10
71.73050769613859
 20
91.9811023332205
 30
0.0
 10
71.38634560123764
 20
91.98110233322049
 30
0.0
 10
71.26682086662612
 20
91.98110233322049
 30
0.0
  0
LINE
  5
27F
330
1F
100
AcDbEntity
  8
0
  6
Continuous
 62
     7
370
    25
100
AcDbLine
 10
72.0603054728
 20
88.7271922611
 30
0.0
 11
72.0603054728
 21
91.9811023332
 31
0.0
  0
ARC
  5
280
330
1F
100
AcDbEntity
  8
0
  6
Continuous
 62
     7
370
    25
100
AcDbCircle
 10
72.9219937222
 20
92.4970823965
 30
0.0
 40
1.004361520936713
100
AcDbArc
 50
210.9132304404
 51
270.2474222794
  0
ARC
  5
281
330
1F
100
AcDbEntity
  8
0
  6
Continuous
 62
     7
370
    25
100
AcDbCircle
 10
72.9219937222
 20
70.46512227
 30
0.0
 40
1.004361520936543
100
AcDbArc
 50
89.7525777206
 51
149.0867695596
  0
LINE
  5
282
330
1F
100
AcDbEntity
  8
0
  6
Continuous
 62
     7
370
    25
100
AcDbLine
 10
72.0603054728
 20
70.9811023332
 30
0.0
 11
72.0603054728
 21
74.2350124054
 31
0.0
  0
SPLINE
  5
283
330
1F
100
AcDbEntity
  8
0
  6
Continuous
 62
     7
370
    25
100
AcDbSpline
210
0.0
220
0.0
230
1.0
 70
    24
 71
     3
 72
     9
 73
     5
 74
     0
 42
0.00000001
 43
0.00000001
 40
0.0
 40
0.0
 40
0.0
 40
0.0
 40
0.347291977838205
 40
1.0
 40
1.0
 40
1.0
 40
1.0
 10
71.26682086662612
 20
70.98110233322045
 30
0.0
 10
71.38634560126039
 20
70.98110233322045
 30
0.0
 10
71.73050769615902
 20
70.98110233322046
 30
0.0
 10
71.93005763011966
 20
70.98110233322048
 30
0.0
 10
72.06030547283764
 20
70.98110233322048
 30
0.0
  0
SPLINE
  5
284
330
1F
100
AcDbEntity
  8
0
  6
Continuous
 62
     7
370
    25
100
AcDbSpline
210
0.0
220
0.0
230
1.0
 70
    24
 71
     3
 72
     9
 73
     5
 74
     0
 42
0.00000001
 43
0.00000001
 40
0.0
 40
0.0
 40
0.0
 40
0.0
 40
0.2291562022054558
 40
1.0
 40
1.0
 40
1.0
 40
1.0
 10
72.18390927547647
 20
91.98110233322052
 30
0.0
 10
72.1914143529047
 20
91.98110233322052
 30
0.0
 10
72.22416527719125
 20
91.98110233322052
 30
0.0
 10
72.13163322859516
 20
91.98110233322052
 30
0.0
 10
72.06030547283764
 20
91.9811023332205
 30
0.0
  0
SPLINE
  5
285
330
1F
100
AcDbEntity
  8
0
  6
Continuous
 62
     7
370
    25
100
AcDbSpline
210
0.0
220
0.0
230
1.0
 70
    24
 71
     3
 72
     9
 73
     5
 74
     0
 42
0.00000001
 43
0.00000001
 40
0.0
 40
0.0
 40
0.0
 40
0.0
 40
0.8624138965505505
 40
1.0
 40
1.0
 40
1.0
 40
1.0
 10
72.06030547283764
 20
70.98110233322048
 30
0.0
 10
72.13413968498028
 20
70.98110233322049
 30
0.0
 10
72.21975311542009
 20
70.9811023332205
 30
0.0
 10
72.19455042854904
 20
70.9811023332205
 30
0.0
 10
72.191082889066
 20
70.9811023332205
 30
0.0
  0
CIRCLE
  5
286
330
1F
100
AcDbEntity
  8
0
  6
Continuous
 62
     7
370
    25
100
AcDbCircle
 10
44.2697809524
 20
81.4811023332
 30
0.0
 40
10.05000000000001
  0
CIRCLE
  5
287
330
1F
100
AcDbEntity
  8
0
  6
Continuous
 62
     7
370
    25
100
AcDbCircle
 10
44.2697809524
 20
81.4811023332
 30
0.0
 40
10.25000000000001
  0
CIRCLE
  5
288
330
1F
100
AcDbEntity
  8
0
  6
Continuous
 62
     7
370
    25
100
AcDbCircle
 10
44.2697809524
 20
81.4811023332
 30
0.0
 40
5.175000000000011
  0
CIRCLE
  5
289
330
1F
100
AcDbEntity
  8
0
  6
Continuous
 62
     7
370
    25
100
AcDbCircle
 10
44.2697809524
 20
81.4811023332
 30
0.0
 40
5.075000000000003
  0
LINE
  5
28A
330
1F
100
AcDbEntity
  8
0
  6
Continuous
 62
     7
370
    25
100
AcDbLine
 10
41.9648948381
 20
91.9811023332
 30
0.0
 11
42.0720988434
 21
91.4927302402
 31
0.0
  0
SPLINE
  5
28B
330
1F
100
AcDbEntity
  8
0
  6
Continuous
 62
     7
370
    25
100
AcDbSpline
210
0.0
220
0.0
230
1.0
 70
    24
 71
     3
 72
    10
 73
     6
 74
     0
 42
0.00000001
 43
0.00000001
 40
0.0
 40
0.0
 40
0.0
 40
0.0
 40
0.4053531160021641
 40
0.814880754313758
 40
1.0
 40
1.0
 40
1.0
 40
1.0
 10
46.57466706670407
 20
91.98110233322053
 30
0.0
 10
45.9528202625805
 20
91.98110233322053
 30
0.0
 10
44.70272257538496
 20
91.98110233322052
 30
0.0
 10
43.15850196888409
 20
91.9811023332205
 30
0.0
 10
42.24826140566405
 20
91.98110233322049
 30
0.0
 10
41.96489483805764
 20
91.98110233322049
 30
0.0
  0
LINE
  5
28C
330
1F
100
AcDbEntity
  8
0
  6
Continuous
 62
     7
370
    25
100
AcDbLine
 10
46.4674630614
 20
91.4927302402
 30
0.0
 11
46.5746670667
 21
91.9811023332
 31
0.0
  0
SPLINE
  5
28D
330
1F
100
AcDbEntity
  8
0
  6
Continuous
 62
     7
370
    25
100
AcDbSpline
210
0.0
220
0.0
230
1.0
 70
    24
 71
     3
 72
    10
 73
     6
 74
     0
 42
0.00000001
 43
0.00000001
 40
0.0
 40
0.0
 40
0.0
 40
0.0
 40
0.2958756403266055
 40
0.5933360076831964
 40
1.0
 40
1.0
 40
1.0
 40
1.0
 10
36.32895726980579
 20
88.72719226105421
 30
0.0
 10
36.10225352177614
 20
88.33452985120057
 30
0.0
 10
35.64763178733986
 20
87.54710190893182
 30
0.0
 10
34.87615335529973
 20
86.21086206769472
 30
0.0
 10
34.33602180615247
 20
85.27532678180079
 30
0.0
 10
34.02407115548279
 20
84.73501240538674
 30
0.0
  0
LINE
  5
28E
330
1F
100
AcDbEntity
  8
0
  6
Continuous
 62
     7
370
    25
100
AcDbLine
 10
36.3289572698
 20
88.7271922611
 30
0.0
 11
36.6982979062
 21
88.3901648226
 31
0.0
  0
LINE
  5
28F
330
1F
100
AcDbEntity
  8
0
  6
Continuous
 62
     7
370
    25
100
AcDbLine
 10
34.0240711555
 20
84.7350124054
 30
0.0
 11
34.5006157972
 21
84.5836677509
 31
0.0
  0
LINE
  5
290
330
1F
100
AcDbEntity
  8
0
  6
Continuous
 62
     7
370
    25
100
AcDbLine
 10
51.8412639986
 20
88.3901648226
 30
0.0
 11
52.210604635
 21
88.7271922611
 31
0.0
  0
SPLINE
  5
291
330
1F
100
AcDbEntity
  8
0
  6
Continuous
 62
     7
370
    25
100
AcDbSpline
210
0.0
220
0.0
230
1.0
 70
    24
 71
     3
 72
    10
 73
     6
 74
     0
 42
0.00000001
 43
0.00000001
 40
0.0
 40
0.0
 40
0.0
 40
0.0
 40
0.2958756403265932
 40
0.5933360076831715
 40
1.0
 40
1.0
 40
1.0
 40
1.0
 10
54.51549074927915
 20
84.73501240538668
 30
0.0
 10
54.28878700124949
 20
85.12767481524035
 30
0.0
 10
53.83416526681317
 20
85.91510275750912
 30
0.0
 10
53.06268683477295
 20
87.25134259874632
 30
0.0
 10
52.52255528562564
 20
88.18687788464035
 30
0.0
 10
52.21060463495591
 20
88.72719226105448
 30
0.0
  0
LINE
  5
292
330
1F
100
AcDbEntity
  8
0
  6
Continuous
 62
     7
370
    25
100
AcDbLine
 10
54.0389461076
 20
84.5836677509
 30
0.0
 11
54.5154907493
 21
84.7350124054
 31
0.0
  0
LINE
  5
293
330
1F
100
AcDbEntity
  8
0
  6
Continuous
 62
     7
370
    25
100
AcDbLine
 10
54.0389461076
 20
78.3785369156
 30
0.0
 11
54.5154907493
 21
78.2271922611
 31
0.0
  0
SPLINE
  5
294
330
1F
100
AcDbEntity
  8
0
  6
Continuous
 62
     7
370
    25
100
AcDbSpline
210
0.0
220
0.0
230
1.0
 70
    24
 71
     3
 72
    10
 73
     6
 74
     0
 42
0.00000001
 43
0.00000001
 40
0.0
 40
0.0
 40
0.0
 40
0.0
 40
0.295875640326593
 40
0.5933360076831717
 40
0.9999999999999999
 40
0.9999999999999999
 40
0.9999999999999999
 40
0.9999999999999999
 10
52.21060463495601
 20
74.23501240538664
 30
0.0
 10
52.43730838298566
 20
74.62767481524031
 30
0.0
 10
52.89193011742198
 20
75.41510275750909
 30
0.0
 10
53.66340854946218
 20
76.7513425987463
 30
0.0
 10
54.20354009860948
 20
77.68687788464035
 30
0.0
 10
54.5154907492792
 20
78.22719226105447
 30
0.0
  0
LINE
  5
295
330
1F
100
AcDbEntity
  8
0
  6
Continuous
 62
     7
370
    25
100
AcDbLine
 10
51.8412639986
 20
74.5720398439
 30
0.0
 11
52.210604635
 21
74.2350124054
 31
0.0
  0
LINE
  5
296
330
1F
100
AcDbEntity
  8
0
  6
Continuous
 62
     7
370
    25
100
AcDbLine
 10
46.4674630614
 20
71.4694744262
 30
0.0
 11
46.5746670667
 21
70.9811023332
 31
0.0
  0
SPLINE
  5
297
330
1F
100
AcDbEntity
  8
0
  6
Continuous
 62
     7
370
    25
100
AcDbSpline
210
0.0
220
0.0
230
1.0
 70
    24
 71
     3
 72
    10
 73
     6
 74
     0
 42
0.00000001
 43
0.00000001
 40
0.0
 40
0.0
 40
0.0
 40
0.0
 40
0.1851192069214108
 40
0.5904327338990519
 40
1.0
 40
1.0
 40
1.0
 40
1.0
 10
41.96489483805777
 20
70.98110233322049
 30
0.0
 10
42.24826157282334
 20
70.98110233322049
 30
0.0
 10
43.15205215558398
 20
70.98110233322049
 30
0.0
 10
44.6961696870971
 20
70.9811023332205
 30
0.0
 10
45.94632597017864
 20
70.9811023332205
 30
0.0
 10
46.57466706670422
 20
70.9811023332205
 30
0.0
  0
LINE
  5
298
330
1F
100
AcDbEntity
  8
0
  6
Continuous
 62
     7
370
    25
100
AcDbLine
 10
41.9648948381
 20
70.9811023332
 30
0.0
 11
42.0720988434
 21
71.4694744262
 31
0.0
  0
SPLINE
  5
299
330
1F
100
AcDbEntity
  8
0
  6
Continuous
 62
     7
370
    25
100
AcDbSpline
210
0.0
220
0.0
230
1.0
 70
    24
 71
     3
 72
    10
 73
     6
 74
     0
 42
0.00000001
 43
0.00000001
 40
0.0
 40
0.0
 40
0.0
 40
0.0
 40
0.2958756403265934
 40
0.5933360076831719
 40
1.0
 40
1.0
 40
1.0
 40
1.0
 10
34.02407115548275
 20
78.2271922610544
 30
0.0
 10
34.25077490351241
 20
77.83452985120073
 30
0.0
 10
34.70539663794874
 20
77.04710190893196
 30
0.0
 10
35.47687506998894
 20
75.71086206769476
 30
0.0
 10
36.01700661913625
 20
74.77532678180073
 30
0.0
 10
36.32895726980598
 20
74.23501240538658
 30
0.0
  0
LINE
  5
29A
330
1F
100
AcDbEntity
  8
0
  6
Continuous
 62
     7
370
    25
100
AcDbLine
 10
34.0240711555
 20
78.2271922611
 30
0.0
 11
34.5006157972
 21
78.3785369156
 31
0.0
  0
LINE
  5
29B
330
1F
100
AcDbEntity
  8
0
  6
Continuous
 62
     7
370
    25
100
AcDbLine
 10
36.3289572698
 20
74.2350124054
 30
0.0
 11
36.6982979062
 21
74.5720398439
 31
0.0
  0
ARC
  5
29C
330
1F
100
AcDbEntity
  8
0
  6
Continuous
 62
     7
370
    25
100
AcDbCircle
 10
44.2697809524
 20
81.4811023332
 30
0.0
 40
10.75
100
AcDbArc
 50
42.3807989171
 51
77.6192010829
  0
ARC
  5
29D
330
1F
100
AcDbEntity
  8
0
  6
Continuous
 62
     7
370
    25
100
AcDbCircle
 10
44.2697809524
 20
81.4811023332
 30
0.0
 40
10.75000000000001
100
AcDbArc
 50
102.3807989171
 51
137.6192010829
  0
ARC
  5
29E
330
1F
100
AcDbEntity
  8
0
  6
Continuous
 62
     7
370
    25
100
AcDbCircle
 10
44.2697809524
 20
81.4811023332
 30
0.0
 40
10.75
100
AcDbArc
 50
342.3807989171
 51
17.6192010829
  0
ARC
  5
29F
330
1F
100
AcDbEntity
  8
0
  6
Continuous
 62
     7
370
    25
100
AcDbCircle
 10
44.2697809524
 20
81.4811023332
 30
0.0
 40
10.75000000000001
100
AcDbArc
 50
162.3807989171
 51
197.6192010829
  0
ARC
  5
2A0
330
1F
100
AcDbEntity
  8
0
  6
Continuous
 62
     7
370
    25
100
AcDbCircle
 10
44.2697809524
 20
81.4811023332
 30
0.0
 40
10.75
100
AcDbArc
 50
282.3807989171
 51
317.6192010829
  0
ARC
  5
2A1
330
1F
100
AcDbEntity
  8
0
  6
Continuous
 62
     7
370
    25
100
AcDbCircle
 10
44.2697809524
 20
81.4811023332
 30
0.0
 40
10.75000000000001
100
AcDbArc
 50
222.3807989171
 51
257.6192010829
  0
SPLINE
  5
2A2
330
1F
100
AcDbEntity
  8
0
  6
Continuous
 62
     7
370
    25
100
AcDbSpline
210
0.0
220
0.0
230
1.0
 70
    24
 71
     3
 72
     9
 73
     5
 74
     0
 42
0.00000001
 43
0.00000001
 40
0.0
 40
0.0
 40
0.0
 40
0.0
 40
0.4985590461262294
 40
0.9999999999999999
 40
0.9999999999999999
 40
0.9999999999999999
 40
0.9999999999999999
 10
38.20760312588977
 20
91.98110233322045
 30
0.0
 10
37.89931221375763
 20
91.44712680989582
 30
0.0
 10
37.28094832180231
 20
90.37608913146316
 30
0.0
 10
36.64689671321901
 20
89.27787953077608
 30
0.0
 10
36.32895726980579
 20
88.72719226105421
 30
0.0
  0
SPLINE
  5
2A3
330
1F
100
AcDbEntity
  8
0
  6
Continuous
 62
     7
370
    25
100
AcDbSpline
210
0.0
220
0.0
230
1.0
 70
    24
 71
     3
 72
     9
 73
     5
 74
     0
 42
0.00000001
 43
0.00000001
 40
0.0
 40
0.0
 40
0.0
 40
0.0
 40
0.4983188677908569
 40
0.9999999999999999
 40
0.9999999999999999
 40
0.9999999999999999
 40
0.9999999999999999
 10
41.96489483805764
 20
91.98110233322049
 30
0.0
 10
41.33296415963861
 20
91.98110233322048
 30
0.0
 10
40.06483903080192
 20
91.98110233322046
 30
0.0
 10
38.82806787807394
 20
91.98110233322045
 30
0.0
 10
38.20760312588977
 20
91.98110233322045
 30
0.0
  0
SPLINE
  5
2A4
330
1F
100
AcDbEntity
  8
0
  6
Continuous
 62
     7
370
    25
100
AcDbSpline
210
0.0
220
0.0
230
1.0
 70
    24
 71
     3
 72
     9
 73
     5
 74
     0
 42
0.00000001
 43
0.00000001
 40
0.0
 40
0.0
 40
0.0
 40
0.0
 40
0.347291977838205
 40
1.0
 40
1.0
 40
1.0
 40
1.0
 10
50.33195877887194
 20
91.98110233322058
 30
0.0
 10
49.90318420220274
 20
91.98110233322058
 30
0.0
 10
48.66856145238224
 20
91.98110233322056
 30
0.0
 10
47.40161389867019
 20
91.98110233322055
 30
0.0
 10
46.57466706670407
 20
91.98110233322053
 30
0.0
  0
SPLINE
  5
2A5
330
1F
100
AcDbEntity
  8
0
  6
Continuous
 62
     7
370
    25
100
AcDbSpline
210
0.0
220
0.0
230
1.0
 70
    24
 71
     3
 72
     9
 73
     5
 74
     0
 42
0.00000001
 43
0.00000001
 40
0.0
 40
0.0
 40
0.0
 40
0.0
 40
0.4983188677908572
 40
1.0
 40
1.0
 40
1.0
 40
1.0
 10
52.21060463495591
 20
88.72719226105448
 30
0.0
 10
51.89463929574639
 20
89.2744602819961
 30
0.0
 10
51.26057673132803
 20
90.37268885874609
 30
0.0
 10
50.64219115496404
 20
91.44376409567627
 30
0.0
 10
50.33195877887194
 20
91.98110233322058
 30
0.0
  0
SPLINE
  5
2A6
330
1F
100
AcDbEntity
  8
0
  6
Continuous
 62
     7
370
    25
100
AcDbSpline
210
0.0
220
0.0
230
1.0
 70
    24
 71
     3
 72
     9
 73
     5
 74
     0
 42
0.00000001
 43
0.00000001
 40
0.0
 40
0.0
 40
0.0
 40
0.0
 40
0.4985590461262311
 40
1.0
 40
1.0
 40
1.0
 40
1.0
 10
38.20760312588992
 20
70.98110233322048
 30
0.0
 10
38.82418495015419
 20
70.98110233322049
 30
0.0
 10
40.06091273406477
 20
70.98110233322049
 30
0.0
 10
41.32901595123136
 20
70.98110233322049
 30
0.0
 10
41.96489483805777
 20
70.98110233322049
 30
0.0
  0
SPLINE
  5
2A7
330
1F
100
AcDbEntity
  8
0
  6
Continuous
 62
     7
370
    25
100
AcDbSpline
210
0.0
220
0.0
230
1.0
 70
    24
 71
     3
 72
     9
 73
     5
 74
     0
 42
0.00000001
 43
0.00000001
 40
0.0
 40
0.0
 40
0.0
 40
0.0
 40
0.4983188677908569
 40
1.0
 40
1.0
 40
1.0
 40
1.0
 10
36.32895726980598
 20
74.23501240538658
 30
0.0
 10
36.6449226090155
 20
73.68774438444497
 30
0.0
 10
37.27898517343384
 20
72.589515807695
 30
0.0
 10
37.89737074979783
 20
71.5184405707648
 30
0.0
 10
38.20760312588992
 20
70.98110233322048
 30
0.0
  0
SPLINE
  5
2A8
330
1F
100
AcDbEntity
  8
0
  6
Continuous
 62
     7
370
    25
100
AcDbSpline
210
0.0
220
0.0
230
1.0
 70
    24
 71
     3
 72
     9
 73
     5
 74
     0
 42
0.00000001
 43
0.00000001
 40
0.0
 40
0.0
 40
0.0
 40
0.0
 40
0.4983188677908571
 40
1.0
 40
1.0
 40
1.0
 40
1.0
 10
54.5154907492792
 20
78.22719226105447
 30
0.0
 10
54.83145608848871
 20
78.7744602819961
 30
0.0
 10
55.46551865290705
 20
79.87268885874609
 30
0.0
 10
56.08390422927103
 20
80.94376409567627
 30
0.0
 10
56.39413660536312
 20
81.48110233322059
 30
0.0
  0
SPLINE
  5
2A9
330
1F
100
AcDbEntity
  8
0
  6
Continuous
 62
     7
370
    25
100
AcDbSpline
210
0.0
220
0.0
230
1.0
 70
    24
 71
     3
 72
     9
 73
     5
 74
     0
 42
0.00000001
 43
0.00000001
 40
0.0
 40
0.0
 40
0.0
 40
0.0
 40
0.49855904612623
 40
1.0
 40
1.0
 40
1.0
 40
1.0
 10
56.39413660536312
 20
81.48110233322059
 30
0.0
 10
56.08584569323098
 20
82.0150778565452
 30
0.0
 10
55.46748180127567
 20
83.08611553497781
 30
0.0
 10
54.83343019269236
 20
84.18432513566485
 30
0.0
 10
54.51549074927915
 20
84.73501240538668
 30
0.0
  0
SPLINE
  5
2AA
330
1F
100
AcDbEntity
  8
0
  6
Continuous
 62
     7
370
    25
100
AcDbSpline
210
0.0
220
0.0
230
1.0
 70
    24
 71
     3
 72
     9
 73
     5
 74
     0
 42
0.00000001
 43
0.00000001
 40
0.0
 40
0.0
 40
0.0
 40
0.0
 40
0.49855904612623
 40
1.0
 40
1.0
 40
1.0
 40
1.0
 10
32.14542529939882
 20
81.4811023332205
 30
0.0
 10
32.45371621153095
 20
80.94712680989589
 30
0.0
 10
33.07208010348625
 20
79.8760891314633
 30
0.0
 10
33.70613171206955
 20
78.77787953077625
 30
0.0
 10
34.02407115548275
 20
78.2271922610544
 30
0.0
  0
SPLINE
  5
2AB
330
1F
100
AcDbEntity
  8
0
  6
Continuous
 62
     7
370
    25
100
AcDbSpline
210
0.0
220
0.0
230
1.0
 70
    24
 71
     3
 72
     9
 73
     5
 74
     0
 42
0.00000001
 43
0.00000001
 40
0.0
 40
0.0
 40
0.0
 40
0.0
 40
0.4983188677908567
 40
1.0
 40
1.0
 40
1.0
 40
1.0
 10
34.02407115548279
 20
84.73501240538674
 30
0.0
 10
33.70810581627327
 20
84.1877443844451
 30
0.0
 10
33.07404325185491
 20
83.08951580769507
 30
0.0
 10
32.45565767549091
 20
82.01844057076484
 30
0.0
 10
32.14542529939882
 20
81.4811023332205
 30
0.0
  0
SPLINE
  5
2AC
330
1F
100
AcDbEntity
  8
0
  6
Continuous
 62
     7
370
    25
100
AcDbSpline
210
0.0
220
0.0
230
1.0
 70
    24
 71
     3
 72
     9
 73
     5
 74
     0
 42
0.00000001
 43
0.00000001
 40
0.0
 40
0.0
 40
0.0
 40
0.0
 40
0.6527080222302645
 40
1.0
 40
1.0
 40
1.0
 40
1.0
 10
46.57466706670422
 20
70.98110233322052
 30
0.0
 10
47.40161389875671
 20
70.98110233322052
 30
0.0
 10
48.6685614524682
 20
70.98110233322052
 30
0.0
 10
49.90318420228775
 20
70.98110233322052
 30
0.0
 10
50.33195877887209
 20
70.98110233322052
 30
0.0
  0
SPLINE
  5
2AD
330
1F
100
AcDbEntity
  8
0
  6
Continuous
 62
     7
370
    25
100
AcDbSpline
210
0.0
220
0.0
230
1.0
 70
    24
 71
     3
 72
     9
 73
     5
 74
     0
 42
0.00000001
 43
0.00000001
 40
0.0
 40
0.0
 40
0.0
 40
0.0
 40
0.4985590461262299
 40
1.0
 40
1.0
 40
1.0
 40
1.0
 10
50.33195877887209
 20
70.98110233322052
 30
0.0
 10
50.64024969100422
 20
71.51507785654513
 30
0.0
 10
51.25861358295951
 20
72.58611553497775
 30
0.0
 10
51.8926651915428
 20
73.68432513566479
 30
0.0
 10
52.21060463495601
 20
74.23501240538664
 30
0.0
  0
CIRCLE
  5
2AE
330
1F
100
AcDbEntity
  8
0
  6
Continuous
 62
     7
370
    25
100
AcDbCircle
 10
44.2697809524
 20
81.4811023332
 30
0.0
 40
5.050000000000018
  0
CIRCLE
  5
2AF
330
1F
100
AcDbEntity
  8
0
  6
Continuous
 62
     7
370
    25
100
AcDbCircle
 10
44.2697809524
 20
81.4811023332
 30
0.0
 40
3.999999999999986
  0
LINE
  5
2B0
330
1F
100
AcDbEntity
  8
0
  6
Continuous
 62
     7
370
    25
100
AcDbLine
 10
56.5210059526
 20
73.1501023332
 30
0.0
 11
56.5210059526
 21
89.8121023332
 31
0.0
  0
LINE
  5
2B1
330
1F
100
AcDbEntity
  8
0
  6
Continuous
 62
     7
370
    25
100
AcDbLine
 10
32.0185559521
 20
73.1501023332
 30
0.0
 11
32.0185559521
 21
89.8121023332
 31
0.0
  0
SPLINE
  5
2B2
330
1F
100
AcDbEntity
  8
0
  6
Continuous
 62
     7
370
    25
100
AcDbSpline
210
0.0
220
0.0
230
1.0
 70
     8
 71
     3
 72
    12
 73
     8
 74
     0
 42
0.00000001
 43
0.00000001
 40
0.0
 40
0.0
 40
0.0
 40
0.0
 40
0.25
 40
0.25
 40
0.5
 40
0.5
 40
1.0
 40
1.0
 40
1.0
 40
1.0
 10
42.76978095238097
 20
77.7730030896727
 30
0.0
 10
43.01251826665047
 20
77.80156325050709
 30
0.0
 10
43.2580005452086
 20
77.82822915866474
 30
0.0
 10
43.75883267502625
 20
77.8671960804985
 30
0.0
 10
44.01778472494536
 20
77.87901070281478
 30
0.0
 10
44.78418097709067
 20
77.87870911356302
 30
0.0
 10
45.28066760440509
 20
77.83055153839999
 30
0.0
 10
45.76978095238098
 20
77.77300308967268
 30
0.0
  0
SPLINE
  5
2B3
330
1F
100
AcDbEntity
  8
0
  6
Continuous
 62
     7
370
    25
100
AcDbSpline
210
0.0
220
0.0
230
1.0
 70
     8
 71
     3
 72
    12
 73
     8
 74
     0
 42
0.00000001
 43
0.00000001
 40
0.0
 40
0.0
 40
0.0
 40
0.0
 40
0.25
 40
0.25
 40
0.5
 40
0.5
 40
1.0
 40
1.0
 40
1.0
 40
1.0
 10
45.76978095238098
 20
85.18920157676834
 30
0.0
 10
45.52704363811149
 20
85.16064141593394
 30
0.0
 10
45.28156135955335
 20
85.13397550777627
 30
0.0
 10
44.78072922973571
 20
85.09500858594254
 30
0.0
 10
44.5217771798166
 20
85.08319396362623
 30
0.0
 10
43.75538092767128
 20
85.08349555287799
 30
0.0
 10
43.25889430035686
 20
85.13165312804104
 30
0.0
 10
42.76978095238097
 20
85.18920157676834
 30
0.0
  0
LINE
  5
2B4
330
1F
100
AcDbEntity
  8
0
  6
Continuous
 62
     7
370
    25
100
AcDbLine
 10
36.793653175
 20
88.4712483044
 30
0.0
 11
36.7870586417
 21
88.4739704104
 31
0.0
  0
LINE
  5
2B5
330
1F
100
AcDbEntity
  8
0
  6
Continuous
 62
     7
370
    25
100
AcDbLine
 10
51.7525032628
 20
74.4882342561
 30
0.0
 11
51.7697809524
 21
74.4811023332
 31
0.0
  0
LINE
  5
2B6
330
1F
100
AcDbEntity
  8
0
  6
Continuous
 62
     7
370
    25
100
AcDbLine
 10
51.7697809524
 20
88.4811023332
 30
0.0
 11
51.7459811121
 21
88.4712014878
 31
0.0
  0
SPLINE
  5
2B7
330
1F
100
AcDbEntity
  8
0
  6
Continuous
 62
     7
370
    25
100
AcDbSpline
210
0.0
220
0.0
230
1.0
 70
     8
 71
     3
 72
     9
 73
     5
 74
     0
 42
0.00000001
 43
0.00000001
 40
0.0
 40
0.0
 40
0.0
 40
0.0
 40
0.5460755271011032
 40
1.0
 40
1.0
 40
1.0
 40
1.0
 10
15.61323102813988
 20
91.49273024019726
 30
0.0
 10
15.62624821313839
 20
91.5687642794286
 30
0.0
 10
15.65008591388214
 20
91.70800150112754
 30
0.0
 10
15.66233379653664
 20
91.71643608201396
 30
0.0
 10
15.66789341021471
 20
91.72026474469693
 30
0.0
  0
SPLINE
  5
2B8
330
1F
100
AcDbEntity
  8
0
  6
Continuous
 62
     7
370
    25
100
AcDbSpline
210
0.0
220
0.0
230
1.0
 70
     8
 71
     3
 72
    10
 73
     6
 74
     0
 42
0.00000001
 43
0.00000001
 40
0.0
 40
0.0
 40
0.0
 40
0.0
 40
0.0997807577391907
 40
0.5477793887774237
 40
1.0
 40
1.0
 40
1.0
 40
1.0
 10
15.66789341021045
 20
71.24193992175191
 30
0.0
 10
15.66968233446151
 20
71.23849488777273
 30
0.0
 10
15.67950322433063
 20
71.2195822371757
 30
0.0
 10
15.63278863611966
 20
71.28874642591109
 30
0.0
 10
15.61977058212587
 20
71.40904369687347
 30
0.0
 10
15.61323102813988
 20
71.46947442624378
 30
0.0
  0
SPLINE
  5
2B9
330
1F
100
AcDbEntity
  8
0
  6
Continuous
 62
     7
370
    25
100
AcDbSpline
210
0.0
220
0.0
230
1.0
 70
     8
 71
     3
 72
    10
 73
     6
 74
     0
 42
0.00000001
 43
0.00000001
 40
0.0
 40
0.0
 40
0.0
 40
0.0
 40
0.0997807576586072
 40
0.5477793887365471
 40
1.0
 40
1.0
 40
1.0
 40
1.0
 10
72.87166849454724
 20
91.72026474469692
 30
0.0
 10
72.86987957029744
 20
91.72370977867381
 30
0.0
 10
72.86005868042808
 20
91.74262242927212
 30
0.0
 10
72.9067732686389
 20
91.67345824054254
 30
0.0
 10
72.91979132263495
 20
91.55316096957182
 30
0.0
 10
72.92633087662206
 20
91.49273024019725
 30
0.0
  0
SPLINE
  5
2BA
330
1F
100
AcDbEntity
  8
0
  6
Continuous
 62
     7
370
    25
100
AcDbSpline
210
0.0
220
0.0
230
1.0
 70
     8
 71
     3
 72
     9
 73
     5
 74
     0
 42
0.00000001
 43
0.00000001
 40
0.0
 40
0.0
 40
0.0
 40
0.0
 40
0.5460755271406283
 40
1.0
 40
1.0
 40
1.0
 40
1.0
 10
72.92633087662206
 20
71.46947442624374
 30
0.0
 10
72.91331369162143
 20
71.3934403870067
 30
0.0
 10
72.88947599087551
 20
71.25420316530742
 30
0.0
 10
72.87722810822657
 20
71.24576858443034
 30
0.0
 10
72.8716684945515
 20
71.24193992175192
 30
0.0
  0
LINE
  5
2BB
330
1F
100
AcDbEntity
  8
0
  6
Continuous
 62
     7
370
    25
100
AcDbLine
 10
32.2394747981
 20
73.6811023332
 30
0.0
 11
32.2394747981
 21
81.3175012452
 31
0.0
  0
LINE
  5
2BC
330
1F
100
AcDbEntity
  8
0
  6
Continuous
 62
     7
370
    25
100
AcDbLine
 10
32.2394747981
 20
81.6439009822
 30
0.0
 11
32.2394747981
 21
89.2811023332
 31
0.0
  0
LINE
  5
2BD
330
1F
100
AcDbEntity
  8
0
  6
Continuous
 62
     7
370
    25
100
AcDbLine
 10
56.3000871067
 20
89.2811023332
 30
0.0
 11
56.3000871067
 21
81.6444231542
 31
0.0
  0
LINE
  5
2BE
330
1F
100
AcDbEntity
  8
0
  6
Continuous
 62
     7
370
    25
100
AcDbLine
 10
56.3000871067
 20
81.3180535996
 30
0.0
 11
56.3000871067
 21
73.6811023332
 31
0.0
  0
LINE
  5
2BF
330
1F
100
AcDbEntity
  8
0
  6
Continuous
 62
     7
370
    25
100
AcDbLine
 10
33.2192706952
 20
88.4811023332
 30
0.0
 11
33.2192706952
 21
83.3458583673
 31
0.0
  0
LINE
  5
2C0
330
1F
100
AcDbEntity
  8
0
  6
Continuous
 62
     7
370
    25
100
AcDbLine
 10
33.2192706952
 20
79.6099626366
 30
0.0
 11
33.2192706952
 21
74.4811023332
 31
0.0
  0
LINE
  5
2C1
330
1F
100
AcDbEntity
  8
0
  6
Continuous
 62
     7
370
    25
100
AcDbLine
 10
55.3202912096
 20
74.4811023332
 30
0.0
 11
55.3202912096
 21
79.6162896712
 31
0.0
  0
LINE
  5
2C2
330
1F
100
AcDbEntity
  8
0
  6
Continuous
 62
     7
370
    25
100
AcDbLine
 10
55.3202912096
 20
83.351279016
 30
0.0
 11
55.3202912096
 21
88.4811023332
 31
0.0
  0
LINE
  5
2C3
330
1F
100
AcDbEntity
  8
0
  6
Continuous
 62
     7
370
    25
100
AcDbLine
 10
52.1520380768
 20
74.9931070199
 30
0.0
 11
52.1142377698
 21
74.9145202695
 31
0.0
  0
MTEXT
  5
2C5
330
1F
100
AcDbEntity
  8
0
  6
Continuous
 62
     7
370
     0
100
AcDbMText
 10
66.148816427
 20
64.9822115907
 30
0.0
 40
3.5
 41
0.0
 71
     1
 72
     1
  1
三方リングチーズ　RT-3310R
  7
SLDTEXTSTYLE0
 73
     1
 44
1.0
  0
INSERT
  5
2D1
330
1F
100
AcDbEntity
  8
0
  6
Continuous
 62
     7
370
    18
100
AcDbBlockReference
  2
SW_CENTERMARKSYMBOL_1
 10
44.2697809524
 20
81.4811023332
 30
0.0
  0
ENDSEC
  0
SECTION
  2
OBJECTS
  0
DICTIONARY
  5
C
330
0
100
AcDbDictionary
281
     1
  3
ACAD_GROUP
350
D
  3
ACAD_LAYOUT
350
1A
  3
ACAD_MLINESTYLE
350
17
  3
ACAD_PLOTSETTINGS
350
19
  3
ACAD_PLOTSTYLENAME
350
E
  3
ACAD_SCALELIST
350
47
  3
DWGPROPS
350
2D2
  0
DICTIONARY
  5
D
102
{ACAD_REACTORS
330
C
102
}
330
C
100
AcDbDictionary
281
     1
  0
DICTIONARY
  5
1A
102
{ACAD_REACTORS
330
C
102
}
330
C
100
AcDbDictionary
281
     1
  3
Layout1
350
1E
  3
Layout2
350
26
  3
Model
350
22
  0
DICTIONARY
  5
17
102
{ACAD_REACTORS
330
C
102
}
330
C
100
AcDbDictionary
281
     1
  3
Standard
350
18
  0
DICTIONARY
  5
19
102
{ACAD_REACTORS
330
C
102
}
330
C
100
AcDbDictionary
281
     1
  0
ACDBDICTIONARYWDFLT
  5
E
102
{ACAD_REACTORS
330
C
102
}
330
C
100
AcDbDictionary
281
     1
  3
Normal
350
F
100
AcDbDictionaryWithDefault
340
F
  0
DICTIONARY
  5
47
102
{ACAD_REACTORS
330
C
102
}
330
C
100
AcDbDictionary
281
     1
  3
A0
350
48
  3
A1
350
49
  3
A2
350
4A
  3
A3
350
4B
  3
A4
350
4C
  3
A5
350
4D
  3
A6
350
4E
  3
A7
350
4F
  3
A8
350
50
  3
A9
350
51
  3
B0
350
52
  3
B1
350
53
  3
B2
350
54
  3
B3
350
55
  3
B4
350
56
  3
B5
350
57
  3
B6
350
58
  0
XRECORD
  5
2D2
102
{ACAD_REACTORS
330
C
102
}
330
C
100
AcDbXrecord
280
     1
  1
DWGPROPS COOKIE
  2

  3

  4

  6

  7

  8
user52
  9

300
=
301
=
302
=
303
=
304
=
305
=
306
=
307
=
308
=
309
=
 40
0.0
 41
2460279.34497463
 42
2460279.34497522
  1

 90
        0
  0
LAYOUT
  5
1E
102
{ACAD_REACTORS
330
1A
102
}
330
1A
100
AcDbPlotSettings
  1

  2
none_device
  4

  6

 40
0.0
 41
0.0
 42
0.0
 43
0.0
 44
0.0
 45
0.0
 46
0.0
 47
0.0
 48
0.0
 49
0.0
140
0.0
141
0.0
142
1.0
143
1.0
 70
   688
 72
     1
 73
     0
 74
     5
  7

 75
    16
147
1.0
148
0.0
149
0.0
100
AcDbLayout
  1
Layout1
 70
     1
 71
     1
 10
0.0
 20
0.0
 11
420.0
 21
297.0
 12
0.0
 22
0.0
 32
0.0
 14
1.0000000000E+20
 24
1.0000000000E+20
 34
1.0000000000E+20
 15
-1.0000000000E+20
 25
-1.0000000000E+20
 35
-1.0000000000E+20
146
0.0
 13
0.0
 23
0.0
 33
0.0
 16
1.0
 26
0.0
 36
0.0
 17
0.0
 27
1.0
 37
0.0
 76
     0
330
1B
  0
LAYOUT
  5
26
102
{ACAD_REACTORS
330
1A
102
}
330
1A
100
AcDbPlotSettings
  1

  2
none_device
  4

  6

 40
0.0
 41
0.0
 42
0.0
 43
0.0
 44
0.0
 45
0.0
 46
0.0
 47
0.0
 48
0.0
 49
0.0
140
0.0
141
0.0
142
1.0
143
1.0
 70
   688
 72
     1
 73
     0
 74
     5
  7

 75
    16
147
1.0
148
0.0
149
0.0
100
AcDbLayout
  1
Layout2
 70
     1
 71
     2
 10
0.0
 20
0.0
 11
0.0
 21
0.0
 12
0.0
 22
0.0
 32
0.0
 14
0.0
 24
0.0
 34
0.0
 15
0.0
 25
0.0
 35
0.0
146
0.0
 13
0.0
 23
0.0
 33
0.0
 16
1.0
 26
0.0
 36
0.0
 17
0.0
 27
1.0
 37
0.0
 76
     0
330
23
  0
LAYOUT
  5
22
102
{ACAD_REACTORS
330
1A
102
}
330
1A
100
AcDbPlotSettings
  1

  2
none_device
  4
Letter_(8.50_x_11.00_Inches)
  6

 40
6.35
 41
6.35
 42
6.35000508
 43
6.35000508
 44
215.9
 45
279.4
 46
0.0
 47
0.0
 48
0.0
 49
0.0
140
0.0
141
0.0
142
1.0
143
1.0
 70
  1712
 72
     1
 73
     0
 74
     0
  7

 75
     0
147
1.0
148
0.0
149
0.0
100
AcDbLayout
  1
Model
 70
     1
 71
     0
 10
0.0
 20
0.0
 11
431.8
 21
279.4
 12
0.0
 22
0.0
 32
0.0
 14
0.0
 24
0.0
 34
0.0
 15
431.8
 25
279.4
 35
0.0
146
0.0
 13
0.0
 23
0.0
 33
0.0
 16
1.0
 26
0.0
 36
0.0
 17
0.0
 27
1.0
 37
0.0
 76
     0
330
1F
331
29
  0
MLINESTYLE
  5
18
102
{ACAD_REACTORS
330
17
102
}
330
17
100
AcDbMlineStyle
  2
Standard
 70
     0
  3

 62
   256
 51
90.0
 52
90.0
 71
     2
 49
0.5
 62
   256
  6
BYLAYER
 49
-0.5
 62
   256
  6
BYLAYER
  0
ACDBPLACEHOLDER
  5
F
102
{ACAD_REACTORS
330
E
102
}
330
E
  0
SCALE
  5
48
102
{ACAD_REACTORS
330
47
102
}
330
47
100
AcDbScale
 70
     0
300
1:1
140
1.0
141
1.0
290
     1
  0
SCALE
  5
49
102
{ACAD_REACTORS
330
47
102
}
330
47
100
AcDbScale
 70
     0
300
1:2
140
1.0
141
2.0
290
     0
  0
SCALE
  5
4A
102
{ACAD_REACTORS
330
47
102
}
330
47
100
AcDbScale
 70
     0
300
1:4
140
1.0
141
4.0
290
     0
  0
SCALE
  5
4B
102
{ACAD_REACTORS
330
47
102
}
330
47
100
AcDbScale
 70
     0
300
1:5
140
1.0
141
5.0
290
     0
  0
SCALE
  5
4C
102
{ACAD_REACTORS
330
47
102
}
330
47
100
AcDbScale
 70
     0
300
1:8
140
1.0
141
8.0
290
     0
  0
SCALE
  5
4D
102
{ACAD_REACTORS
330
47
102
}
330
47
100
AcDbScale
 70
     0
300
1:10
140
1.0
141
10.0
290
     0
  0
SCALE
  5
4E
102
{ACAD_REACTORS
330
47
102
}
330
47
100
AcDbScale
 70
     0
300
1:16
140
1.0
141
16.0
290
     0
  0
SCALE
  5
4F
102
{ACAD_REACTORS
330
47
102
}
330
47
100
AcDbScale
 70
     0
300
1:20
140
1.0
141
20.0
290
     0
  0
SCALE
  5
50
102
{ACAD_REACTORS
330
47
102
}
330
47
100
AcDbScale
 70
     0
300
1:30
140
1.0
141
30.0
290
     0
  0
SCALE
  5
51
102
{ACAD_REACTORS
330
47
102
}
330
47
100
AcDbScale
 70
     0
300
1:40
140
1.0
141
40.0
290
     0
  0
SCALE
  5
52
102
{ACAD_REACTORS
330
47
102
}
330
47
100
AcDbScale
 70
     0
300
1:50
140
1.0
141
50.0
290
     0
  0
SCALE
  5
53
102
{ACAD_REACTORS
330
47
102
}
330
47
100
AcDbScale
 70
     0
300
1:100
140
1.0
141
100.0
290
     0
  0
SCALE
  5
54
102
{ACAD_REACTORS
330
47
102
}
330
47
100
AcDbScale
 70
     0
300
2:1
140
2.0
141
1.0
290
     0
  0
SCALE
  5
55
102
{ACAD_REACTORS
330
47
102
}
330
47
100
AcDbScale
 70
     0
300
4:1
140
4.0
141
1.0
290
     0
  0
SCALE
  5
56
102
{ACAD_REACTORS
330
47
102
}
330
47
100
AcDbScale
 70
     0
300
8:1
140
8.0
141
1.0
290
     0
  0
SCALE
  5
57
102
{ACAD_REACTORS
330
47
102
}
330
47
100
AcDbScale
 70
     0
300
10:1
140
10.0
141
1.0
290
     0
  0
SCALE
  5
58
102
{ACAD_REACTORS
330
47
102
}
330
47
100
AcDbScale
 70
     0
300
100:1
140
100.0
141
1.0
290
     0
  0
ENDSEC
  0
EOF
