  0
SECTION
  2
HEADER
  9
$ACADVER
  1
AC1015
  9
$ACADMAINTVER
 70
     6
  9
$DWGCODEPAGE
  3
DOS932
  9
$INSBASE
 10
0.0
 20
0.0
 30
0.0
  9
$EXTMIN
 10
0.0
 20
0.0
 30
0.0
  9
$EXTMAX
 10
431.8
 20
279.4
 30
0.0
  9
$LIMMIN
 10
0.0
 20
0.0
  9
$LIMMAX
 10
431.8
 20
279.4
  9
$ORTHOMODE
 70
     0
  9
$REGENMODE
 70
     1
  9
$FILLMODE
 70
     1
  9
$QTEXTMODE
 70
     0
  9
$MIRRTEXT
 70
     1
  9
$LTSCALE
 40
1.0
  9
$ATTMODE
 70
     1
  9
$TEXTSIZE
 40
3.5
  9
$TRACEWID
 40
1.0
  9
$TEXTSTYLE
  7
Standard
  9
$CLAYER
  8
0
  9
$CELTYPE
  6
ByLayer
  9
$CECOLOR
 62
   256
  9
$CELTSCALE
 40
1.0
  9
$DISPSILH
 70
     0
  9
$DIMSCALE
 40
1.0
  9
$DIMASZ
 40
3.556
  9
$DIMEXO
 40
1.0
  9
$DIMDLI
 40
3.75
  9
$DIMRND
 40
0.0
  9
$DIMDLE
 40
0.0
  9
$DIMEXE
 40
1.0
  9
$DIMTP
 40
0.0
  9
$DIMTM
 40
0.0
  9
$DIMTXT
 40
3.5
  9
$DIMCEN
 40
2.5
  9
$DIMTSZ
 40
0.0
  9
$DIMTOL
 70
     0
  9
$DIMLIM
 70
     0
  9
$DIMTIH
 70
     1
  9
$DIMTOH
 70
     1
  9
$DIMSE1
 70
     0
  9
$DIMSE2
 70
     0
  9
$DIMTAD
 70
     1
  9
$DIMZIN
 70
     0
  9
$DIMBLK
  1

  9
$DIMASO
 70
     1
  9
$DIMSHO
 70
     1
  9
$DIMPOST
  1

  9
$DIMAPOST
  1

  9
$DIMALT
 70
     0
  9
$DIMALTD
 70
     3
  9
$DIMALTF
 40
0.0393700787
  9
$DIMLFAC
 40
1.0
  9
$DIMTOFL
 70
     1
  9
$DIMTVP
 40
0.0
  9
$DIMTIX
 70
     0
  9
$DIMSOXD
 70
     0
  9
$DIMSAH
 70
     0
  9
$DIMBLK1
  1

  9
$DIMBLK2
  1

  9
$DIMSTYLE
  2
ISO-25
  9
$DIMCLRD
 70
     0
  9
$DIMCLRE
 70
     0
  9
$DIMCLRT
 70
     0
  9
$DIMTFAC
 40
1.0
  9
$DIMGAP
 40
1.524
  9
$DIMJUST
 70
     0
  9
$DIMSD1
 70
     0
  9
$DIMSD2
 70
     0
  9
$DIMTOLJ
 70
     0
  9
$DIMTZIN
 70
     0
  9
$DIMALTZ
 70
     0
  9
$DIMALTTZ
 70
     0
  9
$DIMUPT
 70
     0
  9
$DIMDEC
 70
     3
  9
$DIMTDEC
 70
     3
  9
$DIMALTU
 70
     2
  9
$DIMALTTD
 70
     3
  9
$DIMTXSTY
  7
Standard
  9
$DIMAUNIT
 70
     0
  9
$DIMADEC
 70
     2
  9
$DIMALTRND
 40
0.0
  9
$DIMAZIN
 70
     0
  9
$DIMDSEP
 70
    44
  9
$DIMATFIT
 70
     3
  9
$DIMFRAC
 70
     0
  9
$DIMLDRBLK
  1

  9
$DIMLUNIT
 70
     2
  9
$DIMLWD
 70
    -2
  9
$DIMLWE
 70
    -2
  9
$DIMTMOVE
 70
     0
  9
$LUNITS
 70
     2
  9
$LUPREC
 70
     3
  9
$SKETCHINC
 40
1.0
  9
$FILLETRAD
 40
0.0
  9
$AUNITS
 70
     0
  9
$AUPREC
 70
     2
  9
$MENU
  1
.
  9
$ELEVATION
 40
0.0
  9
$PELEVATION
 40
0.0
  9
$THICKNESS
 40
0.0
  9
$LIMCHECK
 70
     0
  9
$CHAMFERA
 40
0.0
  9
$CHAMFERB
 40
0.0
  9
$CHAMFERC
 40
0.0
  9
$CHAMFERD
 40
0.0
  9
$SKPOLY
 70
     0
  9
$TDCREATE
 40
2460279.718089364
  9
$TDUCREATE
 40
2460279.343089364
  9
$TDUPDATE
 40
2460279.718089838
  9
$TDUUPDATE
 40
2460279.343089838
  9
$TDINDWG
 40
0.0000000116
  9
$TDUSRTIMER
 40
0.0000000116
  9
$USRTIMER
 70
     1
  9
$ANGBASE
 50
0.0
  9
$ANGDIR
 70
     0
  9
$PDMODE
 70
     0
  9
$PDSIZE
 40
-1.0
  9
$PLINEWID
 40
0.0
  9
$SPLFRAME
 70
     0
  9
$SPLINETYPE
 70
     6
  9
$SPLINESEGS
 70
     8
  9
$HANDSEED
  5
24C
  9
$SURFTAB1
 70
     6
  9
$SURFTAB2
 70
     6
  9
$SURFTYPE
 70
     6
  9
$SURFU
 70
     6
  9
$SURFV
 70
     6
  9
$UCSBASE
  2

  9
$UCSNAME
  2

  9
$UCSORG
 10
0.0
 20
0.0
 30
0.0
  9
$UCSXDIR
 10
1.0
 20
0.0
 30
0.0
  9
$UCSYDIR
 10
0.0
 20
1.0
 30
0.0
  9
$UCSORTHOREF
  2

  9
$UCSORTHOVIEW
 70
     0
  9
$UCSORGTOP
 10
0.0
 20
0.0
 30
0.0
  9
$UCSORGBOTTOM
 10
0.0
 20
0.0
 30
0.0
  9
$UCSORGLEFT
 10
0.0
 20
0.0
 30
0.0
  9
$UCSORGRIGHT
 10
0.0
 20
0.0
 30
0.0
  9
$UCSORGFRONT
 10
0.0
 20
0.0
 30
0.0
  9
$UCSORGBACK
 10
0.0
 20
0.0
 30
0.0
  9
$PUCSBASE
  2

  9
$PUCSNAME
  2

  9
$PUCSORG
 10
0.0
 20
0.0
 30
0.0
  9
$PUCSXDIR
 10
1.0
 20
0.0
 30
0.0
  9
$PUCSYDIR
 10
0.0
 20
1.0
 30
0.0
  9
$PUCSORTHOREF
  2

  9
$PUCSORTHOVIEW
 70
     0
  9
$PUCSORGTOP
 10
0.0
 20
0.0
 30
0.0
  9
$PUCSORGBOTTOM
 10
0.0
 20
0.0
 30
0.0
  9
$PUCSORGLEFT
 10
0.0
 20
0.0
 30
0.0
  9
$PUCSORGRIGHT
 10
0.0
 20
0.0
 30
0.0
  9
$PUCSORGFRONT
 10
0.0
 20
0.0
 30
0.0
  9
$PUCSORGBACK
 10
0.0
 20
0.0
 30
0.0
  9
$USERI1
 70
     0
  9
$USERI2
 70
     0
  9
$USERI3
 70
     0
  9
$USERI4
 70
     0
  9
$USERI5
 70
     0
  9
$USERR1
 40
0.0
  9
$USERR2
 40
0.0
  9
$USERR3
 40
0.0
  9
$USERR4
 40
0.0
  9
$USERR5
 40
0.0
  9
$WORLDVIEW
 70
     1
  9
$SHADEDGE
 70
     3
  9
$SHADEDIF
 70
    70
  9
$TILEMODE
 70
     1
  9
$MAXACTVP
 70
    64
  9
$PINSBASE
 10
0.0
 20
0.0
 30
0.0
  9
$PLIMCHECK
 70
     0
  9
$PEXTMIN
 10
1.0000000000E+20
 20
1.0000000000E+20
 30
1.0000000000E+20
  9
$PEXTMAX
 10
-1.0000000000E+20
 20
-1.0000000000E+20
 30
-1.0000000000E+20
  9
$PLIMMIN
 10
0.0
 20
0.0
  9
$PLIMMAX
 10
420.0
 20
297.0
  9
$UNITMODE
 70
     0
  9
$VISRETAIN
 70
     1
  9
$PLINEGEN
 70
     0
  9
$PSLTSCALE
 70
     1
  9
$TREEDEPTH
 70
  3020
  9
$CMLSTYLE
  2
Standard
  9
$CMLJUST
 70
     0
  9
$CMLSCALE
 40
20.0
  9
$PROXYGRAPHICS
 70
     1
  9
$MEASUREMENT
 70
     1
  9
$CELWEIGHT
370
    -1
  9
$ENDCAPS
280
     0
  9
$JOINSTYLE
280
     0
  9
$LWDISPLAY
290
     1
  9
$INSUNITS
 70
     4
  9
$HYPERLINKBASE
  1

  9
$STYLESHEET
  1

  9
$XEDIT
290
     1
  9
$CEPSNTYPE
380
     0
  9
$PSTYLEMODE
290
     1
  9
$FINGERPRINTGUID
  2
{c89e7884-bd74-4ba7-8a69-17268eedc93a}
  9
$VERSIONGUID
  2
{FAEB1C32-E019-11D5-929B-00C0DF256EC4}
  9
$EXTNAMES
290
     1
  9
$PSVPSCALE
 40
0.0
  9
$OLESTARTUP
290
     0
  0
ENDSEC
  0
SECTION
  2
CLASSES
  0
CLASS
  1
ACDBDICTIONARYWDFLT
  2
AcDbDictionaryWithDefault
  3
ObjectDBX Classes
 90
        0
280
     0
281
     0
  0
CLASS
  1
VISUALSTYLE
  2
AcDbVisualStyle
  3
ObjectDBX Classes
 90
     4095
280
     0
281
     0
  0
CLASS
  1
MATERIAL
  2
AcDbMaterial
  3
ObjectDBX Classes
 90
     1153
280
     0
281
     0
  0
CLASS
  1
SCALE
  2
AcDbScale
  3
ObjectDBX Classes
 90
     1153
280
     0
281
     0
  0
CLASS
  1
TABLESTYLE
  2
AcDbTableStyle
  3
ObjectDBX Classes
 90
     4095
280
     0
281
     0
  0
CLASS
  1
MLEADERSTYLE
  2
AcDbMLeaderStyle
  3
ACDB_MLEADERSTYLE_CLASS
 90
     4095
280
     0
281
     0
  0
CLASS
  1
SUN
  2
AcDbSun
  3
SCENEOE
 90
     1153
280
     0
281
     0
  0
CLASS
  1
ACDBPLACEHOLDER
  2
AcDbPlaceHolder
  3
ObjectDBX Classes
 90
        0
280
     0
281
     0
  0
CLASS
  1
LAYOUT
  2
AcDbLayout
  3
ObjectDBX Classes
 90
        0
280
     0
281
     0
  0
ENDSEC
  0
SECTION
  2
TABLES
  0
TABLE
  2
VPORT
  5
8
330
0
100
AcDbSymbolTable
 70
     1
  0
VPORT
  5
29
330
8
100
AcDbSymbolTableRecord
100
AcDbViewportTableRecord
  2
*Active
 70
     0
 10
0.0
 20
0.0
 11
1.0
 21
1.0
 12
215.9
 22
139.7
 13
0.0
 23
0.0
 14
10.0
 24
10.0
 15
10.0
 25
10.0
 16
0.0
 26
0.0
 36
1.0
 17
0.0
 27
0.0
 37
0.0
 40
279.4
 41
1.5454545455
 42
50.0
 43
0.0
 44
0.0
 50
0.0
 51
0.0
 71
     0
 72
  2000
 73
     1
 74
     3
 75
     0
 76
     0
 77
     0
 78
     0
281
     0
 65
     1
110
0.0
120
0.0
130
0.0
111
1.0
121
0.0
131
0.0
112
0.0
122
1.0
132
0.0
 79
     0
146
0.0
  0
ENDTAB
  0
TABLE
  2
LTYPE
  5
5
330
0
100
AcDbSymbolTable
 70
     6
  0
LTYPE
  5
14
330
5
100
AcDbSymbolTableRecord
100
AcDbLinetypeTableRecord
  2
ByBlock
 70
     0
  3

 72
    65
 73
     0
 40
0.0
  0
LTYPE
  5
15
330
5
100
AcDbSymbolTableRecord
100
AcDbLinetypeTableRecord
  2
ByLayer
 70
     0
  3

 72
    65
 73
     0
 40
0.0
  0
LTYPE
  5
16
330
5
100
AcDbSymbolTableRecord
100
AcDbLinetypeTableRecord
  2
Continuous
 70
     0
  3
Solid line
 72
    65
 73
     0
 40
0.0
  0
LTYPE
  5
5E
330
5
100
AcDbSymbolTableRecord
100
AcDbLinetypeTableRecord
  2
HIDDEN
 70
     0
  3
Hidden __ __ __ __ __ __ __ __ __ __ __ __ __ __
 72
    65
 73
     2
 40
1.905
 49
1.27
 74
     0
 49
-0.635
 74
     0
  0
LTYPE
  5
5F
330
5
100
AcDbSymbolTableRecord
100
AcDbLinetypeTableRecord
  2
PHANTOM
 70
     0
  3
Phantom ______  __  __  ______  __  __  ______
 72
    65
 73
     6
 40
12.7
 49
6.35
 74
     0
 49
-1.27
 74
     0
 49
1.27
 74
     0
 49
-1.27
 74
     0
 49
1.27
 74
     0
 49
-1.27
 74
     0
  0
LTYPE
  5
60
330
5
100
AcDbSymbolTableRecord
100
AcDbLinetypeTableRecord
  2
CENTER
 70
     0
  3
Center ____ _ ____ _ ____ _ ____ _ ____ _ ____
 72
    65
 73
     4
 40
10.16
 49
6.35
 74
     0
 49
-1.27
 74
     0
 49
1.27
 74
     0
 49
-1.27
 74
     0
  0
LTYPE
  5
61
330
5
100
AcDbSymbolTableRecord
100
AcDbLinetypeTableRecord
  2
CENTERX2
 70
     0
  3
Center (2x) ________  __  ________  __  _____
 72
    65
 73
     4
 40
20.32
 49
12.7
 74
     0
 49
-2.54
 74
     0
 49
2.54
 74
     0
 49
-2.54
 74
     0
  0
LTYPE
  5
62
330
5
100
AcDbSymbolTableRecord
100
AcDbLinetypeTableRecord
  2
DOT2
 70
     0
  3
Dot (.5x) ........................................
 72
    65
 73
     2
 40
0.635
 49
0.0
 74
     0
 49
-0.635
 74
     0
  0
ENDTAB
  0
TABLE
  2
LAYER
  5
2
330
0
100
AcDbSymbolTable
 70
     1
  0
LAYER
  5
10
330
2
100
AcDbSymbolTableRecord
100
AcDbLayerTableRecord
  2
0
 70
     0
 62
     7
  6
Continuous
370
    -3
390
F
  0
ENDTAB
  0
TABLE
  2
STYLE
  5
3
330
0
100
AcDbSymbolTable
 70
     2
  0
STYLE
  5
11
330
3
100
AcDbSymbolTableRecord
100
AcDbTextStyleTableRecord
  2
Standard
 70
     0
 40
0.0
 41
1.0
 50
0.0
 71
     0
 42
3.5
  3
txt
  4
bigfont
  0
STYLE
  5
23D
330
3
100
AcDbSymbolTableRecord
100
AcDbTextStyleTableRecord
  2
SLDTEXTSTYLE0
 70
     0
 40
0.0
 41
0.75
 50
0.0
 71
     0
 42
3.5
  3
TXT
  4
bigfont
  0
ENDTAB
  0
TABLE
  2
VIEW
  5
6
330
0
100
AcDbSymbolTable
 70
     0
  0
ENDTAB
  0
TABLE
  2
UCS
  5
7
330
0
100
AcDbSymbolTable
 70
     0
  0
ENDTAB
  0
TABLE
  2
APPID
  5
9
330
0
100
AcDbSymbolTable
 70
     1
  0
APPID
  5
12
330
9
100
AcDbSymbolTableRecord
100
AcDbRegAppTableRecord
  2
ACAD
 70
     0
  0
ENDTAB
  0
TABLE
  2
DIMSTYLE
  5
A
330
0
100
AcDbSymbolTable
 70
     1
100
AcDbDimStyleTable
  0
DIMSTYLE
105
27
330
A
100
AcDbSymbolTableRecord
100
AcDbDimStyleTableRecord
  2
ISO-25
 70
     0
 41
2.5
 42
0.625
 43
3.75
 44
1.25
 73
     0
 74
     0
 77
     1
 78
     8
140
2.5
141
2.5
143
0.0393700787
147
0.625
171
     3
172
     1
178
     0
271
     2
272
     2
274
     3
278
    44
283
     0
284
     8
340
11
  0
ENDTAB
  0
TABLE
  2
BLOCK_RECORD
  5
1
330
0
100
AcDbSymbolTable
 70
     3
  0
BLOCK_RECORD
  5
1F
330
1
100
AcDbSymbolTableRecord
100
AcDbBlockTableRecord
  2
*Model_Space
340
22
  0
BLOCK_RECORD
  5
1B
330
1
100
AcDbSymbolTableRecord
100
AcDbBlockTableRecord
  2
*Paper_Space
340
1E
  0
BLOCK_RECORD
  5
23
330
1
100
AcDbSymbolTableRecord
100
AcDbBlockTableRecord
  2
*Paper_Space0
340
26
  0
BLOCK_RECORD
  5
197
330
1
100
AcDbSymbolTableRecord
100
AcDbBlockTableRecord
  2
SW_CENTERMARKSYMBOL_0
340
0
102
{BLKREFS
331
1A2
102
}
  0
BLOCK_RECORD
  5
23F
330
1
100
AcDbSymbolTableRecord
100
AcDbBlockTableRecord
  2
SW_CENTERMARKSYMBOL_1
340
0
102
{BLKREFS
331
24A
102
}
  0
ENDTAB
  0
ENDSEC
  0
SECTION
  2
BLOCKS
  0
BLOCK
  5
20
330
1F
100
AcDbEntity
  8
0
100
AcDbBlockBegin
  2
*Model_Space
 70
     0
 10
0.0
 20
0.0
 30
0.0
  3
*Model_Space
  1

  0
ENDBLK
  5
21
330
1F
100
AcDbEntity
  8
0
100
AcDbBlockEnd
  0
BLOCK
  5
1C
330
1B
100
AcDbEntity
 67
     1
  8
0
100
AcDbBlockBegin
  2
*Paper_Space
 70
     0
 10
0.0
 20
0.0
 30
0.0
  3
*Paper_Space
  1

  0
ENDBLK
  5
1D
330
1B
100
AcDbEntity
 67
     1
  8
0
100
AcDbBlockEnd
  0
BLOCK
  5
24
330
23
100
AcDbEntity
  8
0
100
AcDbBlockBegin
  2
*Paper_Space0
 70
     0
 10
0.0
 20
0.0
 30
0.0
  3
*Paper_Space0
  1

  0
ENDBLK
  5
25
330
23
100
AcDbEntity
  8
0
100
AcDbBlockEnd
  0
BLOCK
  5
198
330
197
100
AcDbEntity
  8
0
100
AcDbBlockBegin
  2
SW_CENTERMARKSYMBOL_0
 70
     0
 10
0.0
 20
0.0
 30
0.0
  3
SW_CENTERMARKSYMBOL_0
  1

  0
LINE
  5
19A
330
197
100
AcDbEntity
  8
0
  6
Continuous
 62
     0
370
    18
100
AcDbLine
 10
0.0
 20
0.0
 30
0.0
 11
0.0
 21
2.5
 31
0.0
  0
LINE
  5
19B
330
197
100
AcDbEntity
  8
0
  6
Continuous
 62
     0
370
    18
100
AcDbLine
 10
0.0
 20
0.0
 30
0.0
 11
-2.5
 21
0.0
 31
0.0
  0
LINE
  5
19C
330
197
100
AcDbEntity
  8
0
  6
Continuous
 62
     0
370
    18
100
AcDbLine
 10
0.0
 20
0.0
 30
0.0
 11
0.0
 21
-2.5
 31
0.0
  0
LINE
  5
19D
330
197
100
AcDbEntity
  8
0
  6
Continuous
 62
     0
370
    18
100
AcDbLine
 10
0.0
 20
0.0
 30
0.0
 11
2.5
 21
0.0
 31
0.0
  0
LINE
  5
19E
330
197
100
AcDbEntity
  8
0
  6
Continuous
 62
     0
370
    18
100
AcDbLine
 10
0.0
 20
5.0
 30
0.0
 11
0.0
 21
29.3322318393
 31
0.0
  0
LINE
  5
19F
330
197
100
AcDbEntity
  8
0
  6
Continuous
 62
     0
370
    18
100
AcDbLine
 10
-5.0
 20
0.0
 30
0.0
 11
-10.55
 21
0.0
 31
0.0
  0
LINE
  5
1A0
330
197
100
AcDbEntity
  8
0
  6
Continuous
 62
     0
370
    18
100
AcDbLine
 10
0.0
 20
-5.0
 30
0.0
 11
0.0
 21
-11.8693144343
 31
0.0
  0
LINE
  5
1A1
330
197
100
AcDbEntity
  8
0
  6
Continuous
 62
     0
370
    18
100
AcDbLine
 10
5.0
 20
0.0
 30
0.0
 11
10.55
 21
0.0
 31
0.0
  0
ENDBLK
  5
199
330
197
100
AcDbEntity
  8
0
100
AcDbBlockEnd
  0
BLOCK
  5
240
330
23F
100
AcDbEntity
  8
0
100
AcDbBlockBegin
  2
SW_CENTERMARKSYMBOL_1
 70
     0
 10
0.0
 20
0.0
 30
0.0
  3
SW_CENTERMARKSYMBOL_1
  1

  0
LINE
  5
242
330
23F
100
AcDbEntity
  8
0
  6
Continuous
 62
     0
370
    18
100
AcDbLine
 10
0.0
 20
0.0
 30
0.0
 11
0.0
 21
2.5
 31
0.0
  0
LINE
  5
243
330
23F
100
AcDbEntity
  8
0
  6
Continuous
 62
     0
370
    18
100
AcDbLine
 10
0.0
 20
0.0
 30
0.0
 11
-2.5
 21
0.0
 31
0.0
  0
LINE
  5
244
330
23F
100
AcDbEntity
  8
0
  6
Continuous
 62
     0
370
    18
100
AcDbLine
 10
0.0
 20
0.0
 30
0.0
 11
0.0
 21
-2.5
 31
0.0
  0
LINE
  5
245
330
23F
100
AcDbEntity
  8
0
  6
Continuous
 62
     0
370
    18
100
AcDbLine
 10
0.0
 20
0.0
 30
0.0
 11
2.5
 21
0.0
 31
0.0
  0
LINE
  5
246
330
23F
100
AcDbEntity
  8
0
  6
Continuous
 62
     0
370
    18
100
AcDbLine
 10
0.0
 20
5.0
 30
0.0
 11
0.0
 21
10.55
 31
0.0
  0
LINE
  5
247
330
23F
100
AcDbEntity
  8
0
  6
Continuous
 62
     0
370
    18
100
AcDbLine
 10
-5.0
 20
0.0
 30
0.0
 11
-29.5956020163
 21
0.0
 31
0.0
  0
LINE
  5
248
330
23F
100
AcDbEntity
  8
0
  6
Continuous
 62
     0
370
    18
100
AcDbLine
 10
0.0
 20
-5.0
 30
0.0
 11
0.0
 21
-10.55
 31
0.0
  0
LINE
  5
249
330
23F
100
AcDbEntity
  8
0
  6
Continuous
 62
     0
370
    18
100
AcDbLine
 10
5.0
 20
0.0
 30
0.0
 11
30.5813511471
 21
0.0
 31
0.0
  0
ENDBLK
  5
241
330
23F
100
AcDbEntity
  8
0
100
AcDbBlockEnd
  0
ENDSEC
  0
SECTION
  2
ENTITIES
  0
LINE
  5
63
330
1F
100
AcDbEntity
  8
0
  6
Continuous
 62
     7
370
    25
100
AcDbLine
 10
48.6746393608
 20
27.3978279522
 30
0.0
 11
47.771112415
 21
25.832873376
 31
0.0
  0
LINE
  5
64
330
1F
100
AcDbEntity
  8
0
  6
Continuous
 62
     7
370
    25
100
AcDbLine
 10
47.771112415
 20
9.332873376
 30
0.0
 11
48.6746393608
 21
7.7679187997
 31
0.0
  0
LINE
  5
65
330
1F
100
AcDbEntity
  8
0
  6
Continuous
 62
     7
370
    25
100
AcDbLine
 10
60.571112415
 20
25.832873376
 30
0.0
 11
59.7041251169
 21
25.832873376
 31
0.0
  0
LINE
  5
66
330
1F
100
AcDbEntity
  8
0
  6
Continuous
 62
     7
370
    25
100
AcDbLine
 10
59.7041251169
 20
9.332873376
 30
0.0
 11
60.571112415
 21
9.332873376
 31
0.0
  0
LINE
  5
67
330
1F
100
AcDbEntity
  8
0
  6
Continuous
 62
     7
370
    25
100
AcDbLine
 10
60.571112415
 20
9.332873376
 30
0.0
 11
60.771112415
 21
9.532873376
 31
0.0
  0
LINE
  5
68
330
1F
100
AcDbEntity
  8
0
  6
Continuous
 62
     7
370
    25
100
AcDbLine
 10
60.771112415
 20
25.632873376
 30
0.0
 11
60.571112415
 21
25.832873376
 31
0.0
  0
LINE
  5
69
330
1F
100
AcDbEntity
  8
0
  6
Continuous
 62
     7
370
    25
100
AcDbLine
 10
58.3675854691
 20
7.7679187997
 30
0.0
 11
59.054606064
 21
8.957873376
 31
0.0
  0
ARC
  5
6A
330
1F
100
AcDbEntity
  8
0
  6
Continuous
 62
     7
370
    25
100
AcDbCircle
 10
59.7041251169
 20
8.582873376
 30
0.0
 40
0.7500000000000018
100
AcDbArc
 50
90.0
 51
150.0
  0
ARC
  5
6B
330
1F
100
AcDbEntity
  8
0
  6
Continuous
 62
     7
370
    25
100
AcDbCircle
 10
59.7041251169
 20
26.582873376
 30
0.0
 40
0.75
100
AcDbArc
 50
210.0
 51
270.0
  0
LINE
  5
6C
330
1F
100
AcDbEntity
  8
0
  6
Continuous
 62
     7
370
    25
100
AcDbLine
 10
59.054606064
 20
26.207873376
 30
0.0
 11
58.3675854691
 21
27.3978279522
 31
0.0
  0
LINE
  5
6D
330
1F
100
AcDbEntity
  8
0
  6
Continuous
 62
     7
370
    25
100
AcDbLine
 10
20.3709175688
 20
7.7679187997
 30
0.0
 11
21.2744445146
 21
9.332873376
 31
0.0
  0
LINE
  5
6E
330
1F
100
AcDbEntity
  8
0
  6
Continuous
 62
     7
370
    25
100
AcDbLine
 10
21.2744445146
 20
25.832873376
 30
0.0
 11
20.3709175688
 21
27.3978279522
 31
0.0
  0
LINE
  5
6F
330
1F
100
AcDbEntity
  8
0
  6
Continuous
 62
     7
370
    25
100
AcDbLine
 10
8.4744445146
 20
25.832873376
 30
0.0
 11
8.2744445146
 21
25.632873376
 31
0.0
  0
LINE
  5
70
330
1F
100
AcDbEntity
  8
0
  6
Continuous
 62
     7
370
    25
100
AcDbLine
 10
8.2744445146
 20
9.532873376
 30
0.0
 11
8.4744445146
 21
9.332873376
 31
0.0
  0
LINE
  5
71
330
1F
100
AcDbEntity
  8
0
  6
Continuous
 62
     7
370
    25
100
AcDbLine
 10
8.4744445146
 20
9.332873376
 30
0.0
 11
9.3414318128
 21
9.332873376
 31
0.0
  0
LINE
  5
72
330
1F
100
AcDbEntity
  8
0
  6
Continuous
 62
     7
370
    25
100
AcDbLine
 10
9.3414318128
 20
25.832873376
 30
0.0
 11
8.4744445146
 21
25.832873376
 31
0.0
  0
ARC
  5
73
330
1F
100
AcDbEntity
  8
0
  6
Continuous
 62
     7
370
    25
100
AcDbCircle
 10
9.3414318128
 20
8.582873376
 30
0.0
 40
0.7500000000000018
100
AcDbArc
 50
30.0
 51
90.0
  0
LINE
  5
74
330
1F
100
AcDbEntity
  8
0
  6
Continuous
 62
     7
370
    25
100
AcDbLine
 10
9.9909508656
 20
8.957873376
 30
0.0
 11
10.6779714605
 21
7.7679187997
 31
0.0
  0
LINE
  5
75
330
1F
100
AcDbEntity
  8
0
  6
Continuous
 62
     7
370
    25
100
AcDbLine
 10
10.6779714605
 20
27.3978279522
 30
0.0
 11
9.9909508656
 21
26.207873376
 31
0.0
  0
ARC
  5
76
330
1F
100
AcDbEntity
  8
0
  6
Continuous
 62
     7
370
    25
100
AcDbCircle
 10
9.3414318128
 20
26.582873376
 30
0.0
 40
0.75
100
AcDbArc
 50
270.0
 51
330.0
  0
LINE
  5
77
330
1F
100
AcDbEntity
  8
0
  6
Continuous
 62
     7
370
    25
100
AcDbLine
 10
24.7078238886
 20
31.734734272
 30
0.0
 11
26.2727784648
 21
30.8312073261
 31
0.0
  0
LINE
  5
78
330
1F
100
AcDbEntity
  8
0
  6
Continuous
 62
     7
370
    25
100
AcDbLine
 10
42.7727784648
 20
30.8312073261
 30
0.0
 11
44.337733041
 21
31.734734272
 31
0.0
  0
LINE
  5
79
330
1F
100
AcDbEntity
  8
0
  6
Continuous
 62
     7
370
    25
100
AcDbLine
 10
42.7727784648
 20
43.6312073261
 30
0.0
 11
42.5727784648
 21
43.8312073261
 31
0.0
  0
LINE
  5
7A
330
1F
100
AcDbEntity
  8
0
  6
Continuous
 62
     7
370
    25
100
AcDbLine
 10
26.4727784648
 20
43.8312073261
 30
0.0
 11
26.2727784648
 21
43.6312073261
 31
0.0
  0
LINE
  5
7B
330
1F
100
AcDbEntity
  8
0
  6
Continuous
 62
     7
370
    25
100
AcDbLine
 10
26.2727784648
 20
43.6312073261
 30
0.0
 11
26.2727784648
 21
42.764220028
 31
0.0
  0
LINE
  5
7C
330
1F
100
AcDbEntity
  8
0
  6
Continuous
 62
     7
370
    25
100
AcDbLine
 10
42.7727784648
 20
42.764220028
 30
0.0
 11
42.7727784648
 21
43.6312073261
 31
0.0
  0
LINE
  5
7D
330
1F
100
AcDbEntity
  8
0
  6
Continuous
 62
     7
370
    25
100
AcDbLine
 10
44.337733041
 20
41.4276803803
 30
0.0
 11
43.1477784648
 21
42.1147009752
 31
0.0
  0
ARC
  5
7E
330
1F
100
AcDbEntity
  8
0
  6
Continuous
 62
     7
370
    25
100
AcDbCircle
 10
43.5227784648
 20
42.764220028
 30
0.0
 40
0.75
100
AcDbArc
 50
180.0
 51
240.0
  0
LINE
  5
7F
330
1F
100
AcDbEntity
  8
0
  6
Continuous
 62
     7
370
    25
100
AcDbLine
 10
25.8977784648
 20
42.1147009752
 30
0.0
 11
24.7078238886
 21
41.4276803803
 31
0.0
  0
ARC
  5
80
330
1F
100
AcDbEntity
  8
0
  6
Continuous
 62
     7
370
    25
100
AcDbCircle
 10
25.5227784648
 20
42.764220028
 30
0.0
 40
0.7500000000000036
100
AcDbArc
 50
300.0
 51
0.0
  0
SPLINE
  5
81
330
1F
100
AcDbEntity
  8
0
  6
Continuous
 62
     7
370
    25
100
AcDbSpline
210
0.0
220
0.0
230
1.0
 70
     8
 71
     3
 72
    11
 73
     7
 74
     0
 42
0.00000001
 43
0.00000001
 40
0.0
 40
0.0
 40
0.0
 40
0.0
 40
0.2500631148900564
 40
0.499968859034981
 40
0.7499338526492102
 40
1.0
 40
1.0
 40
1.0
 40
1.0
 10
24.46214212052819
 20
10.98785873069355
 30
0.0
 10
24.50856695403616
 20
11.07258886122276
 30
0.0
 10
24.60138740478546
 20
11.24199579956791
 30
0.0
 10
24.82412894634908
 20
11.43212238646105
 30
0.0
 10
25.08806868205176
 20
11.55900568551749
 30
0.0
 10
25.28056197160424
 20
11.57543180105661
 30
0.0
 10
25.37682808658333
 20
11.58364652028565
 30
0.0
  0
SPLINE
  5
82
330
1F
100
AcDbEntity
  8
0
  6
Continuous
 62
     7
370
    25
100
AcDbSpline
210
0.0
220
0.0
230
1.0
 70
     8
 71
     3
 72
    11
 73
     7
 74
     0
 42
0.00000001
 43
0.00000001
 40
0.0
 40
0.0
 40
0.0
 40
0.0
 40
0.2500742864635581
 40
0.5000419664449214
 40
0.7499461557497885
 40
1.0
 40
1.0
 40
1.0
 40
1.0
 10
25.37682808658333
 20
23.58137480377502
 30
0.0
 10
25.28056241625093
 20
23.58959051836066
 30
0.0
 10
25.08807211356976
 20
23.60601844517891
 30
0.0
 10
24.82413077022847
 20
23.73287799701978
 30
0.0
 10
24.60139052121517
 20
23.92298259809947
 30
0.0
 10
24.50856751581574
 20
24.09237145753759
 30
0.0
 10
24.46214212052819
 20
24.17709123926501
 30
0.0
  0
SPLINE
  5
83
330
1F
100
AcDbEntity
  8
0
  6
Continuous
 62
     7
370
    25
100
AcDbSpline
210
0.0
220
0.0
230
1.0
 70
     8
 71
     3
 72
    11
 73
     7
 74
     0
 42
0.00000001
 43
0.00000001
 40
0.0
 40
0.0
 40
0.0
 40
0.0
 40
0.2500538442502255
 40
0.4999580335550913
 40
0.7499257135364518
 40
1.0
 40
1.0
 40
1.0
 40
1.0
 10
27.92856060150562
 20
27.64350972024244
 30
0.0
 10
28.01328038323305
 20
27.59708432495487
 30
0.0
 10
28.18266924267115
 20
27.50426131955541
 30
0.0
 10
28.37277384375083
 20
27.28152107054211
 30
0.0
 10
28.49963339559169
 20
27.01757972720083
 30
0.0
 10
28.51606132240995
 20
26.82508942451967
 30
0.0
 10
28.52427703699558
 20
26.72882375418728
 30
0.0
  0
SPLINE
  5
84
330
1F
100
AcDbEntity
  8
0
  6
Continuous
 62
     7
370
    25
100
AcDbSpline
210
0.0
220
0.0
230
1.0
 70
     8
 71
     3
 72
    11
 73
     7
 74
     0
 42
0.00000001
 43
0.00000001
 40
0.0
 40
0.0
 40
0.0
 40
0.0
 40
0.250066147350779
 40
0.5000311409650072
 40
0.7499368851099324
 40
1.0
 40
1.0
 40
1.0
 40
1.0
 10
40.52200532048496
 20
26.72882375418728
 30
0.0
 10
40.530220039714
 20
26.82508986916637
 30
0.0
 10
40.54664615525311
 20
27.01758315871884
 30
0.0
 10
40.67352945430954
 20
27.2815228944215
 30
0.0
 10
40.86365604120268
 20
27.50426443598515
 30
0.0
 10
41.03306297954781
 20
27.59708488673446
 30
0.0
 10
41.11779311007702
 20
27.64350972024244
 30
0.0
  0
SPLINE
  5
85
330
1F
100
AcDbEntity
  8
0
  6
Continuous
 62
     7
370
    25
100
AcDbSpline
210
0.0
220
0.0
230
1.0
 70
     8
 71
     3
 72
    11
 73
     7
 74
     0
 42
0.00000001
 43
0.00000001
 40
0.0
 40
0.0
 40
0.0
 40
0.0
 40
0.2500631207183409
 40
0.4999688504315504
 40
0.749933853640379
 40
1.0
 40
1.0
 40
1.0
 40
1.0
 10
44.58340707831185
 20
24.17787056284882
 30
0.0
 10
44.53698152372912
 20
24.09314266040618
 30
0.0
 10
44.44415963504481
 20
23.92374018369537
 30
0.0
 10
44.22141964759668
 20
23.73361944991506
 30
0.0
 10
43.95748347173583
 20
23.6067402567275
 30
0.0
 10
43.76499336449769
 20
23.59031468082099
 30
0.0
 10
43.66872884303551
 20
23.58210023163673
 30
0.0
  0
SPLINE
  5
86
330
1F
100
AcDbEntity
  8
0
  6
Continuous
 62
     7
370
    25
100
AcDbSpline
210
0.0
220
0.0
230
1.0
 70
     8
 71
     3
 72
    11
 73
     7
 74
     0
 42
0.00000001
 43
0.00000001
 40
0.0
 40
0.0
 40
0.0
 40
0.0
 40
0.2500742852307522
 40
0.5000419746823795
 40
0.7499461494753789
 40
1.0
 40
1.0
 40
1.0
 40
1.0
 10
43.66872884303551
 20
11.58437194814735
 30
0.0
 10
43.76499291986829
 20
11.57615650355199
 30
0.0
 10
43.9574800403494
 20
11.55972911624758
 30
0.0
 10
44.22141782374049
 20
11.43287366966648
 30
0.0
 10
44.44415651883174
 20
11.24277492107976
 30
0.0
 10
44.53698096199654
 20
11.07339052263784
 30
0.0
 10
44.58340707831185
 20
10.9886729685546
 30
0.0
  0
LINE
  5
87
330
1F
100
AcDbEntity
  8
0
  6
Continuous
 62
     7
370
    25
100
AcDbLine
 10
47.771112415
 20
24.161373376
 30
0.0
 11
44.5758202316
 21
24.161373376
 31
0.0
  0
LINE
  5
88
330
1F
100
AcDbEntity
  8
0
  6
Continuous
 62
     7
370
    25
100
AcDbLine
 10
44.576238245
 20
11.004373376
 30
0.0
 11
47.771112415
 21
11.004373376
 31
0.0
  0
LINE
  5
89
330
1F
100
AcDbEntity
  8
0
  6
Continuous
 62
     7
370
    25
100
AcDbLine
 10
21.2744445146
 20
11.004373376
 30
0.0
 11
24.4697030319
 21
11.004373376
 31
0.0
  0
LINE
  5
8A
330
1F
100
AcDbEntity
  8
0
  6
Continuous
 62
     7
370
    25
100
AcDbLine
 10
24.4693167967
 20
24.161373376
 30
0.0
 11
21.2744445146
 21
24.161373376
 31
0.0
  0
LINE
  5
8B
330
1F
100
AcDbEntity
  8
0
  6
Continuous
 62
     7
370
    25
100
AcDbLine
 10
27.9442784648
 20
30.8312073261
 30
0.0
 11
27.9442784648
 21
27.636335044
 31
0.0
  0
LINE
  5
8C
330
1F
100
AcDbEntity
  8
0
  6
Continuous
 62
     7
370
    25
100
AcDbLine
 10
41.1012784648
 20
27.6359488089
 30
0.0
 11
41.1012784648
 21
30.8312073261
 31
0.0
  0
LINE
  5
8D
330
1F
100
AcDbEntity
  8
0
  6
Continuous
 62
     7
370
    25
100
AcDbLine
 10
28.5227784648
 20
23.582873376
 30
0.0
 11
25.3768280866
 21
23.582873376
 31
0.0
  0
LINE
  5
8E
330
1F
100
AcDbEntity
  8
0
  6
Continuous
 62
     7
370
    25
100
AcDbLine
 10
43.668728843
 20
23.582873376
 30
0.0
 11
40.5227784648
 21
23.582873376
 31
0.0
  0
LINE
  5
8F
330
1F
100
AcDbEntity
  8
0
  6
Continuous
 62
     7
370
    25
100
AcDbLine
 10
25.3768280866
 20
11.582873376
 30
0.0
 11
43.668728843
 21
11.582873376
 31
0.0
  0
LINE
  5
90
330
1F
100
AcDbEntity
  8
0
  6
Continuous
 62
     7
370
    25
100
AcDbLine
 10
28.5227784648
 20
26.7288237542
 30
0.0
 11
28.5227784648
 21
23.582873376
 31
0.0
  0
LINE
  5
91
330
1F
100
AcDbEntity
  8
0
  6
Continuous
 62
     7
370
    25
100
AcDbLine
 10
40.5227784648
 20
23.582873376
 30
0.0
 11
40.5227784648
 21
26.7288237542
 31
0.0
  0
LINE
  5
92
330
1F
100
AcDbEntity
  8
0
  6
Continuous
 62
     7
370
    25
100
AcDbLine
 10
59.054606064
 20
10.9532011882
 30
0.0
 11
59.054606064
 21
16.1197858871
 31
0.0
  0
ARC
  5
93
330
1F
100
AcDbEntity
  8
0
  6
Continuous
 62
     7
370
    25
100
AcDbCircle
 10
59.6354018526
 20
13.5373192858
 30
0.0
 40
2.646971381583561
100
AcDbArc
 50
88.5122636654
 51
102.674909816
  0
LINE
  5
94
330
1F
100
AcDbEntity
  8
0
  6
Continuous
 62
     7
370
    25
100
AcDbLine
 10
59.7041251169
 20
16.1833983866
 30
0.0
 11
59.7041251169
 21
11.2414478051
 31
0.0
  0
ARC
  5
95
330
1F
100
AcDbEntity
  8
0
  6
Continuous
 62
     7
370
    25
100
AcDbCircle
 10
59.6751728173
 20
10.4307687816
 30
0.0
 40
0.8111958547050339
100
AcDbArc
 50
87.9546284054
 51
139.9072030665
  0
SPLINE
  5
96
330
1F
100
AcDbEntity
  8
0
  6
Continuous
 62
     7
370
    25
100
AcDbSpline
210
0.0
220
0.0
230
1.0
 70
     8
 71
     3
 72
    10
 73
     6
 74
     0
 42
0.00000001
 43
0.00000001
 40
0.0
 40
0.0
 40
0.0
 40
0.0
 40
0.2859824770977877
 40
0.8219210209493921
 40
1.0
 40
1.0
 40
1.0
 40
1.0
 10
59.70412511686209
 20
18.9823483652864
 30
0.0
 10
59.69933816559569
 20
18.71705395574561
 30
0.0
 10
59.68558034409547
 20
17.95459097495475
 30
0.0
 10
59.69413550817818
 20
17.00936972588487
 30
0.0
 10
59.70213100601013
 20
16.34827755889658
 30
0.0
 10
59.7041251168621
 20
16.18339838663604
 30
0.0
  0
SPLINE
  5
97
330
1F
100
AcDbEntity
  8
0
  6
Continuous
 62
     7
370
    25
100
AcDbSpline
210
0.0
220
0.0
230
1.0
 70
     8
 71
     3
 72
    10
 73
     6
 74
     0
 42
0.00000001
 43
0.00000001
 40
0.0
 40
0.0
 40
0.0
 40
0.0
 40
0.4586421336634352
 40
0.9210522271454904
 40
1.0
 40
1.0
 40
1.0
 40
1.0
 10
59.05460606402377
 20
19.04596086480118
 30
0.0
 10
59.08704369945354
 20
18.59892970805087
 30
0.0
 10
59.15218546067221
 20
17.70119482434206
 30
0.0
 10
59.11063067912467
 20
16.72297752812148
 30
0.0
 10
59.06173644993
 20
16.19655552075465
 30
0.0
 10
59.05460606402377
 20
16.11978588712126
 30
0.0
  0
ARC
  5
98
330
1F
100
AcDbEntity
  8
0
  6
Continuous
 62
     7
370
    25
100
AcDbCircle
 10
59.6354018526
 20
21.6284274661
 30
0.0
 40
2.646971381582795
100
AcDbArc
 50
257.325090184
 51
271.4877363346
  0
SPLINE
  5
99
330
1F
100
AcDbEntity
  8
0
  6
Continuous
 62
     7
370
    25
100
AcDbSpline
210
0.0
220
0.0
230
1.0
 70
     8
 71
     3
 72
     9
 73
     5
 74
     0
 42
0.00000001
 43
0.00000001
 40
0.0
 40
0.0
 40
0.0
 40
0.0
 40
0.4977140401152428
 40
1.0
 40
1.0
 40
1.0
 40
1.0
 10
59.05460606402377
 20
16.11978588712126
 30
0.0
 10
58.98012692917609
 20
15.5404752802711
 30
0.0
 10
58.83048450632935
 20
14.37653261408465
 30
0.0
 10
58.52235472972727
 20
13.24416729106336
 30
0.0
 10
58.36758546911762
 20
12.67539608784939
 30
0.0
  0
SPLINE
  5
9A
330
1F
100
AcDbEntity
  8
0
  6
Continuous
 62
     7
370
    25
100
AcDbSpline
210
0.0
220
0.0
230
1.0
 70
     8
 71
     3
 72
     9
 73
     5
 74
     0
 42
0.00000001
 43
0.00000001
 40
0.0
 40
0.0
 40
0.0
 40
0.0
 40
0.498064808358806
 40
1.0
 40
1.0
 40
1.0
 40
1.0
 10
58.36758546911762
 20
12.67539608784939
 30
0.0
 10
58.5211340259157
 20
12.39341636652703
 30
0.0
 10
58.82942434119425
 20
11.82726570382208
 30
0.0
 10
58.97935206383017
 20
11.24530682805092
 30
0.0
 10
59.05460606402377
 20
10.95320118821343
 30
0.0
  0
SPLINE
  5
9B
330
1F
100
AcDbEntity
  8
0
  6
Continuous
 62
     7
370
    25
100
AcDbSpline
210
0.0
220
0.0
230
1.0
 70
     8
 71
     3
 72
     9
 73
     5
 74
     0
 42
0.00000001
 43
0.00000001
 40
0.0
 40
0.0
 40
0.0
 40
0.0
 40
0.4977140401152428
 40
1.0
 40
1.0
 40
1.0
 40
1.0
 10
59.05460606402377
 20
24.21254556370898
 30
0.0
 10
58.98012692917608
 20
23.9228902602839
 30
0.0
 10
58.83048450632933
 20
23.34091892719069
 30
0.0
 10
58.52235472972726
 20
22.77473626568004
 30
0.0
 10
58.36758546911762
 20
22.49035066407306
 30
0.0
  0
LINE
  5
9C
330
1F
100
AcDbEntity
  8
0
  6
Continuous
 62
     7
370
    25
100
AcDbLine
 10
59.054606064
 20
19.0459608648
 30
0.0
 11
59.054606064
 21
24.2125455637
 31
0.0
  0
SPLINE
  5
9D
330
1F
100
AcDbEntity
  8
0
  6
Continuous
 62
     7
370
    25
100
AcDbSpline
210
0.0
220
0.0
230
1.0
 70
     8
 71
     3
 72
    10
 73
     6
 74
     0
 42
0.00000001
 43
0.00000001
 40
0.0
 40
0.0
 40
0.0
 40
0.0
 40
0.327333370707713
 40
0.6629523133412117
 40
1.0
 40
1.0
 40
1.0
 40
1.0
 10
58.36758546911762
 20
22.49035066407306
 30
0.0
 10
58.468903095214
 20
22.12023587542179
 30
0.0
 10
58.67410293309677
 20
21.37063782861205
 30
0.0
 10
58.91266835521955
 20
20.22142780805579
 30
0.0
 10
59.00722654721752
 20
19.43833760712226
 30
0.0
 10
59.05460606402377
 20
19.04596086480118
 30
0.0
  0
LINE
  5
9E
330
1F
100
AcDbEntity
  8
0
  6
Continuous
 62
     7
370
    25
100
AcDbLine
 10
48.6746393608
 20
12.6753960878
 30
0.0
 11
58.3675854691
 21
12.6753960878
 31
0.0
  0
SPLINE
  5
9F
330
1F
100
AcDbEntity
  8
0
  6
Continuous
 62
     7
370
    25
100
AcDbSpline
210
0.0
220
0.0
230
1.0
 70
     8
 71
     3
 72
    14
 73
    10
 74
     0
 42
0.00000001
 43
0.00000001
 40
0.0
 40
0.0
 40
0.0
 40
0.0
 40
0.1885762799860079
 40
0.3788955565835286
 40
0.5044823954484103
 40
0.6300701228213242
 40
0.7590052913537324
 40
0.8879763296286904
 40
1.0
 40
1.0
 40
1.0
 40
1.0
 10
48.67463936082213
 20
12.67539608784939
 30
0.0
 10
48.51359032173276
 20
13.28093448038485
 30
0.0
 10
48.19000367919461
 20
14.49760821204102
 30
0.0
 10
47.95654395912183
 20
16.16169276342636
 30
0.0
 10
47.89830690394918
 20
17.62794529771474
 30
0.0
 10
47.95517264550662
 20
18.89058581810822
 30
0.0
 10
48.12025667667839
 20
20.15452442859378
 30
0.0
 10
48.36370546182608
 20
21.35982201852279
 30
0.0
 10
48.57597040000106
 20
22.13159889401822
 30
0.0
 10
48.67463936082213
 20
22.49035066407306
 30
0.0
  0
LINE
  5
A0
330
1F
100
AcDbEntity
  8
0
  6
Continuous
 62
     7
370
    25
100
AcDbLine
 10
48.6746393608
 20
22.4903506641
 30
0.0
 11
58.3675854691
 21
22.4903506641
 31
0.0
  0
SPLINE
  5
A1
330
1F
100
AcDbEntity
  8
0
  6
Continuous
 62
     7
370
    25
100
AcDbSpline
210
0.0
220
0.0
230
1.0
 70
     8
 71
     3
 72
     9
 73
     5
 74
     0
 42
0.00000001
 43
0.00000001
 40
0.0
 40
0.0
 40
0.0
 40
0.0
 40
0.6189856167028769
 40
1.0
 40
1.0
 40
1.0
 40
1.0
 10
59.05460606402377
 20
10.95320118821343
 30
0.0
 10
59.09570547959626
 20
10.65108340072179
 30
0.0
 10
59.16210349348133
 20
10.16299808930385
 30
0.0
 10
59.08426402217842
 20
9.675758855543029
 30
0.0
 10
59.05460606402377
 20
9.490113699373488
 30
0.0
  0
SPLINE
  5
A2
330
1F
100
AcDbEntity
  8
0
  6
Continuous
 62
     7
370
    25
100
AcDbSpline
210
0.0
220
0.0
230
1.0
 70
     8
 71
     3
 72
     9
 73
     5
 74
     0
 42
0.00000001
 43
0.00000001
 40
0.0
 40
0.0
 40
0.0
 40
0.0
 40
0.4977140401152425
 40
1.0
 40
1.0
 40
1.0
 40
1.0
 10
59.05460606402377
 20
9.490113699373488
 30
0.0
 10
58.98012692917608
 20
9.200458395948404
 30
0.0
 10
58.83048450632933
 20
8.618487062855177
 30
0.0
 10
58.52235472972727
 20
8.05230440134452
 30
0.0
 10
58.36758546911762
 20
7.767918799737538
 30
0.0
  0
LINE
  5
A3
330
1F
100
AcDbEntity
  8
0
  6
Continuous
 62
     7
370
    25
100
AcDbLine
 10
48.6746393608
 20
7.7679187997
 30
0.0
 11
58.3675854691
 21
7.7679187997
 31
0.0
  0
SPLINE
  5
A4
330
1F
100
AcDbEntity
  8
0
  6
Continuous
 62
     7
370
    25
100
AcDbSpline
210
0.0
220
0.0
230
1.0
 70
     8
 71
     3
 72
    15
 73
    11
 74
     0
 42
0.00000001
 43
0.00000001
 40
0.0
 40
0.0
 40
0.0
 40
0.0
 40
0.1323052378296956
 40
0.2645730682660303
 40
0.3997997819746811
 40
0.5350020935366633
 40
0.6501929590834553
 40
0.7654017933211804
 40
0.8826895567076665
 40
1.0
 40
1.0
 40
1.0
 40
1.0
 10
48.67463936082213
 20
7.767918799737538
 30
0.0
 10
48.55906938898213
 20
7.979941343394032
 30
0.0
 10
48.32796212104097
 20
8.403926484397843
 30
0.0
 10
48.07929948946462
 20
9.056826070052978
 30
0.0
 10
47.92978554231108
 20
9.722032922275847
 30
0.0
 10
47.90017525526272
 20
10.36314356857319
 30
0.0
 10
47.97699665791335
 20
10.96961833343652
 30
0.0
 10
48.13440612903438
 20
11.5419812931889
 30
0.0
 10
48.36530848956536
 20
12.11175643344315
 30
0.0
 10
48.57152242512274
 20
12.48750409451261
 30
0.0
 10
48.67463936082213
 20
12.67539608784939
 30
0.0
  0
SPLINE
  5
A5
330
1F
100
AcDbEntity
  8
0
  6
Continuous
 62
     7
370
    25
100
AcDbSpline
210
0.0
220
0.0
230
1.0
 70
     8
 71
     3
 72
    15
 73
    11
 74
     0
 42
0.00000001
 43
0.00000001
 40
0.0
 40
0.0
 40
0.0
 40
0.0
 40
0.1323052378296956
 40
0.2645730682660305
 40
0.3997997819746814
 40
0.5350020935366635
 40
0.6501929590834554
 40
0.7654017933211807
 40
0.8826895567076666
 40
1.0
 40
1.0
 40
1.0
 40
1.0
 10
48.67463936082213
 20
22.49035066407306
 30
0.0
 10
48.55906938898214
 20
22.70237320772955
 30
0.0
 10
48.32796212104097
 20
23.12635834873336
 30
0.0
 10
48.07929948946462
 20
23.77925793438849
 30
0.0
 10
47.92978554231109
 20
24.44446478661134
 30
0.0
 10
47.90017525526272
 20
25.08557543290868
 30
0.0
 10
47.97699665791335
 20
25.69205019777201
 30
0.0
 10
48.13440612903439
 20
26.26441315752439
 30
0.0
 10
48.36530848956536
 20
26.83418829777862
 30
0.0
 10
48.57152242512274
 20
27.20993595884807
 30
0.0
 10
48.67463936082213
 20
27.39782795218484
 30
0.0
  0
LINE
  5
A6
330
1F
100
AcDbEntity
  8
0
  6
Continuous
 62
     7
370
    25
100
AcDbLine
 10
47.771112415
 20
9.332873376
 30
0.0
 11
47.771112415
 21
25.832873376
 31
0.0
  0
SPLINE
  5
A7
330
1F
100
AcDbEntity
  8
0
  6
Continuous
 62
     7
370
    25
100
AcDbSpline
210
0.0
220
0.0
230
1.0
 70
     8
 71
     3
 72
     9
 73
     5
 74
     0
 42
0.00000001
 43
0.00000001
 40
0.0
 40
0.0
 40
0.0
 40
0.0
 40
0.6189856167028758
 40
1.0
 40
1.0
 40
1.0
 40
1.0
 10
59.05460606402377
 20
25.67563305254892
 30
0.0
 10
59.09570547959625
 20
25.37351526505727
 30
0.0
 10
59.16210349348132
 20
24.88542995363934
 30
0.0
 10
59.08426402217842
 20
24.39819071987852
 30
0.0
 10
59.05460606402377
 20
24.21254556370898
 30
0.0
  0
LINE
  5
A8
330
1F
100
AcDbEntity
  8
0
  6
Continuous
 62
     7
370
    25
100
AcDbLine
 10
48.6746393608
 20
27.3978279522
 30
0.0
 11
58.3675854691
 21
27.3978279522
 31
0.0
  0
SPLINE
  5
A9
330
1F
100
AcDbEntity
  8
0
  6
Continuous
 62
     7
370
    25
100
AcDbSpline
210
0.0
220
0.0
230
1.0
 70
     8
 71
     3
 72
     9
 73
     5
 74
     0
 42
0.00000001
 43
0.00000001
 40
0.0
 40
0.0
 40
0.0
 40
0.0
 40
0.4980648083588057
 40
1.0
 40
1.0
 40
1.0
 40
1.0
 10
58.36758546911762
 20
27.39782795218484
 30
0.0
 10
58.5211340259157
 20
27.11584823086249
 30
0.0
 10
58.82942434119425
 20
26.54969756815757
 30
0.0
 10
58.97935206383018
 20
25.96773869238641
 30
0.0
 10
59.05460606402377
 20
25.67563305254892
 30
0.0
  0
LINE
  5
AA
330
1F
100
AcDbEntity
  8
0
  6
Continuous
 62
     7
370
    25
100
AcDbLine
 10
59.7041251169
 20
23.9242989469
 30
0.0
 11
59.7041251169
 21
18.9823483653
 31
0.0
  0
ARC
  5
AB
330
1F
100
AcDbEntity
  8
0
  6
Continuous
 62
     7
370
    25
100
AcDbCircle
 10
59.6751728173
 20
24.7349779703
 30
0.0
 40
0.8111958547161127
100
AcDbArc
 50
220.0927969339
 51
272.0453715942
  0
SPLINE
  5
AC
330
1F
100
AcDbEntity
  8
0
  6
Continuous
 62
     7
370
    25
100
AcDbSpline
210
0.0
220
0.0
230
1.0
 70
     8
 71
     3
 72
    10
 73
     6
 74
     0
 42
0.00000001
 43
0.00000001
 40
0.0
 40
0.0
 40
0.0
 40
0.0
 40
0.2859824770486543
 40
0.8219210210363743
 40
1.0
 40
1.0
 40
1.0
 40
1.0
 10
59.70412511686209
 20
25.32377393617553
 30
0.0
 10
59.69933816559688
 20
25.22363324596925
 30
0.0
 10
59.68558034409621
 20
24.93582631740827
 30
0.0
 10
59.69413550818233
 20
24.44613749813545
 30
0.0
 10
59.70213100601184
 20
24.02846758353623
 30
0.0
 10
59.7041251168621
 20
23.92429894685037
 30
0.0
  0
SPLINE
  5
AD
330
1F
100
AcDbEntity
  8
0
  6
Continuous
 62
     7
370
    25
100
AcDbSpline
210
0.0
220
0.0
230
1.0
 70
     8
 71
     3
 72
    10
 73
     6
 74
     0
 42
0.00000001
 43
0.00000001
 40
0.0
 40
0.0
 40
0.0
 40
0.0
 40
0.2859824770486378
 40
0.8219210210364153
 40
1.0
 40
1.0
 40
1.0
 40
1.0
 10
59.70412511686209
 20
11.24144780507203
 30
0.0
 10
59.69933816559688
 20
11.07629408578351
 30
0.0
 10
59.68558034409621
 20
10.60163803347404
 30
0.0
 10
59.69413550818233
 20
10.14610560367389
 30
0.0
 10
59.70213100601184
 20
9.902683351240658
 30
0.0
 10
59.70412511686209
 20
9.841972815746868
 30
0.0
  0
LINE
  5
AE
330
1F
100
AcDbEntity
  8
0
  6
Continuous
 62
     7
370
    25
100
AcDbLine
 10
60.571112415
 20
9.332873376
 30
0.0
 11
60.571112415
 21
25.832873376
 31
0.0
  0
LINE
  5
AF
330
1F
100
AcDbEntity
  8
0
  6
Continuous
 62
     7
370
    25
100
AcDbLine
 10
60.771112415
 20
25.632873376
 30
0.0
 11
60.771112415
 21
9.532873376
 31
0.0
  0
ARC
  5
B0
330
1F
100
AcDbEntity
  8
0
  6
Continuous
 62
     7
370
    25
100
AcDbCircle
 10
59.6956615821
 20
9.0821724315
 30
0.0
 40
0.7598475211157911
100
AcDbArc
 50
89.3617997903
 51
147.5290082721
  0
ARC
  5
B1
330
1F
100
AcDbEntity
  8
0
  6
Continuous
 62
     7
370
    25
100
AcDbCircle
 10
59.6956615821
 20
26.0835743204
 30
0.0
 40
0.7598475211157711
100
AcDbArc
 50
212.4709917279
 51
270.6382002097
  0
SPLINE
  5
B2
330
1F
100
AcDbEntity
  8
0
  6
Continuous
 62
     7
370
    25
100
AcDbSpline
210
0.0
220
0.0
230
1.0
 70
     8
 71
     3
 72
    10
 73
     6
 74
     0
 42
0.00000001
 43
0.00000001
 40
0.0
 40
0.0
 40
0.0
 40
0.0
 40
0.0789477693778934
 40
0.5375793028234306
 40
1.0
 40
1.0
 40
1.0
 40
1.0
 10
9.99095086559507
 20
16.11978588712114
 30
0.0
 10
9.983820567781514
 20
16.19655554148954
 30
0.0
 10
9.935268207686496
 20
16.71930339869395
 30
0.0
 10
9.893351392807855
 20
17.69747510459312
 30
0.0
 10
9.95832860364582
 20
18.59523449868399
 30
0.0
 10
9.990950865595066
 20
19.04596086480105
 30
0.0
  0
SPLINE
  5
B3
330
1F
100
AcDbEntity
  8
0
  6
Continuous
 62
     7
370
    25
100
AcDbSpline
210
0.0
220
0.0
230
1.0
 70
     8
 71
     3
 72
    10
 73
     6
 74
     0
 42
0.00000001
 43
0.00000001
 40
0.0
 40
0.0
 40
0.0
 40
0.0
 40
0.3355445600395945
 40
0.6726666839999055
 40
1.0
 40
1.0
 40
1.0
 40
1.0
 10
9.99095086559507
 20
19.04596086480105
 30
0.0
 10
10.03808508157949
 20
19.4365904311045
 30
0.0
 10
10.13257511522937
 20
20.2196861099814
 30
0.0
 10
10.37099089324477
 20
21.36893807939618
 30
0.0
 10
10.57665455564245
 20
22.12023586115707
 30
0.0
 10
10.67797146050122
 20
22.49035066407293
 30
0.0
  0
LINE
  5
B4
330
1F
100
AcDbEntity
  8
0
  6
Continuous
 62
     7
370
    25
100
AcDbLine
 10
20.3709175688
 20
22.4903506641
 30
0.0
 11
10.6779714605
 21
22.4903506641
 31
0.0
  0
SPLINE
  5
B5
330
1F
100
AcDbEntity
  8
0
  6
Continuous
 62
     7
370
    25
100
AcDbSpline
210
0.0
220
0.0
230
1.0
 70
     8
 71
     3
 72
    14
 73
    10
 74
     0
 42
0.00000001
 43
0.00000001
 40
0.0
 40
0.0
 40
0.0
 40
0.0
 40
0.1120237311809916
 40
0.2377726069116391
 40
0.3634889491830565
 40
0.4922970128128262
 40
0.6211033992438475
 40
0.8095153688397868
 40
1.0
 40
1.0
 40
1.0
 40
1.0
 10
20.37091756879671
 20
22.49035066407293
 30
0.0
 10
20.46959311771345
 20
22.13160008473606
 30
0.0
 10
20.67903394116242
 20
21.37014481467217
 30
0.0
 10
20.91921141094426
 20
20.18608359880888
 30
0.0
 10
21.08650285878277
 20
18.93332120249079
 30
0.0
 10
21.14797817972073
 20
17.66009085673756
 30
0.0
 10
21.09078254127727
 20
16.17863309025636
 30
0.0
 10
20.8568413020537
 20
14.50387582188163
 30
0.0
 10
20.53348176640807
 20
13.28710800984011
 30
0.0
 10
20.37091756879671
 20
12.67539608784926
 30
0.0
  0
LINE
  5
B6
330
1F
100
AcDbEntity
  8
0
  6
Continuous
 62
     7
370
    25
100
AcDbLine
 10
20.3709175688
 20
12.6753960878
 30
0.0
 11
10.6779714605
 21
12.6753960878
 31
0.0
  0
SPLINE
  5
B7
330
1F
100
AcDbEntity
  8
0
  6
Continuous
 62
     7
370
    25
100
AcDbSpline
210
0.0
220
0.0
230
1.0
 70
     8
 71
     3
 72
     9
 73
     5
 74
     0
 42
0.00000001
 43
0.00000001
 40
0.0
 40
0.0
 40
0.0
 40
0.0
 40
0.4980648083588056
 40
1.0
 40
1.0
 40
1.0
 40
1.0
 10
10.67797146050122
 20
12.67539608784926
 30
0.0
 10
10.52442290370313
 20
13.23935553049396
 30
0.0
 10
10.21613258842457
 20
14.37165685590384
 30
0.0
 10
10.06620486578865
 20
15.53557460744616
 30
0.0
 10
9.99095086559507
 20
16.11978588712114
 30
0.0
  0
SPLINE
  5
B8
330
1F
100
AcDbEntity
  8
0
  6
Continuous
 62
     7
370
    25
100
AcDbSpline
210
0.0
220
0.0
230
1.0
 70
     8
 71
     3
 72
    15
 73
    11
 74
     0
 42
0.00000001
 43
0.00000001
 40
0.0
 40
0.0
 40
0.0
 40
0.0
 40
0.1323052378296956
 40
0.2645730682660303
 40
0.3997997819746812
 40
0.5350020935366633
 40
0.6501929590834554
 40
0.7654017933211805
 40
0.8826895567076665
 40
1.0
 40
1.0
 40
1.0
 40
1.0
 10
20.37091756879671
 20
27.39782795218484
 30
0.0
 10
20.4864875406367
 20
27.18580540852834
 30
0.0
 10
20.71759480857787
 20
26.76182026752452
 30
0.0
 10
20.96625744015422
 20
26.10892068186938
 30
0.0
 10
21.11577138730775
 20
25.44371382964651
 30
0.0
 10
21.14538167435612
 20
24.80260318334915
 30
0.0
 10
21.06856027170548
 20
24.19612841848581
 30
0.0
 10
20.91115080058445
 20
23.62376545873342
 30
0.0
 10
20.68024844005346
 20
23.05399031847918
 30
0.0
 10
20.4740345044961
 20
22.6782426574097
 30
0.0
 10
20.37091756879671
 20
22.49035066407293
 30
0.0
  0
SPLINE
  5
B9
330
1F
100
AcDbEntity
  8
0
  6
Continuous
 62
     7
370
    25
100
AcDbSpline
210
0.0
220
0.0
230
1.0
 70
     8
 71
     3
 72
    15
 73
    11
 74
     0
 42
0.00000001
 43
0.00000001
 40
0.0
 40
0.0
 40
0.0
 40
0.0
 40
0.1323052378296972
 40
0.2645730682660339
 40
0.3997997819746864
 40
0.5350020935366704
 40
0.6501929590834606
 40
0.7654017933211842
 40
0.8826895567076682
 40
1.0
 40
1.0
 40
1.0
 40
1.0
 10
20.37091756879671
 20
12.67539608784926
 30
0.0
 10
20.4864875406367
 20
12.46337354419277
 30
0.0
 10
20.71759480857786
 20
12.03938840318896
 30
0.0
 10
20.9662574401542
 20
11.38648881753383
 30
0.0
 10
21.11577138730773
 20
10.72128196531098
 30
0.0
 10
21.14538167435609
 20
10.08017131901365
 30
0.0
 10
21.06856027170545
 20
9.473696554150322
 30
0.0
 10
20.91115080058443
 20
8.901333594397956
 30
0.0
 10
20.68024844005346
 20
8.33155845414375
 30
0.0
 10
20.47403450449609
 20
7.955810793074304
 30
0.0
 10
20.37091756879671
 20
7.767918799737542
 30
0.0
  0
LINE
  5
BA
330
1F
100
AcDbEntity
  8
0
  6
Continuous
 62
     7
370
    25
100
AcDbLine
 10
21.2744445146
 20
17.582873376
 30
0.0
 11
21.2744445146
 21
9.332873376
 31
0.0
  0
LINE
  5
BB
330
1F
100
AcDbEntity
  8
0
  6
Continuous
 62
     7
370
    25
100
AcDbLine
 10
21.2744445146
 20
25.832873376
 30
0.0
 11
21.2744445146
 21
17.582873376
 31
0.0
  0
SPLINE
  5
BC
330
1F
100
AcDbEntity
  8
0
  6
Continuous
 62
     7
370
    25
100
AcDbSpline
210
0.0
220
0.0
230
1.0
 70
     8
 71
     3
 72
     9
 73
     5
 74
     0
 42
0.00000001
 43
0.00000001
 40
0.0
 40
0.0
 40
0.0
 40
0.0
 40
0.6189856167028766
 40
1.0
 40
1.0
 40
1.0
 40
1.0
 10
9.99095086559507
 20
24.21254556370889
 30
0.0
 10
9.949851450022575
 20
24.51466335120055
 30
0.0
 10
9.883453436137504
 20
25.00274866261849
 30
0.0
 10
9.961292907440422
 20
25.48998789637932
 30
0.0
 10
9.990950865595066
 20
25.67563305254887
 30
0.0
  0
SPLINE
  5
BD
330
1F
100
AcDbEntity
  8
0
  6
Continuous
 62
     7
370
    25
100
AcDbSpline
210
0.0
220
0.0
230
1.0
 70
     8
 71
     3
 72
     9
 73
     5
 74
     0
 42
0.00000001
 43
0.00000001
 40
0.0
 40
0.0
 40
0.0
 40
0.0
 40
0.4977140401152427
 40
0.9999999999999999
 40
0.9999999999999999
 40
0.9999999999999999
 40
0.9999999999999999
 10
9.990950865595066
 20
25.67563305254887
 30
0.0
 10
10.06543000044275
 20
25.96528835597396
 30
0.0
 10
10.21507242328949
 20
26.5472596890672
 30
0.0
 10
10.52320219989156
 20
27.11344235057785
 30
0.0
 10
10.67797146050122
 20
27.39782795218484
 30
0.0
  0
LINE
  5
BE
330
1F
100
AcDbEntity
  8
0
  6
Continuous
 62
     7
370
    25
100
AcDbLine
 10
20.3709175688
 20
27.3978279522
 30
0.0
 11
10.6779714605
 21
27.3978279522
 31
0.0
  0
SPLINE
  5
BF
330
1F
100
AcDbEntity
  8
0
  6
Continuous
 62
     7
370
    25
100
AcDbSpline
210
0.0
220
0.0
230
1.0
 70
     8
 71
     3
 72
     9
 73
     5
 74
     0
 42
0.00000001
 43
0.00000001
 40
0.0
 40
0.0
 40
0.0
 40
0.0
 40
0.4980648083588058
 40
1.0
 40
1.0
 40
1.0
 40
1.0
 10
10.67797146050122
 20
22.49035066407293
 30
0.0
 10
10.52442290370313
 20
22.77233038539529
 30
0.0
 10
10.21613258842459
 20
23.33848104810025
 30
0.0
 10
10.06620486578866
 20
23.92043992387141
 30
0.0
 10
9.99095086559507
 20
24.21254556370889
 30
0.0
  0
SPLINE
  5
C0
330
1F
100
AcDbEntity
  8
0
  6
Continuous
 62
     7
370
    25
100
AcDbSpline
210
0.0
220
0.0
230
1.0
 70
     8
 71
     3
 72
     9
 73
     5
 74
     0
 42
0.00000001
 43
0.00000001
 40
0.0
 40
0.0
 40
0.0
 40
0.0
 40
0.4977140401152426
 40
1.0
 40
1.0
 40
1.0
 40
1.0
 10
9.99095086559507
 20
10.95320118821327
 30
0.0
 10
10.06543000044275
 20
11.24285649163836
 30
0.0
 10
10.21507242328949
 20
11.8248278247316
 30
0.0
 10
10.52320219989156
 20
12.39101048624226
 30
0.0
 10
10.67797146050122
 20
12.67539608784926
 30
0.0
  0
LINE
  5
C1
330
1F
100
AcDbEntity
  8
0
  6
Continuous
 62
     7
370
    25
100
AcDbLine
 10
9.9909508656
 20
16.1197858871
 30
0.0
 11
9.9909508656
 21
10.9532011882
 31
0.0
  0
SPLINE
  5
C2
330
1F
100
AcDbEntity
  8
0
  6
Continuous
 62
     7
370
    25
100
AcDbSpline
210
0.0
220
0.0
230
1.0
 70
     8
 71
     3
 72
    10
 73
     6
 74
     0
 42
0.00000001
 43
0.00000001
 40
0.0
 40
0.0
 40
0.0
 40
0.0
 40
0.2859824770486571
 40
0.821921021036372
 40
1.0
 40
1.0
 40
1.0
 40
1.0
 10
9.341431812756742
 20
16.18339838663592
 30
0.0
 10
9.346218764021957
 20
16.44869279613075
 30
0.0
 10
9.359976585522626
 20
17.21115577700118
 30
0.0
 10
9.35142142143653
 20
18.15637702607416
 30
0.0
 10
9.343425923606999
 20
18.81746919310661
 30
0.0
 10
9.341431812756742
 20
18.98234836528628
 30
0.0
  0
ARC
  5
C3
330
1F
100
AcDbEntity
  8
0
  6
Continuous
 62
     7
370
    25
100
AcDbCircle
 10
9.410155077
 20
21.6284274661
 30
0.0
 40
2.646971381584323
100
AcDbArc
 50
268.5122636654
 51
282.674909816
  0
ARC
  5
C4
330
1F
100
AcDbEntity
  8
0
  6
Continuous
 62
     7
370
    25
100
AcDbCircle
 10
9.410155077
 20
13.5373192858
 30
0.0
 40
2.646971381582719
100
AcDbArc
 50
77.325090184
 51
91.4877363346
  0
LINE
  5
C5
330
1F
100
AcDbEntity
  8
0
  6
Continuous
 62
     7
370
    25
100
AcDbLine
 10
9.9909508656
 20
24.2125455637
 30
0.0
 11
9.9909508656
 21
19.0459608648
 31
0.0
  0
LINE
  5
C6
330
1F
100
AcDbEntity
  8
0
  6
Continuous
 62
     7
370
    25
100
AcDbLine
 10
9.3414318128
 20
18.9823483653
 30
0.0
 11
9.3414318128
 21
23.9242989469
 31
0.0
  0
ARC
  5
C7
330
1F
100
AcDbEntity
  8
0
  6
Continuous
 62
     7
370
    25
100
AcDbCircle
 10
9.3703841123
 20
24.7349779703
 30
0.0
 40
0.811195854705053
100
AcDbArc
 50
267.9546284054
 51
319.9072030665
  0
ARC
  5
C8
330
1F
100
AcDbEntity
  8
0
  6
Continuous
 62
     7
370
    25
100
AcDbCircle
 10
9.3703841123
 20
10.4307687816
 30
0.0
 40
0.8111958547050475
100
AcDbArc
 50
40.0927969335
 51
92.0453715946
  0
LINE
  5
C9
330
1F
100
AcDbEntity
  8
0
  6
Continuous
 62
     7
370
    25
100
AcDbLine
 10
9.3414318128
 20
11.2414478051
 30
0.0
 11
9.3414318128
 21
16.1833983866
 31
0.0
  0
SPLINE
  5
CA
330
1F
100
AcDbEntity
  8
0
  6
Continuous
 62
     7
370
    25
100
AcDbSpline
210
0.0
220
0.0
230
1.0
 70
     8
 71
     3
 72
     9
 73
     5
 74
     0
 42
0.00000001
 43
0.00000001
 40
0.0
 40
0.0
 40
0.0
 40
0.0
 40
0.6189856167029143
 40
0.9999999999999999
 40
0.9999999999999999
 40
0.9999999999999999
 40
0.9999999999999999
 10
9.99095086559507
 20
9.490113699373536
 30
0.0
 10
9.94985145002259
 20
9.792231486865157
 30
0.0
 10
9.883453436137557
 20
10.28031679828302
 30
0.0
 10
9.961292907440429
 20
10.76755603204377
 30
0.0
 10
9.99095086559507
 20
10.95320118821327
 30
0.0
  0
LINE
  5
CB
330
1F
100
AcDbEntity
  8
0
  6
Continuous
 62
     7
370
    25
100
AcDbLine
 10
20.3709175688
 20
7.7679187997
 30
0.0
 11
10.6779714605
 21
7.7679187997
 31
0.0
  0
SPLINE
  5
CC
330
1F
100
AcDbEntity
  8
0
  6
Continuous
 62
     7
370
    25
100
AcDbSpline
210
0.0
220
0.0
230
1.0
 70
     8
 71
     3
 72
     9
 73
     5
 74
     0
 42
0.00000001
 43
0.00000001
 40
0.0
 40
0.0
 40
0.0
 40
0.0
 40
0.4980648083588056
 40
1.0
 40
1.0
 40
1.0
 40
1.0
 10
10.67797146050122
 20
7.767918799737542
 30
0.0
 10
10.52442290370313
 20
8.049898521059893
 30
0.0
 10
10.21613258842459
 20
8.616049183764847
 30
0.0
 10
10.06620486578866
 20
9.198008059536033
 30
0.0
 10
9.99095086559507
 20
9.490113699373536
 30
0.0
  0
LINE
  5
CD
330
1F
100
AcDbEntity
  8
0
  6
Continuous
 62
     7
370
    25
100
AcDbLine
 10
8.2744445146
 20
17.582873376
 30
0.0
 11
8.2744445146
 21
25.632873376
 31
0.0
  0
LINE
  5
CE
330
1F
100
AcDbEntity
  8
0
  6
Continuous
 62
     7
370
    25
100
AcDbLine
 10
8.2744445146
 20
9.532873376
 30
0.0
 11
8.2744445146
 21
17.582873376
 31
0.0
  0
LINE
  5
CF
330
1F
100
AcDbEntity
  8
0
  6
Continuous
 62
     7
370
    25
100
AcDbLine
 10
8.4744445146
 20
17.582873376
 30
0.0
 11
8.4744445146
 21
9.332873376
 31
0.0
  0
LINE
  5
D0
330
1F
100
AcDbEntity
  8
0
  6
Continuous
 62
     7
370
    25
100
AcDbLine
 10
8.4744445146
 20
25.832873376
 30
0.0
 11
8.4744445146
 21
17.582873376
 31
0.0
  0
SPLINE
  5
D1
330
1F
100
AcDbEntity
  8
0
  6
Continuous
 62
     7
370
    25
100
AcDbSpline
210
0.0
220
0.0
230
1.0
 70
     8
 71
     3
 72
    10
 73
     6
 74
     0
 42
0.00000001
 43
0.00000001
 40
0.0
 40
0.0
 40
0.0
 40
0.0
 40
0.2859824770486499
 40
0.8219210210363921
 40
1.0
 40
1.0
 40
1.0
 40
1.0
 10
9.341431812756742
 20
23.9242989468503
 30
0.0
 10
9.346218764021957
 20
24.08945266613883
 30
0.0
 10
9.35997658552263
 20
24.56410871844829
 30
0.0
 10
9.351421421436513
 20
25.01964114824846
 30
0.0
 10
9.343425923606999
 20
25.26306340068169
 30
0.0
 10
9.341431812756742
 20
25.32377393617549
 30
0.0
  0
SPLINE
  5
D2
330
1F
100
AcDbEntity
  8
0
  6
Continuous
 62
     7
370
    25
100
AcDbSpline
210
0.0
220
0.0
230
1.0
 70
     8
 71
     3
 72
    10
 73
     6
 74
     0
 42
0.00000001
 43
0.00000001
 40
0.0
 40
0.0
 40
0.0
 40
0.0
 40
0.2859824770485719
 40
0.8219210210365536
 40
1.0
 40
1.0
 40
1.0
 40
1.0
 10
9.341431812756742
 20
9.841972815746912
 30
0.0
 10
9.34621876402195
 20
9.942113505953154
 30
0.0
 10
9.359976585522611
 20
10.22992043451417
 30
0.0
 10
9.351421421436505
 20
10.71960925378694
 30
0.0
 10
9.343425923606988
 20
11.13727916838614
 30
0.0
 10
9.341431812756742
 20
11.24144780507188
 30
0.0
  0
ARC
  5
D3
330
1F
100
AcDbEntity
  8
0
  6
Continuous
 62
     7
370
    25
100
AcDbCircle
 10
9.3498953475
 20
26.0835743204
 30
0.0
 40
0.7598475211239066
100
AcDbArc
 50
269.3617997906
 51
327.5290082717
  0
ARC
  5
D4
330
1F
100
AcDbEntity
  8
0
  6
Continuous
 62
     7
370
    25
100
AcDbCircle
 10
9.3498953475
 20
9.0821724315
 30
0.0
 40
0.7598475211157694
100
AcDbArc
 50
32.4709917279
 51
90.6382002097
  0
SPLINE
  5
D5
330
1F
100
AcDbEntity
  8
0
  6
Continuous
 62
     7
370
    25
100
AcDbSpline
210
0.0
220
0.0
230
1.0
 70
     8
 71
     3
 72
     9
 73
     5
 74
     0
 42
0.00000001
 43
0.00000001
 40
0.0
 40
0.0
 40
0.0
 40
0.0
 40
0.6189856167028771
 40
1.0
 40
1.0
 40
1.0
 40
1.0
 10
41.15245065255725
 20
42.11470097517552
 30
0.0
 10
41.4545684400489
 20
42.155800390748
 30
0.0
 10
41.94265375146684
 20
42.22219840463307
 30
0.0
 10
42.42989298522766
 20
42.14435893333016
 30
0.0
 10
42.6155381413972
 20
42.11470097517551
 30
0.0
  0
SPLINE
  5
D6
330
1F
100
AcDbEntity
  8
0
  6
Continuous
 62
     7
370
    25
100
AcDbSpline
210
0.0
220
0.0
230
1.0
 70
     8
 71
     3
 72
     9
 73
     5
 74
     0
 42
0.00000001
 43
0.00000001
 40
0.0
 40
0.0
 40
0.0
 40
0.0
 40
0.4977140401152423
 40
1.0
 40
1.0
 40
1.0
 40
1.0
 10
42.6155381413972
 20
42.11470097517551
 30
0.0
 10
42.90519344482228
 20
42.04022184032782
 30
0.0
 10
43.48716477791551
 20
41.89057941748109
 30
0.0
 10
44.05334743942616
 20
41.58244964087901
 30
0.0
 10
44.33773304103315
 20
41.42768038026935
 30
0.0
  0
LINE
  5
D7
330
1F
100
AcDbEntity
  8
0
  6
Continuous
 62
     7
370
    25
100
AcDbLine
 10
44.337733041
 20
31.734734272
 30
0.0
 11
44.337733041
 21
41.4276803803
 31
0.0
  0
SPLINE
  5
D8
330
1F
100
AcDbEntity
  8
0
  6
Continuous
 62
     7
370
    25
100
AcDbSpline
210
0.0
220
0.0
230
1.0
 70
     8
 71
     3
 72
    15
 73
    11
 74
     0
 42
0.00000001
 43
0.00000001
 40
0.0
 40
0.0
 40
0.0
 40
0.0
 40
0.1323052378296956
 40
0.2645730682660304
 40
0.3997997819746812
 40
0.5350020935366633
 40
0.6501929590834553
 40
0.7654017933211805
 40
0.8826895567076665
 40
1.0
 40
1.0
 40
1.0
 40
1.0
 10
44.33773304103311
 20
31.73473427197387
 30
0.0
 10
44.12571049737662
 20
31.61916430013387
 30
0.0
 10
43.7017253563728
 20
31.38805703219271
 30
0.0
 10
43.04882577071767
 20
31.13939440061635
 30
0.0
 10
42.3836189184948
 20
30.98988045346283
 30
0.0
 10
41.74250827219745
 20
30.96027016641446
 30
0.0
 10
41.13603350733413
 20
31.0370915690651
 30
0.0
 10
40.56367054758174
 20
31.19450104018613
 30
0.0
 10
39.9938954073275
 20
31.42540340071712
 30
0.0
 10
39.61814774625803
 20
31.63161733627449
 30
0.0
 10
39.43025575292126
 20
31.73473427197388
 30
0.0
  0
LINE
  5
D9
330
1F
100
AcDbEntity
  8
0
  6
Continuous
 62
     7
370
    25
100
AcDbLine
 10
39.4302557529
 20
31.734734272
 30
0.0
 11
39.4302557529
 21
41.4276803803
 31
0.0
  0
SPLINE
  5
DA
330
1F
100
AcDbEntity
  8
0
  6
Continuous
 62
     7
370
    25
100
AcDbSpline
210
0.0
220
0.0
230
1.0
 70
     8
 71
     3
 72
     9
 73
     5
 74
     0
 42
0.00000001
 43
0.00000001
 40
0.0
 40
0.0
 40
0.0
 40
0.0
 40
0.4980648083588058
 40
0.9999999999999999
 40
0.9999999999999999
 40
0.9999999999999999
 40
0.9999999999999999
 10
39.43025575292129
 20
41.42768038026937
 30
0.0
 10
39.71223547424365
 20
41.58122893706745
 30
0.0
 10
40.2783861369486
 20
41.88951925234599
 30
0.0
 10
40.86034501271976
 20
42.03944697498192
 30
0.0
 10
41.15245065255725
 20
42.11470097517552
 30
0.0
  0
SPLINE
  5
DB
330
1F
100
AcDbEntity
  8
0
  6
Continuous
 62
     7
370
    25
100
AcDbSpline
210
0.0
220
0.0
230
1.0
 70
     8
 71
     3
 72
    15
 73
    11
 74
     0
 42
0.00000001
 43
0.00000001
 40
0.0
 40
0.0
 40
0.0
 40
0.0
 40
0.1323052378296956
 40
0.2645730682660305
 40
0.3997997819746812
 40
0.5350020935366635
 40
0.6501929590834554
 40
0.7654017933211806
 40
0.8826895567076666
 40
1.0
 40
1.0
 40
1.0
 40
1.0
 10
29.61530117669759
 20
31.73473427197392
 30
0.0
 10
29.4032786330411
 20
31.61916430013392
 30
0.0
 10
28.97929349203729
 20
31.38805703219276
 30
0.0
 10
28.32639390638215
 20
31.13939440061642
 30
0.0
 10
27.66118705415931
 20
30.98988045346289
 30
0.0
 10
27.02007640786198
 20
30.96027016641451
 30
0.0
 10
26.41360164299865
 20
31.03709156906515
 30
0.0
 10
25.84123868324625
 20
31.19450104018619
 30
0.0
 10
25.27146354299203
 20
31.42540340071717
 30
0.0
 10
24.89571588192258
 20
31.63161733627454
 30
0.0
 10
24.70782388858581
 20
31.73473427197393
 30
0.0
  0
SPLINE
  5
DC
330
1F
100
AcDbEntity
  8
0
  6
Continuous
 62
     7
370
    25
100
AcDbSpline
210
0.0
220
0.0
230
1.0
 70
     8
 71
     3
 72
    14
 73
    10
 74
     0
 42
0.00000001
 43
0.00000001
 40
0.0
 40
0.0
 40
0.0
 40
0.0
 40
0.188576279986008
 40
0.3788955565835287
 40
0.5044823954484104
 40
0.6300701228213245
 40
0.7590052913537326
 40
0.8879763296286906
 40
1.0
 40
1.0
 40
1.0
 40
1.0
 10
39.43025575292126
 20
31.73473427197388
 30
0.0
 10
38.8247173603858
 20
31.57368523288452
 30
0.0
 10
37.60804362872963
 20
31.25009859034637
 30
0.0
 10
35.94395907734429
 20
31.01663887027359
 30
0.0
 10
34.47770654305591
 20
30.95840181510096
 30
0.0
 10
33.21506602266242
 20
31.0152675566584
 30
0.0
 10
31.95112741217687
 20
31.18035158783017
 30
0.0
 10
30.74582982224786
 20
31.42380037297787
 30
0.0
 10
29.97405294675243
 20
31.63606531115285
 30
0.0
 10
29.61530117669759
 20
31.73473427197392
 30
0.0
  0
LINE
  5
DD
330
1F
100
AcDbEntity
  8
0
  6
Continuous
 62
     7
370
    25
100
AcDbLine
 10
42.7727784648
 20
30.8312073261
 30
0.0
 11
26.2727784648
 21
30.8312073261
 31
0.0
  0
SPLINE
  5
DE
330
1F
100
AcDbEntity
  8
0
  6
Continuous
 62
     7
370
    25
100
AcDbSpline
210
0.0
220
0.0
230
1.0
 70
     8
 71
     3
 72
    10
 73
     6
 74
     0
 42
0.00000001
 43
0.00000001
 40
0.0
 40
0.0
 40
0.0
 40
0.0
 40
0.4586421336634352
 40
0.9210522271454904
 40
1.0
 40
1.0
 40
1.0
 40
1.0
 10
33.05969097596951
 20
42.11470097517554
 30
0.0
 10
33.50672213271982
 20
42.14713861060532
 30
0.0
 10
34.40445701642862
 20
42.21228037182399
 30
0.0
 10
35.38267431264921
 20
42.17072559027645
 30
0.0
 10
35.90909632001603
 20
42.12183136108177
 30
0.0
 10
35.98586595364942
 20
42.11470097517554
 30
0.0
  0
SPLINE
  5
DF
330
1F
100
AcDbEntity
  8
0
  6
Continuous
 62
     7
370
    25
100
AcDbSpline
210
0.0
220
0.0
230
1.0
 70
     8
 71
     3
 72
     9
 73
     5
 74
     0
 42
0.00000001
 43
0.00000001
 40
0.0
 40
0.0
 40
0.0
 40
0.0
 40
0.4977140401152426
 40
0.9999999999999999
 40
0.9999999999999999
 40
0.9999999999999999
 40
0.9999999999999999
 10
35.98586595364942
 20
42.11470097517554
 30
0.0
 10
36.56517656049959
 20
42.04022184032785
 30
0.0
 10
37.72911922668604
 20
41.8905794174811
 30
0.0
 10
38.86148454970733
 20
41.58244964087903
 30
0.0
 10
39.43025575292129
 20
41.42768038026937
 30
0.0
  0
LINE
  5
E0
330
1F
100
AcDbEntity
  8
0
  6
Continuous
 62
     7
370
    25
100
AcDbLine
 10
29.6153011767
 20
31.734734272
 30
0.0
 11
29.6153011767
 21
41.4276803803
 31
0.0
  0
SPLINE
  5
E1
330
1F
100
AcDbEntity
  8
0
  6
Continuous
 62
     7
370
    25
100
AcDbSpline
210
0.0
220
0.0
230
1.0
 70
     8
 71
     3
 72
    10
 73
     6
 74
     0
 42
0.00000001
 43
0.00000001
 40
0.0
 40
0.0
 40
0.0
 40
0.0
 40
0.3273333707077128
 40
0.6629523133412114
 40
1.0
 40
1.0
 40
1.0
 40
1.0
 10
29.61530117669762
 20
41.42768038026941
 30
0.0
 10
29.98541596534889
 20
41.5289980063658
 30
0.0
 10
30.73501401215863
 20
41.73419784424856
 30
0.0
 10
31.8842240327149
 20
41.97276326637131
 30
0.0
 10
32.66731423364843
 20
42.06732145836929
 30
0.0
 10
33.05969097596951
 20
42.11470097517554
 30
0.0
  0
LINE
  5
E2
330
1F
100
AcDbEntity
  8
0
  6
Continuous
 62
     7
370
    25
100
AcDbLine
 10
41.1524506526
 20
42.1147009752
 30
0.0
 11
35.9858659536
 21
42.1147009752
 31
0.0
  0
ARC
  5
E3
330
1F
100
AcDbEntity
  8
0
  6
Continuous
 62
     7
370
    25
100
AcDbCircle
 10
38.568332555
 20
42.6954967637
 30
0.0
 40
2.6469713815835
100
AcDbArc
 50
178.5122636654
 51
192.674909816
  0
LINE
  5
E4
330
1F
100
AcDbEntity
  8
0
  6
Continuous
 62
     7
370
    25
100
AcDbLine
 10
35.9222534541
 20
42.764220028
 30
0.0
 11
40.8642040357
 21
42.764220028
 31
0.0
  0
ARC
  5
E5
330
1F
100
AcDbEntity
  8
0
  6
Continuous
 62
     7
370
    25
100
AcDbCircle
 10
41.6748830591
 20
42.7352677284
 30
0.0
 40
0.811195854705059
100
AcDbArc
 50
177.9546284054
 51
229.9072030665
  0
SPLINE
  5
E6
330
1F
100
AcDbEntity
  8
0
  6
Continuous
 62
     7
370
    25
100
AcDbSpline
210
0.0
220
0.0
230
1.0
 70
     8
 71
     3
 72
    10
 73
     6
 74
     0
 42
0.00000001
 43
0.00000001
 40
0.0
 40
0.0
 40
0.0
 40
0.0
 40
0.2859824770977876
 40
0.821921020949392
 40
1.0
 40
1.0
 40
1.0
 40
1.0
 10
33.12330347548429
 20
42.76422002801387
 30
0.0
 10
33.38859788502508
 20
42.75943307674748
 30
0.0
 10
34.15106086581594
 20
42.74567525524725
 30
0.0
 10
35.09628211488582
 20
42.75423041932992
 30
0.0
 10
35.75737428187411
 20
42.7622259171619
 30
0.0
 10
35.92225345413465
 20
42.76422002801386
 30
0.0
  0
ARC
  5
E7
330
1F
100
AcDbEntity
  8
0
  6
Continuous
 62
     7
370
    25
100
AcDbCircle
 10
30.4772243747
 20
42.6954967637
 30
0.0
 40
2.646971381583536
100
AcDbArc
 50
347.325090184
 51
1.4877363346
  0
SPLINE
  5
E8
330
1F
100
AcDbEntity
  8
0
  6
Continuous
 62
     7
370
    25
100
AcDbSpline
210
0.0
220
0.0
230
1.0
 70
     8
 71
     3
 72
     9
 73
     5
 74
     0
 42
0.00000001
 43
0.00000001
 40
0.0
 40
0.0
 40
0.0
 40
0.0
 40
0.4977140401152428
 40
1.0
 40
1.0
 40
1.0
 40
1.0
 10
27.89310627706171
 20
42.11470097517556
 30
0.0
 10
28.18276158048679
 20
42.04022184032787
 30
0.0
 10
28.76473291358
 20
41.89057941748111
 30
0.0
 10
29.33091557509064
 20
41.58244964087906
 30
0.0
 10
29.61530117669762
 20
41.42768038026941
 30
0.0
  0
LINE
  5
E9
330
1F
100
AcDbEntity
  8
0
  6
Continuous
 62
     7
370
    25
100
AcDbLine
 10
33.059690976
 20
42.1147009752
 30
0.0
 11
27.8931062771
 21
42.1147009752
 31
0.0
  0
SPLINE
  5
EA
330
1F
100
AcDbEntity
  8
0
  6
Continuous
 62
     7
370
    25
100
AcDbSpline
210
0.0
220
0.0
230
1.0
 70
     8
 71
     3
 72
     9
 73
     5
 74
     0
 42
0.00000001
 43
0.00000001
 40
0.0
 40
0.0
 40
0.0
 40
0.0
 40
0.6189856167028759
 40
1.0
 40
1.0
 40
1.0
 40
1.0
 10
26.43001878822177
 20
42.11470097517557
 30
0.0
 10
26.73213657571342
 20
42.15580039074806
 30
0.0
 10
27.22022188713135
 20
42.22219840463311
 30
0.0
 10
27.70746112089217
 20
42.14435893333021
 30
0.0
 10
27.89310627706171
 20
42.11470097517556
 30
0.0
  0
LINE
  5
EB
330
1F
100
AcDbEntity
  8
0
  6
Continuous
 62
     7
370
    25
100
AcDbLine
 10
24.7078238886
 20
31.734734272
 30
0.0
 11
24.7078238886
 21
41.4276803803
 31
0.0
  0
SPLINE
  5
EC
330
1F
100
AcDbEntity
  8
0
  6
Continuous
 62
     7
370
    25
100
AcDbSpline
210
0.0
220
0.0
230
1.0
 70
     8
 71
     3
 72
     9
 73
     5
 74
     0
 42
0.00000001
 43
0.00000001
 40
0.0
 40
0.0
 40
0.0
 40
0.0
 40
0.4980648083588056
 40
1.0
 40
1.0
 40
1.0
 40
1.0
 10
24.70782388858585
 20
41.42768038026942
 30
0.0
 10
24.98980360990819
 20
41.58122893706751
 30
0.0
 10
25.55595427261312
 20
41.88951925234604
 30
0.0
 10
26.13791314838428
 20
42.03944697498197
 30
0.0
 10
26.43001878822177
 20
42.11470097517557
 30
0.0
  0
LINE
  5
ED
330
1F
100
AcDbEntity
  8
0
  6
Continuous
 62
     7
370
    25
100
AcDbLine
 10
28.1813528939
 20
42.764220028
 30
0.0
 11
33.1233034755
 21
42.764220028
 31
0.0
  0
ARC
  5
EE
330
1F
100
AcDbEntity
  8
0
  6
Continuous
 62
     7
370
    25
100
AcDbCircle
 10
27.3706738705
 20
42.7352677284
 30
0.0
 40
0.8111958547160877
100
AcDbArc
 50
310.0927969339
 51
2.0453715942
  0
LINE
  5
EF
330
1F
100
AcDbEntity
  8
0
  6
Continuous
 62
     7
370
    25
100
AcDbLine
 10
26.4727784648
 20
43.8312073261
 30
0.0
 11
42.5727784648
 21
43.8312073261
 31
0.0
  0
LINE
  5
F0
330
1F
100
AcDbEntity
  8
0
  6
Continuous
 62
     7
370
    25
100
AcDbLine
 10
42.7727784648
 20
43.6312073261
 30
0.0
 11
26.2727784648
 21
43.6312073261
 31
0.0
  0
SPLINE
  5
F1
330
1F
100
AcDbEntity
  8
0
  6
Continuous
 62
     7
370
    25
100
AcDbSpline
210
0.0
220
0.0
230
1.0
 70
     8
 71
     3
 72
    10
 73
     6
 74
     0
 42
0.00000001
 43
0.00000001
 40
0.0
 40
0.0
 40
0.0
 40
0.0
 40
0.2859824770486543
 40
0.8219210210363743
 40
1.0
 40
1.0
 40
1.0
 40
1.0
 10
26.78187790459516
 20
42.76422002801389
 30
0.0
 10
26.88201859480144
 20
42.75943307674868
 30
0.0
 10
27.16982552336242
 20
42.745675255248
 30
0.0
 10
27.65951434263524
 20
42.75423041933411
 30
0.0
 10
28.07718425723446
 20
42.76222591716364
 30
0.0
 10
28.18135289392032
 20
42.76422002801389
 30
0.0
  0
SPLINE
  5
F2
330
1F
100
AcDbEntity
  8
0
  6
Continuous
 62
     7
370
    25
100
AcDbSpline
210
0.0
220
0.0
230
1.0
 70
     8
 71
     3
 72
    10
 73
     6
 74
     0
 42
0.00000001
 43
0.00000001
 40
0.0
 40
0.0
 40
0.0
 40
0.0
 40
0.2859824770486377
 40
0.8219210210364153
 40
1.0
 40
1.0
 40
1.0
 40
1.0
 10
40.86420403569866
 20
42.76422002801385
 30
0.0
 10
41.02935775498719
 20
42.75943307674863
 30
0.0
 10
41.50401380729664
 20
42.74567525524795
 30
0.0
 10
41.95954623709681
 20
42.75423041933409
 30
0.0
 10
42.20296848953004
 20
42.76222591716359
 30
0.0
 10
42.26367902502382
 20
42.76422002801383
 30
0.0
  0
ARC
  5
F3
330
1F
100
AcDbEntity
  8
0
  6
Continuous
 62
     7
370
    25
100
AcDbCircle
 10
43.0234794093
 20
42.7557564933
 30
0.0
 40
0.7598475211157873
100
AcDbArc
 50
179.3617997903
 51
237.5290082721
  0
ARC
  5
F4
330
1F
100
AcDbEntity
  8
0
  6
Continuous
 62
     7
370
    25
100
AcDbCircle
 10
26.0220775203
 20
42.7557564933
 30
0.0
 40
0.7598475211157463
100
AcDbArc
 50
302.4709917279
 51
0.6382002097
  0
SPLINE
  5
F5
330
1F
100
AcDbEntity
  8
0
  6
Continuous
 62
     7
370
    25
100
AcDbSpline
210
0.0
220
0.0
230
1.0
 70
    24
 71
     3
 72
     9
 73
     5
 74
     0
 42
0.00000001
 43
0.00000001
 40
0.0
 40
0.0
 40
0.0
 40
0.0
 40
0.8807975051419226
 40
1.0
 40
1.0
 40
1.0
 40
1.0
 10
25.37682808658332
 20
23.57933505509977
 30
0.0
 10
25.37682808658333
 20
23.58154362670156
 30
0.0
 10
25.37682808658333
 20
23.58405109475057
 30
0.0
 10
25.37682808658332
 20
23.58257641498746
 30
0.0
 10
25.37682808658332
 20
23.58240062948058
 30
0.0
  0
SPLINE
  5
F6
330
1F
100
AcDbEntity
  8
0
  6
Continuous
 62
     7
370
    25
100
AcDbSpline
210
0.0
220
0.0
230
1.0
 70
     8
 71
     3
 72
    17
 73
    13
 74
     0
 42
0.00000001
 43
0.00000001
 40
0.0
 40
0.0
 40
0.0
 40
0.0
 40
0.0939917965906953
 40
0.1901112787053048
 40
0.2841762653217052
 40
0.3803740244939184
 40
0.4861812664638713
 40
0.5950569112476554
 40
0.7008643979098977
 40
0.8097403119607408
 40
0.9155478345043304
 40
1.0
 40
1.0
 40
1.0
 40
1.0
 10
24.47111228313217
 20
17.58821479383857
 30
0.0
 10
24.47072939237022
 20
17.26440584530271
 30
0.0
 10
24.46995494337575
 20
16.60945790840513
 30
0.0
 10
24.46990285021423
 20
15.65177104219976
 30
0.0
 10
24.4707050840917
 20
14.73007424886676
 30
0.0
 10
24.47005064761719
 20
13.84302365178786
 30
0.0
 10
24.46986449116061
 20
13.00697096918376
 30
0.0
 10
24.47017767064255
 20
12.27454407148332
 30
0.0
 10
24.46959372825691
 20
11.68519160078777
 30
0.0
 10
24.47025166719147
 20
11.27377479888588
 30
0.0
 10
24.46998647199189
 20
11.03580847934277
 30
0.0
 10
24.46979061112031
 20
11.02562837518084
 30
0.0
 10
24.46970367271043
 20
11.02110964685584
 30
0.0
  0
SPLINE
  5
F7
330
1F
100
AcDbEntity
  8
0
  6
Continuous
 62
     7
370
    25
100
AcDbSpline
210
0.0
220
0.0
230
1.0
 70
     8
 71
     3
 72
    18
 73
    14
 74
     0
 42
0.00000001
 43
0.00000001
 40
0.0
 40
0.0
 40
0.0
 40
0.0
 40
0.0630302305623526
 40
0.1719807097438407
 40
0.2778742588255504
 40
0.3868384065829065
 40
0.4927373717007573
 40
0.5986360772488301
 40
0.7076056411684147
 40
0.8135053899062669
 40
0.9224764023341684
 40
0.9998479530201141
 40
0.9999999999999999
 40
0.9999999999999999
 40
0.9999999999999999
 40
0.9999999999999999
 10
24.469316796746
 20
24.13948898462533
 30
0.0
 10
24.46861118778488
 20
24.14180883667308
 30
0.0
 10
24.46668590322138
 20
24.14813865330413
 30
0.0
 10
24.46601997008253
 20
23.95088466004593
 30
0.0
 10
24.46880628398992
 20
23.57047702746085
 30
0.0
 10
24.47349021008892
 20
23.01621774608478
 30
0.0
 10
24.47332993558358
 20
22.31089418710259
 30
0.0
 10
24.4696748828652
 20
21.47335616994933
 30
0.0
 10
24.46751905737183
 20
20.5256631973112
 30
0.0
 10
24.46832160612559
 20
19.48541215329695
 30
0.0
 10
24.47082499023161
 20
18.49712908350295
 30
0.0
 10
24.47140352725304
 20
17.85532827629493
 30
0.0
 10
24.47111285323093
 20
17.58873765783899
 30
0.0
 10
24.47111228313217
 20
17.58821479383857
 30
0.0
  0
SPLINE
  5
F8
330
1F
100
AcDbEntity
  8
0
  6
Continuous
 62
     7
370
    25
100
AcDbSpline
210
0.0
220
0.0
230
1.0
 70
     8
 71
     3
 72
     9
 73
     5
 74
     0
 42
0.00000001
 43
0.00000001
 40
0.0448929885387046
 40
0.0448929885387046
 40
0.0448929885387046
 40
0.0448929885387046
 40
0.5448929885387046
 40
1.0
 40
1.0
 40
1.0
 40
1.0
 10
25.37682808658333
 20
17.58774116885387
 30
0.0
 10
25.17909482786679
 20
17.58775707671219
 30
0.0
 10
24.80180848915941
 20
17.58782510814886
 30
0.0
 10
24.54758039254131
 20
17.58808320562228
 30
0.0
 10
24.47111227932989
 20
17.58821047892811
 30
0.0
  0
SPLINE
  5
F9
330
1F
100
AcDbEntity
  8
0
  6
Continuous
 62
     7
370
    25
100
AcDbSpline
210
0.0
220
0.0
230
1.0
 70
    24
 71
     3
 72
     9
 73
     5
 74
     0
 42
0.00000001
 43
0.00000001
 40
0.0
 40
0.0
 40
0.0
 40
0.0
 40
0.1192024948580448
 40
1.0
 40
1.0
 40
1.0
 40
1.0
 10
28.52325121129002
 20
26.72882375418727
 30
0.0
 10
28.52307542578314
 20
26.72882375418727
 30
0.0
 10
28.52160074602002
 20
26.72882375418727
 30
0.0
 10
28.52410821406904
 20
26.72882375418727
 30
0.0
 10
28.52631678567084
 20
26.72882375418727
 30
0.0
  0
SPLINE
  5
FA
330
1F
100
AcDbEntity
  8
0
  6
Continuous
 62
     7
370
    25
100
AcDbSpline
210
0.0
220
0.0
230
1.0
 70
     8
 71
     3
 72
     9
 73
     5
 74
     0
 42
0.00000001
 43
0.00000001
 40
0.0448929885387033
 40
0.0448929885387033
 40
0.0448929885387033
 40
0.0448929885387033
 40
0.5448929885387033
 40
1.0
 40
1.0
 40
1.0
 40
1.0
 10
34.51791067191674
 20
26.72882375418727
 30
0.0
 10
34.51789476405841
 20
26.92655701290381
 30
0.0
 10
34.51782673262175
 20
27.30384335161119
 30
0.0
 10
34.51756863514832
 20
27.5580714482293
 30
0.0
 10
34.51744136184249
 20
27.63453956144071
 30
0.0
  0
SPLINE
  5
FB
330
1F
100
AcDbEntity
  8
0
  6
Continuous
 62
     7
370
    25
100
AcDbSpline
210
0.0
220
0.0
230
1.0
 70
     8
 71
     3
 72
    17
 73
    13
 74
     0
 42
0.00000001
 43
0.00000001
 40
0.0
 40
0.0
 40
0.0
 40
0.0
 40
0.093991796590807
 40
0.190111278705536
 40
0.284176265322048
 40
0.3803740244943806
 40
0.4861812664643304
 40
0.5950569112481117
 40
0.7008643979103507
 40
0.8097403119611902
 40
0.9155478345047768
 40
1.0
 40
1.0
 40
1.0
 40
1.0
 10
34.51743704693203
 20
27.63453955763844
 30
0.0
 10
34.84124599546829
 20
27.63492244840039
 30
0.0
 10
35.49619393236669
 20
27.63569689739487
 30
0.0
 10
36.45388079857319
 20
27.63574899055641
 30
0.0
 10
37.37557759190719
 20
27.63494675667896
 30
0.0
 10
38.26262818898648
 20
27.63560119315347
 30
0.0
 10
39.09868087159041
 20
27.63578734961004
 30
0.0
 10
39.83110776929022
 20
27.63547417012808
 30
0.0
 10
40.42046023998508
 20
27.63605811251375
 30
0.0
 10
40.83187704188617
 20
27.63540017357919
 30
0.0
 10
41.06984336142831
 20
27.63566536877878
 30
0.0
 10
41.0800234655898
 20
27.63586122965036
 30
0.0
 10
41.08454219391458
 20
27.63594816806023
 30
0.0
  0
SPLINE
  5
FC
330
1F
100
AcDbEntity
  8
0
  6
Continuous
 62
     7
370
    25
100
AcDbSpline
210
0.0
220
0.0
230
1.0
 70
     8
 71
     3
 72
    18
 73
    14
 74
     0
 42
0.00000001
 43
0.00000001
 40
0.0
 40
0.0
 40
0.0
 40
0.0
 40
0.0630302305628241
 40
0.1719807097443125
 40
0.2778742588260225
 40
0.386838406583379
 40
0.4927373717012298
 40
0.5986360772493029
 40
0.7076056411688878
 40
0.8135053899067404
 40
0.9224764023346419
 40
0.9998479530201142
 40
1.0
 40
1.0
 40
1.0
 40
1.0
 10
27.96616285614523
 20
27.63633504402462
 30
0.0
 10
27.9638430040976
 20
27.63704065298576
 30
0.0
 10
27.9575131874669
 20
27.63896593754927
 30
0.0
 10
28.15476718072597
 20
27.6396318706881
 30
0.0
 10
28.53517481331187
 20
27.63684555678071
 30
0.0
 10
29.08943409468864
 20
27.6321616306817
 30
0.0
 10
29.79475765367145
 20
27.63232190518706
 30
0.0
 10
30.63229567082526
 20
27.63597695790542
 30
0.0
 10
31.57998864346381
 20
27.63813278339882
 30
0.0
 10
32.62023968747837
 20
27.63733023464488
 30
0.0
 10
33.60852275727092
 20
27.63482685053939
 30
0.0
 10
34.2503235644773
 20
27.63424831351696
 30
0.0
 10
34.51691418293161
 20
27.63453898753967
 30
0.0
 10
34.51743704693203
 20
27.63453955763844
 30
0.0
  0
SPLINE
  5
FD
330
1F
100
AcDbEntity
  8
0
  6
Continuous
 62
     7
370
    25
100
AcDbSpline
210
0.0
220
0.0
230
1.0
 70
    24
 71
     3
 72
     9
 73
     5
 74
     0
 42
0.00000001
 43
0.00000001
 40
0.0
 40
0.0
 40
0.0
 40
0.0
 40
0.8807975287345483
 40
1.0
 40
1.0
 40
1.0
 40
1.0
 10
43.66872884303551
 20
11.58641169761725
 30
0.0
 10
43.66872884303552
 20
11.58420312549159
 30
0.0
 10
43.66872884303552
 20
11.58169565691498
 30
0.0
 10
43.66872884303551
 20
11.58317033693865
 30
0.0
 10
43.66872884303551
 20
11.58334612244179
 30
0.0
  0
SPLINE
  5
FE
330
1F
100
AcDbEntity
  8
0
  6
Continuous
 62
     7
370
    25
100
AcDbSpline
210
0.0
220
0.0
230
1.0
 70
     8
 71
     3
 72
     9
 73
     5
 74
     0
 42
0.00000001
 43
0.00000001
 40
0.0448929885387046
 40
0.0448929885387046
 40
0.0448929885387046
 40
0.0448929885387046
 40
0.5448929885387046
 40
1.0
 40
1.0
 40
1.0
 40
1.0
 10
43.66872884303551
 20
17.5780055830685
 30
0.0
 10
43.86646210175205
 20
17.57798967521018
 30
0.0
 10
44.24374844045943
 20
17.57792164377352
 30
0.0
 10
44.49797653707752
 20
17.57766354630009
 30
0.0
 10
44.57444465028894
 20
17.57753627299427
 30
0.0
  0
SPLINE
  5
FF
330
1F
100
AcDbEntity
  8
0
  6
Continuous
 62
     7
370
    25
100
AcDbSpline
210
0.0
220
0.0
230
1.0
 70
     8
 71
     3
 72
    18
 73
    14
 74
     0
 42
0.00000001
 43
0.00000001
 40
0.0
 40
0.0
 40
0.0
 40
0.0
 40
0.0001520363768357
 40
0.0942939783550344
 40
0.1905707042278709
 40
0.2847125365747271
 40
0.3809892658478592
 40
0.4868744350891677
 40
0.5927385828927425
 40
0.7016724093237425
 40
0.8075502217388195
 40
0.9164981702947511
 40
1.0
 40
1.0
 40
1.0
 40
1.0
 10
44.57444464648667
 20
17.5775319580838
 30
0.0
 10
44.57444407639313
 20
17.57700909424234
 30
0.0
 10
44.57409050056371
 20
17.25272544071442
 30
0.0
 10
44.57495214136077
 20
16.59637541674494
 30
0.0
 10
44.57724056694267
 20
15.63879736503877
 30
0.0
 10
44.57797491276741
 20
14.71755396232312
 30
0.0
 10
44.57632600538307
 20
13.83161801089825
 30
0.0
 10
44.57291190597222
 20
13.00530366791742
 30
0.0
 10
44.57148124786634
 20
12.27297398008424
 30
0.0
 10
44.57589185915444
 20
11.68878071501978
 30
0.0
 10
44.5792630125931
 20
11.27292973820352
 30
0.0
 10
44.5792257028878
 20
11.03556140272685
 30
0.0
 10
44.5771422375608
 20
11.02436702520263
 30
0.0
 10
44.57623824500489
 20
11.01950990863887
 30
0.0
  0
SPLINE
  5
100
330
1F
100
AcDbEntity
  8
0
  6
Continuous
 62
     7
370
    25
100
AcDbSpline
210
0.0
220
0.0
230
1.0
 70
     8
 71
     3
 72
    17
 73
    13
 74
     0
 42
0.00000001
 43
0.00000001
 40
0.0
 40
0.0
 40
0.0
 40
0.0
 40
0.0639863602158429
 40
0.1697984170060826
 40
0.2786790486907652
 40
0.3844910910505631
 40
0.4933716718338985
 40
0.5991838636347784
 40
0.7080646233039221
 40
0.8138767312225337
 40
0.9227573791154685
 40
1.0
 40
1.0
 40
1.0
 40
1.0
 10
44.57581989196195
 20
24.13805532721518
 30
0.0
 10
44.57579370118047
 20
24.14072863754163
 30
0.0
 10
44.57572419959886
 20
24.1478227097793
 30
0.0
 10
44.57516397075145
 20
23.95014755037858
 30
0.0
 10
44.575944508605
 20
23.57401961072531
 30
0.0
 10
44.57549603115807
 20
23.01507364085999
 30
0.0
 10
44.57557918027702
 20
22.30990741225627
 30
0.0
 10
44.57565004968444
 20
21.46291823750387
 30
0.0
 10
44.57478789233094
 20
20.51406618956463
 30
0.0
 10
44.57571845704631
 20
19.4730282791033
 30
0.0
 10
44.57552405689912
 20
18.48442429216881
 30
0.0
 10
44.57476122692681
 20
17.8435145454064
 30
0.0
 10
44.57444464648667
 20
17.5775319580838
 30
0.0
  0
LINE
  5
101
330
1F
100
AcDbEntity
  8
0
  6
Continuous
 62
     7
370
    25
100
AcDbLine
 10
40.5227784648
 20
23.582873376
 30
0.0
 11
39.8156716836
 21
22.8757665948
 31
0.0
  0
LINE
  5
102
330
1F
100
AcDbEntity
  8
0
  6
Continuous
 62
     7
370
    25
100
AcDbLine
 10
29.229885246
 20
22.8757665948
 30
0.0
 11
28.5227784648
 21
23.582873376
 31
0.0
  0
LINE
  5
103
330
1F
100
AcDbEntity
  8
0
  6
Continuous
 62
     7
370
    25
100
AcDbLine
 10
39.5227784648
 20
24.082873376
 30
0.0
 11
39.5227784648
 21
23.582873376
 31
0.0
  0
ARC
  5
104
330
1F
100
AcDbEntity
  8
0
  6
Continuous
 62
     7
370
    25
100
AcDbCircle
 10
40.5227784648
 20
23.582873376
 30
0.0
 40
1.0
100
AcDbArc
 50
180.0
 51
270.0
  0
LINE
  5
105
330
1F
100
AcDbEntity
  8
0
  6
Continuous
 62
     7
370
    25
100
AcDbLine
 10
40.5227784648
 20
22.582873376
 30
0.0
 11
41.0227784648
 21
22.582873376
 31
0.0
  0
LINE
  5
106
330
1F
100
AcDbEntity
  8
0
  6
Continuous
 62
     7
370
    25
100
AcDbLine
 10
41.0227784648
 20
22.582873376
 30
0.0
 11
41.0227784648
 21
17.582873376
 31
0.0
  0
LINE
  5
107
330
1F
100
AcDbEntity
  8
0
  6
Continuous
 62
     7
370
    25
100
AcDbLine
 10
41.0227784648
 20
17.582873376
 30
0.0
 11
41.0227784648
 21
12.582873376
 31
0.0
  0
LINE
  5
108
330
1F
100
AcDbEntity
  8
0
  6
Continuous
 62
     7
370
    25
100
AcDbLine
 10
41.0227784648
 20
12.582873376
 30
0.0
 11
28.0227784648
 21
12.582873376
 31
0.0
  0
LINE
  5
109
330
1F
100
AcDbEntity
  8
0
  6
Continuous
 62
     7
370
    25
100
AcDbLine
 10
28.0227784648
 20
12.582873376
 30
0.0
 11
28.0227784648
 21
17.582873376
 31
0.0
  0
LINE
  5
10A
330
1F
100
AcDbEntity
  8
0
  6
Continuous
 62
     7
370
    25
100
AcDbLine
 10
28.0227784648
 20
17.582873376
 30
0.0
 11
28.0227784648
 21
22.582873376
 31
0.0
  0
LINE
  5
10B
330
1F
100
AcDbEntity
  8
0
  6
Continuous
 62
     7
370
    25
100
AcDbLine
 10
28.0227784648
 20
22.582873376
 30
0.0
 11
28.5227784648
 21
22.582873376
 31
0.0
  0
ARC
  5
10C
330
1F
100
AcDbEntity
  8
0
  6
Continuous
 62
     7
370
    25
100
AcDbCircle
 10
28.5227784648
 20
23.582873376
 30
0.0
 40
1.0
100
AcDbArc
 50
270.0
 51
0.0
  0
LINE
  5
10D
330
1F
100
AcDbEntity
  8
0
  6
Continuous
 62
     7
370
    25
100
AcDbLine
 10
29.5227784648
 20
23.582873376
 30
0.0
 11
29.5227784648
 21
24.082873376
 31
0.0
  0
LINE
  5
10E
330
1F
100
AcDbEntity
  8
0
  6
Continuous
 62
     7
370
    25
100
AcDbLine
 10
29.5227784648
 20
24.082873376
 30
0.0
 11
34.5227784648
 21
24.082873376
 31
0.0
  0
LINE
  5
10F
330
1F
100
AcDbEntity
  8
0
  6
Continuous
 62
     7
370
    25
100
AcDbLine
 10
34.5227784648
 20
24.082873376
 30
0.0
 11
39.5227784648
 21
24.082873376
 31
0.0
  0
LINE
  5
110
330
1F
100
AcDbEntity
  8
0
  6
Continuous
 62
     7
370
    25
100
AcDbLine
 10
39.1276180039
 20
15.2173235347
 30
0.0
 11
38.0352677344
 21
18.2714867587
 31
0.0
  0
SPLINE
  5
111
330
1F
100
AcDbEntity
  8
0
  6
Continuous
 62
     7
370
    25
100
AcDbSpline
210
0.0
220
0.0
230
1.0
 70
     8
 71
     3
 72
    14
 73
    10
 74
     0
 42
0.00000001
 43
0.00000001
 40
0.0
 40
0.0
 40
0.0
 40
0.0
 40
0.25
 40
0.25
 40
0.5
 40
0.5
 40
0.75
 40
0.75
 40
1.0
 40
1.0
 40
1.0
 40
1.0
 10
38.0352677343685
 20
18.27148675869409
 30
0.0
 10
37.99250911172112
 20
18.35901195601703
 30
0.0
 10
37.91933599264343
 20
18.4420951971705
 30
0.0
 10
37.73397849295007
 20
18.55471774020296
 30
0.0
 10
37.62407139080501
 20
18.58287337596112
 30
0.0
 10
37.42148553881349
 20
18.58287337596124
 30
0.0
 10
37.31157843666851
 20
18.55471774020316
 30
0.0
 10
37.12622093697516
 20
18.44209519717062
 30
0.0
 10
37.05304781789752
 20
18.359011956017
 30
0.0
 10
37.01028919525032
 20
18.27148675869397
 30
0.0
  0
LINE
  5
112
330
1F
100
AcDbEntity
  8
0
  6
Continuous
 62
     7
370
    25
100
AcDbLine
 10
37.0102891953
 20
18.2714867587
 30
0.0
 11
35.9181934834
 21
15.2180352667
 31
0.0
  0
SPLINE
  5
113
330
1F
100
AcDbEntity
  8
0
  6
Continuous
 62
     7
370
    25
100
AcDbSpline
210
0.0
220
0.0
230
1.0
 70
     8
 71
     3
 72
    14
 73
    10
 74
     0
 42
0.00000001
 43
0.00000001
 40
0.0
 40
0.0
 40
0.0
 40
0.0
 40
0.25
 40
0.25
 40
0.5
 40
0.5
 40
0.75
 40
0.75
 40
1.0
 40
1.0
 40
1.0
 40
1.0
 10
35.9181934833843
 20
15.21803526666407
 30
0.0
 10
35.89115764717361
 20
15.1424442598326
 30
0.0
 10
35.84496559515971
 20
15.06882966434206
 30
0.0
 10
35.72243645809098
 20
14.94838898257189
 30
0.0
 10
35.64666247536834
 20
14.90211640079264
 30
0.0
 10
35.48979078093421
 20
14.84595048459363
 30
0.0
 10
35.40079470276015
 20
14.83322924045794
 30
0.0
 10
35.22537718388576
 20
14.84699390926198
 30
0.0
 10
35.13976190257207
 20
14.87341656445509
 30
0.0
 10
35.06720035063155
 20
14.91334799243954
 30
0.0
  0
LINE
  5
114
330
1F
100
AcDbEntity
  8
0
  6
Continuous
 62
     7
370
    25
100
AcDbLine
 10
35.0672003506
 20
14.9133479924
 30
0.0
 11
35.0224705902
 21
14.9379632764
 31
0.0
  0
LINE
  5
115
330
1F
100
AcDbEntity
  8
0
  6
Continuous
 62
     7
370
    25
100
AcDbLine
 10
35.0224705902
 20
14.9379632764
 30
0.0
 11
35.7129807185
 21
13.6216206211
 31
0.0
  0
SPLINE
  5
116
330
1F
100
AcDbEntity
  8
0
  6
Continuous
 62
     7
370
    25
100
AcDbSpline
210
0.0
220
0.0
230
1.0
 70
     8
 71
     3
 72
    10
 73
     6
 74
     0
 42
0.00000001
 43
0.00000001
 40
0.0
 40
0.0
 40
0.0
 40
0.0
 40
0.5
 40
0.5
 40
1.0
 40
1.0
 40
1.0
 40
1.0
 10
35.71298071849047
 20
13.62162062112752
 30
0.0
 10
35.72279737954405
 20
13.60290679036962
 30
0.0
 10
35.74408442115575
 20
13.58770785256681
 30
0.0
 10
35.78728693782251
 20
13.58027075444463
 30
0.0
 10
35.81280694912533
 20
13.58741209115858
 30
0.0
 10
35.82887112465033
 20
13.60167066477014
 30
0.0
  0
SPLINE
  5
117
330
1F
100
AcDbEntity
  8
0
  6
Continuous
 62
     7
370
    25
100
AcDbSpline
210
0.0
220
0.0
230
1.0
 70
     8
 71
     3
 72
    14
 73
    10
 74
     0
 42
0.00000001
 43
0.00000001
 40
0.0
 40
0.0
 40
0.0
 40
0.0
 40
0.25
 40
0.25
 40
0.5000000000000001
 40
0.5000000000000001
 40
0.7500000000000002
 40
0.7500000000000002
 40
1.0
 40
1.0
 40
1.0
 40
1.0
 10
35.82887112465033
 20
13.60167066477014
 30
0.0
 10
36.03547955682151
 20
13.78505645598577
 30
0.0
 10
36.29064177248338
 20
13.9470795372728
 30
0.0
 10
36.8716154638014
 20
14.17376582732657
 30
0.0
 10
37.19674410171466
 20
14.23701902651259
 30
0.0
 10
37.84881282790447
 20
14.23701902651258
 30
0.0
 10
38.17394146581771
 20
14.17376582732655
 30
0.0
 10
38.75491515713563
 20
13.94707953727278
 30
0.0
 10
39.01007737279741
 20
13.78505645598573
 30
0.0
 10
39.2166858049685
 20
13.6016706647701
 30
0.0
  0
SPLINE
  5
118
330
1F
100
AcDbEntity
  8
0
  6
Continuous
 62
     7
370
    25
100
AcDbSpline
210
0.0
220
0.0
230
1.0
 70
     8
 71
     3
 72
    10
 73
     6
 74
     0
 42
0.00000001
 43
0.00000001
 40
0.0
 40
0.0
 40
0.0
 40
0.0
 40
0.5
 40
0.5
 40
1.0
 40
1.0
 40
1.0
 40
1.0
 10
39.2166858049685
 20
13.6016706647701
 30
0.0
 10
39.2327499804935
 20
13.58741209115849
 30
0.0
 10
39.25826999179636
 20
13.5802707544445
 30
0.0
 10
39.30147250846314
 20
13.58770785256669
 30
0.0
 10
39.32275955007486
 20
13.60290679036956
 30
0.0
 10
39.33257621112843
 20
13.62162062112751
 30
0.0
  0
LINE
  5
119
330
1F
100
AcDbEntity
  8
0
  6
Continuous
 62
     7
370
    25
100
AcDbLine
 10
39.3325762111
 20
13.6216206211
 30
0.0
 11
40.0230863394
 21
14.9379632764
 31
0.0
  0
LINE
  5
11A
330
1F
100
AcDbEntity
  8
0
  6
Continuous
 62
     7
370
    25
100
AcDbLine
 10
40.0230863394
 20
14.9379632764
 30
0.0
 11
39.9869679176
 21
14.9173230311
 31
0.0
  0
SPLINE
  5
11B
330
1F
100
AcDbEntity
  8
0
  6
Continuous
 62
     7
370
    25
100
AcDbSpline
210
0.0
220
0.0
230
1.0
 70
     8
 71
     3
 72
    14
 73
    10
 74
     0
 42
0.00000001
 43
0.00000001
 40
0.0
 40
0.0
 40
0.0
 40
0.0
 40
0.25
 40
0.25
 40
0.5
 40
0.5
 40
0.75
 40
0.75
 40
1.0
 40
1.0
 40
1.0
 40
1.0
 10
39.98696791760742
 20
14.91732303114247
 30
0.0
 10
39.91448069806362
 20
14.87589946067129
 30
0.0
 10
39.82842737494715
 20
14.84800277631129
 30
0.0
 10
39.65151115782088
 20
14.83201968091423
 30
0.0
 10
39.56149157694392
 20
14.84400945709431
 30
0.0
 10
39.40276899568617
 20
14.89941977779018
 30
0.0
 10
39.32591948693078
 20
14.94568428211314
 30
0.0
 10
39.2016835582908
 20
15.06680009928757
 30
0.0
 10
39.15488933844244
 20
15.14107408485453
 30
0.0
 10
39.12761800386413
 20
15.21732353474539
 30
0.0
  0
LINE
  5
11C
330
1F
100
AcDbEntity
  8
0
  6
Continuous
 62
     7
370
    25
100
AcDbLine
 10
37.7861193539
 20
15.2183409764
 30
0.0
 11
37.2594375762
 21
15.2183409764
 31
0.0
  0
SPLINE
  5
11D
330
1F
100
AcDbEntity
  8
0
  6
Continuous
 62
     7
370
    25
100
AcDbSpline
210
0.0
220
0.0
230
1.0
 70
     8
 71
     3
 72
    14
 73
    10
 74
     0
 42
0.00000001
 43
0.00000001
 40
0.0
 40
0.0
 40
0.0
 40
0.0
 40
0.25
 40
0.25
 40
0.5
 40
0.5
 40
0.75
 40
0.75
 40
1.0
 40
1.0
 40
1.0
 40
1.0
 10
37.59203272295709
 20
16.01483252447044
 30
0.0
 10
37.58728346032193
 20
16.02750767494899
 30
0.0
 10
37.5778421522741
 20
16.04002139094179
 30
0.0
 10
37.55243821865148
 20
16.05708559267665
 30
0.0
 10
37.53689903952942
 20
16.06135164311037
 30
0.0
 10
37.50865789359604
 20
16.06135164311037
 30
0.0
 10
37.49311871447398
 20
16.05708559267665
 30
0.0
 10
37.46771478085135
 20
16.04002139094179
 30
0.0
 10
37.45827347280353
 20
16.02750767494899
 30
0.0
 10
37.45352421016837
 20
16.01483252447044
 30
0.0
  0
LINE
  5
11E
330
1F
100
AcDbEntity
  8
0
  6
Continuous
 62
     7
370
    25
100
AcDbLine
 10
37.592032723
 20
16.0148325245
 30
0.0
 11
37.8553736103
 21
15.3120107076
 31
0.0
  0
SPLINE
  5
11F
330
1F
100
AcDbEntity
  8
0
  6
Continuous
 62
     7
370
    25
100
AcDbSpline
210
0.0
220
0.0
230
1.0
 70
     8
 71
     3
 72
    10
 73
     6
 74
     0
 42
0.00000001
 43
0.00000001
 40
0.0
 40
0.0
 40
0.0
 40
0.0
 40
0.5
 40
0.5
 40
1.0
 40
1.0
 40
1.0
 40
1.0
 10
37.78611935387303
 20
15.21834097638812
 30
0.0
 10
37.80869116641657
 20
15.21834097638812
 30
0.0
 10
37.83322838362313
 20
15.23047116497539
 30
0.0
 10
37.85923329831883
 20
15.26564406979212
 30
0.0
 10
37.86296533237847
 20
15.29174941074459
 30
0.0
 10
37.85537361031341
 20
15.31201070760755
 30
0.0
  0
SPLINE
  5
120
330
1F
100
AcDbEntity
  8
0
  6
Continuous
 62
     7
370
    25
100
AcDbSpline
210
0.0
220
0.0
230
1.0
 70
     8
 71
     3
 72
    10
 73
     6
 74
     0
 42
0.00000001
 43
0.00000001
 40
0.0
 40
0.0
 40
0.0
 40
0.0
 40
0.5
 40
0.5
 40
1.0
 40
1.0
 40
1.0
 40
1.0
 10
37.1901833198099
 20
15.31201070785322
 30
0.0
 10
37.18259159765211
 20
15.29174941098085
 30
0.0
 10
37.1863236316446
 20
15.26564406995335
 30
0.0
 10
37.21232854631829
 20
15.2304711650274
 30
0.0
 10
37.23686576357421
 20
15.21834097638812
 30
0.0
 10
37.25943757615824
 20
15.21834097638812
 30
0.0
  0
LINE
  5
121
330
1F
100
AcDbEntity
  8
0
  6
Continuous
 62
     7
370
    25
100
AcDbLine
 10
37.1901833198
 20
15.3120107079
 30
0.0
 11
37.4535242102
 21
16.0148325245
 31
0.0
  0
LINE
  5
122
330
1F
100
AcDbEntity
  8
0
  6
Continuous
 62
     7
370
    25
100
AcDbLine
 10
59.7041251169
 20
25.832873376
 30
0.0
 11
59.7041251169
 21
25.3237739362
 31
0.0
  0
LINE
  5
123
330
1F
100
AcDbEntity
  8
0
  6
Continuous
 62
     7
370
    25
100
AcDbLine
 10
59.7041251169
 20
9.8419728157
 30
0.0
 11
59.7041251169
 21
9.332873376
 31
0.0
  0
LINE
  5
124
330
1F
100
AcDbEntity
  8
0
  6
Continuous
 62
     7
370
    25
100
AcDbLine
 10
59.054606064
 20
8.957873376
 30
0.0
 11
59.054606064
 21
9.4901136994
 31
0.0
  0
LINE
  5
125
330
1F
100
AcDbEntity
  8
0
  6
Continuous
 62
     7
370
    25
100
AcDbLine
 10
59.054606064
 20
25.6756330525
 30
0.0
 11
59.054606064
 21
26.207873376
 31
0.0
  0
LINE
  5
126
330
1F
100
AcDbEntity
  8
0
  6
Continuous
 62
     7
370
    25
100
AcDbLine
 10
9.3414318128
 20
25.3237739362
 30
0.0
 11
9.3414318128
 21
25.832873376
 31
0.0
  0
LINE
  5
127
330
1F
100
AcDbEntity
  8
0
  6
Continuous
 62
     7
370
    25
100
AcDbLine
 10
9.3414318128
 20
9.332873376
 30
0.0
 11
9.3414318128
 21
9.8419728157
 31
0.0
  0
LINE
  5
128
330
1F
100
AcDbEntity
  8
0
  6
Continuous
 62
     7
370
    25
100
AcDbLine
 10
9.9909508656
 20
9.4901136994
 30
0.0
 11
9.9909508656
 21
8.957873376
 31
0.0
  0
LINE
  5
129
330
1F
100
AcDbEntity
  8
0
  6
Continuous
 62
     7
370
    25
100
AcDbLine
 10
9.9909508656
 20
26.207873376
 30
0.0
 11
9.9909508656
 21
25.6756330525
 31
0.0
  0
LINE
  5
12A
330
1F
100
AcDbEntity
  8
0
  6
Continuous
 62
     7
370
    25
100
AcDbLine
 10
26.2727784648
 20
42.764220028
 30
0.0
 11
26.7818779046
 21
42.764220028
 31
0.0
  0
LINE
  5
12B
330
1F
100
AcDbEntity
  8
0
  6
Continuous
 62
     7
370
    25
100
AcDbLine
 10
42.263679025
 20
42.764220028
 30
0.0
 11
42.7727784648
 21
42.764220028
 31
0.0
  0
LINE
  5
12C
330
1F
100
AcDbEntity
  8
0
  6
Continuous
 62
     7
370
    25
100
AcDbLine
 10
43.1477784648
 20
42.1147009752
 30
0.0
 11
42.6155381414
 21
42.1147009752
 31
0.0
  0
LINE
  5
12D
330
1F
100
AcDbEntity
  8
0
  6
Continuous
 62
     7
370
    25
100
AcDbLine
 10
26.4300187882
 20
42.1147009752
 30
0.0
 11
25.8977784648
 21
42.1147009752
 31
0.0
  0
SPLINE
  5
12E
330
1F
100
AcDbEntity
  8
0
  6
Continuous
 62
     7
370
    25
100
AcDbSpline
210
0.0
220
0.0
230
1.0
 70
    24
 71
     3
 72
    16
 73
    12
 74
     0
 42
0.00000001
 43
0.00000001
 40
0.0
 40
0.0
 40
0.0
 40
0.0
 40
0.1249554854673955
 40
0.2499109709347904
 40
0.3748664564021859
 40
0.4998219418695814
 40
0.6247774273369763
 40
0.7497329128043724
 40
0.8746883982717674
 40
0.9996438837391628
 40
1.0
 40
1.0
 40
1.0
 40
1.0
 10
25.37682808658333
 20
17.58773946206677
 30
0.0
 10
25.37682808658333
 20
17.19502768875128
 30
0.0
 10
25.37682808658332
 20
16.4096041421203
 30
0.0
 10
25.37682808658333
 20
15.27647045614386
 30
0.0
 10
25.37682808658333
 20
14.23212931880828
 30
0.0
 10
25.37682808658332
 20
13.31600672966793
 30
0.0
 10
25.37682808658334
 20
12.56589332218929
 30
0.0
 10
25.37682808658327
 20
12.0009847541003
 30
0.0
 10
25.37682808658356
 20
11.6789287081471
 30
0.0
 10
25.37682808658282
 20
11.54477076623231
 30
0.0
 10
25.37682808658333
 20
11.58309230501496
 30
0.0
 10
25.37682808658333
 20
11.5832012089226
 30
0.0
  0
SPLINE
  5
12F
330
1F
100
AcDbEntity
  8
0
  6
Continuous
 62
     7
370
    25
100
AcDbSpline
210
0.0
220
0.0
230
1.0
 70
    24
 71
     3
 72
    15
 73
    11
 74
     0
 42
0.00000001
 43
0.00000001
 40
0.0
 40
0.0
 40
0.0
 40
0.0
 40
0.1245494331828657
 40
0.2496137998710274
 40
0.3746781665591891
 40
0.499742533247352
 40
0.6248068999355137
 40
0.7498712666236755
 40
0.8749356333118383
 40
1.0
 40
1.0
 40
1.0
 40
1.0
 10
25.37682808658332
 20
23.58240062948058
 30
0.0
 10
25.37682808658333
 20
23.56044877115178
 30
0.0
 10
25.37682808658333
 20
23.51645429737816
 30
0.0
 10
25.37682808658332
 20
23.16095042274507
 30
0.0
 10
25.37682808658333
 20
22.60732094123986
 30
0.0
 10
25.37682808658332
 20
21.85612298240325
 30
0.0
 10
25.37682808658333
 20
20.94190819080931
 30
0.0
 10
25.37682808658333
 20
19.89828233758055
 30
0.0
 10
25.37682808658333
 20
18.76577581317537
 30
0.0
 10
25.37682808658333
 20
17.98041824576964
 30
0.0
 10
25.37682808658333
 20
17.58773946206678
 30
0.0
  0
SPLINE
  5
130
330
1F
100
AcDbEntity
  8
0
  6
Continuous
 62
     7
370
    25
100
AcDbSpline
210
0.0
220
0.0
230
1.0
 70
    24
 71
     3
 72
    15
 73
    11
 74
     0
 42
0.00000001
 43
0.00000001
 40
0.0
 40
0.0
 40
0.0
 40
0.0
 40
0.1250643666881617
 40
0.2501287333763246
 40
0.3751931000644863
 40
0.500257466752648
 40
0.6253218334408108
 40
0.7503862001289726
 40
0.8754505668171343
 40
1.0
 40
1.0
 40
1.0
 40
1.0
 10
34.51791237870383
 20
26.72882375418727
 30
0.0
 10
34.12523359500096
 20
26.72882375418727
 30
0.0
 10
33.33987602759523
 20
26.72882375418727
 30
0.0
 10
32.20736950319005
 20
26.72882375418727
 30
0.0
 10
31.16374364996129
 20
26.72882375418727
 30
0.0
 10
30.24952885836736
 20
26.72882375418727
 30
0.0
 10
29.49833089953075
 20
26.72882375418727
 30
0.0
 10
28.94470141802553
 20
26.72882375418727
 30
0.0
 10
28.58919754339245
 20
26.72882375418727
 30
0.0
 10
28.54520306961883
 20
26.72882375418727
 30
0.0
 10
28.52325121129002
 20
26.72882375418727
 30
0.0
  0
SPLINE
  5
131
330
1F
100
AcDbEntity
  8
0
  6
Continuous
 62
     7
370
    25
100
AcDbSpline
210
0.0
220
0.0
230
1.0
 70
    24
 71
     3
 72
    16
 73
    12
 74
     0
 42
0.00000001
 43
0.00000001
 40
0.0
 40
0.0
 40
0.0
 40
0.0
 40
0.0003561162608374
 40
0.1253116017282329
 40
0.2502670871956277
 40
0.3752225726630238
 40
0.5001780581304187
 40
0.6251335435978141
 40
0.7500890290652096
 40
0.8750445145326045
 40
1.0
 40
1.0
 40
1.0
 40
1.0
 10
40.522450631848
 20
26.72882375418727
 30
0.0
 10
40.52255953575564
 20
26.72882375418727
 30
0.0
 10
40.56088107453809
 20
26.72882375418723
 30
0.0
 10
40.42672313262359
 20
26.72882375418729
 30
0.0
 10
40.10466708667028
 20
26.72882375418727
 30
0.0
 10
39.53975851858132
 20
26.72882375418727
 30
0.0
 10
38.78964511110268
 20
26.72882375418727
 30
0.0
 10
37.87352252196232
 20
26.72882375418727
 30
0.0
 10
36.82918138462674
 20
26.72882375418727
 30
0.0
 10
35.6960476986503
 20
26.72882375418727
 30
0.0
 10
34.91062415201932
 20
26.72882375418727
 30
0.0
 10
34.51791237870383
 20
26.72882375418727
 30
0.0
  0
SPLINE
  5
132
330
1F
100
AcDbEntity
  8
0
  6
Continuous
 62
     7
370
    25
100
AcDbSpline
210
0.0
220
0.0
230
1.0
 70
    24
 71
     3
 72
    16
 73
    12
 74
     0
 42
0.00000001
 43
0.00000001
 40
0.0
 40
0.0
 40
0.0
 40
0.0
 40
0.1249554854670049
 40
0.2499109709340109
 40
0.3748664564010158
 40
0.4998219418680219
 40
0.6247774273350267
 40
0.7497329128020317
 40
0.8746883982690378
 40
0.9996438837360426
 40
1.0
 40
1.0
 40
1.0
 40
1.0
 10
43.66872884303551
 20
17.57800728985561
 30
0.0
 10
43.66872884303551
 20
17.97071906317109
 30
0.0
 10
43.66872884303551
 20
18.75614260980207
 30
0.0
 10
43.66872884303551
 20
19.88927629577851
 30
0.0
 10
43.66872884303551
 20
20.9336174331141
 30
0.0
 10
43.66872884303551
 20
21.84974002225444
 30
0.0
 10
43.6687288430355
 20
22.59985342973314
 30
0.0
 10
43.66872884303554
 20
23.16476199782187
 30
0.0
 10
43.66872884303537
 20
23.48681804377604
 30
0.0
 10
43.66872884303581
 20
23.62097598569007
 30
0.0
 10
43.66872884303551
 20
23.58265444690552
 30
0.0
 10
43.66872884303551
 20
23.58254554299692
 30
0.0
  0
SPLINE
  5
133
330
1F
100
AcDbEntity
  8
0
  6
Continuous
 62
     7
370
    25
100
AcDbSpline
210
0.0
220
0.0
230
1.0
 70
    24
 71
     3
 72
    15
 73
    11
 74
     0
 42
0.00000001
 43
0.00000001
 40
0.0
 40
0.0
 40
0.0
 40
0.0
 40
0.1245494331828658
 40
0.2496137998710275
 40
0.3746781665591896
 40
0.4997425332473518
 40
0.6248068999355141
 40
0.7498712666236756
 40
0.8749356333118378
 40
1.0
 40
1.0
 40
1.0
 40
1.0
 10
43.66872884303551
 20
11.58334612244179
 30
0.0
 10
43.66872884303551
 20
11.6052979807706
 30
0.0
 10
43.66872884303551
 20
11.64929245454422
 30
0.0
 10
43.66872884303552
 20
12.00479632917731
 30
0.0
 10
43.66872884303551
 20
12.55842581068252
 30
0.0
 10
43.66872884303551
 20
13.30962376951913
 30
0.0
 10
43.66872884303551
 20
14.22383856111307
 30
0.0
 10
43.66872884303551
 20
15.26746441434183
 30
0.0
 10
43.66872884303551
 20
16.39997093874701
 30
0.0
 10
43.66872884303551
 20
17.18532850615274
 30
0.0
 10
43.66872884303551
 20
17.57800728985561
 30
0.0
  0
LINE
  5
134
330
1F
100
AcDbEntity
  8
0
  6
CENTERX2
 62
     7
370
    18
100
AcDbLine
 10
4.7262068424
 20
17.582873376
 30
0.0
 11
65.4236460006
 21
17.582873376
 31
0.0
  0
LINE
  5
135
330
1F
100
AcDbEntity
  8
0
  6
CENTERX2
 62
     7
370
    18
100
AcDbLine
 10
34.5227784648
 20
8.5947598258
 30
0.0
 11
34.5227784648
 21
47.3181893647
 31
0.0
  0
LINE
  5
136
330
1F
100
AcDbEntity
  8
0
  6
Continuous
 62
     7
370
    25
100
AcDbLine
 10
80.6308341633
 20
30.9755448934
 30
0.0
 11
80.8808341633
 21
30.8312073261
 31
0.0
  0
LINE
  5
137
330
1F
100
AcDbEntity
  8
0
  6
Continuous
 62
     7
370
    25
100
AcDbLine
 10
97.3808341633
 20
30.8312073261
 30
0.0
 11
97.6308341633
 21
30.9755448934
 31
0.0
  0
LINE
  5
138
330
1F
100
AcDbEntity
  8
0
  6
Continuous
 62
     7
370
    25
100
AcDbLine
 10
80.8808341633
 20
43.6312073261
 30
0.0
 11
80.8808341633
 21
42.7547633228
 31
0.0
  0
LINE
  5
139
330
1F
100
AcDbEntity
  8
0
  6
Continuous
 62
     7
370
    25
100
AcDbLine
 10
97.3808341633
 20
42.7547633228
 30
0.0
 11
97.3808341633
 21
43.6312073261
 31
0.0
  0
LINE
  5
13A
330
1F
100
AcDbEntity
  8
0
  6
Continuous
 62
     7
370
    25
100
AcDbLine
 10
97.3808341633
 20
43.6312073261
 30
0.0
 11
97.1808341633
 21
43.8312073261
 31
0.0
  0
LINE
  5
13B
330
1F
100
AcDbEntity
  8
0
  6
Continuous
 62
     7
370
    25
100
AcDbLine
 10
81.0808341633
 20
43.8312073261
 30
0.0
 11
80.8808341633
 21
43.6312073261
 31
0.0
  0
SPLINE
  5
13C
330
1F
100
AcDbEntity
  8
0
  6
Continuous
 62
     7
370
    25
100
AcDbSpline
210
0.0
220
0.0
230
1.0
 70
     8
 71
     3
 72
    11
 73
     7
 74
     0
 42
0.00000001
 43
0.00000001
 40
0.0
 40
0.0
 40
0.0
 40
0.0
 40
0.2010637646251623
 40
0.4555785555066447
 40
0.73139901560075
 40
1.0
 40
1.0
 40
1.0
 40
1.0
 10
97.63690316892902
 20
42.18405841120796
 30
0.0
 10
97.60646019635227
 20
42.21291458762046
 30
0.0
 10
97.53748125577738
 20
42.27829810011941
 30
0.0
 10
97.4522750801681
 20
42.41454019976184
 30
0.0
 10
97.38973366113078
 20
42.57941461554536
 30
0.0
 10
97.38592522365136
 20
42.69896820692281
 30
0.0
 10
97.3840462564168
 20
42.75795231318325
 30
0.0
  0
SPLINE
  5
13D
330
1F
100
AcDbEntity
  8
0
  6
Continuous
 62
     7
370
    25
100
AcDbSpline
210
0.0
220
0.0
230
1.0
 70
     8
 71
     3
 72
    12
 73
     8
 74
     0
 42
0.00000001
 43
0.00000001
 40
0.0
 40
0.0
 40
0.0
 40
0.0
 40
0.184637324382465
 40
0.4515108481613912
 40
0.6899508379691649
 40
0.9023173498163376
 40
1.0
 40
1.0
 40
1.0
 40
1.0
 10
80.87453166271719
 20
42.75550351217805
 30
0.0
 10
80.8755984274731
 20
42.71549796455913
 30
0.0
 10
80.87820708669913
 20
42.61766867247534
 30
0.0
 10
80.83424306214673
 20
42.47257061939079
 30
0.0
 10
80.76326779101343
 20
42.33613911353436
 30
0.0
 10
80.69028112252937
 20
42.24194543381923
 30
0.0
 10
80.64314171871301
 20
42.2016056256501
 30
0.0
 10
80.62829019690048
 20
42.18889635288818
 30
0.0
  0
SPLINE
  5
13E
330
1F
100
AcDbEntity
  8
0
  6
Continuous
 62
     7
370
    25
100
AcDbSpline
210
0.0
220
0.0
230
1.0
 70
     8
 71
     3
 72
    11
 73
     7
 74
     0
 42
0.00000001
 43
0.00000001
 40
0.0
 40
0.0
 40
0.0
 40
0.0
 40
0.2500374513527935
 40
0.4999378155877316
 40
0.7499117346680029
 40
1.0
 40
1.0
 40
1.0
 40
1.0
 10
82.53760507892487
 20
27.64350972024242
 30
0.0
 10
82.62231252727872
 20
27.59708349833477
 30
0.0
 10
82.7916809817439
 20
27.50425650845413
 30
0.0
 10
82.98175602363895
 20
27.28151610253143
 30
0.0
 10
83.10858965436987
 20
27.01757509659467
 30
0.0
 10
83.1250170187274
 20
26.82508887321715
 30
0.0
 10
83.13323257908011
 20
26.72882375418727
 30
0.0
  0
LINE
  5
13F
330
1F
100
AcDbEntity
  8
0
  6
Continuous
 62
     7
370
    25
100
AcDbLine
 10
82.5523341633
 20
30.8312073261
 30
0.0
 11
82.5523341633
 21
27.636774224
 31
0.0
  0
LINE
  5
140
330
1F
100
AcDbEntity
  8
0
  6
Continuous
 62
     7
370
    25
100
AcDbLine
 10
95.7093341633
 20
27.6345448702
 30
0.0
 11
95.7093341633
 21
30.8312073261
 31
0.0
  0
LINE
  5
141
330
1F
100
AcDbEntity
  8
0
  6
Continuous
 62
     7
370
    25
100
AcDbLine
 10
83.1308341633
 20
26.7288237542
 30
0.0
 11
83.1308341633
 21
24.082873376
 31
0.0
  0
LINE
  5
142
330
1F
100
AcDbEntity
  8
0
  6
Continuous
 62
     7
370
    25
100
AcDbLine
 10
95.1308341633
 20
24.082873376
 30
0.0
 11
95.1308341633
 21
26.7288237542
 31
0.0
  0
CIRCLE
  5
143
330
1F
100
AcDbEntity
  8
0
  6
Continuous
 62
     7
370
    25
100
AcDbCircle
 10
89.1308341633
 20
17.582873376
 30
0.0
 40
8.050000000000011
  0
CIRCLE
  5
144
330
1F
100
AcDbEntity
  8
0
  6
Continuous
 62
     7
370
    25
100
AcDbCircle
 10
89.1308341633
 20
17.582873376
 30
0.0
 40
8.250000000000014
  0
CIRCLE
  5
145
330
1F
100
AcDbEntity
  8
0
  6
Continuous
 62
     7
370
    25
100
AcDbCircle
 10
89.1308341633
 20
17.582873376
 30
0.0
 40
4.174999999999997
  0
CIRCLE
  5
146
330
1F
100
AcDbEntity
  8
0
  6
Continuous
 62
     7
370
    25
100
AcDbCircle
 10
89.1308341633
 20
17.582873376
 30
0.0
 40
4.075000000000003
  0
SPLINE
  5
147
330
1F
100
AcDbEntity
  8
0
  6
Continuous
 62
     7
370
    25
100
AcDbSpline
210
0.0
220
0.0
230
1.0
 70
    24
 71
     3
 72
     9
 73
     5
 74
     0
 42
0.00000001
 43
0.00000001
 40
0.0
 40
0.0
 40
0.0
 40
0.0
 40
0.6189856167029143
 40
0.9999999999999999
 40
0.9999999999999999
 40
0.9999999999999999
 40
0.9999999999999999
 10
92.11376322997093
 20
9.490113699373536
 30
0.0
 10
92.63704658777674
 20
9.792231486865157
 30
0.0
 10
93.48243514558057
 20
10.28031679828302
 30
0.0
 10
94.32635825389512
 20
10.76755603204377
 30
0.0
 10
94.64790509655975
 20
10.95320118821327
 30
0.0
  0
LINE
  5
148
330
1F
100
AcDbEntity
  8
0
  6
Continuous
 62
     7
370
    25
100
AcDbLine
 10
92.11376323
 20
9.4901136994
 30
0.0
 11
91.9840706619
 21
9.8419728157
 31
0.0
  0
LINE
  5
149
330
1F
100
AcDbEntity
  8
0
  6
Continuous
 62
     7
370
    25
100
AcDbLine
 10
94.6479050966
 20
10.9532011882
 30
0.0
 11
94.4080324473
 21
11.2414478051
 31
0.0
  0
SPLINE
  5
14A
330
1F
100
AcDbEntity
  8
0
  6
Continuous
 62
     7
370
    25
100
AcDbSpline
210
0.0
220
0.0
230
1.0
 70
    24
 71
     3
 72
     9
 73
     5
 74
     0
 42
0.00000001
 43
0.00000001
 40
0.0
 40
0.0
 40
0.0
 40
0.0
 40
0.6189856167028769
 40
1.0
 40
1.0
 40
1.0
 40
1.0
 10
83.61376322997079
 20
10.95320118821344
 30
0.0
 10
84.13704658777661
 20
10.65108340072179
 30
0.0
 10
84.98243514558055
 20
10.16299808930385
 30
0.0
 10
85.82635825389524
 20
9.675758855543032
 30
0.0
 10
86.14790509655994
 20
9.490113699373488
 30
0.0
  0
LINE
  5
14B
330
1F
100
AcDbEntity
  8
0
  6
Continuous
 62
     7
370
    25
100
AcDbLine
 10
83.61376323
 20
10.9532011882
 30
0.0
 11
83.8536358792
 21
11.2414478051
 31
0.0
  0
LINE
  5
14C
330
1F
100
AcDbEntity
  8
0
  6
Continuous
 62
     7
370
    25
100
AcDbLine
 10
86.1479050966
 20
9.4901136994
 30
0.0
 11
86.2775976647
 21
9.8419728157
 31
0.0
  0
LINE
  5
14D
330
1F
100
AcDbEntity
  8
0
  6
Continuous
 62
     7
370
    25
100
AcDbLine
 10
83.8536358792
 20
23.9242989469
 30
0.0
 11
83.61376323
 21
24.2125455637
 31
0.0
  0
SPLINE
  5
14E
330
1F
100
AcDbEntity
  8
0
  6
Continuous
 62
     7
370
    25
100
AcDbSpline
210
0.0
220
0.0
230
1.0
 70
    24
 71
     3
 72
     9
 73
     5
 74
     0
 42
0.00000001
 43
0.00000001
 40
0.0
 40
0.0
 40
0.0
 40
0.0
 40
0.6189856167028759
 40
1.0
 40
1.0
 40
1.0
 40
1.0
 10
86.14790509656
 20
25.67563305254891
 30
0.0
 10
85.62462173875416
 20
25.37351526505727
 30
0.0
 10
84.77923318095021
 20
24.88542995363933
 30
0.0
 10
83.93531007263552
 20
24.39819071987851
 30
0.0
 10
83.61376322997083
 20
24.21254556370897
 30
0.0
  0
LINE
  5
14F
330
1F
100
AcDbEntity
  8
0
  6
Continuous
 62
     7
370
    25
100
AcDbLine
 10
86.2775976647
 20
25.3237739362
 30
0.0
 11
86.1479050966
 21
25.6756330525
 31
0.0
  0
LINE
  5
150
330
1F
100
AcDbEntity
  8
0
  6
Continuous
 62
     7
370
    25
100
AcDbLine
 10
91.9840706619
 20
25.3237739362
 30
0.0
 11
92.11376323
 21
25.6756330525
 31
0.0
  0
SPLINE
  5
151
330
1F
100
AcDbEntity
  8
0
  6
Continuous
 62
     7
370
    25
100
AcDbSpline
210
0.0
220
0.0
230
1.0
 70
    24
 71
     3
 72
     9
 73
     5
 74
     0
 42
0.00000001
 43
0.00000001
 40
0.0
 40
0.0
 40
0.0
 40
0.0
 40
0.6189856167028766
 40
1.0
 40
1.0
 40
1.0
 40
1.0
 10
94.64790509656001
 20
24.21254556370889
 30
0.0
 10
94.12462173875417
 20
24.51466335120055
 30
0.0
 10
93.27923318095023
 20
25.00274866261849
 30
0.0
 10
92.43531007263556
 20
25.48998789637932
 30
0.0
 10
92.11376322997084
 20
25.67563305254887
 30
0.0
  0
LINE
  5
152
330
1F
100
AcDbEntity
  8
0
  6
Continuous
 62
     7
370
    25
100
AcDbLine
 10
94.4080324473
 20
23.9242989469
 30
0.0
 11
94.6479050966
 21
24.2125455637
 31
0.0
  0
LINE
  5
153
330
1F
100
AcDbEntity
  8
0
  6
Continuous
 62
     7
370
    25
100
AcDbLine
 10
97.2612689459
 20
18.9823483653
 30
0.0
 11
97.6308341633
 21
19.0459608648
 31
0.0
  0
SPLINE
  5
154
330
1F
100
AcDbEntity
  8
0
  6
Continuous
 62
     7
370
    25
100
AcDbSpline
210
0.0
220
0.0
230
1.0
 70
    24
 71
     3
 72
    10
 73
     6
 74
     0
 42
0.00000001
 43
0.00000001
 40
0.0
 40
0.0
 40
0.0
 40
0.0
 40
0.0789477693778934
 40
0.5375793028234306
 40
1.0
 40
1.0
 40
1.0
 40
1.0
 10
97.63083416326536
 20
16.11978588712114
 30
0.0
 10
97.63083416326536
 20
16.19655554148954
 30
0.0
 10
97.63083416326536
 20
16.71930339869395
 30
0.0
 10
97.63083416326535
 20
17.69747510459312
 30
0.0
 10
97.63083416326538
 20
18.59523449868399
 30
0.0
 10
97.63083416326539
 20
19.04596086480105
 30
0.0
  0
LINE
  5
155
330
1F
100
AcDbEntity
  8
0
  6
Continuous
 62
     7
370
    25
100
AcDbLine
 10
97.6308341633
 20
16.1197858871
 30
0.0
 11
97.2612689459
 21
16.1833983866
 31
0.0
  0
LINE
  5
156
330
1F
100
AcDbEntity
  8
0
  6
Continuous
 62
     7
370
    25
100
AcDbLine
 10
80.6308341633
 20
16.1197858871
 30
0.0
 11
81.0003993807
 21
16.1833983866
 31
0.0
  0
SPLINE
  5
157
330
1F
100
AcDbEntity
  8
0
  6
Continuous
 62
     7
370
    25
100
AcDbSpline
210
0.0
220
0.0
230
1.0
 70
    24
 71
     3
 72
    10
 73
     6
 74
     0
 42
0.00000001
 43
0.00000001
 40
0.0
 40
0.0
 40
0.0
 40
0.0
 40
0.4586421336634352
 40
0.9210522271454904
 40
1.0
 40
1.0
 40
1.0
 40
1.0
 10
80.63083416326538
 20
19.04596086480118
 30
0.0
 10
80.63083416326539
 20
18.59892970805086
 30
0.0
 10
80.6308341632654
 20
17.70119482434206
 30
0.0
 10
80.63083416326536
 20
16.72297752812148
 30
0.0
 10
80.63083416326536
 20
16.19655552075465
 30
0.0
 10
80.63083416326536
 20
16.11978588712126
 30
0.0
  0
LINE
  5
158
330
1F
100
AcDbEntity
  8
0
  6
Continuous
 62
     7
370
    25
100
AcDbLine
 10
81.0003993807
 20
18.9823483653
 30
0.0
 11
80.6308341633
 21
19.0459608648
 31
0.0
  0
ARC
  5
159
330
1F
100
AcDbEntity
  8
0
  6
Continuous
 62
     7
370
    25
100
AcDbCircle
 10
89.1308341633
 20
17.582873376
 30
0.0
 40
8.624999999999993
100
AcDbArc
 50
129.766500898
 51
170.233499102
  0
ARC
  5
15A
330
1F
100
AcDbEntity
  8
0
  6
Continuous
 62
     7
370
    25
100
AcDbCircle
 10
89.1308341633
 20
17.582873376
 30
0.0
 40
8.624999999999998
100
AcDbArc
 50
189.766500898
 51
230.233499102
  0
ARC
  5
15B
330
1F
100
AcDbEntity
  8
0
  6
Continuous
 62
     7
370
    25
100
AcDbCircle
 10
89.1308341633
 20
17.582873376
 30
0.0
 40
8.625
100
AcDbArc
 50
69.766500898
 51
110.233499102
  0
ARC
  5
15C
330
1F
100
AcDbEntity
  8
0
  6
Continuous
 62
     7
370
    25
100
AcDbCircle
 10
89.1308341633
 20
17.582873376
 30
0.0
 40
8.625000000000002
100
AcDbArc
 50
249.766500898
 51
290.233499102
  0
ARC
  5
15D
330
1F
100
AcDbEntity
  8
0
  6
Continuous
 62
     7
370
    25
100
AcDbCircle
 10
89.1308341633
 20
17.582873376
 30
0.0
 40
8.625000000000016
100
AcDbArc
 50
309.766500898
 51
350.233499102
  0
ARC
  5
15E
330
1F
100
AcDbEntity
  8
0
  6
Continuous
 62
     7
370
    25
100
AcDbCircle
 10
89.1308341633
 20
17.582873376
 30
0.0
 40
8.625000000000012
100
AcDbArc
 50
9.766500898
 51
50.233499102
  0
SPLINE
  5
15F
330
1F
100
AcDbEntity
  8
0
  6
Continuous
 62
     7
370
    25
100
AcDbSpline
210
0.0
220
0.0
230
1.0
 70
    24
 71
     3
 72
     9
 73
     5
 74
     0
 42
0.00000001
 43
0.00000001
 40
0.0
 40
0.0
 40
0.0
 40
0.0
 40
0.4980648083588061
 40
1.0
 40
1.0
 40
1.0
 40
1.0
 10
80.63083416326536
 20
12.67539608784939
 30
0.0
 10
81.11923736729979
 20
12.39341636652703
 30
0.0
 10
82.09983907984352
 20
11.82726570382208
 30
0.0
 10
83.10782142059483
 20
11.24530682805092
 30
0.0
 10
83.61376322997079
 20
10.95320118821344
 30
0.0
  0
SPLINE
  5
160
330
1F
100
AcDbEntity
  8
0
  6
Continuous
 62
     7
370
    25
100
AcDbSpline
210
0.0
220
0.0
230
1.0
 70
    24
 71
     3
 72
     9
 73
     5
 74
     0
 42
0.00000001
 43
0.00000001
 40
0.0
 40
0.0
 40
0.0
 40
0.0
 40
0.4977140401152427
 40
1.0
 40
1.0
 40
1.0
 40
1.0
 10
80.63083416326536
 20
16.11978588712126
 30
0.0
 10
80.63083416326536
 20
15.5404752802711
 30
0.0
 10
80.63083416326538
 20
14.37653261408465
 30
0.0
 10
80.63083416326536
 20
13.24416729106336
 30
0.0
 10
80.63083416326536
 20
12.67539608784939
 30
0.0
  0
SPLINE
  5
161
330
1F
100
AcDbEntity
  8
0
  6
Continuous
 62
     7
370
    25
100
AcDbSpline
210
0.0
220
0.0
230
1.0
 70
    24
 71
     3
 72
     9
 73
     5
 74
     0
 42
0.00000001
 43
0.00000001
 40
0.0
 40
0.0
 40
0.0
 40
0.0
 40
0.4977140401152427
 40
1.0
 40
1.0
 40
1.0
 40
1.0
 10
83.61376322997083
 20
24.21254556370897
 30
0.0
 10
83.1120655277568
 20
23.9228902602839
 30
0.0
 10
82.10406161029073
 20
23.34091892719069
 30
0.0
 10
81.12340447418971
 20
22.77473626568004
 30
0.0
 10
80.63083416326538
 20
22.49035066407306
 30
0.0
  0
SPLINE
  5
162
330
1F
100
AcDbEntity
  8
0
  6
Continuous
 62
     7
370
    25
100
AcDbSpline
210
0.0
220
0.0
230
1.0
 70
    24
 71
     3
 72
    10
 73
     6
 74
     0
 42
0.00000001
 43
0.00000001
 40
0.0
 40
0.0
 40
0.0
 40
0.0
 40
0.327333370707713
 40
0.6629523133412116
 40
1.0
 40
1.0
 40
1.0
 40
1.0
 10
80.63083416326538
 20
22.49035066407306
 30
0.0
 10
80.63083416326538
 20
22.12023587542179
 30
0.0
 10
80.63083416326538
 20
21.37063782861205
 30
0.0
 10
80.6308341632654
 20
20.22142780805579
 30
0.0
 10
80.63083416326539
 20
19.43833760712226
 30
0.0
 10
80.63083416326538
 20
19.04596086480118
 30
0.0
  0
SPLINE
  5
163
330
1F
100
AcDbEntity
  8
0
  6
Continuous
 62
     7
370
    25
100
AcDbSpline
210
0.0
220
0.0
230
1.0
 70
    24
 71
     3
 72
     9
 73
     5
 74
     0
 42
0.00000001
 43
0.00000001
 40
0.0
 40
0.0
 40
0.0
 40
0.0
 40
0.4977140401152427
 40
0.9999999999999999
 40
0.9999999999999999
 40
0.9999999999999999
 40
0.9999999999999999
 10
92.11376322997084
 20
25.67563305254887
 30
0.0
 10
91.61206552775683
 20
25.96528835597396
 30
0.0
 10
90.60406161029077
 20
26.5472596890672
 30
0.0
 10
89.62340447418975
 20
27.11344235057785
 30
0.0
 10
89.13083416326543
 20
27.39782795218484
 30
0.0
  0
SPLINE
  5
164
330
1F
100
AcDbEntity
  8
0
  6
Continuous
 62
     7
370
    25
100
AcDbSpline
210
0.0
220
0.0
230
1.0
 70
    24
 71
     3
 72
     9
 73
     5
 74
     0
 42
0.00000001
 43
0.00000001
 40
0.0
 40
0.0
 40
0.0
 40
0.0
 40
0.4980648083588057
 40
1.0
 40
1.0
 40
1.0
 40
1.0
 10
89.13083416326543
 20
27.39782795218484
 30
0.0
 10
88.642430959231
 20
27.11584823086249
 30
0.0
 10
87.66182924668725
 20
26.54969756815757
 30
0.0
 10
86.65384690593595
 20
25.9677386923864
 30
0.0
 10
86.14790509656
 20
25.67563305254891
 30
0.0
  0
SPLINE
  5
165
330
1F
100
AcDbEntity
  8
0
  6
Continuous
 62
     7
370
    25
100
AcDbSpline
210
0.0
220
0.0
230
1.0
 70
    24
 71
     3
 72
     9
 73
     5
 74
     0
 42
0.00000001
 43
0.00000001
 40
0.0
 40
0.0
 40
0.0
 40
0.0
 40
0.4980648083588056
 40
1.0
 40
1.0
 40
1.0
 40
1.0
 10
89.13083416326536
 20
7.767918799737542
 30
0.0
 10
89.61923736729982
 20
8.049898521059893
 30
0.0
 10
90.59983907984362
 20
8.616049183764847
 30
0.0
 10
91.60782142059497
 20
9.198008059536033
 30
0.0
 10
92.11376322997093
 20
9.490113699373536
 30
0.0
  0
SPLINE
  5
166
330
1F
100
AcDbEntity
  8
0
  6
Continuous
 62
     7
370
    25
100
AcDbSpline
210
0.0
220
0.0
230
1.0
 70
    24
 71
     3
 72
     9
 73
     5
 74
     0
 42
0.00000001
 43
0.00000001
 40
0.0
 40
0.0
 40
0.0
 40
0.0
 40
0.4977140401152426
 40
1.0
 40
1.0
 40
1.0
 40
1.0
 10
86.14790509655994
 20
9.490113699373488
 30
0.0
 10
86.64960279877396
 20
9.200458395948404
 30
0.0
 10
87.65760671624001
 20
8.618487062855177
 30
0.0
 10
88.63826385234104
 20
8.052304401344527
 30
0.0
 10
89.13083416326536
 20
7.767918799737542
 30
0.0
  0
SPLINE
  5
167
330
1F
100
AcDbEntity
  8
0
  6
Continuous
 62
     7
370
    25
100
AcDbSpline
210
0.0
220
0.0
230
1.0
 70
    24
 71
     3
 72
    10
 73
     6
 74
     0
 42
0.00000001
 43
0.00000001
 40
0.0
 40
0.0
 40
0.0
 40
0.0
 40
0.3355445600395945
 40
0.6726666839999055
 40
1.0
 40
1.0
 40
1.0
 40
1.0
 10
97.63083416326539
 20
19.04596086480105
 30
0.0
 10
97.63083416326538
 20
19.4365904311045
 30
0.0
 10
97.63083416326538
 20
20.2196861099814
 30
0.0
 10
97.63083416326542
 20
21.36893807939618
 30
0.0
 10
97.63083416326542
 20
22.12023586115707
 30
0.0
 10
97.6308341632654
 20
22.49035066407293
 30
0.0
  0
SPLINE
  5
168
330
1F
100
AcDbEntity
  8
0
  6
Continuous
 62
     7
370
    25
100
AcDbSpline
210
0.0
220
0.0
230
1.0
 70
    24
 71
     3
 72
     9
 73
     5
 74
     0
 42
0.00000001
 43
0.00000001
 40
0.0
 40
0.0
 40
0.0
 40
0.0
 40
0.4980648083588058
 40
1.0
 40
1.0
 40
1.0
 40
1.0
 10
97.6308341632654
 20
22.49035066407293
 30
0.0
 10
97.14243095923099
 20
22.77233038539529
 30
0.0
 10
96.16182924668726
 20
23.33848104810025
 30
0.0
 10
95.15384690593595
 20
23.92043992387141
 30
0.0
 10
94.64790509656001
 20
24.21254556370889
 30
0.0
  0
SPLINE
  5
169
330
1F
100
AcDbEntity
  8
0
  6
Continuous
 62
     7
370
    25
100
AcDbSpline
210
0.0
220
0.0
230
1.0
 70
    24
 71
     3
 72
     9
 73
     5
 74
     0
 42
0.00000001
 43
0.00000001
 40
0.0
 40
0.0
 40
0.0
 40
0.0
 40
0.4977140401152426
 40
1.0
 40
1.0
 40
1.0
 40
1.0
 10
94.64790509655975
 20
10.95320118821327
 30
0.0
 10
95.1496027987738
 20
11.24285649163836
 30
0.0
 10
96.15760671623991
 20
11.8248278247316
 30
0.0
 10
97.13826385234098
 20
12.39101048624226
 30
0.0
 10
97.63083416326533
 20
12.67539608784926
 30
0.0
  0
SPLINE
  5
16A
330
1F
100
AcDbEntity
  8
0
  6
Continuous
 62
     7
370
    25
100
AcDbSpline
210
0.0
220
0.0
230
1.0
 70
    24
 71
     3
 72
     9
 73
     5
 74
     0
 42
0.00000001
 43
0.00000001
 40
0.0
 40
0.0
 40
0.0
 40
0.0
 40
0.4980648083588056
 40
1.0
 40
1.0
 40
1.0
 40
1.0
 10
97.63083416326533
 20
12.67539608784926
 30
0.0
 10
97.63083416326532
 20
13.23935553049396
 30
0.0
 10
97.6308341632653
 20
14.37165685590384
 30
0.0
 10
97.63083416326533
 20
15.53557460744616
 30
0.0
 10
97.63083416326536
 20
16.11978588712114
 30
0.0
  0
SPLINE
  5
16B
330
1F
100
AcDbEntity
  8
0
  6
Continuous
 62
     7
370
    25
100
AcDbSpline
210
0.0
220
0.0
230
1.0
 70
    24
 71
     3
 72
    12
 73
     8
 74
     0
 42
0.00000001
 43
0.00000001
 40
0.0
 40
0.0
 40
0.0
 40
0.0
 40
0.2240446891201049
 40
0.4755393275620011
 40
0.7269688998908305
 40
0.9845818383981965
 40
1.0
 40
1.0
 40
1.0
 40
1.0
 10
80.63083416326533
 20
31.73473427197392
 30
0.0
 10
80.63083416326533
 20
31.63619561503737
 30
0.0
 10
80.63083416326532
 20
31.4270453475506
 30
0.0
 10
80.63083416326535
 20
31.18448371399147
 30
0.0
 10
80.63083416326538
 20
31.02653225919987
 30
0.0
 10
80.63083416326535
 20
30.96005842764049
 30
0.0
 10
80.63083416326538
 20
30.97813436411762
 30
0.0
 10
80.63083416326538
 20
30.979155118565
 30
0.0
  0
SPLINE
  5
16C
330
1F
100
AcDbEntity
  8
0
  6
Continuous
 62
     7
370
    25
100
AcDbSpline
210
0.0
220
0.0
230
1.0
 70
     8
 71
     3
 72
    15
 73
    11
 74
     0
 42
0.00000001
 43
0.00000001
 40
0.0
 40
0.0
 40
0.0
 40
0.0
 40
0.1323052378296956
 40
0.2645730682660303
 40
0.3997997819746812
 40
0.5350020935366635
 40
0.6501929590834555
 40
0.7654017933211806
 40
0.8826895567076667
 40
1.0
 40
1.0
 40
1.0
 40
1.0
 10
89.13083416326529
 20
31.73473427197393
 30
0.0
 10
88.76360034530227
 20
31.61916430013394
 30
0.0
 10
88.02923653942942
 20
31.38805703219277
 30
0.0
 10
86.89838128483406
 20
31.13939440061641
 30
0.0
 10
85.7462092192411
 20
30.98988045346289
 30
0.0
 10
84.63577300658079
 20
30.96027016641451
 30
0.0
 10
83.58532790032912
 20
31.03709156906514
 30
0.0
 10
82.59396617366747
 20
31.19450104018618
 30
0.0
 10
81.60708668185748
 20
31.42540340071715
 30
0.0
 10
80.95627264206001
 20
31.63161733627453
 30
0.0
 10
80.63083416326533
 20
31.73473427197392
 30
0.0
  0
SPLINE
  5
16D
330
1F
100
AcDbEntity
  8
0
  6
Continuous
 62
     7
370
    25
100
AcDbSpline
210
0.0
220
0.0
230
1.0
 70
     8
 71
     3
 72
    15
 73
    11
 74
     0
 42
0.00000001
 43
0.00000001
 40
0.0
 40
0.0
 40
0.0
 40
0.0
 40
0.1323052378296956
 40
0.2645730682660305
 40
0.3997997819746812
 40
0.5350020935366635
 40
0.6501929590834554
 40
0.7654017933211806
 40
0.8826895567076666
 40
1.0
 40
1.0
 40
1.0
 40
1.0
 10
97.63083416326538
 20
31.73473427197392
 30
0.0
 10
97.26360034530234
 20
31.61916430013392
 30
0.0
 10
96.52923653942946
 20
31.38805703219276
 30
0.0
 10
95.3983812848341
 20
31.13939440061642
 30
0.0
 10
94.24620921924114
 20
30.98988045346289
 30
0.0
 10
93.1357730065808
 20
30.96027016641451
 30
0.0
 10
92.08532790032912
 20
31.03709156906515
 30
0.0
 10
91.0939661736675
 20
31.19450104018619
 30
0.0
 10
90.10708668185747
 20
31.42540340071717
 30
0.0
 10
89.45627264205999
 20
31.63161733627454
 30
0.0
 10
89.13083416326529
 20
31.73473427197393
 30
0.0
  0
SPLINE
  5
16E
330
1F
100
AcDbEntity
  8
0
  6
Continuous
 62
     7
370
    25
100
AcDbSpline
210
0.0
220
0.0
230
1.0
 70
    24
 71
     3
 72
    12
 73
     8
 74
     0
 42
0.00000001
 43
0.00000001
 40
0.0
 40
0.0
 40
0.0
 40
0.0
 40
0.0089752076644839
 40
0.2601480223059736
 40
0.5180156488965669
 40
0.7759550142182066
 40
1.0
 40
1.0
 40
1.0
 40
1.0
 10
97.63083416326536
 20
30.97781350206385
 30
0.0
 10
97.63083416326536
 20
30.97721589142867
 30
0.0
 10
97.63083416326533
 20
30.95989403875825
 30
0.0
 10
97.63083416326535
 20
31.02299595024189
 30
0.0
 10
97.63083416326536
 20
31.17825735542333
 30
0.0
 10
97.63083416326536
 20
31.42424452544124
 30
0.0
 10
97.63083416326536
 20
31.63620625449209
 30
0.0
 10
97.63083416326538
 20
31.73473427197392
 30
0.0
  0
LINE
  5
16F
330
1F
100
AcDbEntity
  8
0
  6
Continuous
 62
     7
370
    25
100
AcDbLine
 10
97.3808341633
 20
30.8312073261
 30
0.0
 11
80.8808341633
 21
30.8312073261
 31
0.0
  0
SPLINE
  5
170
330
1F
100
AcDbEntity
  8
0
  6
Continuous
 62
     7
370
    25
100
AcDbSpline
210
0.0
220
0.0
230
1.0
 70
     8
 71
     3
 72
     9
 73
     5
 74
     0
 42
0.00000001
 43
0.00000001
 40
0.0
 40
0.0
 40
0.0
 40
0.0
 40
0.6189856167028761
 40
1.0
 40
1.0
 40
1.0
 40
1.0
 10
83.61376322997071
 20
42.11470097517556
 30
0.0
 10
84.13704658777655
 20
42.15580039074806
 30
0.0
 10
84.9824351455805
 20
42.22219840463312
 30
0.0
 10
85.82635825389518
 20
42.14435893333021
 30
0.0
 10
86.14790509655988
 20
42.11470097517557
 30
0.0
  0
SPLINE
  5
171
330
1F
100
AcDbEntity
  8
0
  6
Continuous
 62
     7
370
    25
100
AcDbSpline
210
0.0
220
0.0
230
1.0
 70
     8
 71
     3
 72
     9
 73
     5
 74
     0
 42
0.00000001
 43
0.00000001
 40
0.0
 40
0.0
 40
0.0
 40
0.0
 40
0.4977140401152428
 40
1.0
 40
1.0
 40
1.0
 40
1.0
 10
86.14790509655988
 20
42.11470097517557
 30
0.0
 10
86.6496027987739
 20
42.04022184032789
 30
0.0
 10
87.65760671623995
 20
41.89057941748115
 30
0.0
 10
88.63826385234097
 20
41.58244964087908
 30
0.0
 10
89.13083416326529
 20
41.42768038026942
 30
0.0
  0
LINE
  5
172
330
1F
100
AcDbEntity
  8
0
  6
Continuous
 62
     7
370
    25
100
AcDbLine
 10
89.1308341633
 20
31.734734272
 30
0.0
 11
89.1308341633
 21
41.4276803803
 31
0.0
  0
LINE
  5
173
330
1F
100
AcDbEntity
  8
0
  6
Continuous
 62
     7
370
    25
100
AcDbLine
 10
80.6308341633
 20
31.734734272
 30
0.0
 11
80.6308341633
 21
41.4276803803
 31
0.0
  0
SPLINE
  5
174
330
1F
100
AcDbEntity
  8
0
  6
Continuous
 62
     7
370
    25
100
AcDbSpline
210
0.0
220
0.0
230
1.0
 70
     8
 71
     3
 72
     9
 73
     5
 74
     0
 42
0.00000001
 43
0.00000001
 40
0.0
 40
0.0
 40
0.0
 40
0.0
 40
0.4980648083588057
 40
1.0
 40
1.0
 40
1.0
 40
1.0
 10
80.63083416326533
 20
41.42768038026941
 30
0.0
 10
81.11923736729973
 20
41.58122893706749
 30
0.0
 10
82.09983907984348
 20
41.88951925234605
 30
0.0
 10
83.10782142059477
 20
42.03944697498196
 30
0.0
 10
83.61376322997071
 20
42.11470097517556
 30
0.0
  0
SPLINE
  5
175
330
1F
100
AcDbEntity
  8
0
  6
Continuous
 62
     7
370
    25
100
AcDbSpline
210
0.0
220
0.0
230
1.0
 70
     8
 71
     3
 72
     9
 73
     5
 74
     0
 42
0.00000001
 43
0.00000001
 40
0.0
 40
0.0
 40
0.0
 40
0.0
 40
0.6189856167028759
 40
1.0
 40
1.0
 40
1.0
 40
1.0
 10
92.11376322997074
 20
42.11470097517557
 30
0.0
 10
92.63704658777658
 20
42.15580039074806
 30
0.0
 10
93.48243514558052
 20
42.22219840463311
 30
0.0
 10
94.32635825389521
 20
42.14435893333021
 30
0.0
 10
94.64790509655992
 20
42.11470097517556
 30
0.0
  0
SPLINE
  5
176
330
1F
100
AcDbEntity
  8
0
  6
Continuous
 62
     7
370
    25
100
AcDbSpline
210
0.0
220
0.0
230
1.0
 70
     8
 71
     3
 72
     9
 73
     5
 74
     0
 42
0.00000001
 43
0.00000001
 40
0.0
 40
0.0
 40
0.0
 40
0.0
 40
0.4977140401152428
 40
1.0
 40
1.0
 40
1.0
 40
1.0
 10
94.64790509655992
 20
42.11470097517556
 30
0.0
 10
95.14960279877394
 20
42.04022184032787
 30
0.0
 10
96.15760671624001
 20
41.89057941748111
 30
0.0
 10
97.13826385234103
 20
41.58244964087906
 30
0.0
 10
97.63083416326538
 20
41.42768038026941
 30
0.0
  0
LINE
  5
177
330
1F
100
AcDbEntity
  8
0
  6
Continuous
 62
     7
370
    25
100
AcDbLine
 10
97.6308341633
 20
31.734734272
 30
0.0
 11
97.6308341633
 21
41.4276803803
 31
0.0
  0
SPLINE
  5
178
330
1F
100
AcDbEntity
  8
0
  6
Continuous
 62
     7
370
    25
100
AcDbSpline
210
0.0
220
0.0
230
1.0
 70
     8
 71
     3
 72
     9
 73
     5
 74
     0
 42
0.00000001
 43
0.00000001
 40
0.0
 40
0.0
 40
0.0
 40
0.0
 40
0.4980648083588056
 40
1.0
 40
1.0
 40
1.0
 40
1.0
 10
89.13083416326529
 20
41.42768038026942
 30
0.0
 10
89.61923736729972
 20
41.58122893706751
 30
0.0
 10
90.59983907984348
 20
41.88951925234604
 30
0.0
 10
91.60782142059479
 20
42.03944697498197
 30
0.0
 10
92.11376322997074
 20
42.11470097517557
 30
0.0
  0
LINE
  5
179
330
1F
100
AcDbEntity
  8
0
  6
Continuous
 62
     7
370
    25
100
AcDbLine
 10
92.11376323
 20
42.1147009752
 30
0.0
 11
86.1479050966
 21
42.1147009752
 31
0.0
  0
LINE
  5
17A
330
1F
100
AcDbEntity
  8
0
  6
Continuous
 62
     7
370
    25
100
AcDbLine
 10
86.2775976647
 20
42.764220028
 30
0.0
 11
91.9840706619
 21
42.764220028
 31
0.0
  0
ARC
  5
17B
330
1F
100
AcDbEntity
  8
0
  6
Continuous
 62
     7
370
    25
100
AcDbCircle
 10
93.3633727522
 20
42.7019241637
 30
0.0
 40
1.380708162956668
100
AcDbArc
 50
177.4140065821
 51
205.1700210283
  0
ARC
  5
17C
330
1F
100
AcDbEntity
  8
0
  6
Continuous
 62
     7
370
    25
100
AcDbCircle
 10
84.8982955743
 20
42.7019241637
 30
0.0
 40
1.380708162983637
100
AcDbArc
 50
334.829978972
 51
2.5859934176
  0
SPLINE
  5
17D
330
1F
100
AcDbEntity
  8
0
  6
Continuous
 62
     7
370
    25
100
AcDbSpline
210
0.0
220
0.0
230
1.0
 70
     8
 71
     3
 72
    10
 73
     6
 74
     0
 42
0.00000001
 43
0.00000001
 40
0.0
 40
0.0
 40
0.0
 40
0.0
 40
0.2859824770486543
 40
0.8219210210363743
 40
1.0
 40
1.0
 40
1.0
 40
1.0
 10
91.98407066185311
 20
42.76422002801389
 30
0.0
 10
92.23259000487835
 20
42.75943307674868
 30
0.0
 10
92.94684101170438
 20
42.745675255248
 30
0.0
 10
93.75556652527014
 20
42.75423041933411
 30
0.0
 10
94.27778816883456
 20
42.76222591716364
 30
0.0
 10
94.40803244728625
 20
42.76422002801389
 30
0.0
  0
SPLINE
  5
17E
330
1F
100
AcDbEntity
  8
0
  6
Continuous
 62
     7
370
    25
100
AcDbSpline
210
0.0
220
0.0
230
1.0
 70
     8
 71
     3
 72
    10
 73
     6
 74
     0
 42
0.00000001
 43
0.00000001
 40
0.0
 40
0.0
 40
0.0
 40
0.0
 40
0.2859824770486497
 40
0.821921021036392
 40
1.0
 40
1.0
 40
1.0
 40
1.0
 10
83.85363587924441
 20
42.76422002801389
 30
0.0
 10
84.06461993242817
 20
42.75943307674868
 30
0.0
 10
84.67099354736018
 20
42.74567525524802
 30
0.0
 10
85.49943926158252
 20
42.75423041933412
 30
0.0
 10
86.12226283980415
 20
42.76222591716364
 30
0.0
 10
86.27759766467751
 20
42.76422002801389
 30
0.0
  0
LINE
  5
17F
330
1F
100
AcDbEntity
  8
0
  6
Continuous
 62
     7
370
    25
100
AcDbLine
 10
81.0003993807
 20
42.764220028
 30
0.0
 11
83.8536358792
 21
42.764220028
 31
0.0
  0
LINE
  5
180
330
1F
100
AcDbEntity
  8
0
  6
Continuous
 62
     7
370
    25
100
AcDbLine
 10
94.4080324473
 20
42.764220028
 30
0.0
 11
97.2612689459
 21
42.764220028
 31
0.0
  0
LINE
  5
181
330
1F
100
AcDbEntity
  8
0
  6
Continuous
 62
     7
370
    25
100
AcDbLine
 10
97.3808341633
 20
43.6312073261
 30
0.0
 11
80.8808341633
 21
43.6312073261
 31
0.0
  0
LINE
  5
182
330
1F
100
AcDbEntity
  8
0
  6
Continuous
 62
     7
370
    25
100
AcDbLine
 10
81.0808341633
 20
43.8312073261
 30
0.0
 11
97.1808341633
 21
43.8312073261
 31
0.0
  0
ARC
  5
183
330
1F
100
AcDbEntity
  8
0
  6
Continuous
 62
     7
370
    25
100
AcDbCircle
 10
95.2941377908
 20
42.7224129285
 30
0.0
 40
0.8870910400400976
100
AcDbArc
 50
177.298746295
 51
223.2404470551
  0
ARC
  5
184
330
1F
100
AcDbEntity
  8
0
  6
Continuous
 62
     7
370
    25
100
AcDbCircle
 10
82.9675305358
 20
42.7224129285
 30
0.0
 40
0.8870910400314626
100
AcDbArc
 50
316.7595529446
 51
2.7012537053
  0
LINE
  5
185
330
1F
100
AcDbEntity
  8
0
  6
Continuous
 62
     7
370
    25
100
AcDbLine
 10
97.6308341633
 20
42.1147009752
 30
0.0
 11
94.6479050966
 21
42.1147009752
 31
0.0
  0
SPLINE
  5
186
330
1F
100
AcDbEntity
  8
0
  6
Continuous
 62
     7
370
    25
100
AcDbSpline
210
0.0
220
0.0
230
1.0
 70
    24
 71
     3
 72
    10
 73
     6
 74
     0
 42
0.00000001
 43
0.00000001
 40
0.0
 40
0.0
 40
0.0
 40
0.0
 40
0.3273333707077128
 40
0.6629523133412114
 40
1.0
 40
1.0
 40
1.0
 40
1.0
 10
97.63083416326538
 20
41.42768038026941
 30
0.0
 10
97.63083416326536
 20
41.5289980063658
 30
0.0
 10
97.63083416326536
 20
41.73419784424856
 30
0.0
 10
97.63083416326533
 20
41.97276326637131
 30
0.0
 10
97.63083416326536
 20
42.06732145836929
 30
0.0
 10
97.63083416326536
 20
42.11470097517554
 30
0.0
  0
ARC
  5
187
330
1F
100
AcDbEntity
  8
0
  6
Continuous
 62
     7
370
    25
100
AcDbCircle
 10
98.0132450614
 20
42.7621838932
 30
0.0
 40
0.7519788721911917
100
AcDbArc
 50
179.8448599075
 51
239.433409991
  0
SPLINE
  5
188
330
1F
100
AcDbEntity
  8
0
  6
Continuous
 62
     7
370
    25
100
AcDbSpline
210
0.0
220
0.0
230
1.0
 70
    24
 71
     3
 72
    10
 73
     6
 74
     0
 42
0.00000001
 43
0.00000001
 40
0.0
 40
0.0
 40
0.0
 40
0.0
 40
0.3355445600395948
 40
0.6726666839999056
 40
0.9999999999999999
 40
0.9999999999999999
 40
0.9999999999999999
 40
0.9999999999999999
 10
80.63083416326535
 20
42.11470097517554
 30
0.0
 10
80.63083416326536
 20
42.06756675919112
 30
0.0
 10
80.63083416326536
 20
41.97307672554124
 30
0.0
 10
80.63083416326532
 20
41.73466094752585
 30
0.0
 10
80.63083416326532
 20
41.52899728512817
 30
0.0
 10
80.63083416326533
 20
41.42768038026941
 30
0.0
  0
LINE
  5
189
330
1F
100
AcDbEntity
  8
0
  6
Continuous
 62
     7
370
    25
100
AcDbLine
 10
83.61376323
 20
42.1147009752
 30
0.0
 11
80.6308341633
 21
42.1147009752
 31
0.0
  0
ARC
  5
18A
330
1F
100
AcDbEntity
  8
0
  6
Continuous
 62
     7
370
    25
100
AcDbCircle
 10
80.2484232651
 20
42.7621838932
 30
0.0
 40
0.7519788722000513
100
AcDbArc
 50
300.5665900094
 51
0.1551400921
  0
CIRCLE
  5
18B
330
1F
100
AcDbEntity
  8
0
  6
Continuous
 62
     7
370
    25
100
AcDbCircle
 10
89.1308341633
 20
17.582873376
 30
0.0
 40
4.049999999999997
  0
CIRCLE
  5
18C
330
1F
100
AcDbEntity
  8
0
  6
Continuous
 62
     7
370
    25
100
AcDbCircle
 10
89.1308341633
 20
17.582873376
 30
0.0
 40
3.0
  0
SPLINE
  5
18D
330
1F
100
AcDbEntity
  8
0
  6
Continuous
 62
     7
370
    25
100
AcDbSpline
210
0.0
220
0.0
230
1.0
 70
     8
 71
     3
 72
     9
 73
     5
 74
     0
 42
0.00000001
 43
0.00000001
 40
0.0448929885387033
 40
0.0448929885387033
 40
0.0448929885387033
 40
0.0448929885387033
 40
0.5448929885387033
 40
1.0
 40
1.0
 40
1.0
 40
1.0
 10
95.13293674301464
 20
26.72882375418727
 30
0.0
 10
95.132894880679
 20
26.92655701290381
 30
0.0
 10
95.24838421704364
 20
27.30384335161119
 30
0.0
 10
95.54635190278533
 20
27.5580714482293
 30
0.0
 10
95.70933199636804
 20
27.63453956144071
 30
0.0
  0
LWPOLYLINE
  5
18E
330
1F
100
AcDbEntity
  8
0
  6
Continuous
 62
     7
370
    25
100
AcDbPolyline
 90
       22
 70
   128
 43
0.0
 10
82.5622712063
 20
27.6367360573
 10
82.6303191231
 20
27.6348313039
 10
82.88709452
 20
27.6324931351
 10
83.3310015553
 20
27.6328273401
 10
83.9247224445
 20
27.6367170075
 10
84.685377408
 20
27.6397614191
 10
85.5492155491
 20
27.6393213903
 10
86.5410353214
 20
27.6358822385
 10
87.5774753242
 20
27.6330889075
 10
88.6884759595
 20
27.6350341075
 10
89.7806557057
 20
27.6382486286
 10
90.8855733872
 20
27.639031368
 10
91.9106110079
 20
27.6365589472
 10
92.8851371816
 20
27.6329514191
 10
93.7273946885
 20
27.6328987934
 10
94.4428750218
 20
27.6356980235
 10
95.0260298906
 20
27.6376450463
 10
95.427907174
 20
27.6370200999
 10
95.6600684855
 20
27.6349043565
 10
95.7093305342
 20
27.6345378494
 10
95.7093319948
 20
27.6345395576
 10
95.7093319948
 20
27.6345395576
  0
LINE
  5
18F
330
1F
100
AcDbEntity
  8
0
  6
Continuous
 62
     7
370
    25
100
AcDbLine
 10
83.1308341633
 20
24.082873376
 30
0.0
 11
83.3891644125
 21
24.082873376
 31
0.0
  0
LINE
  5
190
330
1F
100
AcDbEntity
  8
0
  6
Continuous
 62
     7
370
    25
100
AcDbLine
 10
83.1308341633
 20
23.933726337
 30
0.0
 11
83.1308341633
 21
24.082873376
 31
0.0
  0
LINE
  5
191
330
1F
100
AcDbEntity
  8
0
  6
Continuous
 62
     7
370
    25
100
AcDbLine
 10
94.8725039141
 20
24.082873376
 30
0.0
 11
95.1308341633
 21
24.082873376
 31
0.0
  0
LINE
  5
192
330
1F
100
AcDbEntity
  8
0
  6
Continuous
 62
     7
370
    25
100
AcDbLine
 10
95.1308341633
 20
23.933726337
 30
0.0
 11
95.1308341633
 21
24.082873376
 31
0.0
  0
SPLINE
  5
193
330
1F
100
AcDbEntity
  8
0
  6
Continuous
 62
     7
370
    25
100
AcDbSpline
210
0.0
220
0.0
230
1.0
 70
     8
 71
     3
 72
     9
 73
     5
 74
     0
 42
0.00000001
 43
0.00000001
 40
0.0
 40
0.0
 40
0.0
 40
0.0
 40
0.6438640477783291
 40
1.0
 40
1.0
 40
1.0
 40
1.0
 10
80.91387332267107
 20
42.75476332279918
 30
0.0
 10
80.90764476013712
 20
42.75520815100862
 30
0.0
 10
80.89797103700344
 20
42.75589902388931
 30
0.0
 10
80.97350059101711
 20
42.76203484243385
 30
0.0
 10
81.00039938065666
 20
42.76422002801387
 30
0.0
  0
SPLINE
  5
194
330
1F
100
AcDbEntity
  8
0
  6
Continuous
 62
     7
370
    25
100
AcDbSpline
210
0.0
220
0.0
230
1.0
 70
     8
 71
     3
 72
     9
 73
     5
 74
     0
 42
0.00000001
 43
0.00000001
 40
0.0
 40
0.0
 40
0.0
 40
0.0
 40
0.5720002981985954
 40
1.0
 40
1.0
 40
1.0
 40
1.0
 10
97.26126894587406
 20
42.76422002801387
 30
0.0
 10
97.30450850733027
 20
42.75883875281237
 30
0.0
 10
97.38010210683082
 20
42.7494309339381
 30
0.0
 10
97.35747808042949
 20
42.7531651005846
 30
0.0
 10
97.34779500387617
 20
42.75476332279579
 30
0.0
  0
SPLINE
  5
195
330
1F
100
AcDbEntity
  8
0
  6
Continuous
 62
     7
370
    25
100
AcDbSpline
210
0.0
220
0.0
230
1.0
 70
    24
 71
     3
 72
    15
 73
    11
 74
     0
 42
0.00000001
 43
0.00000001
 40
0.0
 40
0.0
 40
0.0
 40
0.0
 40
0.1427348702757864
 40
0.285469740551574
 40
0.4282046108273604
 40
0.5709394811031467
 40
0.7136743513789344
 40
0.8564092216547208
 40
0.999144091930507
 40
1.0
 40
1.0
 40
1.0
 40
1.0
 10
95.13083219003221
 20
26.72882375418727
 30
0.0
 10
95.1081844243164
 20
26.72882375418727
 30
0.0
 10
95.06288889288476
 20
26.72882375418727
 30
0.0
 10
94.70517974279718
 20
26.72882375418727
 30
0.0
 10
94.1498763245482
 20
26.72882375418727
 30
0.0
 10
93.39699542184388
 20
26.72882375418727
 30
0.0
 10
92.48233766376626
 20
26.72882375418728
 30
0.0
 10
91.43490469740544
 20
26.72882375418725
 30
0.0
 10
90.68450741445564
 20
26.72882375418733
 30
0.0
 10
90.29192351732755
 20
26.72882375418727
 30
0.0
 10
90.28958342467412
 20
26.72882375418727
 30
0.0
  0
SPLINE
  5
196
330
1F
100
AcDbEntity
  8
0
  6
Continuous
 62
     7
370
    25
100
AcDbSpline
210
0.0
220
0.0
230
1.0
 70
    24
 71
     3
 72
    15
 73
    11
 74
     0
 42
0.00000001
 43
0.00000001
 40
0.0
 40
0.0
 40
0.0
 40
0.0
 40
0.0020231610357761
 40
0.1449765732078688
 40
0.2879299853799604
 40
0.430883397552052
 40
0.5738368097241446
 40
0.7167902218962363
 40
0.8597436340683277
 40
1.0
 40
1.0
 40
1.0
 40
1.0
 10
87.97208490185682
 20
26.72882375418727
 30
0.0
 10
87.96656220395876
 20
26.72882375418727
 30
0.0
 10
87.57081426201832
 20
26.72882375418733
 30
0.0
 10
86.81770315703623
 20
26.72882375418725
 30
0.0
 10
85.77118712353285
 20
26.72882375418728
 30
0.0
 10
84.8577555009706
 20
26.72882375418727
 30
0.0
 10
84.10631504628192
 20
26.72882375418727
 30
0.0
 10
83.55287237915327
 20
26.72882375418727
 30
0.0
 10
83.19861712590016
 20
26.72882375418727
 30
0.0
 10
83.15472860640887
 20
26.72882375418727
 30
0.0
 10
83.13299332491121
 20
26.72882375418727
 30
0.0
  0
INSERT
  5
1A2
330
1F
100
AcDbEntity
  8
0
  6
Continuous
 62
     7
370
    18
100
AcDbBlockReference
  2
SW_CENTERMARKSYMBOL_0
 10
89.1308341633
 20
17.582873376
 30
0.0
  0
LINE
  5
1A3
330
1F
100
AcDbEntity
  8
0
  6
Continuous
 62
     7
370
    25
100
AcDbLine
 10
47.9154499823
 20
76.8886320593
 30
0.0
 11
47.771112415
 21
76.6386320593
 31
0.0
  0
LINE
  5
1A4
330
1F
100
AcDbEntity
  8
0
  6
Continuous
 62
     7
370
    25
100
AcDbLine
 10
47.771112415
 20
60.1386320593
 30
0.0
 11
47.9154499823
 21
59.8886320593
 31
0.0
  0
LINE
  5
1A5
330
1F
100
AcDbEntity
  8
0
  6
Continuous
 62
     7
370
    25
100
AcDbLine
 10
60.571112415
 20
76.6386320593
 30
0.0
 11
59.6946684116
 21
76.6386320593
 31
0.0
  0
LINE
  5
1A6
330
1F
100
AcDbEntity
  8
0
  6
Continuous
 62
     7
370
    25
100
AcDbLine
 10
59.6946684116
 20
60.1386320593
 30
0.0
 11
60.571112415
 21
60.1386320593
 31
0.0
  0
LINE
  5
1A7
330
1F
100
AcDbEntity
  8
0
  6
Continuous
 62
     7
370
    25
100
AcDbLine
 10
60.571112415
 20
60.1386320593
 30
0.0
 11
60.771112415
 21
60.3386320593
 31
0.0
  0
LINE
  5
1A8
330
1F
100
AcDbEntity
  8
0
  6
Continuous
 62
     7
370
    25
100
AcDbLine
 10
60.771112415
 20
76.4386320593
 30
0.0
 11
60.571112415
 21
76.6386320593
 31
0.0
  0
SPLINE
  5
1A9
330
1F
100
AcDbEntity
  8
0
  6
Continuous
 62
     7
370
    25
100
AcDbSpline
210
0.0
220
0.0
230
1.0
 70
     8
 71
     3
 72
    11
 73
     7
 74
     0
 42
0.00000001
 43
0.00000001
 40
0.0
 40
0.0
 40
0.0
 40
0.0
 40
0.2010637646245815
 40
0.4555785555060194
 40
0.7313990155996405
 40
1.0
 40
1.0
 40
1.0
 40
1.0
 10
59.12396350005619
 20
59.88256305362543
 30
0.0
 10
59.1528196764686
 20
59.91300602620208
 30
0.0
 10
59.21820318896744
 20
59.98198496677688
 30
0.0
 10
59.35444528860961
 20
60.06719114238611
 30
0.0
 10
59.51931970439323
 20
60.12973256142358
 30
0.0
 10
59.63887329577082
 20
60.13354099890311
 30
0.0
 10
59.6978574020315
 20
60.13541996613773
 30
0.0
  0
SPLINE
  5
1AA
330
1F
100
AcDbEntity
  8
0
  6
Continuous
 62
     7
370
    25
100
AcDbSpline
210
0.0
220
0.0
230
1.0
 70
     8
 71
     3
 72
    12
 73
     8
 74
     0
 42
0.00000001
 43
0.00000001
 40
0.0
 40
0.0
 40
0.0
 40
0.0
 40
0.184637324382553
 40
0.4515108481610133
 40
0.689950837968337
 40
0.902317349816084
 40
1.0
 40
1.0
 40
1.0
 40
1.0
 10
59.69540860102626
 20
76.64493455983734
 30
0.0
 10
59.65540305340732
 20
76.6438677950814
 30
0.0
 10
59.5575737613236
 20
76.64125913585528
 30
0.0
 10
59.41247570823924
 20
76.68522316040766
 30
0.0
 10
59.27604420238286
 20
76.75619843154082
 30
0.0
 10
59.18185052266762
 20
76.82918510002492
 30
0.0
 10
59.14151071449839
 20
76.87632450384139
 30
0.0
 10
59.12880144173641
 20
76.89117602565398
 30
0.0
  0
LINE
  5
1AB
330
1F
100
AcDbEntity
  8
0
  6
Continuous
 62
     7
370
    25
100
AcDbLine
 10
21.1301069474
 20
59.8886320593
 30
0.0
 11
21.2744445146
 21
60.1386320593
 31
0.0
  0
LINE
  5
1AC
330
1F
100
AcDbEntity
  8
0
  6
Continuous
 62
     7
370
    25
100
AcDbLine
 10
21.2744445146
 20
76.6386320593
 30
0.0
 11
21.1301069474
 21
76.8886320593
 31
0.0
  0
LINE
  5
1AD
330
1F
100
AcDbEntity
  8
0
  6
Continuous
 62
     7
370
    25
100
AcDbLine
 10
8.4744445146
 20
76.6386320593
 30
0.0
 11
8.2744445146
 21
76.4386320593
 31
0.0
  0
LINE
  5
1AE
330
1F
100
AcDbEntity
  8
0
  6
Continuous
 62
     7
370
    25
100
AcDbLine
 10
8.2744445146
 20
60.3386320593
 30
0.0
 11
8.4744445146
 21
60.1386320593
 31
0.0
  0
LINE
  5
1AF
330
1F
100
AcDbEntity
  8
0
  6
Continuous
 62
     7
370
    25
100
AcDbLine
 10
8.4744445146
 20
60.1386320593
 30
0.0
 11
9.350888518
 21
60.1386320593
 31
0.0
  0
LINE
  5
1B0
330
1F
100
AcDbEntity
  8
0
  6
Continuous
 62
     7
370
    25
100
AcDbLine
 10
9.350888518
 20
76.6386320593
 30
0.0
 11
8.4744445146
 21
76.6386320593
 31
0.0
  0
SPLINE
  5
1B1
330
1F
100
AcDbEntity
  8
0
  6
Continuous
 62
     7
370
    25
100
AcDbSpline
210
0.0
220
0.0
230
1.0
 70
     8
 71
     3
 72
    11
 73
     7
 74
     0
 42
0.00000001
 43
0.00000001
 40
0.0
 40
0.0
 40
0.0
 40
0.0
 40
0.2010637646252484
 40
0.455578555506118
 40
0.7313990155996661
 40
1.0
 40
1.0
 40
1.0
 40
1.0
 10
9.921593429562655
 20
76.89470106495271
 30
0.0
 10
9.892737253150134
 20
76.86425809237598
 30
0.0
 10
9.827353740651256
 20
76.79527915180117
 30
0.0
 10
9.691111641009039
 20
76.71007297619198
 30
0.0
 10
9.52623722522558
 20
76.6475315571546
 30
0.0
 10
9.406683633847994
 20
76.64372311967497
 30
0.0
 10
9.347699527587322
 20
76.64184415244031
 30
0.0
  0
SPLINE
  5
1B2
330
1F
100
AcDbEntity
  8
0
  6
Continuous
 62
     7
370
    25
100
AcDbSpline
210
0.0
220
0.0
230
1.0
 70
     8
 71
     3
 72
    12
 73
     8
 74
     0
 42
0.00000001
 43
0.00000001
 40
0.0
 40
0.0
 40
0.0
 40
0.0
 40
0.1846373243829436
 40
0.4515108481605337
 40
0.6899508379689033
 40
0.9023173498156859
 40
1.0
 40
1.0
 40
1.0
 40
1.0
 10
9.350148328592583
 20
60.13232955874076
 30
0.0
 10
9.390153876211615
 20
60.1333963234967
 30
0.0
 10
9.48798316829522
 20
60.13600498272288
 30
0.0
 10
9.633081221379687
 20
60.09204095817046
 30
0.0
 10
9.769512727235947
 20
60.02106568703734
 30
0.0
 10
9.863706406951232
 20
59.9480790185532
 30
0.0
 10
9.904046215120404
 20
59.90093961473682
 30
0.0
 10
9.916755487882424
 20
59.88608809292418
 30
0.0
  0
SPLINE
  5
1B3
330
1F
100
AcDbEntity
  8
0
  6
Continuous
 62
     7
370
    25
100
AcDbSpline
210
0.0
220
0.0
230
1.0
 70
     8
 71
     3
 72
    11
 73
     7
 74
     0
 42
0.00000001
 43
0.00000001
 40
0.0
 40
0.0
 40
0.0
 40
0.0
 40
0.2500882653319991
 40
0.5000621844122662
 40
0.749962548647207
 40
1.0
 40
1.0
 40
1.0
 40
1.0
 10
25.37682808658333
 20
74.38623364347433
 30
0.0
 10
25.28056296755345
 20
74.39444920382705
 30
0.0
 10
25.08807674417592
 20
74.41087656818458
 30
0.0
 10
24.82413573823916
 20
74.53771019891549
 30
0.0
 10
24.60139533231644
 20
74.72778524081058
 30
0.0
 10
24.50856834243582
 20
74.89715369527576
 30
0.0
 10
24.46214212052817
 20
74.98186114362962
 30
0.0
  0
SPLINE
  5
1B4
330
1F
100
AcDbEntity
  8
0
  6
Continuous
 62
     7
370
    25
100
AcDbSpline
210
0.0
220
0.0
230
1.0
 70
     8
 71
     3
 72
    11
 73
     7
 74
     0
 42
0.00000001
 43
0.00000001
 40
0.0
 40
0.0
 40
0.0
 40
0.0
 40
0.250037458081412
 40
0.4999378078597321
 40
0.7499117362579925
 40
1.0
 40
1.0
 40
1.0
 40
1.0
 10
44.58340707831186
 20
74.98184369057527
 30
0.0
 10
44.53698013541089
 20
74.89713846944389
 30
0.0
 10
44.4441517078719
 20
74.72777447537824
 30
0.0
 10
44.22141285588619
 20
74.5377052851435
 30
0.0
 10
43.95747540994133
 20
74.4108757588791
 30
0.0
 10
43.7649923685892
 20
74.39444893389798
 30
0.0
 10
43.6687288430355
 20
74.38623364347433
 30
0.0
  0
LINE
  5
1B5
330
1F
100
AcDbEntity
  8
0
  6
Continuous
 62
     7
370
    25
100
AcDbLine
 10
21.2744445146
 20
61.8101320593
 30
0.0
 11
24.4711106002
 21
61.8101320593
 31
0.0
  0
LINE
  5
1B6
330
1F
100
AcDbEntity
  8
0
  6
Continuous
 62
     7
370
    25
100
AcDbLine
 10
24.4688776168
 20
74.9671320593
 30
0.0
 11
21.2744445146
 21
74.9671320593
 31
0.0
  0
LINE
  5
1B7
330
1F
100
AcDbEntity
  8
0
  6
Continuous
 62
     7
370
    25
100
AcDbLine
 10
47.771112415
 20
74.9671320593
 30
0.0
 11
44.5766621949
 21
74.9671320593
 31
0.0
  0
LINE
  5
1B8
330
1F
100
AcDbEntity
  8
0
  6
Continuous
 62
     7
370
    25
100
AcDbLine
 10
44.5744502601
 20
61.8101320593
 30
0.0
 11
47.771112415
 21
61.8101320593
 31
0.0
  0
LINE
  5
1B9
330
1F
100
AcDbEntity
  8
0
  6
Continuous
 62
     7
370
    25
100
AcDbLine
 10
28.0227784648
 20
74.3886320593
 30
0.0
 11
25.3768280866
 21
74.3886320593
 31
0.0
  0
LINE
  5
1BA
330
1F
100
AcDbEntity
  8
0
  6
Continuous
 62
     7
370
    25
100
AcDbLine
 10
43.668728843
 20
74.3886320593
 30
0.0
 11
41.0227784648
 21
74.3886320593
 31
0.0
  0
LINE
  5
1BB
330
1F
100
AcDbEntity
  8
0
  6
Continuous
 62
     7
370
    25
100
AcDbLine
 10
41.0227784648
 20
62.3886320593
 30
0.0
 11
43.668728843
 21
62.3886320593
 31
0.0
  0
LINE
  5
1BC
330
1F
100
AcDbEntity
  8
0
  6
Continuous
 62
     7
370
    25
100
AcDbLine
 10
25.3768280866
 20
62.3886320593
 30
0.0
 11
28.0227784648
 21
62.3886320593
 31
0.0
  0
SPLINE
  5
1BD
330
1F
100
AcDbEntity
  8
0
  6
Continuous
 62
     7
370
    25
100
AcDbSpline
210
0.0
220
0.0
230
1.0
 70
    24
 71
     3
 72
    12
 73
     8
 74
     0
 42
0.00000001
 43
0.00000001
 40
0.0
 40
0.0
 40
0.0
 40
0.0
 40
0.2240446891201073
 40
0.475539327562006
 40
0.7269688998908376
 40
0.9845818383982061
 40
1.0
 40
1.0
 40
1.0
 40
1.0
 10
48.67463936082213
 20
76.88863205928912
 30
0.0
 10
48.57610070388559
 20
76.88863205928912
 30
0.0
 10
48.36695043639881
 20
76.88863205928912
 30
0.0
 10
48.12438880283969
 20
76.8886320592891
 30
0.0
 10
47.96643734804812
 20
76.88863205928908
 30
0.0
 10
47.8999635164887
 20
76.88863205928908
 30
0.0
 10
47.91803945296585
 20
76.88863205928908
 30
0.0
 10
47.91906020741322
 20
76.88863205928908
 30
0.0
  0
SPLINE
  5
1BE
330
1F
100
AcDbEntity
  8
0
  6
Continuous
 62
     7
370
    25
100
AcDbSpline
210
0.0
220
0.0
230
1.0
 70
     8
 71
     3
 72
    15
 73
    11
 74
     0
 42
0.00000001
 43
0.00000001
 40
0.0
 40
0.0
 40
0.0
 40
0.0
 40
0.1323052378296956
 40
0.2645730682660303
 40
0.3997997819746812
 40
0.5350020935366634
 40
0.6501929590834554
 40
0.7654017933211806
 40
0.8826895567076666
 40
1.0
 40
1.0
 40
1.0
 40
1.0
 10
48.67463936082213
 20
68.38863205928915
 30
0.0
 10
48.55906938898214
 20
68.75586587725219
 30
0.0
 10
48.32796212104096
 20
69.49022968312504
 30
0.0
 10
48.07929948946462
 20
70.6210849377204
 30
0.0
 10
47.92978554231109
 20
71.77325700331335
 30
0.0
 10
47.90017525526272
 20
72.88369321597365
 30
0.0
 10
47.97699665791335
 20
73.93413832222534
 30
0.0
 10
48.13440612903438
 20
74.92550004888697
 30
0.0
 10
48.36530848956536
 20
75.91237954069697
 30
0.0
 10
48.57152242512274
 20
76.56319358049444
 30
0.0
 10
48.67463936082213
 20
76.88863205928912
 30
0.0
  0
SPLINE
  5
1BF
330
1F
100
AcDbEntity
  8
0
  6
Continuous
 62
     7
370
    25
100
AcDbSpline
210
0.0
220
0.0
230
1.0
 70
     8
 71
     3
 72
    15
 73
    11
 74
     0
 42
0.00000001
 43
0.00000001
 40
0.0
 40
0.0
 40
0.0
 40
0.0
 40
0.1323052378296956
 40
0.2645730682660305
 40
0.3997997819746814
 40
0.5350020935366635
 40
0.6501929590834554
 40
0.7654017933211807
 40
0.8826895567076666
 40
1.0
 40
1.0
 40
1.0
 40
1.0
 10
48.67463936082213
 20
59.88863205928909
 30
0.0
 10
48.55906938898214
 20
60.25586587725212
 30
0.0
 10
48.32796212104097
 20
60.99022968312498
 30
0.0
 10
48.07929948946462
 20
62.12108493772035
 30
0.0
 10
47.92978554231109
 20
63.27325700331332
 30
0.0
 10
47.90017525526272
 20
64.38369321597364
 30
0.0
 10
47.97699665791335
 20
65.43413832222534
 30
0.0
 10
48.13440612903439
 20
66.42550004888696
 30
0.0
 10
48.36530848956536
 20
67.41237954069697
 30
0.0
 10
48.57152242512274
 20
68.06319358049446
 30
0.0
 10
48.67463936082213
 20
68.38863205928915
 30
0.0
  0
SPLINE
  5
1C0
330
1F
100
AcDbEntity
  8
0
  6
Continuous
 62
     7
370
    25
100
AcDbSpline
210
0.0
220
0.0
230
1.0
 70
    24
 71
     3
 72
    12
 73
     8
 74
     0
 42
0.00000001
 43
0.00000001
 40
0.0
 40
0.0
 40
0.0
 40
0.0
 40
0.0089752076644736
 40
0.260148022305966
 40
0.5180156488965619
 40
0.775955014218204
 40
1.0
 40
1.0
 40
1.0
 40
1.0
 10
47.91771859091207
 20
59.88863205928909
 30
0.0
 10
47.91712098027689
 20
59.88863205928909
 30
0.0
 10
47.89979912760649
 20
59.88863205928909
 30
0.0
 10
47.96290103909011
 20
59.88863205928911
 30
0.0
 10
48.11816244427155
 20
59.88863205928909
 30
0.0
 10
48.36414961428945
 20
59.8886320592891
 30
0.0
 10
48.57611134334031
 20
59.88863205928909
 30
0.0
 10
48.67463936082213
 20
59.88863205928909
 30
0.0
  0
LINE
  5
1C1
330
1F
100
AcDbEntity
  8
0
  6
Continuous
 62
     7
370
    25
100
AcDbLine
 10
47.771112415
 20
60.1386320593
 30
0.0
 11
47.771112415
 21
76.6386320593
 31
0.0
  0
SPLINE
  5
1C2
330
1F
100
AcDbEntity
  8
0
  6
Continuous
 62
     7
370
    25
100
AcDbSpline
210
0.0
220
0.0
230
1.0
 70
     8
 71
     3
 72
     9
 73
     5
 74
     0
 42
0.00000001
 43
0.00000001
 40
0.0
 40
0.0
 40
0.0
 40
0.0
 40
0.6189856167028766
 40
1.0
 40
1.0
 40
1.0
 40
1.0
 10
59.05460606402377
 20
73.90570299258373
 30
0.0
 10
59.09570547959626
 20
73.38241963477789
 30
0.0
 10
59.16210349348133
 20
72.53703107697395
 30
0.0
 10
59.08426402217841
 20
71.69310796865928
 30
0.0
 10
59.05460606402377
 20
71.37156112599456
 30
0.0
  0
SPLINE
  5
1C3
330
1F
100
AcDbEntity
  8
0
  6
Continuous
 62
     7
370
    25
100
AcDbSpline
210
0.0
220
0.0
230
1.0
 70
     8
 71
     3
 72
     9
 73
     5
 74
     0
 42
0.00000001
 43
0.00000001
 40
0.0
 40
0.0
 40
0.0
 40
0.0
 40
0.4977140401152427
 40
0.9999999999999999
 40
0.9999999999999999
 40
0.9999999999999999
 40
0.9999999999999999
 10
59.05460606402377
 20
71.37156112599456
 30
0.0
 10
58.98012692917608
 20
70.86986342378054
 30
0.0
 10
58.83048450632934
 20
69.86185950631449
 30
0.0
 10
58.52235472972727
 20
68.88120237021349
 30
0.0
 10
58.36758546911762
 20
68.38863205928915
 30
0.0
  0
LINE
  5
1C4
330
1F
100
AcDbEntity
  8
0
  6
Continuous
 62
     7
370
    25
100
AcDbLine
 10
48.6746393608
 20
68.3886320593
 30
0.0
 11
58.3675854691
 21
68.3886320593
 31
0.0
  0
LINE
  5
1C5
330
1F
100
AcDbEntity
  8
0
  6
Continuous
 62
     7
370
    25
100
AcDbLine
 10
48.6746393608
 20
76.8886320593
 30
0.0
 11
58.3675854691
 21
76.8886320593
 31
0.0
  0
SPLINE
  5
1C6
330
1F
100
AcDbEntity
  8
0
  6
Continuous
 62
     7
370
    25
100
AcDbSpline
210
0.0
220
0.0
230
1.0
 70
     8
 71
     3
 72
     9
 73
     5
 74
     0
 42
0.00000001
 43
0.00000001
 40
0.0
 40
0.0
 40
0.0
 40
0.0
 40
0.4980648083588056
 40
1.0
 40
1.0
 40
1.0
 40
1.0
 10
58.36758546911762
 20
76.88863205928912
 30
0.0
 10
58.5211340259157
 20
76.40022885525471
 30
0.0
 10
58.82942434119425
 20
75.41962714271097
 30
0.0
 10
58.97935206383017
 20
74.41164480195967
 30
0.0
 10
59.05460606402377
 20
73.90570299258373
 30
0.0
  0
LINE
  5
1C7
330
1F
100
AcDbEntity
  8
0
  6
Continuous
 62
     7
370
    25
100
AcDbLine
 10
59.054606064
 20
65.4057029926
 30
0.0
 11
59.054606064
 21
71.371561126
 31
0.0
  0
SPLINE
  5
1C8
330
1F
100
AcDbEntity
  8
0
  6
Continuous
 62
     7
370
    25
100
AcDbSpline
210
0.0
220
0.0
230
1.0
 70
     8
 71
     3
 72
     9
 73
     5
 74
     0
 42
0.00000001
 43
0.00000001
 40
0.0
 40
0.0
 40
0.0
 40
0.0
 40
0.4980648083588057
 40
1.0
 40
1.0
 40
1.0
 40
1.0
 10
58.36758546911762
 20
68.38863205928915
 30
0.0
 10
58.5211340259157
 20
67.90022885525472
 30
0.0
 10
58.82942434119425
 20
66.91962714271097
 30
0.0
 10
58.97935206383018
 20
65.91164480195965
 30
0.0
 10
59.05460606402377
 20
65.40570299258371
 30
0.0
  0
SPLINE
  5
1C9
330
1F
100
AcDbEntity
  8
0
  6
Continuous
 62
     7
370
    25
100
AcDbSpline
210
0.0
220
0.0
230
1.0
 70
     8
 71
     3
 72
     9
 73
     5
 74
     0
 42
0.00000001
 43
0.00000001
 40
0.0
 40
0.0
 40
0.0
 40
0.0
 40
0.6189856167028758
 40
1.0
 40
1.0
 40
1.0
 40
1.0
 10
59.05460606402377
 20
65.40570299258371
 30
0.0
 10
59.09570547959625
 20
64.88241963477788
 30
0.0
 10
59.16210349348132
 20
64.03703107697392
 30
0.0
 10
59.08426402217842
 20
63.19310796865925
 30
0.0
 10
59.05460606402377
 20
62.87156112599454
 30
0.0
  0
SPLINE
  5
1CA
330
1F
100
AcDbEntity
  8
0
  6
Continuous
 62
     7
370
    25
100
AcDbSpline
210
0.0
220
0.0
230
1.0
 70
     8
 71
     3
 72
     9
 73
     5
 74
     0
 42
0.00000001
 43
0.00000001
 40
0.0
 40
0.0
 40
0.0
 40
0.0
 40
0.4977140401152428
 40
1.0
 40
1.0
 40
1.0
 40
1.0
 10
59.05460606402377
 20
62.87156112599454
 30
0.0
 10
58.98012692917608
 20
62.36986342378051
 30
0.0
 10
58.83048450632933
 20
61.36185950631444
 30
0.0
 10
58.52235472972726
 20
60.38120237021342
 30
0.0
 10
58.36758546911762
 20
59.88863205928909
 30
0.0
  0
LINE
  5
1CB
330
1F
100
AcDbEntity
  8
0
  6
Continuous
 62
     7
370
    25
100
AcDbLine
 10
48.6746393608
 20
59.8886320593
 30
0.0
 11
58.3675854691
 21
59.8886320593
 31
0.0
  0
LINE
  5
1CC
330
1F
100
AcDbEntity
  8
0
  6
Continuous
 62
     7
370
    25
100
AcDbLine
 10
59.7041251169
 20
71.2418685579
 30
0.0
 11
59.7041251169
 21
65.5353955607
 31
0.0
  0
ARC
  5
1CD
330
1F
100
AcDbEntity
  8
0
  6
Continuous
 62
     7
370
    25
100
AcDbCircle
 10
59.6418292525
 20
64.1560934703
 30
0.0
 40
1.380708162956423
100
AcDbArc
 50
87.4140065821
 51
115.1700210283
  0
ARC
  5
1CE
330
1F
100
AcDbEntity
  8
0
  6
Continuous
 62
     7
370
    25
100
AcDbCircle
 10
59.6418292525
 20
72.6211706483
 30
0.0
 40
1.380708162983611
100
AcDbArc
 50
244.829978972
 51
272.5859934176
  0
SPLINE
  5
1CF
330
1F
100
AcDbEntity
  8
0
  6
Continuous
 62
     7
370
    25
100
AcDbSpline
210
0.0
220
0.0
230
1.0
 70
     8
 71
     3
 72
    10
 73
     6
 74
     0
 42
0.00000001
 43
0.00000001
 40
0.0
 40
0.0
 40
0.0
 40
0.0
 40
0.2859824770486543
 40
0.8219210210363743
 40
1.0
 40
1.0
 40
1.0
 40
1.0
 10
59.70412511686209
 20
65.53539556070133
 30
0.0
 10
59.69933816559688
 20
65.2868762176761
 30
0.0
 10
59.68558034409621
 20
64.57262521085008
 30
0.0
 10
59.69413550818233
 20
63.7638996972843
 30
0.0
 10
59.70213100601184
 20
63.2416780537199
 30
0.0
 10
59.7041251168621
 20
63.1114337752682
 30
0.0
  0
SPLINE
  5
1D0
330
1F
100
AcDbEntity
  8
0
  6
Continuous
 62
     7
370
    25
100
AcDbSpline
210
0.0
220
0.0
230
1.0
 70
     8
 71
     3
 72
    10
 73
     6
 74
     0
 42
0.00000001
 43
0.00000001
 40
0.0
 40
0.0
 40
0.0
 40
0.0
 40
0.2859824770486498
 40
0.821921021036392
 40
1.0
 40
1.0
 40
1.0
 40
1.0
 10
59.70412511686209
 20
73.66583034331005
 30
0.0
 10
59.69933816559688
 20
73.45484629012627
 30
0.0
 10
59.6855803440962
 20
72.84847267519427
 30
0.0
 10
59.6941355081823
 20
72.02002696097192
 30
0.0
 10
59.70213100601183
 20
71.39720338275029
 30
0.0
 10
59.70412511686209
 20
71.24186855787694
 30
0.0
  0
LINE
  5
1D1
330
1F
100
AcDbEntity
  8
0
  6
Continuous
 62
     7
370
    25
100
AcDbLine
 10
59.7041251169
 20
76.5190668419
 30
0.0
 11
59.7041251169
 21
73.6658303433
 31
0.0
  0
LINE
  5
1D2
330
1F
100
AcDbEntity
  8
0
  6
Continuous
 62
     7
370
    25
100
AcDbLine
 10
59.7041251169
 20
63.1114337753
 30
0.0
 11
59.7041251169
 21
60.2581972767
 31
0.0
  0
LINE
  5
1D3
330
1F
100
AcDbEntity
  8
0
  6
Continuous
 62
     7
370
    25
100
AcDbLine
 10
60.571112415
 20
60.1386320593
 30
0.0
 11
60.571112415
 21
76.6386320593
 31
0.0
  0
LINE
  5
1D4
330
1F
100
AcDbEntity
  8
0
  6
Continuous
 62
     7
370
    25
100
AcDbLine
 10
60.771112415
 20
76.4386320593
 30
0.0
 11
60.771112415
 21
60.3386320593
 31
0.0
  0
ARC
  5
1D5
330
1F
100
AcDbEntity
  8
0
  6
Continuous
 62
     7
370
    25
100
AcDbCircle
 10
59.6623180174
 20
62.2253284318
 30
0.0
 40
0.8870910400402333
100
AcDbArc
 50
87.298746295
 51
133.2404470551
  0
ARC
  5
1D6
330
1F
100
AcDbEntity
  8
0
  6
Continuous
 62
     7
370
    25
100
AcDbCircle
 10
59.6623180174
 20
74.5519356868
 30
0.0
 40
0.8870910400314981
100
AcDbArc
 50
226.7595529446
 51
272.7012537053
  0
ARC
  5
1D7
330
1F
100
AcDbEntity
  8
0
  6
Continuous
 62
     7
370
    25
100
AcDbCircle
 10
59.7020889821
 20
59.5062211611
 30
0.0
 40
0.7519788721912051
100
AcDbArc
 50
89.8448599075
 51
149.433409991
  0
LINE
  5
1D8
330
1F
100
AcDbEntity
  8
0
  6
Continuous
 62
     7
370
    25
100
AcDbLine
 10
59.054606064
 20
59.8886320593
 30
0.0
 11
59.054606064
 21
62.871561126
 31
0.0
  0
SPLINE
  5
1D9
330
1F
100
AcDbEntity
  8
0
  6
Continuous
 62
     7
370
    25
100
AcDbSpline
210
0.0
220
0.0
230
1.0
 70
    24
 71
     3
 72
    10
 73
     6
 74
     0
 42
0.00000001
 43
0.00000001
 40
0.0
 40
0.0
 40
0.0
 40
0.0
 40
0.327333370707713
 40
0.6629523133412117
 40
1.0
 40
1.0
 40
1.0
 40
1.0
 10
58.36758546911762
 20
59.88863205928908
 30
0.0
 10
58.468903095214
 20
59.88863205928909
 30
0.0
 10
58.67410293309677
 20
59.88863205928909
 30
0.0
 10
58.91266835521955
 20
59.88863205928912
 30
0.0
 10
59.00722654721752
 20
59.88863205928909
 30
0.0
 10
59.05460606402377
 20
59.88863205928909
 30
0.0
  0
LINE
  5
1DA
330
1F
100
AcDbEntity
  8
0
  6
Continuous
 62
     7
370
    25
100
AcDbLine
 10
59.054606064
 20
73.9057029926
 30
0.0
 11
59.054606064
 21
76.8886320593
 31
0.0
  0
ARC
  5
1DB
330
1F
100
AcDbEntity
  8
0
  6
Continuous
 62
     7
370
    25
100
AcDbCircle
 10
59.7020889821
 20
77.2710429575
 30
0.0
 40
0.7519788722000196
100
AcDbArc
 50
210.5665900094
 51
270.1551400921
  0
SPLINE
  5
1DC
330
1F
100
AcDbEntity
  8
0
  6
Continuous
 62
     7
370
    25
100
AcDbSpline
210
0.0
220
0.0
230
1.0
 70
    24
 71
     3
 72
    10
 73
     6
 74
     0
 42
0.00000001
 43
0.00000001
 40
0.0
 40
0.0
 40
0.0
 40
0.0
 40
0.3355445600395945
 40
0.6726666839999055
 40
0.9999999999999999
 40
0.9999999999999999
 40
0.9999999999999999
 40
0.9999999999999999
 10
59.05460606402377
 20
76.8886320592891
 30
0.0
 10
59.00747184803934
 20
76.8886320592891
 30
0.0
 10
58.91298181438946
 20
76.88863205928908
 30
0.0
 10
58.67456603637407
 20
76.88863205928914
 30
0.0
 10
58.46890237397638
 20
76.88863205928912
 30
0.0
 10
58.36758546911762
 20
76.88863205928912
 30
0.0
  0
SPLINE
  5
1DD
330
1F
100
AcDbEntity
  8
0
  6
Continuous
 62
     7
370
    25
100
AcDbSpline
210
0.0
220
0.0
230
1.0
 70
    24
 71
     3
 72
    12
 73
     8
 74
     0
 42
0.00000001
 43
0.00000001
 40
0.0
 40
0.0
 40
0.0
 40
0.0
 40
0.2240446891201099
 40
0.4755393275620114
 40
0.726968899890846
 40
0.9845818383982176
 40
1.0
 40
1.0
 40
1.0
 40
1.0
 10
20.37091756879671
 20
59.88863205928904
 30
0.0
 10
20.46945622573324
 20
59.88863205928904
 30
0.0
 10
20.67860649322001
 20
59.88863205928903
 30
0.0
 10
20.92116812677914
 20
59.88863205928906
 30
0.0
 10
21.07911958157074
 20
59.88863205928909
 30
0.0
 10
21.1455934131301
 20
59.88863205928906
 30
0.0
 10
21.12751747665299
 20
59.88863205928909
 30
0.0
 10
21.12649672220561
 20
59.88863205928909
 30
0.0
  0
SPLINE
  5
1DE
330
1F
100
AcDbEntity
  8
0
  6
Continuous
 62
     7
370
    25
100
AcDbSpline
210
0.0
220
0.0
230
1.0
 70
     8
 71
     3
 72
    15
 73
    11
 74
     0
 42
0.00000001
 43
0.00000001
 40
0.0
 40
0.0
 40
0.0
 40
0.0
 40
0.1323052378296956
 40
0.2645730682660303
 40
0.3997997819746812
 40
0.5350020935366633
 40
0.6501929590834554
 40
0.7654017933211805
 40
0.8826895567076665
 40
1.0
 40
1.0
 40
1.0
 40
1.0
 10
20.37091756879671
 20
68.38863205928901
 30
0.0
 10
20.4864875406367
 20
68.02139824132598
 30
0.0
 10
20.71759480857787
 20
67.28703443545312
 30
0.0
 10
20.96625744015422
 20
66.15617918085776
 30
0.0
 10
21.11577138730775
 20
65.00400711526481
 30
0.0
 10
21.14538167435612
 20
63.8935709026045
 30
0.0
 10
21.06856027170548
 20
62.84312579635282
 30
0.0
 10
20.91115080058445
 20
61.85176406969119
 30
0.0
 10
20.68024844005346
 20
60.86488457788119
 30
0.0
 10
20.4740345044961
 20
60.21407053808372
 30
0.0
 10
20.37091756879671
 20
59.88863205928904
 30
0.0
  0
SPLINE
  5
1DF
330
1F
100
AcDbEntity
  8
0
  6
Continuous
 62
     7
370
    25
100
AcDbSpline
210
0.0
220
0.0
230
1.0
 70
     8
 71
     3
 72
    15
 73
    11
 74
     0
 42
0.00000001
 43
0.00000001
 40
0.0
 40
0.0
 40
0.0
 40
0.0
 40
0.1323052378296955
 40
0.2645730682660304
 40
0.3997997819746811
 40
0.5350020935366634
 40
0.6501929590834554
 40
0.7654017933211806
 40
0.8826895567076666
 40
1.0
 40
1.0
 40
1.0
 40
1.0
 10
20.37091756879671
 20
76.88863205928907
 30
0.0
 10
20.4864875406367
 20
76.52139824132604
 30
0.0
 10
20.71759480857786
 20
75.78703443545318
 30
0.0
 10
20.96625744015421
 20
74.6561791808578
 30
0.0
 10
21.11577138730774
 20
73.50400711526484
 30
0.0
 10
21.14538167435612
 20
72.39357090260452
 30
0.0
 10
21.06856027170549
 20
71.34312579635284
 30
0.0
 10
20.91115080058445
 20
70.35176406969121
 30
0.0
 10
20.68024844005346
 20
69.36488457788117
 30
0.0
 10
20.4740345044961
 20
68.7140705380837
 30
0.0
 10
20.37091756879671
 20
68.38863205928901
 30
0.0
  0
SPLINE
  5
1E0
330
1F
100
AcDbEntity
  8
0
  6
Continuous
 62
     7
370
    25
100
AcDbSpline
210
0.0
220
0.0
230
1.0
 70
    24
 71
     3
 72
    12
 73
     8
 74
     0
 42
0.00000001
 43
0.00000001
 40
0.0
 40
0.0
 40
0.0
 40
0.0
 40
0.0089752076644852
 40
0.2601480223059747
 40
0.5180156488965676
 40
0.7759550142182067
 40
1.0
 40
1.0
 40
1.0
 40
1.0
 10
21.12783833870676
 20
76.88863205928907
 30
0.0
 10
21.12843594934194
 20
76.88863205928907
 30
0.0
 10
21.14575780201237
 20
76.88863205928907
 30
0.0
 10
21.08265589052872
 20
76.88863205928905
 30
0.0
 10
20.92739448534728
 20
76.88863205928907
 30
0.0
 10
20.68140731532939
 20
76.88863205928905
 30
0.0
 10
20.46944558627853
 20
76.88863205928907
 30
0.0
 10
20.37091756879671
 20
76.88863205928907
 30
0.0
  0
LINE
  5
1E1
330
1F
100
AcDbEntity
  8
0
  6
Continuous
 62
     7
370
    25
100
AcDbLine
 10
21.2744445146
 20
76.6386320593
 30
0.0
 11
21.2744445146
 21
60.1386320593
 31
0.0
  0
SPLINE
  5
1E2
330
1F
100
AcDbEntity
  8
0
  6
Continuous
 62
     7
370
    25
100
AcDbSpline
210
0.0
220
0.0
230
1.0
 70
     8
 71
     3
 72
     9
 73
     5
 74
     0
 42
0.00000001
 43
0.00000001
 40
0.0
 40
0.0
 40
0.0
 40
0.0
 40
0.6189856167028759
 40
1.0
 40
1.0
 40
1.0
 40
1.0
 10
9.99095086559507
 20
71.37156112599445
 30
0.0
 10
9.949851450022582
 20
71.89484448380028
 30
0.0
 10
9.883453436137515
 20
72.74023304160424
 30
0.0
 10
9.961292907440418
 20
73.58415614991893
 30
0.0
 10
9.99095086559507
 20
73.90570299258363
 30
0.0
  0
SPLINE
  5
1E3
330
1F
100
AcDbEntity
  8
0
  6
Continuous
 62
     7
370
    25
100
AcDbSpline
210
0.0
220
0.0
230
1.0
 70
     8
 71
     3
 72
     9
 73
     5
 74
     0
 42
0.00000001
 43
0.00000001
 40
0.0
 40
0.0
 40
0.0
 40
0.0
 40
0.4977140401152427
 40
1.0
 40
1.0
 40
1.0
 40
1.0
 10
9.99095086559507
 20
73.90570299258363
 30
0.0
 10
10.06543000044276
 20
74.40740069479764
 30
0.0
 10
10.2150724232895
 20
75.41540461226371
 30
0.0
 10
10.52320219989157
 20
76.39606174836473
 30
0.0
 10
10.67797146050122
 20
76.88863205928907
 30
0.0
  0
LINE
  5
1E4
330
1F
100
AcDbEntity
  8
0
  6
Continuous
 62
     7
370
    25
100
AcDbLine
 10
20.3709175688
 20
76.8886320593
 30
0.0
 11
10.6779714605
 21
76.8886320593
 31
0.0
  0
LINE
  5
1E5
330
1F
100
AcDbEntity
  8
0
  6
Continuous
 62
     7
370
    25
100
AcDbLine
 10
20.3709175688
 20
68.3886320593
 30
0.0
 11
10.6779714605
 21
68.3886320593
 31
0.0
  0
SPLINE
  5
1E6
330
1F
100
AcDbEntity
  8
0
  6
Continuous
 62
     7
370
    25
100
AcDbSpline
210
0.0
220
0.0
230
1.0
 70
     8
 71
     3
 72
     9
 73
     5
 74
     0
 42
0.00000001
 43
0.00000001
 40
0.0
 40
0.0
 40
0.0
 40
0.0
 40
0.4980648083588057
 40
1.0
 40
1.0
 40
1.0
 40
1.0
 10
10.67797146050122
 20
68.38863205928901
 30
0.0
 10
10.52442290370314
 20
68.87703526332344
 30
0.0
 10
10.2161325884246
 20
69.8576369758672
 30
0.0
 10
10.06620486578866
 20
70.8656193166185
 30
0.0
 10
9.99095086559507
 20
71.37156112599445
 30
0.0
  0
SPLINE
  5
1E7
330
1F
100
AcDbEntity
  8
0
  6
Continuous
 62
     7
370
    25
100
AcDbSpline
210
0.0
220
0.0
230
1.0
 70
     8
 71
     3
 72
     9
 73
     5
 74
     0
 42
0.00000001
 43
0.00000001
 40
0.0
 40
0.0
 40
0.0
 40
0.0
 40
0.4977140401152427
 40
0.9999999999999999
 40
0.9999999999999999
 40
0.9999999999999999
 40
0.9999999999999999
 10
9.990950865595066
 20
65.4057029925836
 30
0.0
 10
10.06543000044275
 20
65.90740069479762
 30
0.0
 10
10.21507242328949
 20
66.91540461226367
 30
0.0
 10
10.52320219989156
 20
67.89606174836469
 30
0.0
 10
10.67797146050122
 20
68.38863205928901
 30
0.0
  0
LINE
  5
1E8
330
1F
100
AcDbEntity
  8
0
  6
Continuous
 62
     7
370
    25
100
AcDbLine
 10
9.9909508656
 20
71.371561126
 30
0.0
 11
9.9909508656
 21
65.4057029926
 31
0.0
  0
SPLINE
  5
1E9
330
1F
100
AcDbEntity
  8
0
  6
Continuous
 62
     7
370
    25
100
AcDbSpline
210
0.0
220
0.0
230
1.0
 70
     8
 71
     3
 72
     9
 73
     5
 74
     0
 42
0.00000001
 43
0.00000001
 40
0.0
 40
0.0
 40
0.0
 40
0.0
 40
0.6189856167028766
 40
1.0
 40
1.0
 40
1.0
 40
1.0
 10
9.99095086559507
 20
62.87156112599443
 30
0.0
 10
9.949851450022575
 20
63.39484448380027
 30
0.0
 10
9.883453436137504
 20
64.24023304160421
 30
0.0
 10
9.961292907440422
 20
65.08415614991888
 30
0.0
 10
9.990950865595066
 20
65.4057029925836
 30
0.0
  0
LINE
  5
1EA
330
1F
100
AcDbEntity
  8
0
  6
Continuous
 62
     7
370
    25
100
AcDbLine
 10
20.3709175688
 20
59.8886320593
 30
0.0
 11
10.6779714605
 21
59.8886320593
 31
0.0
  0
SPLINE
  5
1EB
330
1F
100
AcDbEntity
  8
0
  6
Continuous
 62
     7
370
    25
100
AcDbSpline
210
0.0
220
0.0
230
1.0
 70
     8
 71
     3
 72
     9
 73
     5
 74
     0
 42
0.00000001
 43
0.00000001
 40
0.0
 40
0.0
 40
0.0
 40
0.0
 40
0.4980648083588058
 40
1.0
 40
1.0
 40
1.0
 40
1.0
 10
10.67797146050122
 20
59.88863205928904
 30
0.0
 10
10.52442290370313
 20
60.37703526332346
 30
0.0
 10
10.21613258842459
 20
61.35763697586719
 30
0.0
 10
10.06620486578866
 20
62.36561931661849
 30
0.0
 10
9.99095086559507
 20
62.87156112599443
 30
0.0
  0
LINE
  5
1EC
330
1F
100
AcDbEntity
  8
0
  6
Continuous
 62
     7
370
    25
100
AcDbLine
 10
9.3414318128
 20
65.5353955607
 30
0.0
 11
9.3414318128
 21
71.2418685579
 31
0.0
  0
ARC
  5
1ED
330
1F
100
AcDbEntity
  8
0
  6
Continuous
 62
     7
370
    25
100
AcDbCircle
 10
9.4037276771
 20
72.6211706483
 30
0.0
 40
1.380708162956839
100
AcDbArc
 50
267.4140065821
 51
295.1700210283
  0
ARC
  5
1EE
330
1F
100
AcDbEntity
  8
0
  6
Continuous
 62
     7
370
    25
100
AcDbCircle
 10
9.4037276771
 20
64.1560934703
 30
0.0
 40
1.380708162983934
100
AcDbArc
 50
64.829978972
 51
92.5859934176
  0
LINE
  5
1EF
330
1F
100
AcDbEntity
  8
0
  6
Continuous
 62
     7
370
    25
100
AcDbLine
 10
8.2744445146
 20
60.3386320593
 30
0.0
 11
8.2744445146
 21
76.4386320593
 31
0.0
  0
LINE
  5
1F0
330
1F
100
AcDbEntity
  8
0
  6
Continuous
 62
     7
370
    25
100
AcDbLine
 10
8.4744445146
 20
76.6386320593
 30
0.0
 11
8.4744445146
 21
60.1386320593
 31
0.0
  0
SPLINE
  5
1F1
330
1F
100
AcDbEntity
  8
0
  6
Continuous
 62
     7
370
    25
100
AcDbSpline
210
0.0
220
0.0
230
1.0
 70
     8
 71
     3
 72
    10
 73
     6
 74
     0
 42
0.00000001
 43
0.00000001
 40
0.0
 40
0.0
 40
0.0
 40
0.0
 40
0.2859824770486541
 40
0.8219210210363743
 40
1.0
 40
1.0
 40
1.0
 40
1.0
 10
9.341431812756742
 20
71.24186855787683
 30
0.0
 10
9.346218764021954
 20
71.49038790090206
 30
0.0
 10
9.359976585522615
 20
72.20463890772808
 30
0.0
 10
9.351421421436527
 20
73.01336442129384
 30
0.0
 10
9.343425923606988
 20
73.53558606485826
 30
0.0
 10
9.341431812756738
 20
73.66583034330995
 30
0.0
  0
SPLINE
  5
1F2
330
1F
100
AcDbEntity
  8
0
  6
Continuous
 62
     7
370
    25
100
AcDbSpline
210
0.0
220
0.0
230
1.0
 70
     8
 71
     3
 72
    10
 73
     6
 74
     0
 42
0.00000001
 43
0.00000001
 40
0.0
 40
0.0
 40
0.0
 40
0.0
 40
0.2859824770486499
 40
0.8219210210363921
 40
1.0
 40
1.0
 40
1.0
 40
1.0
 10
9.341431812756742
 20
63.11143377526813
 30
0.0
 10
9.346218764021957
 20
63.32241782845188
 30
0.0
 10
9.35997658552263
 20
63.9287914433839
 30
0.0
 10
9.351421421436513
 20
64.75723715760624
 30
0.0
 10
9.343425923606999
 20
65.38006073582785
 30
0.0
 10
9.341431812756742
 20
65.53539556070123
 30
0.0
  0
LINE
  5
1F3
330
1F
100
AcDbEntity
  8
0
  6
Continuous
 62
     7
370
    25
100
AcDbLine
 10
9.3414318128
 20
60.2581972767
 30
0.0
 11
9.3414318128
 21
63.1114337753
 31
0.0
  0
LINE
  5
1F4
330
1F
100
AcDbEntity
  8
0
  6
Continuous
 62
     7
370
    25
100
AcDbLine
 10
9.3414318128
 20
73.6658303433
 30
0.0
 11
9.3414318128
 21
76.5190668419
 31
0.0
  0
ARC
  5
1F5
330
1F
100
AcDbEntity
  8
0
  6
Continuous
 62
     7
370
    25
100
AcDbCircle
 10
9.3832389122
 20
74.5519356868
 30
0.0
 40
0.8870910400401667
100
AcDbArc
 50
267.298746295
 51
313.2404470551
  0
ARC
  5
1F6
330
1F
100
AcDbEntity
  8
0
  6
Continuous
 62
     7
370
    25
100
AcDbCircle
 10
9.3832389122
 20
62.2253284318
 30
0.0
 40
0.8870910400315395
100
AcDbArc
 50
46.7595529446
 51
92.7012537052
  0
LINE
  5
1F7
330
1F
100
AcDbEntity
  8
0
  6
Continuous
 62
     7
370
    25
100
AcDbLine
 10
9.9909508656
 20
76.8886320593
 30
0.0
 11
9.9909508656
 21
73.9057029926
 31
0.0
  0
SPLINE
  5
1F8
330
1F
100
AcDbEntity
  8
0
  6
Continuous
 62
     7
370
    25
100
AcDbSpline
210
0.0
220
0.0
230
1.0
 70
    24
 71
     3
 72
    10
 73
     6
 74
     0
 42
0.00000001
 43
0.00000001
 40
0.0
 40
0.0
 40
0.0
 40
0.0
 40
0.327333370707713
 40
0.6629523133412116
 40
1.0
 40
1.0
 40
1.0
 40
1.0
 10
10.67797146050122
 20
76.88863205928907
 30
0.0
 10
10.57665383440482
 20
76.88863205928907
 30
0.0
 10
10.37145399652207
 20
76.88863205928907
 30
0.0
 10
10.13288857439929
 20
76.88863205928905
 30
0.0
 10
10.03833038240131
 20
76.88863205928905
 30
0.0
 10
9.99095086559507
 20
76.88863205928907
 30
0.0
  0
ARC
  5
1F9
330
1F
100
AcDbEntity
  8
0
  6
Continuous
 62
     7
370
    25
100
AcDbCircle
 10
9.3434679475
 20
77.2710429575
 30
0.0
 40
0.7519788721912477
100
AcDbArc
 50
269.8448599075
 51
329.433409991
  0
LINE
  5
1FA
330
1F
100
AcDbEntity
  8
0
  6
Continuous
 62
     7
370
    25
100
AcDbLine
 10
9.9909508656
 20
62.871561126
 30
0.0
 11
9.9909508656
 21
59.8886320593
 31
0.0
  0
ARC
  5
1FB
330
1F
100
AcDbEntity
  8
0
  6
Continuous
 62
     7
370
    25
100
AcDbCircle
 10
9.3434679475
 20
59.5062211611
 30
0.0
 40
0.7519788722000124
100
AcDbArc
 50
30.5665900094
 51
90.1551400921
  0
SPLINE
  5
1FC
330
1F
100
AcDbEntity
  8
0
  6
Continuous
 62
     7
370
    25
100
AcDbSpline
210
0.0
220
0.0
230
1.0
 70
    24
 71
     3
 72
    10
 73
     6
 74
     0
 42
0.00000001
 43
0.00000001
 40
0.0
 40
0.0
 40
0.0
 40
0.0
 40
0.3355445600395945
 40
0.6726666839999055
 40
1.0
 40
1.0
 40
1.0
 40
1.0
 10
9.99095086559507
 20
59.88863205928907
 30
0.0
 10
10.03808508157949
 20
59.88863205928907
 30
0.0
 10
10.13257511522937
 20
59.88863205928907
 30
0.0
 10
10.37099089324477
 20
59.88863205928903
 30
0.0
 10
10.57665455564245
 20
59.88863205928904
 30
0.0
 10
10.67797146050122
 20
59.88863205928904
 30
0.0
  0
CIRCLE
  5
1FD
330
1F
100
AcDbEntity
  8
0
  6
Continuous
 62
     7
370
    25
100
AcDbCircle
 10
34.5227784648
 20
68.3886320593
 30
0.0
 40
8.049999999999997
  0
CIRCLE
  5
1FE
330
1F
100
AcDbEntity
  8
0
  6
Continuous
 62
     7
370
    25
100
AcDbCircle
 10
34.5227784648
 20
68.3886320593
 30
0.0
 40
8.25
  0
CIRCLE
  5
1FF
330
1F
100
AcDbEntity
  8
0
  6
Continuous
 62
     7
370
    25
100
AcDbCircle
 10
34.5227784648
 20
68.3886320593
 30
0.0
 40
4.174999999999997
  0
CIRCLE
  5
200
330
1F
100
AcDbEntity
  8
0
  6
Continuous
 62
     7
370
    25
100
AcDbCircle
 10
34.5227784648
 20
68.3886320593
 30
0.0
 40
4.074999999999989
  0
SPLINE
  5
201
330
1F
100
AcDbEntity
  8
0
  6
Continuous
 62
     7
370
    25
100
AcDbSpline
210
0.0
220
0.0
230
1.0
 70
    24
 71
     3
 72
     9
 73
     5
 74
     0
 42
0.00000001
 43
0.00000001
 40
0.0
 40
0.0
 40
0.0
 40
0.0
 40
0.6189856167029141
 40
0.9999999999999999
 40
0.9999999999999999
 40
0.9999999999999999
 40
0.9999999999999999
 10
42.61553814139715
 20
71.37156112599465
 30
0.0
 10
42.31342035390553
 20
71.89484448380044
 30
0.0
 10
41.82533504248767
 20
72.74023304160427
 30
0.0
 10
41.33809580872692
 20
73.58415614991884
 30
0.0
 10
41.15245065255742
 20
73.90570299258346
 30
0.0
  0
LINE
  5
202
330
1F
100
AcDbEntity
  8
0
  6
Continuous
 62
     7
370
    25
100
AcDbLine
 10
42.6155381414
 20
71.371561126
 30
0.0
 11
42.263679025
 21
71.2418685579
 31
0.0
  0
LINE
  5
203
330
1F
100
AcDbEntity
  8
0
  6
Continuous
 62
     7
370
    25
100
AcDbLine
 10
41.1524506526
 20
73.9057029926
 30
0.0
 11
40.8642040357
 21
73.6658303433
 31
0.0
  0
LINE
  5
204
330
1F
100
AcDbEntity
  8
0
  6
Continuous
 62
     7
370
    25
100
AcDbLine
 10
26.7818779046
 20
71.2418685579
 30
0.0
 11
26.4300187882
 21
71.371561126
 31
0.0
  0
SPLINE
  5
205
330
1F
100
AcDbEntity
  8
0
  6
Continuous
 62
     7
370
    25
100
AcDbSpline
210
0.0
220
0.0
230
1.0
 70
    24
 71
     3
 72
     9
 73
     5
 74
     0
 42
0.00000001
 43
0.00000001
 40
0.0
 40
0.0
 40
0.0
 40
0.0
 40
0.6189856167028761
 40
1.0
 40
1.0
 40
1.0
 40
1.0
 10
27.89310627706179
 20
73.90570299258373
 30
0.0
 10
27.59098848957014
 20
73.38241963477789
 30
0.0
 10
27.1029031781522
 20
72.53703107697395
 30
0.0
 10
26.61566394439136
 20
71.69310796865928
 30
0.0
 10
26.43001878822181
 20
71.37156112599456
 30
0.0
  0
LINE
  5
206
330
1F
100
AcDbEntity
  8
0
  6
Continuous
 62
     7
370
    25
100
AcDbLine
 10
28.1813528939
 20
73.6658303433
 30
0.0
 11
27.8931062771
 21
73.9057029926
 31
0.0
  0
LINE
  5
207
330
1F
100
AcDbEntity
  8
0
  6
Continuous
 62
     7
370
    25
100
AcDbLine
 10
33.1233034755
 20
76.5190668419
 30
0.0
 11
33.059690976
 21
76.8886320593
 31
0.0
  0
SPLINE
  5
208
330
1F
100
AcDbEntity
  8
0
  6
Continuous
 62
     7
370
    25
100
AcDbSpline
210
0.0
220
0.0
230
1.0
 70
    24
 71
     3
 72
    10
 73
     6
 74
     0
 42
0.00000001
 43
0.00000001
 40
0.0
 40
0.0
 40
0.0
 40
0.0
 40
0.0789477693778935
 40
0.5375793028234306
 40
0.9999999999999999
 40
0.9999999999999999
 40
0.9999999999999999
 40
0.9999999999999999
 10
35.98586595364954
 20
76.88863205928907
 30
0.0
 10
35.90909629928115
 20
76.88863205928907
 30
0.0
 10
35.38634844207674
 20
76.88863205928907
 30
0.0
 10
34.40817673617757
 20
76.88863205928905
 30
0.0
 10
33.51041734208669
 20
76.88863205928908
 30
0.0
 10
33.05969097596964
 20
76.8886320592891
 30
0.0
  0
LINE
  5
209
330
1F
100
AcDbEntity
  8
0
  6
Continuous
 62
     7
370
    25
100
AcDbLine
 10
35.9858659536
 20
76.8886320593
 30
0.0
 11
35.9222534541
 21
76.5190668419
 31
0.0
  0
LINE
  5
20A
330
1F
100
AcDbEntity
  8
0
  6
Continuous
 62
     7
370
    25
100
AcDbLine
 10
28.1813528939
 20
63.1114337753
 30
0.0
 11
27.8931062771
 21
62.871561126
 31
0.0
  0
SPLINE
  5
20B
330
1F
100
AcDbEntity
  8
0
  6
Continuous
 62
     7
370
    25
100
AcDbSpline
210
0.0
220
0.0
230
1.0
 70
    24
 71
     3
 72
     9
 73
     5
 74
     0
 42
0.00000001
 43
0.00000001
 40
0.0
 40
0.0
 40
0.0
 40
0.0
 40
0.6189856167028759
 40
1.0
 40
1.0
 40
1.0
 40
1.0
 10
26.43001878822177
 20
65.40570299258371
 30
0.0
 10
26.73213657571342
 20
64.88241963477786
 30
0.0
 10
27.22022188713135
 20
64.03703107697392
 30
0.0
 10
27.70746112089217
 20
63.19310796865923
 30
0.0
 10
27.89310627706171
 20
62.87156112599452
 30
0.0
  0
LINE
  5
20C
330
1F
100
AcDbEntity
  8
0
  6
Continuous
 62
     7
370
    25
100
AcDbLine
 10
26.7818779046
 20
65.5353955607
 30
0.0
 11
26.4300187882
 21
65.4057029926
 31
0.0
  0
SPLINE
  5
20D
330
1F
100
AcDbEntity
  8
0
  6
Continuous
 62
     7
370
    25
100
AcDbSpline
210
0.0
220
0.0
230
1.0
 70
    24
 71
     3
 72
     9
 73
     5
 74
     0
 42
0.00000001
 43
0.00000001
 40
0.0
 40
0.0
 40
0.0
 40
0.0
 40
0.6189856167028771
 40
1.0
 40
1.0
 40
1.0
 40
1.0
 10
41.15245065255725
 20
62.8715611259945
 30
0.0
 10
41.4545684400489
 20
63.39484448380033
 30
0.0
 10
41.94265375146684
 20
64.24023304160427
 30
0.0
 10
42.42989298522766
 20
65.08415614991894
 30
0.0
 10
42.6155381413972
 20
65.40570299258364
 30
0.0
  0
LINE
  5
20E
330
1F
100
AcDbEntity
  8
0
  6
Continuous
 62
     7
370
    25
100
AcDbLine
 10
41.1524506526
 20
62.871561126
 30
0.0
 11
40.8642040357
 21
63.1114337753
 31
0.0
  0
LINE
  5
20F
330
1F
100
AcDbEntity
  8
0
  6
Continuous
 62
     7
370
    25
100
AcDbLine
 10
42.6155381414
 20
65.4057029926
 30
0.0
 11
42.263679025
 21
65.5353955607
 31
0.0
  0
LINE
  5
210
330
1F
100
AcDbEntity
  8
0
  6
Continuous
 62
     7
370
    25
100
AcDbLine
 10
35.9858659536
 20
59.8886320593
 30
0.0
 11
35.9222534541
 21
60.2581972767
 31
0.0
  0
SPLINE
  5
211
330
1F
100
AcDbEntity
  8
0
  6
Continuous
 62
     7
370
    25
100
AcDbSpline
210
0.0
220
0.0
230
1.0
 70
    24
 71
     3
 72
    10
 73
     6
 74
     0
 42
0.00000001
 43
0.00000001
 40
0.0
 40
0.0
 40
0.0
 40
0.0
 40
0.4586421336634352
 40
0.9210522271454904
 40
1.0
 40
1.0
 40
1.0
 40
1.0
 10
33.05969097596951
 20
59.88863205928909
 30
0.0
 10
33.50672213271982
 20
59.88863205928909
 30
0.0
 10
34.40445701642862
 20
59.88863205928911
 30
0.0
 10
35.38267431264921
 20
59.88863205928907
 30
0.0
 10
35.90909632001603
 20
59.88863205928907
 30
0.0
 10
35.98586595364942
 20
59.88863205928907
 30
0.0
  0
LINE
  5
212
330
1F
100
AcDbEntity
  8
0
  6
Continuous
 62
     7
370
    25
100
AcDbLine
 10
33.1233034755
 20
60.2581972767
 30
0.0
 11
33.059690976
 21
59.8886320593
 31
0.0
  0
ARC
  5
213
330
1F
100
AcDbEntity
  8
0
  6
Continuous
 62
     7
370
    25
100
AcDbCircle
 10
34.5227784648
 20
68.3886320593
 30
0.0
 40
8.625000000000009
100
AcDbArc
 50
99.766500898
 51
140.233499102
  0
ARC
  5
214
330
1F
100
AcDbEntity
  8
0
  6
Continuous
 62
     7
370
    25
100
AcDbCircle
 10
34.5227784648
 20
68.3886320593
 30
0.0
 40
8.625
100
AcDbArc
 50
159.766500898
 51
200.233499102
  0
ARC
  5
215
330
1F
100
AcDbEntity
  8
0
  6
Continuous
 62
     7
370
    25
100
AcDbCircle
 10
34.5227784648
 20
68.3886320593
 30
0.0
 40
8.625000000000002
100
AcDbArc
 50
39.766500898
 51
80.233499102
  0
ARC
  5
216
330
1F
100
AcDbEntity
  8
0
  6
Continuous
 62
     7
370
    25
100
AcDbCircle
 10
34.5227784648
 20
68.3886320593
 30
0.0
 40
8.62500000000001
100
AcDbArc
 50
219.766500898
 51
260.233499102
  0
ARC
  5
217
330
1F
100
AcDbEntity
  8
0
  6
Continuous
 62
     7
370
    25
100
AcDbCircle
 10
34.5227784648
 20
68.3886320593
 30
0.0
 40
8.625000000000005
100
AcDbArc
 50
339.766500898
 51
20.233499102
  0
ARC
  5
218
330
1F
100
AcDbEntity
  8
0
  6
Continuous
 62
     7
370
    25
100
AcDbCircle
 10
34.5227784648
 20
68.3886320593
 30
0.0
 40
8.625000000000002
100
AcDbArc
 50
279.766500898
 51
320.233499102
  0
SPLINE
  5
219
330
1F
100
AcDbEntity
  8
0
  6
Continuous
 62
     7
370
    25
100
AcDbSpline
210
0.0
220
0.0
230
1.0
 70
    24
 71
     3
 72
    10
 73
     6
 74
     0
 42
0.00000001
 43
0.00000001
 40
0.0
 40
0.0
 40
0.0
 40
0.0
 40
0.3355445600395948
 40
0.6726666839999056
 40
0.9999999999999999
 40
0.9999999999999999
 40
0.9999999999999999
 40
0.9999999999999999
 10
33.05969097596964
 20
76.8886320592891
 30
0.0
 10
32.66906140966619
 20
76.8886320592891
 30
0.0
 10
31.88596573078928
 20
76.88863205928908
 30
0.0
 10
30.7367137613745
 20
76.88863205928912
 30
0.0
 10
29.98541597961361
 20
76.88863205928912
 30
0.0
 10
29.61530117669776
 20
76.88863205928911
 30
0.0
  0
SPLINE
  5
21A
330
1F
100
AcDbEntity
  8
0
  6
Continuous
 62
     7
370
    25
100
AcDbSpline
210
0.0
220
0.0
230
1.0
 70
    24
 71
     3
 72
     9
 73
     5
 74
     0
 42
0.00000001
 43
0.00000001
 40
0.0
 40
0.0
 40
0.0
 40
0.0
 40
0.4980648083588057
 40
1.0
 40
1.0
 40
1.0
 40
1.0
 10
29.61530117669776
 20
76.88863205928911
 30
0.0
 10
29.3333214553754
 20
76.40022885525471
 30
0.0
 10
28.76717079267044
 20
75.41962714271097
 30
0.0
 10
28.18521191689928
 20
74.41164480195967
 30
0.0
 10
27.89310627706179
 20
73.90570299258373
 30
0.0
  0
SPLINE
  5
21B
330
1F
100
AcDbEntity
  8
0
  6
Continuous
 62
     7
370
    25
100
AcDbSpline
210
0.0
220
0.0
230
1.0
 70
    24
 71
     3
 72
     9
 73
     5
 74
     0
 42
0.00000001
 43
0.00000001
 40
0.0
 40
0.0
 40
0.0
 40
0.0
 40
0.4980648083588056
 40
1.0
 40
1.0
 40
1.0
 40
1.0
 10
24.70782388858585
 20
68.38863205928915
 30
0.0
 10
24.98980360990819
 20
67.90022885525472
 30
0.0
 10
25.55595427261312
 20
66.91962714271097
 30
0.0
 10
26.13791314838428
 20
65.91164480195965
 30
0.0
 10
26.43001878822177
 20
65.40570299258371
 30
0.0
  0
SPLINE
  5
21C
330
1F
100
AcDbEntity
  8
0
  6
Continuous
 62
     7
370
    25
100
AcDbSpline
210
0.0
220
0.0
230
1.0
 70
    24
 71
     3
 72
     9
 73
     5
 74
     0
 42
0.00000001
 43
0.00000001
 40
0.0
 40
0.0
 40
0.0
 40
0.0
 40
0.4977140401152428
 40
1.0
 40
1.0
 40
1.0
 40
1.0
 10
26.43001878822181
 20
71.37156112599456
 30
0.0
 10
26.14036348479672
 20
70.86986342378054
 30
0.0
 10
25.55839215170349
 20
69.86185950631449
 30
0.0
 10
24.99220949019283
 20
68.88120237021347
 30
0.0
 10
24.70782388858585
 20
68.38863205928915
 30
0.0
  0
SPLINE
  5
21D
330
1F
100
AcDbEntity
  8
0
  6
Continuous
 62
     7
370
    25
100
AcDbSpline
210
0.0
220
0.0
230
1.0
 70
    24
 71
     3
 72
     9
 73
     5
 74
     0
 42
0.00000001
 43
0.00000001
 40
0.0
 40
0.0
 40
0.0
 40
0.0
 40
0.4977140401152425
 40
1.0
 40
1.0
 40
1.0
 40
1.0
 10
41.15245065255742
 20
73.90570299258346
 30
0.0
 10
40.86279534913233
 20
74.40740069479752
 30
0.0
 10
40.28082401603909
 20
75.41540461226361
 30
0.0
 10
39.71464135452842
 20
76.39606174836469
 30
0.0
 10
39.43025575292143
 20
76.88863205928905
 30
0.0
  0
SPLINE
  5
21E
330
1F
100
AcDbEntity
  8
0
  6
Continuous
 62
     7
370
    25
100
AcDbSpline
210
0.0
220
0.0
230
1.0
 70
    24
 71
     3
 72
     9
 73
     5
 74
     0
 42
0.00000001
 43
0.00000001
 40
0.0
 40
0.0
 40
0.0
 40
0.0
 40
0.4980648083588055
 40
0.9999999999999999
 40
0.9999999999999999
 40
0.9999999999999999
 40
0.9999999999999999
 10
39.43025575292143
 20
76.88863205928905
 30
0.0
 10
38.86629631027673
 20
76.88863205928904
 30
0.0
 10
37.73399498486685
 20
76.88863205928902
 30
0.0
 10
36.57007723332453
 20
76.88863205928905
 30
0.0
 10
35.98586595364954
 20
76.88863205928907
 30
0.0
  0
SPLINE
  5
21F
330
1F
100
AcDbEntity
  8
0
  6
Continuous
 62
     7
370
    25
100
AcDbSpline
210
0.0
220
0.0
230
1.0
 70
    24
 71
     3
 72
    10
 73
     6
 74
     0
 42
0.00000001
 43
0.00000001
 40
0.0
 40
0.0
 40
0.0
 40
0.0
 40
0.3273333707077128
 40
0.6629523133412114
 40
1.0
 40
1.0
 40
1.0
 40
1.0
 10
29.61530117669762
 20
59.88863205928908
 30
0.0
 10
29.98541596534889
 20
59.88863205928909
 30
0.0
 10
30.73501401215863
 20
59.88863205928909
 30
0.0
 10
31.8842240327149
 20
59.88863205928912
 30
0.0
 10
32.66731423364843
 20
59.88863205928909
 30
0.0
 10
33.05969097596951
 20
59.88863205928909
 30
0.0
  0
SPLINE
  5
220
330
1F
100
AcDbEntity
  8
0
  6
Continuous
 62
     7
370
    25
100
AcDbSpline
210
0.0
220
0.0
230
1.0
 70
    24
 71
     3
 72
     9
 73
     5
 74
     0
 42
0.00000001
 43
0.00000001
 40
0.0
 40
0.0
 40
0.0
 40
0.0
 40
0.4977140401152428
 40
1.0
 40
1.0
 40
1.0
 40
1.0
 10
27.89310627706171
 20
62.87156112599452
 30
0.0
 10
28.18276158048679
 20
62.36986342378051
 30
0.0
 10
28.76473291358
 20
61.36185950631444
 30
0.0
 10
29.33091557509064
 20
60.38120237021342
 30
0.0
 10
29.61530117669762
 20
59.88863205928908
 30
0.0
  0
SPLINE
  5
221
330
1F
100
AcDbEntity
  8
0
  6
Continuous
 62
     7
370
    25
100
AcDbSpline
210
0.0
220
0.0
230
1.0
 70
    24
 71
     3
 72
     9
 73
     5
 74
     0
 42
0.00000001
 43
0.00000001
 40
0.0
 40
0.0
 40
0.0
 40
0.0
 40
0.4980648083588055
 40
1.0
 40
1.0
 40
1.0
 40
1.0
 10
44.33773304103315
 20
68.38863205928908
 30
0.0
 10
44.0557533197108
 20
68.87703526332353
 30
0.0
 10
43.48960265700584
 20
69.85763697586734
 30
0.0
 10
42.90764378123465
 20
70.86561931661868
 30
0.0
 10
42.61553814139715
 20
71.37156112599465
 30
0.0
  0
SPLINE
  5
222
330
1F
100
AcDbEntity
  8
0
  6
Continuous
 62
     7
370
    25
100
AcDbSpline
210
0.0
220
0.0
230
1.0
 70
    24
 71
     3
 72
     9
 73
     5
 74
     0
 42
0.00000001
 43
0.00000001
 40
0.0
 40
0.0
 40
0.0
 40
0.0
 40
0.4977140401152423
 40
1.0
 40
1.0
 40
1.0
 40
1.0
 10
42.6155381413972
 20
65.40570299258364
 30
0.0
 10
42.90519344482228
 20
65.90740069479767
 30
0.0
 10
43.48716477791551
 20
66.91540461226373
 30
0.0
 10
44.05334743942616
 20
67.89606174836474
 30
0.0
 10
44.33773304103315
 20
68.38863205928908
 30
0.0
  0
SPLINE
  5
223
330
1F
100
AcDbEntity
  8
0
  6
Continuous
 62
     7
370
    25
100
AcDbSpline
210
0.0
220
0.0
230
1.0
 70
    24
 71
     3
 72
     9
 73
     5
 74
     0
 42
0.00000001
 43
0.00000001
 40
0.0
 40
0.0
 40
0.0
 40
0.0
 40
0.4980648083588058
 40
0.9999999999999999
 40
0.9999999999999999
 40
0.9999999999999999
 40
0.9999999999999999
 10
39.43025575292129
 20
59.88863205928907
 30
0.0
 10
39.71223547424365
 20
60.37703526332349
 30
0.0
 10
40.2783861369486
 20
61.35763697586724
 30
0.0
 10
40.86034501271976
 20
62.36561931661855
 30
0.0
 10
41.15245065255725
 20
62.8715611259945
 30
0.0
  0
SPLINE
  5
224
330
1F
100
AcDbEntity
  8
0
  6
Continuous
 62
     7
370
    25
100
AcDbSpline
210
0.0
220
0.0
230
1.0
 70
    24
 71
     3
 72
     9
 73
     5
 74
     0
 42
0.00000001
 43
0.00000001
 40
0.0
 40
0.0
 40
0.0
 40
0.0
 40
0.4977140401152426
 40
0.9999999999999999
 40
0.9999999999999999
 40
0.9999999999999999
 40
0.9999999999999999
 10
35.98586595364942
 20
59.88863205928907
 30
0.0
 10
36.56517656049959
 20
59.88863205928907
 30
0.0
 10
37.72911922668604
 20
59.88863205928909
 30
0.0
 10
38.86148454970733
 20
59.88863205928908
 30
0.0
 10
39.43025575292129
 20
59.88863205928907
 30
0.0
  0
CIRCLE
  5
225
330
1F
100
AcDbEntity
  8
0
  6
Continuous
 62
     7
370
    25
100
AcDbCircle
 10
34.5227784648
 20
68.3886320593
 30
0.0
 40
4.049999999999996
  0
CIRCLE
  5
226
330
1F
100
AcDbEntity
  8
0
  6
Continuous
 62
     7
370
    25
100
AcDbCircle
 10
34.5227784648
 20
68.3886320593
 30
0.0
 40
2.999999999999993
  0
LWPOLYLINE
  5
227
330
1F
100
AcDbEntity
  8
0
  6
Continuous
 62
     7
370
    25
100
AcDbPolyline
 90
       22
 70
   128
 43
0.0
 10
24.4689157834
 20
74.9571950162
 10
24.4708205368
 20
74.8891470995
 10
24.4731587057
 20
74.6323717025
 10
24.4728245007
 20
74.1884646672
 10
24.4689348332
 20
73.5947437781
 10
24.4658904217
 20
72.8340888145
 10
24.4663304504
 20
71.9702506735
 10
24.4697696023
 20
70.9784309012
 10
24.4725629332
 20
69.9419908984
 10
24.4706177333
 20
68.8309902631
 10
24.4674032121
 20
67.7388105168
 10
24.4666204728
 20
66.6338928354
 10
24.4690928936
 20
65.6088552147
 10
24.4727004216
 20
64.634329041
 10
24.4727530474
 20
63.792071534
 10
24.4699538172
 20
63.0765912007
 10
24.4680067945
 20
62.4934363319
 10
24.4686317409
 20
62.0915590486
 10
24.4707474843
 20
61.8593977371
 10
24.4711139914
 20
61.8101356884
 10
24.4711122831
 20
61.8101342278
 10
24.4711122831
 20
61.8101342278
  0
SPLINE
  5
228
330
1F
100
AcDbEntity
  8
0
  6
Continuous
 62
     7
370
    25
100
AcDbSpline
210
0.0
220
0.0
230
1.0
 70
     8
 71
     3
 72
     9
 73
     5
 74
     0
 42
0.00000001
 43
0.00000001
 40
0.0448929885387046
 40
0.0448929885387046
 40
0.0448929885387046
 40
0.0448929885387046
 40
0.5448929885387046
 40
1.0
 40
1.0
 40
1.0
 40
1.0
 10
25.37682808658333
 20
62.38652947953982
 30
0.0
 10
25.17909482786679
 20
62.38657134187543
 30
0.0
 10
24.80180848915941
 20
62.27108200551081
 30
0.0
 10
24.54758039254131
 20
61.97311431976911
 30
0.0
 10
24.47111227932989
 20
61.81013422618641
 30
0.0
  0
SPLINE
  5
229
330
1F
100
AcDbEntity
  8
0
  6
Continuous
 62
     7
370
    25
100
AcDbSpline
210
0.0
220
0.0
230
1.0
 70
     8
 71
     3
 72
     9
 73
     5
 74
     0
 42
0.00000001
 43
0.00000001
 40
0.0448929885387046
 40
0.0448929885387046
 40
0.0448929885387046
 40
0.0448929885387046
 40
0.5448929885387046
 40
1.0
 40
1.0
 40
1.0
 40
1.0
 10
43.66872884303551
 20
62.38652947953982
 30
0.0
 10
43.86646210175205
 20
62.38657134187543
 30
0.0
 10
44.24374844045943
 20
62.27108200551081
 30
0.0
 10
44.49797653707752
 20
61.97311431976911
 30
0.0
 10
44.57444465028894
 20
61.81013422618641
 30
0.0
  0
LWPOLYLINE
  5
22A
330
1F
100
AcDbEntity
  8
0
  6
Continuous
 62
     7
370
    25
100
AcDbPolyline
 90
       21
 70
   128
 43
0.0
 10
44.5766535346
 20
74.9609137499
 10
44.577108595
 20
74.8922054579
 10
44.5755827999
 20
74.628668265
 10
44.5744237223
 20
74.1979072453
 10
44.5750925344
 20
73.5875123985
 10
44.5755268994
 20
72.8487098978
 10
44.5758677835
 20
71.9602408571
 10
44.5760047954
 20
70.9966640079
 10
44.5756711115
 20
69.9302610663
 10
44.5759021052
 20
68.8505609082
 10
44.575702716
 20
67.7264777243
 10
44.575401979
 20
66.6523807717
 10
44.5757409725
 20
65.5973467604
 10
44.575586094
 20
64.6499487976
 10
44.5755777449
 20
63.7829111458
 10
44.5754976726
 20
63.0690225531
 10
44.5750869781
 20
62.4877316994
 10
44.5755249278
 20
62.0878396906
 10
44.5752843508
 20
61.8578330916
 10
44.5744446465
 20
61.8101342278
 10
44.5744446465
 20
61.8101342278
  0
LINE
  5
22B
330
1F
100
AcDbEntity
  8
0
  6
Continuous
 62
     7
370
    25
100
AcDbLine
 10
41.0227784648
 20
74.3886320593
 30
0.0
 11
41.0227784648
 21
74.1303018101
 31
0.0
  0
LINE
  5
22C
330
1F
100
AcDbEntity
  8
0
  6
Continuous
 62
     7
370
    25
100
AcDbLine
 10
41.0227784648
 20
74.3886320593
 30
0.0
 11
40.8736314259
 21
74.3886320593
 31
0.0
  0
LINE
  5
22D
330
1F
100
AcDbEntity
  8
0
  6
Continuous
 62
     7
370
    25
100
AcDbLine
 10
28.0227784648
 20
74.1303018101
 30
0.0
 11
28.0227784648
 21
74.3886320593
 31
0.0
  0
LINE
  5
22E
330
1F
100
AcDbEntity
  8
0
  6
Continuous
 62
     7
370
    25
100
AcDbLine
 10
28.0227784648
 20
74.3886320593
 30
0.0
 11
28.1719255037
 21
74.3886320593
 31
0.0
  0
LINE
  5
22F
330
1F
100
AcDbEntity
  8
0
  6
Continuous
 62
     7
370
    25
100
AcDbLine
 10
41.0227784648
 20
62.6469623085
 30
0.0
 11
41.0227784648
 21
62.3886320593
 31
0.0
  0
LINE
  5
230
330
1F
100
AcDbEntity
  8
0
  6
Continuous
 62
     7
370
    25
100
AcDbLine
 10
40.8736314259
 20
62.3886320593
 30
0.0
 11
41.0227784648
 21
62.3886320593
 31
0.0
  0
LINE
  5
231
330
1F
100
AcDbEntity
  8
0
  6
Continuous
 62
     7
370
    25
100
AcDbLine
 10
28.0227784648
 20
62.3886320593
 30
0.0
 11
28.0227784648
 21
62.6469623085
 31
0.0
  0
LINE
  5
232
330
1F
100
AcDbEntity
  8
0
  6
Continuous
 62
     7
370
    25
100
AcDbLine
 10
28.0227784648
 20
62.3886320593
 30
0.0
 11
28.1719255037
 21
62.3886320593
 31
0.0
  0
SPLINE
  5
233
330
1F
100
AcDbEntity
  8
0
  6
Continuous
 62
     7
370
    25
100
AcDbSpline
210
0.0
220
0.0
230
1.0
 70
     8
 71
     3
 72
    12
 73
     8
 74
     0
 42
0.00000001
 43
0.00000001
 40
0.0
 40
0.0
 40
0.0
 40
0.0
 40
0.5
 40
0.5
 40
0.75
 40
0.75
 40
1.0
 40
1.0
 40
1.0
 40
1.0
 10
35.52277846480948
 20
71.21705918403528
 30
0.0
 10
35.1991498340486
 20
71.18840287819773
 30
0.0
 10
34.86999575601815
 20
71.16650248809495
 30
0.0
 10
34.36089085688802
 20
71.16603712130458
 30
0.0
 10
34.18867369810805
 20
71.1712347902576
 30
0.0
 10
33.85259917002666
 20
71.18955966088139
 30
0.0
 10
33.68691076859896
 20
71.20252578047281
 30
0.0
 10
33.52277846480941
 20
71.21705918403528
 30
0.0
  0
SPLINE
  5
234
330
1F
100
AcDbEntity
  8
0
  6
Continuous
 62
     7
370
    25
100
AcDbSpline
210
0.0
220
0.0
230
1.0
 70
     8
 71
     3
 72
    10
 73
     6
 74
     0
 42
0.00000001
 43
0.00000001
 40
0.0
 40
0.0
 40
0.0
 40
0.0
 40
0.5
 40
0.5
 40
1.0
 40
1.0
 40
1.0
 40
1.0
 10
33.52277846480935
 20
65.5602049345429
 30
0.0
 10
33.84887781411138
 20
65.58908001480093
 30
0.0
 10
34.18136903618814
 20
65.61109571741618
 30
0.0
 10
34.86520223992854
 20
65.61105514528566
 30
0.0
 10
35.19677255311843
 20
65.58907174119193
 30
0.0
 10
35.52277846480948
 20
65.5602049345429
 30
0.0
  0
SPLINE
  5
235
330
1F
100
AcDbEntity
  8
0
  6
Continuous
 62
     7
370
    25
100
AcDbSpline
210
0.0
220
0.0
230
1.0
 70
     8
 71
     3
 72
     9
 73
     5
 74
     0
 42
0.00000001
 43
0.00000001
 40
0.0
 40
0.0
 40
0.0
 40
0.0
 40
0.6438640477783293
 40
1.0
 40
1.0
 40
1.0
 40
1.0
 10
59.69466841164741
 20
76.60559289988338
 30
0.0
 10
59.69511323985685
 20
76.61182146241732
 30
0.0
 10
59.69580411273753
 20
76.621495185551
 30
0.0
 10
59.70193993128208
 20
76.54596563153733
 30
0.0
 10
59.7041251168621
 20
76.5190668418978
 30
0.0
  0
SPLINE
  5
236
330
1F
100
AcDbEntity
  8
0
  6
Continuous
 62
     7
370
    25
100
AcDbSpline
210
0.0
220
0.0
230
1.0
 70
     8
 71
     3
 72
     9
 73
     5
 74
     0
 42
0.00000001
 43
0.00000001
 40
0.0
 40
0.0
 40
0.0
 40
0.0
 40
0.5720002981985959
 40
0.9999999999999999
 40
0.9999999999999999
 40
0.9999999999999999
 40
0.9999999999999999
 10
59.70412511686209
 20
60.25819727668038
 30
0.0
 10
59.6987438416606
 20
60.21495771522417
 30
0.0
 10
59.68933602278631
 20
60.13936411572362
 30
0.0
 10
59.69307018943283
 20
60.16198814212495
 30
0.0
 10
59.69466841164402
 20
60.17167121867826
 30
0.0
  0
SPLINE
  5
237
330
1F
100
AcDbEntity
  8
0
  6
Continuous
 62
     7
370
    25
100
AcDbSpline
210
0.0
220
0.0
230
1.0
 70
     8
 71
     3
 72
     9
 73
     5
 74
     0
 42
0.00000001
 43
0.00000001
 40
0.0
 40
0.0
 40
0.0
 40
0.0
 40
0.6438640477783145
 40
1.0
 40
1.0
 40
1.0
 40
1.0
 10
9.350888517971427
 20
60.17167121869478
 30
0.0
 10
9.350443689761974
 20
60.16544265616085
 30
0.0
 10
9.349752816881292
 20
60.15576893302715
 30
0.0
 10
9.34361699833676
 20
60.23129848704082
 30
0.0
 10
9.341431812756742
 20
60.25819727668037
 30
0.0
  0
SPLINE
  5
238
330
1F
100
AcDbEntity
  8
0
  6
Continuous
 62
     7
370
    25
100
AcDbSpline
210
0.0
220
0.0
230
1.0
 70
     8
 71
     3
 72
     9
 73
     5
 74
     0
 42
0.00000001
 43
0.00000001
 40
0.0
 40
0.0
 40
0.0
 40
0.0
 40
0.5720002981985723
 40
1.0
 40
1.0
 40
1.0
 40
1.0
 10
9.341431812756742
 20
76.51906684189777
 30
0.0
 10
9.346813087958237
 20
76.56230640335399
 30
0.0
 10
9.356220906832517
 20
76.63790000285454
 30
0.0
 10
9.352486740185997
 20
76.6152759764532
 30
0.0
 10
9.350888517974814
 20
76.60559289989989
 30
0.0
  0
SPLINE
  5
239
330
1F
100
AcDbEntity
  8
0
  6
Continuous
 62
     7
370
    25
100
AcDbSpline
210
0.0
220
0.0
230
1.0
 70
    24
 71
     3
 72
    15
 73
    11
 74
     0
 42
0.00000001
 43
0.00000001
 40
0.0
 40
0.0
 40
0.0
 40
0.0
 40
0.1402563659316715
 40
0.2832097781037616
 40
0.4261631902758519
 40
0.5691166024479434
 40
0.7120700146200336
 40
0.8550234267921238
 40
0.9979768389642152
 40
1.0
 40
1.0
 40
1.0
 40
1.0
 10
25.37682808658333
 20
74.38647289764323
 30
0.0
 10
25.37682808658332
 20
74.36473761614559
 30
0.0
 10
25.37682808658332
 20
74.32084909665429
 30
0.0
 10
25.37682808658333
 20
73.96659384340118
 30
0.0
 10
25.37682808658333
 20
73.41315117627254
 30
0.0
 10
25.37682808658332
 20
72.66171072158386
 30
0.0
 10
25.37682808658332
 20
71.7482790990216
 30
0.0
 10
25.37682808658333
 20
70.70176306551822
 30
0.0
 10
25.3768280865833
 20
69.94865196053607
 30
0.0
 10
25.37682808658332
 20
69.55290401859564
 30
0.0
 10
25.37682808658332
 20
69.54738132069755
 30
0.0
  0
SPLINE
  5
23A
330
1F
100
AcDbEntity
  8
0
  6
Continuous
 62
     7
370
    25
100
AcDbSpline
210
0.0
220
0.0
230
1.0
 70
    24
 71
     3
 72
    15
 73
    11
 74
     0
 42
0.00000001
 43
0.00000001
 40
0.0
 40
0.0
 40
0.0
 40
0.0
 40
0.0008559080695218
 40
0.143590778345304
 40
0.2863256486210862
 40
0.4290605188968697
 40
0.5717953891726519
 40
0.7145302594484342
 40
0.8572651297242176
 40
1.0
 40
1.0
 40
1.0
 40
1.0
 10
25.37682808658332
 20
67.22988279788056
 30
0.0
 10
25.37682808658332
 20
67.22754270522705
 30
0.0
 10
25.37682808658327
 20
66.83495880809886
 30
0.0
 10
25.37682808658335
 20
66.08456152514903
 30
0.0
 10
25.37682808658332
 20
65.03712855878818
 30
0.0
 10
25.37682808658332
 20
64.12247080071057
 30
0.0
 10
25.37682808658333
 20
63.36958989800624
 30
0.0
 10
25.37682808658333
 20
62.81428647975726
 30
0.0
 10
25.37682808658333
 20
62.45657732966967
 30
0.0
 10
25.37682808658333
 20
62.41128179823805
 30
0.0
 10
25.37682808658333
 20
62.38863403252224
 30
0.0
  0
SPLINE
  5
23B
330
1F
100
AcDbEntity
  8
0
  6
Continuous
 62
     7
370
    25
100
AcDbSpline
210
0.0
220
0.0
230
1.0
 70
    24
 71
     3
 72
    15
 73
    11
 74
     0
 42
0.00000001
 43
0.00000001
 40
0.0
 40
0.0
 40
0.0
 40
0.0
 40
0.1425688972637308
 40
0.2851377945274629
 40
0.4277066917911936
 40
0.5702755890549257
 40
0.7128444863186565
 40
0.8554133835823873
 40
0.9979822808461194
 40
1.0
 40
1.0
 40
1.0
 40
1.0
 10
43.66872884303551
 20
62.38863403252224
 30
0.0
 10
43.66872884303551
 20
62.41064483941987
 30
0.0
 10
43.66872884303552
 20
62.45466645321511
 30
0.0
 10
43.66872884303551
 20
62.81053806991194
 30
0.0
 10
43.66872884303551
 20
63.36414836744525
 30
0.0
 10
43.66872884303551
 20
64.11554390170093
 30
0.0
 10
43.6687288430355
 20
65.02898757559053
 30
0.0
 10
43.66872884303554
 20
66.07550032421757
 30
0.0
 10
43.66872884303542
 20
66.8286121597851
 30
0.0
 10
43.66872884303551
 20
67.22436010000628
 30
0.0
 10
43.66872884303551
 20
67.22988279788024
 30
0.0
  0
SPLINE
  5
23C
330
1F
100
AcDbEntity
  8
0
  6
Continuous
 62
     7
370
    25
100
AcDbSpline
210
0.0
220
0.0
230
1.0
 70
    24
 71
     3
 72
    16
 73
    12
 74
     0
 42
0.00000001
 43
0.00000001
 40
0.0
 40
0.0
 40
0.0
 40
0.0
 40
0.0008536093651203
 40
0.143205137921681
 40
0.2855566664782417
 40
0.4279081950348037
 40
0.5702597235913643
 40
0.7126112521479264
 40
0.8549627807044871
 40
0.9973143092610478
 40
1.0
 40
1.0
 40
1.0
 40
1.0
 10
43.66872884303551
 20
69.54738132069784
 30
0.0
 10
43.66872884303551
 20
69.5497214131081
 30
0.0
 10
43.66872884303535
 20
69.94230526944214
 30
0.0
 10
43.66872884303557
 20
70.69274341135964
 30
0.0
 10
43.66872884303549
 20
71.73999257538065
 30
0.0
 10
43.66872884303552
 20
72.65532443757446
 30
0.0
 10
43.66872884303551
 20
73.40569272615383
 30
0.0
 10
43.66872884303551
 20
73.97037249678647
 30
0.0
 10
43.66872884303552
 20
74.29308885146436
 30
0.0
 10
43.6687288430355
 20
74.42669618285092
 30
0.0
 10
43.66872884303551
 20
74.38720418099214
 30
0.0
 10
43.66872884303551
 20
74.38647289764177
 30
0.0
  0
MTEXT
  5
23E
330
1F
100
AcDbEntity
  8
0
  6
Continuous
 62
     7
370
     0
100
AcDbMText
 10
45.8117127925
 20
53.4030885972
 30
0.0
 40
3.5
 41
0.0
 71
     1
 72
     1
  1
三方リングチーズ　RT-3208R
  7
SLDTEXTSTYLE0
 73
     1
 44
1.0
  0
INSERT
  5
24A
330
1F
100
AcDbEntity
  8
0
  6
Continuous
 62
     7
370
    18
100
AcDbBlockReference
  2
SW_CENTERMARKSYMBOL_1
 10
34.5227784648
 20
68.3886320593
 30
0.0
  0
ENDSEC
  0
SECTION
  2
OBJECTS
  0
DICTIONARY
  5
C
330
0
100
AcDbDictionary
281
     1
  3
ACAD_GROUP
350
D
  3
ACAD_LAYOUT
350
1A
  3
ACAD_MLINESTYLE
350
17
  3
ACAD_PLOTSETTINGS
350
19
  3
ACAD_PLOTSTYLENAME
350
E
  3
ACAD_SCALELIST
350
47
  3
DWGPROPS
350
24B
  0
DICTIONARY
  5
D
102
{ACAD_REACTORS
330
C
102
}
330
C
100
AcDbDictionary
281
     1
  0
DICTIONARY
  5
1A
102
{ACAD_REACTORS
330
C
102
}
330
C
100
AcDbDictionary
281
     1
  3
Layout1
350
1E
  3
Layout2
350
26
  3
Model
350
22
  0
DICTIONARY
  5
17
102
{ACAD_REACTORS
330
C
102
}
330
C
100
AcDbDictionary
281
     1
  3
Standard
350
18
  0
DICTIONARY
  5
19
102
{ACAD_REACTORS
330
C
102
}
330
C
100
AcDbDictionary
281
     1
  0
ACDBDICTIONARYWDFLT
  5
E
102
{ACAD_REACTORS
330
C
102
}
330
C
100
AcDbDictionary
281
     1
  3
Normal
350
F
100
AcDbDictionaryWithDefault
340
F
  0
DICTIONARY
  5
47
102
{ACAD_REACTORS
330
C
102
}
330
C
100
AcDbDictionary
281
     1
  3
A0
350
48
  3
A1
350
49
  3
A2
350
4A
  3
A3
350
4B
  3
A4
350
4C
  3
A5
350
4D
  3
A6
350
4E
  3
A7
350
4F
  3
A8
350
50
  3
A9
350
51
  3
B0
350
52
  3
B1
350
53
  3
B2
350
54
  3
B3
350
55
  3
B4
350
56
  3
B5
350
57
  3
B6
350
58
  0
XRECORD
  5
24B
102
{ACAD_REACTORS
330
C
102
}
330
C
100
AcDbXrecord
280
     1
  1
DWGPROPS COOKIE
  2

  3

  4

  6

  7

  8
user52
  9

300
=
301
=
302
=
303
=
304
=
305
=
306
=
307
=
308
=
309
=
 40
0.0
 41
2460279.343089364
 42
2460279.343089838
  1

 90
        0
  0
LAYOUT
  5
1E
102
{ACAD_REACTORS
330
1A
102
}
330
1A
100
AcDbPlotSettings
  1

  2
none_device
  4

  6

 40
0.0
 41
0.0
 42
0.0
 43
0.0
 44
0.0
 45
0.0
 46
0.0
 47
0.0
 48
0.0
 49
0.0
140
0.0
141
0.0
142
1.0
143
1.0
 70
   688
 72
     1
 73
     0
 74
     5
  7

 75
    16
147
1.0
148
0.0
149
0.0
100
AcDbLayout
  1
Layout1
 70
     1
 71
     1
 10
0.0
 20
0.0
 11
420.0
 21
297.0
 12
0.0
 22
0.0
 32
0.0
 14
1.0000000000E+20
 24
1.0000000000E+20
 34
1.0000000000E+20
 15
-1.0000000000E+20
 25
-1.0000000000E+20
 35
-1.0000000000E+20
146
0.0
 13
0.0
 23
0.0
 33
0.0
 16
1.0
 26
0.0
 36
0.0
 17
0.0
 27
1.0
 37
0.0
 76
     0
330
1B
  0
LAYOUT
  5
26
102
{ACAD_REACTORS
330
1A
102
}
330
1A
100
AcDbPlotSettings
  1

  2
none_device
  4

  6

 40
0.0
 41
0.0
 42
0.0
 43
0.0
 44
0.0
 45
0.0
 46
0.0
 47
0.0
 48
0.0
 49
0.0
140
0.0
141
0.0
142
1.0
143
1.0
 70
   688
 72
     1
 73
     0
 74
     5
  7

 75
    16
147
1.0
148
0.0
149
0.0
100
AcDbLayout
  1
Layout2
 70
     1
 71
     2
 10
0.0
 20
0.0
 11
0.0
 21
0.0
 12
0.0
 22
0.0
 32
0.0
 14
0.0
 24
0.0
 34
0.0
 15
0.0
 25
0.0
 35
0.0
146
0.0
 13
0.0
 23
0.0
 33
0.0
 16
1.0
 26
0.0
 36
0.0
 17
0.0
 27
1.0
 37
0.0
 76
     0
330
23
  0
LAYOUT
  5
22
102
{ACAD_REACTORS
330
1A
102
}
330
1A
100
AcDbPlotSettings
  1

  2
none_device
  4
Letter_(8.50_x_11.00_Inches)
  6

 40
6.35
 41
6.35
 42
6.35000508
 43
6.35000508
 44
215.9
 45
279.4
 46
0.0
 47
0.0
 48
0.0
 49
0.0
140
0.0
141
0.0
142
1.0
143
1.0
 70
  1712
 72
     1
 73
     0
 74
     0
  7

 75
     0
147
1.0
148
0.0
149
0.0
100
AcDbLayout
  1
Model
 70
     1
 71
     0
 10
0.0
 20
0.0
 11
431.8
 21
279.4
 12
0.0
 22
0.0
 32
0.0
 14
0.0
 24
0.0
 34
0.0
 15
431.8
 25
279.4
 35
0.0
146
0.0
 13
0.0
 23
0.0
 33
0.0
 16
1.0
 26
0.0
 36
0.0
 17
0.0
 27
1.0
 37
0.0
 76
     0
330
1F
331
29
  0
MLINESTYLE
  5
18
102
{ACAD_REACTORS
330
17
102
}
330
17
100
AcDbMlineStyle
  2
Standard
 70
     0
  3

 62
   256
 51
90.0
 52
90.0
 71
     2
 49
0.5
 62
   256
  6
BYLAYER
 49
-0.5
 62
   256
  6
BYLAYER
  0
ACDBPLACEHOLDER
  5
F
102
{ACAD_REACTORS
330
E
102
}
330
E
  0
SCALE
  5
48
102
{ACAD_REACTORS
330
47
102
}
330
47
100
AcDbScale
 70
     0
300
1:1
140
1.0
141
1.0
290
     1
  0
SCALE
  5
49
102
{ACAD_REACTORS
330
47
102
}
330
47
100
AcDbScale
 70
     0
300
1:2
140
1.0
141
2.0
290
     0
  0
SCALE
  5
4A
102
{ACAD_REACTORS
330
47
102
}
330
47
100
AcDbScale
 70
     0
300
1:4
140
1.0
141
4.0
290
     0
  0
SCALE
  5
4B
102
{ACAD_REACTORS
330
47
102
}
330
47
100
AcDbScale
 70
     0
300
1:5
140
1.0
141
5.0
290
     0
  0
SCALE
  5
4C
102
{ACAD_REACTORS
330
47
102
}
330
47
100
AcDbScale
 70
     0
300
1:8
140
1.0
141
8.0
290
     0
  0
SCALE
  5
4D
102
{ACAD_REACTORS
330
47
102
}
330
47
100
AcDbScale
 70
     0
300
1:10
140
1.0
141
10.0
290
     0
  0
SCALE
  5
4E
102
{ACAD_REACTORS
330
47
102
}
330
47
100
AcDbScale
 70
     0
300
1:16
140
1.0
141
16.0
290
     0
  0
SCALE
  5
4F
102
{ACAD_REACTORS
330
47
102
}
330
47
100
AcDbScale
 70
     0
300
1:20
140
1.0
141
20.0
290
     0
  0
SCALE
  5
50
102
{ACAD_REACTORS
330
47
102
}
330
47
100
AcDbScale
 70
     0
300
1:30
140
1.0
141
30.0
290
     0
  0
SCALE
  5
51
102
{ACAD_REACTORS
330
47
102
}
330
47
100
AcDbScale
 70
     0
300
1:40
140
1.0
141
40.0
290
     0
  0
SCALE
  5
52
102
{ACAD_REACTORS
330
47
102
}
330
47
100
AcDbScale
 70
     0
300
1:50
140
1.0
141
50.0
290
     0
  0
SCALE
  5
53
102
{ACAD_REACTORS
330
47
102
}
330
47
100
AcDbScale
 70
     0
300
1:100
140
1.0
141
100.0
290
     0
  0
SCALE
  5
54
102
{ACAD_REACTORS
330
47
102
}
330
47
100
AcDbScale
 70
     0
300
2:1
140
2.0
141
1.0
290
     0
  0
SCALE
  5
55
102
{ACAD_REACTORS
330
47
102
}
330
47
100
AcDbScale
 70
     0
300
4:1
140
4.0
141
1.0
290
     0
  0
SCALE
  5
56
102
{ACAD_REACTORS
330
47
102
}
330
47
100
AcDbScale
 70
     0
300
8:1
140
8.0
141
1.0
290
     0
  0
SCALE
  5
57
102
{ACAD_REACTORS
330
47
102
}
330
47
100
AcDbScale
 70
     0
300
10:1
140
10.0
141
1.0
290
     0
  0
SCALE
  5
58
102
{ACAD_REACTORS
330
47
102
}
330
47
100
AcDbScale
 70
     0
300
100:1
140
100.0
141
1.0
290
     0
  0
ENDSEC
  0
EOF
