  0
SECTION
  2
HEADER
  9
$ACADVER
  1
AC1015
  9
$ACADMAINTVER
 70
     6
  9
$DWGCODEPAGE
  3
DOS932
  9
$INSBASE
 10
0.0
 20
0.0
 30
0.0
  9
$EXTMIN
 10
0.0
 20
0.0
 30
0.0
  9
$EXTMAX
 10
215.9
 20
139.7
 30
0.0
  9
$LIMMIN
 10
0.0
 20
0.0
  9
$LIMMAX
 10
215.9
 20
139.7
  9
$ORTHOMODE
 70
     0
  9
$REGENMODE
 70
     1
  9
$FILLMODE
 70
     1
  9
$QTEXTMODE
 70
     0
  9
$MIRRTEXT
 70
     1
  9
$LTSCALE
 40
0.5
  9
$ATTMODE
 70
     1
  9
$TEXTSIZE
 40
1.75
  9
$TRACEWID
 40
1.0
  9
$TEXTSTYLE
  7
Standard
  9
$CLAYER
  8
0
  9
$CELTYPE
  6
ByLayer
  9
$CECOLOR
 62
   256
  9
$CELTSCALE
 40
1.0
  9
$DISPSILH
 70
     0
  9
$DIMSCALE
 40
1.0
  9
$DIMASZ
 40
1.778
  9
$DIMEXO
 40
0.5
  9
$DIMDLI
 40
3.75
  9
$DIMRND
 40
0.0
  9
$DIMDLE
 40
0.0
  9
$DIMEXE
 40
0.5
  9
$DIMTP
 40
0.0
  9
$DIMTM
 40
0.0
  9
$DIMTXT
 40
1.75
  9
$DIMCEN
 40
2.5
  9
$DIMTSZ
 40
0.0
  9
$DIMTOL
 70
     0
  9
$DIMLIM
 70
     0
  9
$DIMTIH
 70
     1
  9
$DIMTOH
 70
     1
  9
$DIMSE1
 70
     0
  9
$DIMSE2
 70
     0
  9
$DIMTAD
 70
     1
  9
$DIMZIN
 70
     0
  9
$DIMBLK
  1

  9
$DIMASO
 70
     1
  9
$DIMSHO
 70
     1
  9
$DIMPOST
  1

  9
$DIMAPOST
  1

  9
$DIMALT
 70
     0
  9
$DIMALTD
 70
     3
  9
$DIMALTF
 40
0.0393700787
  9
$DIMLFAC
 40
1.0
  9
$DIMTOFL
 70
     1
  9
$DIMTVP
 40
0.0
  9
$DIMTIX
 70
     0
  9
$DIMSOXD
 70
     0
  9
$DIMSAH
 70
     0
  9
$DIMBLK1
  1

  9
$DIMBLK2
  1

  9
$DIMSTYLE
  2
ISO-25
  9
$DIMCLRD
 70
     0
  9
$DIMCLRE
 70
     0
  9
$DIMCLRT
 70
     0
  9
$DIMTFAC
 40
1.0
  9
$DIMGAP
 40
0.762
  9
$DIMJUST
 70
     0
  9
$DIMSD1
 70
     0
  9
$DIMSD2
 70
     0
  9
$DIMTOLJ
 70
     0
  9
$DIMTZIN
 70
     0
  9
$DIMALTZ
 70
     0
  9
$DIMALTTZ
 70
     0
  9
$DIMUPT
 70
     0
  9
$DIMDEC
 70
     3
  9
$DIMTDEC
 70
     3
  9
$DIMALTU
 70
     2
  9
$DIMALTTD
 70
     3
  9
$DIMTXSTY
  7
Standard
  9
$DIMAUNIT
 70
     0
  9
$DIMADEC
 70
     2
  9
$DIMALTRND
 40
0.0
  9
$DIMAZIN
 70
     0
  9
$DIMDSEP
 70
    44
  9
$DIMATFIT
 70
     3
  9
$DIMFRAC
 70
     0
  9
$DIMLDRBLK
  1

  9
$DIMLUNIT
 70
     2
  9
$DIMLWD
 70
    -2
  9
$DIMLWE
 70
    -2
  9
$DIMTMOVE
 70
     0
  9
$LUNITS
 70
     2
  9
$LUPREC
 70
     3
  9
$SKETCHINC
 40
1.0
  9
$FILLETRAD
 40
0.0
  9
$AUNITS
 70
     0
  9
$AUPREC
 70
     2
  9
$MENU
  1
.
  9
$ELEVATION
 40
0.0
  9
$PELEVATION
 40
0.0
  9
$THICKNESS
 40
0.0
  9
$LIMCHECK
 70
     0
  9
$CHAMFERA
 40
0.0
  9
$CHAMFERB
 40
0.0
  9
$CHAMFERC
 40
0.0
  9
$CHAMFERD
 40
0.0
  9
$SKPOLY
 70
     0
  9
$TDCREATE
 40
2460279.715540764
  9
$TDUCREATE
 40
2460279.340540764
  9
$TDUPDATE
 40
2460279.7155411
  9
$TDUUPDATE
 40
2460279.3405411
  9
$TDINDWG
 40
0.0000000116
  9
$TDUSRTIMER
 40
0.0000000116
  9
$USRTIMER
 70
     1
  9
$ANGBASE
 50
0.0
  9
$ANGDIR
 70
     0
  9
$PDMODE
 70
     0
  9
$PDSIZE
 40
-1.0
  9
$PLINEWID
 40
0.0
  9
$SPLFRAME
 70
     0
  9
$SPLINETYPE
 70
     6
  9
$SPLINESEGS
 70
     8
  9
$HANDSEED
  5
162
  9
$SURFTAB1
 70
     6
  9
$SURFTAB2
 70
     6
  9
$SURFTYPE
 70
     6
  9
$SURFU
 70
     6
  9
$SURFV
 70
     6
  9
$UCSBASE
  2

  9
$UCSNAME
  2

  9
$UCSORG
 10
0.0
 20
0.0
 30
0.0
  9
$UCSXDIR
 10
1.0
 20
0.0
 30
0.0
  9
$UCSYDIR
 10
0.0
 20
1.0
 30
0.0
  9
$UCSORTHOREF
  2

  9
$UCSORTHOVIEW
 70
     0
  9
$UCSORGTOP
 10
0.0
 20
0.0
 30
0.0
  9
$UCSORGBOTTOM
 10
0.0
 20
0.0
 30
0.0
  9
$UCSORGLEFT
 10
0.0
 20
0.0
 30
0.0
  9
$UCSORGRIGHT
 10
0.0
 20
0.0
 30
0.0
  9
$UCSORGFRONT
 10
0.0
 20
0.0
 30
0.0
  9
$UCSORGBACK
 10
0.0
 20
0.0
 30
0.0
  9
$PUCSBASE
  2

  9
$PUCSNAME
  2

  9
$PUCSORG
 10
0.0
 20
0.0
 30
0.0
  9
$PUCSXDIR
 10
1.0
 20
0.0
 30
0.0
  9
$PUCSYDIR
 10
0.0
 20
1.0
 30
0.0
  9
$PUCSORTHOREF
  2

  9
$PUCSORTHOVIEW
 70
     0
  9
$PUCSORGTOP
 10
0.0
 20
0.0
 30
0.0
  9
$PUCSORGBOTTOM
 10
0.0
 20
0.0
 30
0.0
  9
$PUCSORGLEFT
 10
0.0
 20
0.0
 30
0.0
  9
$PUCSORGRIGHT
 10
0.0
 20
0.0
 30
0.0
  9
$PUCSORGFRONT
 10
0.0
 20
0.0
 30
0.0
  9
$PUCSORGBACK
 10
0.0
 20
0.0
 30
0.0
  9
$USERI1
 70
     0
  9
$USERI2
 70
     0
  9
$USERI3
 70
     0
  9
$USERI4
 70
     0
  9
$USERI5
 70
     0
  9
$USERR1
 40
0.0
  9
$USERR2
 40
0.0
  9
$USERR3
 40
0.0
  9
$USERR4
 40
0.0
  9
$USERR5
 40
0.0
  9
$WORLDVIEW
 70
     1
  9
$SHADEDGE
 70
     3
  9
$SHADEDIF
 70
    70
  9
$TILEMODE
 70
     1
  9
$MAXACTVP
 70
    64
  9
$PINSBASE
 10
0.0
 20
0.0
 30
0.0
  9
$PLIMCHECK
 70
     0
  9
$PEXTMIN
 10
1.0000000000E+20
 20
1.0000000000E+20
 30
1.0000000000E+20
  9
$PEXTMAX
 10
-1.0000000000E+20
 20
-1.0000000000E+20
 30
-1.0000000000E+20
  9
$PLIMMIN
 10
0.0
 20
0.0
  9
$PLIMMAX
 10
420.0
 20
297.0
  9
$UNITMODE
 70
     0
  9
$VISRETAIN
 70
     1
  9
$PLINEGEN
 70
     0
  9
$PSLTSCALE
 70
     1
  9
$TREEDEPTH
 70
  3020
  9
$CMLSTYLE
  2
Standard
  9
$CMLJUST
 70
     0
  9
$CMLSCALE
 40
20.0
  9
$PROXYGRAPHICS
 70
     1
  9
$MEASUREMENT
 70
     1
  9
$CELWEIGHT
370
    -1
  9
$ENDCAPS
280
     0
  9
$JOINSTYLE
280
     0
  9
$LWDISPLAY
290
     1
  9
$INSUNITS
 70
     4
  9
$HYPERLINKBASE
  1

  9
$STYLESHEET
  1

  9
$XEDIT
290
     1
  9
$CEPSNTYPE
380
     0
  9
$PSTYLEMODE
290
     1
  9
$FINGERPRINTGUID
  2
{c7174b2e-12b2-4089-abb1-0adbe0dace70}
  9
$VERSIONGUID
  2
{FAEB1C32-E019-11D5-929B-00C0DF256EC4}
  9
$EXTNAMES
290
     1
  9
$PSVPSCALE
 40
0.0
  9
$OLESTARTUP
290
     0
  0
ENDSEC
  0
SECTION
  2
CLASSES
  0
CLASS
  1
ACDBDICTIONARYWDFLT
  2
AcDbDictionaryWithDefault
  3
ObjectDBX Classes
 90
        0
280
     0
281
     0
  0
CLASS
  1
VISUALSTYLE
  2
AcDbVisualStyle
  3
ObjectDBX Classes
 90
     4095
280
     0
281
     0
  0
CLASS
  1
MATERIAL
  2
AcDbMaterial
  3
ObjectDBX Classes
 90
     1153
280
     0
281
     0
  0
CLASS
  1
SCALE
  2
AcDbScale
  3
ObjectDBX Classes
 90
     1153
280
     0
281
     0
  0
CLASS
  1
TABLESTYLE
  2
AcDbTableStyle
  3
ObjectDBX Classes
 90
     4095
280
     0
281
     0
  0
CLASS
  1
MLEADERSTYLE
  2
AcDbMLeaderStyle
  3
ACDB_MLEADERSTYLE_CLASS
 90
     4095
280
     0
281
     0
  0
CLASS
  1
SUN
  2
AcDbSun
  3
SCENEOE
 90
     1153
280
     0
281
     0
  0
CLASS
  1
ACDBPLACEHOLDER
  2
AcDbPlaceHolder
  3
ObjectDBX Classes
 90
        0
280
     0
281
     0
  0
CLASS
  1
LAYOUT
  2
AcDbLayout
  3
ObjectDBX Classes
 90
        0
280
     0
281
     0
  0
ENDSEC
  0
SECTION
  2
TABLES
  0
TABLE
  2
VPORT
  5
8
330
0
100
AcDbSymbolTable
 70
     1
  0
VPORT
  5
29
330
8
100
AcDbSymbolTableRecord
100
AcDbViewportTableRecord
  2
*Active
 70
     0
 10
0.0
 20
0.0
 11
1.0
 21
1.0
 12
107.95
 22
69.85
 13
0.0
 23
0.0
 14
10.0
 24
10.0
 15
10.0
 25
10.0
 16
0.0
 26
0.0
 36
1.0
 17
0.0
 27
0.0
 37
0.0
 40
139.7
 41
1.5454545455
 42
50.0
 43
0.0
 44
0.0
 50
0.0
 51
0.0
 71
     0
 72
  2000
 73
     1
 74
     3
 75
     0
 76
     0
 77
     0
 78
     0
281
     0
 65
     1
110
0.0
120
0.0
130
0.0
111
1.0
121
0.0
131
0.0
112
0.0
122
1.0
132
0.0
 79
     0
146
0.0
  0
ENDTAB
  0
TABLE
  2
LTYPE
  5
5
330
0
100
AcDbSymbolTable
 70
     6
  0
LTYPE
  5
14
330
5
100
AcDbSymbolTableRecord
100
AcDbLinetypeTableRecord
  2
ByBlock
 70
     0
  3

 72
    65
 73
     0
 40
0.0
  0
LTYPE
  5
15
330
5
100
AcDbSymbolTableRecord
100
AcDbLinetypeTableRecord
  2
ByLayer
 70
     0
  3

 72
    65
 73
     0
 40
0.0
  0
LTYPE
  5
16
330
5
100
AcDbSymbolTableRecord
100
AcDbLinetypeTableRecord
  2
Continuous
 70
     0
  3
Solid line
 72
    65
 73
     0
 40
0.0
  0
LTYPE
  5
5E
330
5
100
AcDbSymbolTableRecord
100
AcDbLinetypeTableRecord
  2
HIDDEN
 70
     0
  3
Hidden __ __ __ __ __ __ __ __ __ __ __ __ __ __
 72
    65
 73
     2
 40
1.905
 49
1.27
 74
     0
 49
-0.635
 74
     0
  0
LTYPE
  5
5F
330
5
100
AcDbSymbolTableRecord
100
AcDbLinetypeTableRecord
  2
PHANTOM
 70
     0
  3
Phantom ______  __  __  ______  __  __  ______
 72
    65
 73
     6
 40
12.7
 49
6.35
 74
     0
 49
-1.27
 74
     0
 49
1.27
 74
     0
 49
-1.27
 74
     0
 49
1.27
 74
     0
 49
-1.27
 74
     0
  0
LTYPE
  5
60
330
5
100
AcDbSymbolTableRecord
100
AcDbLinetypeTableRecord
  2
CENTER
 70
     0
  3
Center ____ _ ____ _ ____ _ ____ _ ____ _ ____
 72
    65
 73
     4
 40
10.16
 49
6.35
 74
     0
 49
-1.27
 74
     0
 49
1.27
 74
     0
 49
-1.27
 74
     0
  0
LTYPE
  5
61
330
5
100
AcDbSymbolTableRecord
100
AcDbLinetypeTableRecord
  2
CENTERX2
 70
     0
  3
Center (2x) ________  __  ________  __  _____
 72
    65
 73
     4
 40
20.32
 49
12.7
 74
     0
 49
-2.54
 74
     0
 49
2.54
 74
     0
 49
-2.54
 74
     0
  0
LTYPE
  5
62
330
5
100
AcDbSymbolTableRecord
100
AcDbLinetypeTableRecord
  2
DOT2
 70
     0
  3
Dot (.5x) ........................................
 72
    65
 73
     2
 40
0.635
 49
0.0
 74
     0
 49
-0.635
 74
     0
  0
ENDTAB
  0
TABLE
  2
LAYER
  5
2
330
0
100
AcDbSymbolTable
 70
     1
  0
LAYER
  5
10
330
2
100
AcDbSymbolTableRecord
100
AcDbLayerTableRecord
  2
0
 70
     0
 62
     7
  6
Continuous
370
    -3
390
F
  0
ENDTAB
  0
TABLE
  2
STYLE
  5
3
330
0
100
AcDbSymbolTable
 70
     2
  0
STYLE
  5
11
330
3
100
AcDbSymbolTableRecord
100
AcDbTextStyleTableRecord
  2
Standard
 70
     0
 40
0.0
 41
1.0
 50
0.0
 71
     0
 42
1.75
  3
txt
  4
bigfont
  0
STYLE
  5
153
330
3
100
AcDbSymbolTableRecord
100
AcDbTextStyleTableRecord
  2
SLDTEXTSTYLE0
 70
     0
 40
0.0
 41
0.75
 50
0.0
 71
     0
 42
1.75
  3
TXT
  4
bigfont
  0
ENDTAB
  0
TABLE
  2
VIEW
  5
6
330
0
100
AcDbSymbolTable
 70
     0
  0
ENDTAB
  0
TABLE
  2
UCS
  5
7
330
0
100
AcDbSymbolTable
 70
     0
  0
ENDTAB
  0
TABLE
  2
APPID
  5
9
330
0
100
AcDbSymbolTable
 70
     1
  0
APPID
  5
12
330
9
100
AcDbSymbolTableRecord
100
AcDbRegAppTableRecord
  2
ACAD
 70
     0
  0
ENDTAB
  0
TABLE
  2
DIMSTYLE
  5
A
330
0
100
AcDbSymbolTable
 70
     1
100
AcDbDimStyleTable
  0
DIMSTYLE
105
27
330
A
100
AcDbSymbolTableRecord
100
AcDbDimStyleTableRecord
  2
ISO-25
 70
     0
 41
2.5
 42
0.625
 43
3.75
 44
1.25
 73
     0
 74
     0
 77
     1
 78
     8
140
2.5
141
2.5
143
0.0393700787
147
0.625
171
     3
172
     1
178
     0
271
     2
272
     2
274
     3
278
    44
283
     0
284
     8
340
11
  0
ENDTAB
  0
TABLE
  2
BLOCK_RECORD
  5
1
330
0
100
AcDbSymbolTable
 70
     3
  0
BLOCK_RECORD
  5
1F
330
1
100
AcDbSymbolTableRecord
100
AcDbBlockTableRecord
  2
*Model_Space
340
22
  0
BLOCK_RECORD
  5
1B
330
1
100
AcDbSymbolTableRecord
100
AcDbBlockTableRecord
  2
*Paper_Space
340
1E
  0
BLOCK_RECORD
  5
23
330
1
100
AcDbSymbolTableRecord
100
AcDbBlockTableRecord
  2
*Paper_Space0
340
26
  0
BLOCK_RECORD
  5
F9
330
1
100
AcDbSymbolTableRecord
100
AcDbBlockTableRecord
  2
SW_CENTERMARKSYMBOL_0
340
0
102
{BLKREFS
331
104
102
}
  0
BLOCK_RECORD
  5
155
330
1
100
AcDbSymbolTableRecord
100
AcDbBlockTableRecord
  2
SW_CENTERMARKSYMBOL_1
340
0
102
{BLKREFS
331
160
102
}
  0
ENDTAB
  0
ENDSEC
  0
SECTION
  2
BLOCKS
  0
BLOCK
  5
20
330
1F
100
AcDbEntity
  8
0
100
AcDbBlockBegin
  2
*Model_Space
 70
     0
 10
0.0
 20
0.0
 30
0.0
  3
*Model_Space
  1

  0
ENDBLK
  5
21
330
1F
100
AcDbEntity
  8
0
100
AcDbBlockEnd
  0
BLOCK
  5
1C
330
1B
100
AcDbEntity
 67
     1
  8
0
100
AcDbBlockBegin
  2
*Paper_Space
 70
     0
 10
0.0
 20
0.0
 30
0.0
  3
*Paper_Space
  1

  0
ENDBLK
  5
1D
330
1B
100
AcDbEntity
 67
     1
  8
0
100
AcDbBlockEnd
  0
BLOCK
  5
24
330
23
100
AcDbEntity
  8
0
100
AcDbBlockBegin
  2
*Paper_Space0
 70
     0
 10
0.0
 20
0.0
 30
0.0
  3
*Paper_Space0
  1

  0
ENDBLK
  5
25
330
23
100
AcDbEntity
  8
0
100
AcDbBlockEnd
  0
BLOCK
  5
FA
330
F9
100
AcDbEntity
  8
0
100
AcDbBlockBegin
  2
SW_CENTERMARKSYMBOL_0
 70
     0
 10
0.0
 20
0.0
 30
0.0
  3
SW_CENTERMARKSYMBOL_0
  1

  0
LINE
  5
FC
330
F9
100
AcDbEntity
  8
0
  6
Continuous
 62
     0
370
    18
100
AcDbLine
 10
0.0
 20
0.0
 30
0.0
 11
0.0
 21
2.5
 31
0.0
  0
LINE
  5
FD
330
F9
100
AcDbEntity
  8
0
  6
Continuous
 62
     0
370
    18
100
AcDbLine
 10
0.0
 20
0.0
 30
0.0
 11
-2.5
 21
0.0
 31
0.0
  0
LINE
  5
FE
330
F9
100
AcDbEntity
  8
0
  6
Continuous
 62
     0
370
    18
100
AcDbLine
 10
0.0
 20
0.0
 30
0.0
 11
0.0
 21
-2.5
 31
0.0
  0
LINE
  5
FF
330
F9
100
AcDbEntity
  8
0
  6
Continuous
 62
     0
370
    18
100
AcDbLine
 10
0.0
 20
0.0
 30
0.0
 11
2.5
 21
0.0
 31
0.0
  0
LINE
  5
100
330
F9
100
AcDbEntity
  8
0
  6
Continuous
 62
     0
370
    18
100
AcDbLine
 10
0.0
 20
5.0
 30
0.0
 11
0.0
 21
21.3001455363
 31
0.0
  0
LINE
  5
101
330
F9
100
AcDbEntity
  8
0
  6
Continuous
 62
     0
370
    18
100
AcDbLine
 10
-5.0
 20
0.0
 30
0.0
 11
-8.25
 21
0.0
 31
0.0
  0
LINE
  5
102
330
F9
100
AcDbEntity
  8
0
  6
Continuous
 62
     0
370
    18
100
AcDbLine
 10
0.0
 20
-5.0
 30
0.0
 11
0.0
 21
-8.25
 31
0.0
  0
LINE
  5
103
330
F9
100
AcDbEntity
  8
0
  6
Continuous
 62
     0
370
    18
100
AcDbLine
 10
5.0
 20
0.0
 30
0.0
 11
8.25
 21
0.0
 31
0.0
  0
ENDBLK
  5
FB
330
F9
100
AcDbEntity
  8
0
100
AcDbBlockEnd
  0
BLOCK
  5
156
330
155
100
AcDbEntity
  8
0
100
AcDbBlockBegin
  2
SW_CENTERMARKSYMBOL_1
 70
     0
 10
0.0
 20
0.0
 30
0.0
  3
SW_CENTERMARKSYMBOL_1
  1

  0
LINE
  5
158
330
155
100
AcDbEntity
  8
0
  6
Continuous
 62
     0
370
    18
100
AcDbLine
 10
0.0
 20
0.0
 30
0.0
 11
0.0
 21
2.5
 31
0.0
  0
LINE
  5
159
330
155
100
AcDbEntity
  8
0
  6
Continuous
 62
     0
370
    18
100
AcDbLine
 10
0.0
 20
0.0
 30
0.0
 11
-2.5
 21
0.0
 31
0.0
  0
LINE
  5
15A
330
155
100
AcDbEntity
  8
0
  6
Continuous
 62
     0
370
    18
100
AcDbLine
 10
0.0
 20
0.0
 30
0.0
 11
0.0
 21
-2.5
 31
0.0
  0
LINE
  5
15B
330
155
100
AcDbEntity
  8
0
  6
Continuous
 62
     0
370
    18
100
AcDbLine
 10
0.0
 20
0.0
 30
0.0
 11
2.5
 21
0.0
 31
0.0
  0
LINE
  5
15C
330
155
100
AcDbEntity
  8
0
  6
Continuous
 62
     0
370
    18
100
AcDbLine
 10
0.0
 20
5.0
 30
0.0
 11
0.0
 21
8.25
 31
0.0
  0
LINE
  5
15D
330
155
100
AcDbEntity
  8
0
  6
Continuous
 62
     0
370
    18
100
AcDbLine
 10
-5.0
 20
0.0
 30
0.0
 11
-21.1582241032
 21
0.0
 31
0.0
  0
LINE
  5
15E
330
155
100
AcDbEntity
  8
0
  6
Continuous
 62
     0
370
    18
100
AcDbLine
 10
0.0
 20
-5.0
 30
0.0
 11
0.0
 21
-8.25
 31
0.0
  0
LINE
  5
15F
330
155
100
AcDbEntity
  8
0
  6
Continuous
 62
     0
370
    18
100
AcDbLine
 10
5.0
 20
0.0
 30
0.0
 11
22.2226930997
 21
0.0
 31
0.0
  0
ENDBLK
  5
157
330
155
100
AcDbEntity
  8
0
100
AcDbBlockEnd
  0
ENDSEC
  0
SECTION
  2
ENTITIES
  0
LINE
  5
63
330
1F
100
AcDbEntity
  8
0
  6
Continuous
 62
     7
370
    25
100
AcDbLine
 10
35.2337603785
 20
21.081252156
 30
0.0
 11
34.5535244264
 21
19.9030489258
 31
0.0
  0
LINE
  5
64
330
1F
100
AcDbEntity
  8
0
  6
Continuous
 62
     7
370
    25
100
AcDbLine
 10
34.5535244264
 20
8.4030489258
 30
0.0
 11
35.2337603785
 21
7.2248456955
 31
0.0
  0
LINE
  5
65
330
1F
100
AcDbEntity
  8
0
  6
Continuous
 62
     7
370
    25
100
AcDbLine
 10
44.8732884742
 20
7.2248456955
 30
0.0
 11
45.5535244264
 21
8.4030489258
 31
0.0
  0
LINE
  5
66
330
1F
100
AcDbEntity
  8
0
  6
Continuous
 62
     7
370
    25
100
AcDbLine
 10
45.5535244264
 20
19.9030489258
 30
0.0
 11
44.8732884742
 21
21.081252156
 31
0.0
  0
LINE
  5
67
330
1F
100
AcDbEntity
  8
0
  6
Continuous
 62
     7
370
    25
100
AcDbLine
 10
18.8769872459
 20
23.5816188281
 30
0.0
 11
20.0551904762
 21
22.9013828759
 31
0.0
  0
LINE
  5
68
330
1F
100
AcDbEntity
  8
0
  6
Continuous
 62
     7
370
    25
100
AcDbLine
 10
31.5551904762
 20
22.9013828759
 30
0.0
 11
32.7333937065
 21
23.5816188281
 31
0.0
  0
LINE
  5
69
330
1F
100
AcDbEntity
  8
0
  6
Continuous
 62
     7
370
    25
100
AcDbLine
 10
32.7333937065
 20
33.2211469238
 30
0.0
 11
31.5551904762
 21
33.9013828759
 31
0.0
  0
LINE
  5
6A
330
1F
100
AcDbEntity
  8
0
  6
Continuous
 62
     7
370
    25
100
AcDbLine
 10
20.0551904762
 20
33.9013828759
 30
0.0
 11
18.8769872459
 21
33.2211469238
 31
0.0
  0
LINE
  5
6B
330
1F
100
AcDbEntity
  8
0
  6
Continuous
 62
     7
370
    25
100
AcDbLine
 10
6.7370924782
 20
21.081252156
 30
0.0
 11
6.056856526
 21
19.9030489258
 31
0.0
  0
LINE
  5
6C
330
1F
100
AcDbEntity
  8
0
  6
Continuous
 62
     7
370
    25
100
AcDbLine
 10
6.056856526
 20
8.4030489258
 30
0.0
 11
6.7370924782
 21
7.2248456955
 31
0.0
  0
LINE
  5
6D
330
1F
100
AcDbEntity
  8
0
  6
Continuous
 62
     7
370
    25
100
AcDbLine
 10
16.3766205739
 20
7.2248456955
 30
0.0
 11
17.056856526
 21
8.4030489258
 31
0.0
  0
LINE
  5
6E
330
1F
100
AcDbEntity
  8
0
  6
Continuous
 62
     7
370
    25
100
AcDbLine
 10
17.056856526
 20
19.9030489258
 30
0.0
 11
16.3766205739
 21
21.081252156
 31
0.0
  0
LINE
  5
6F
330
1F
100
AcDbEntity
  8
0
  6
Continuous
 62
     7
370
    25
100
AcDbLine
 10
20.9411904762
 20
22.9013828759
 30
0.0
 11
20.9411904762
 21
22.1530489258
 31
0.0
  0
LINE
  5
70
330
1F
100
AcDbEntity
  8
0
  6
Continuous
 62
     7
370
    25
100
AcDbLine
 10
30.6691904762
 20
22.1530489258
 30
0.0
 11
30.6691904762
 21
22.9013828759
 31
0.0
  0
LINE
  5
71
330
1F
100
AcDbEntity
  8
0
  6
Continuous
 62
     7
370
    25
100
AcDbLine
 10
34.5535244264
 20
19.0170489258
 30
0.0
 11
33.8051904762
 21
19.0170489258
 31
0.0
  0
LINE
  5
72
330
1F
100
AcDbEntity
  8
0
  6
Continuous
 62
     7
370
    25
100
AcDbLine
 10
33.8051904762
 20
9.2890489258
 30
0.0
 11
34.5535244264
 21
9.2890489258
 31
0.0
  0
LINE
  5
73
330
1F
100
AcDbEntity
  8
0
  6
Continuous
 62
     7
370
    25
100
AcDbLine
 10
17.056856526
 20
9.2890489258
 30
0.0
 11
17.8051904762
 21
9.2890489258
 31
0.0
  0
LINE
  5
74
330
1F
100
AcDbEntity
  8
0
  6
Continuous
 62
     7
370
    25
100
AcDbLine
 10
17.8051904762
 20
19.0170489258
 30
0.0
 11
17.056856526
 21
19.0170489258
 31
0.0
  0
ARC
  5
75
330
1F
100
AcDbEntity
  8
0
  6
Continuous
 62
     7
370
    25
100
AcDbCircle
 10
33.5051904762
 20
18.9530489258
 30
0.0
 40
0.2999999999999972
100
AcDbArc
 50
270.0
 51
0.0
  0
ARC
  5
76
330
1F
100
AcDbEntity
  8
0
  6
Continuous
 62
     7
370
    25
100
AcDbCircle
 10
33.5051904762
 20
9.3530489258
 30
0.0
 40
0.2999999999999989
100
AcDbArc
 50
0.0
 51
90.0
  0
ARC
  5
77
330
1F
100
AcDbEntity
  8
0
  6
Continuous
 62
     7
370
    25
100
AcDbCircle
 10
21.0051904762
 20
21.8530489258
 30
0.0
 40
0.3000000000000043
100
AcDbArc
 50
0.0
 51
90.0
  0
ARC
  5
78
330
1F
100
AcDbEntity
  8
0
  6
Continuous
 62
     7
370
    25
100
AcDbCircle
 10
30.6051904762
 20
21.8530489258
 30
0.0
 40
0.3000000000000043
100
AcDbArc
 50
90.0
 51
180.0
  0
ARC
  5
79
330
1F
100
AcDbEntity
  8
0
  6
Continuous
 62
     7
370
    25
100
AcDbCircle
 10
18.1051904762
 20
9.3530489258
 30
0.0
 40
0.2999999999999989
100
AcDbArc
 50
90.0
 51
180.0
  0
ARC
  5
7A
330
1F
100
AcDbEntity
  8
0
  6
Continuous
 62
     7
370
    25
100
AcDbCircle
 10
18.1051904762
 20
18.9530489258
 30
0.0
 40
0.2999999999999972
100
AcDbArc
 50
180.0
 51
270.0
  0
LINE
  5
7B
330
1F
100
AcDbEntity
  8
0
  6
Continuous
 62
     7
370
    25
100
AcDbLine
 10
30.3051904762
 20
18.6530489258
 30
0.0
 11
30.3051904762
 21
21.8530489258
 31
0.0
  0
LINE
  5
7C
330
1F
100
AcDbEntity
  8
0
  6
Continuous
 62
     7
370
    25
100
AcDbLine
 10
21.3051904762
 20
21.8530489258
 30
0.0
 11
21.3051904762
 21
18.6530489258
 31
0.0
  0
LINE
  5
7D
330
1F
100
AcDbEntity
  8
0
  6
Continuous
 62
     7
370
    25
100
AcDbLine
 10
18.1051904762
 20
9.6530489258
 30
0.0
 11
33.5051904762
 21
9.6530489258
 31
0.0
  0
LINE
  5
7E
330
1F
100
AcDbEntity
  8
0
  6
Continuous
 62
     7
370
    25
100
AcDbLine
 10
21.3051904762
 20
18.6530489258
 30
0.0
 11
18.1051904762
 21
18.6530489258
 31
0.0
  0
LINE
  5
7F
330
1F
100
AcDbEntity
  8
0
  6
Continuous
 62
     7
370
    25
100
AcDbLine
 10
33.5051904762
 20
18.6530489258
 30
0.0
 11
30.3051904762
 21
18.6530489258
 31
0.0
  0
SPLINE
  5
80
330
1F
100
AcDbEntity
  8
0
  6
Continuous
 62
     7
370
    25
100
AcDbSpline
210
0.0
220
0.0
230
1.0
 70
     8
 71
     3
 72
    14
 73
    10
 74
     0
 42
0.00000001
 43
0.00000001
 40
0.0
 40
0.0
 40
0.0
 40
0.0
 40
0.1130365596479643
 40
0.2387323803158952
 40
0.3643957373223404
 40
0.4931513148444793
 40
0.6219054017852821
 40
0.8108726789324989
 40
1.0
 40
1.0
 40
1.0
 40
1.0
 10
35.23376037851059
 20
10.68894731063411
 30
0.0
 10
35.16350402651212
 20
10.94447983761732
 30
0.0
 10
35.01512312924191
 20
11.48416265001736
 30
0.0
 10
34.84560791602611
 20
12.32214334820154
 30
0.0
 10
34.72806350243107
 20
13.20614156072342
 30
0.0
 10
34.68525315883883
 20
14.10453826660912
 30
0.0
 10
34.72611168556142
 20
15.15132219135775
 30
0.0
 10
34.89252592299116
 20
16.33128478450094
 30
0.0
 10
35.11998346645122
 20
17.18840768472778
 30
0.0
 10
35.23376037851058
 20
17.61715054090963
 30
0.0
  0
LINE
  5
81
330
1F
100
AcDbEntity
  8
0
  6
Continuous
 62
     7
370
    25
100
AcDbLine
 10
35.2337603785
 20
17.6171505409
 30
0.0
 11
44.8732884742
 21
17.6171505409
 31
0.0
  0
SPLINE
  5
82
330
1F
100
AcDbEntity
  8
0
  6
Continuous
 62
     7
370
    25
100
AcDbSpline
210
0.0
220
0.0
230
1.0
 70
     8
 71
     3
 72
    14
 73
    10
 74
     0
 42
0.00000001
 43
0.00000001
 40
0.0
 40
0.0
 40
0.0
 40
0.0
 40
0.1130358674256962
 40
0.2387309183475703
 40
0.3643935058067621
 40
0.4931482948452618
 40
0.6219015933115536
 40
0.8099221489291574
 40
1.0
 40
1.0
 40
1.0
 40
1.0
 10
44.87328847419128
 20
10.68894731063411
 30
0.0
 10
44.94354469921339
 20
10.94447981805854
 30
0.0
 10
45.0919253283105
 20
11.48416258915057
 30
0.0
 10
45.2614427257203
 20
12.32214362377673
 30
0.0
 10
45.37897859750695
 20
13.20614052056253
 30
0.0
 10
45.42182158935472
 20
14.10454225541702
 30
0.0
 10
45.38090834470569
 20
15.14908749394083
 30
0.0
 10
45.2156238901298
 20
16.32920855045856
 30
0.0
 10
44.98781346413657
 20
17.18628205158856
 30
0.0
 10
44.87328847419128
 20
17.61715054090963
 30
0.0
  0
LINE
  5
83
330
1F
100
AcDbEntity
  8
0
  6
Continuous
 62
     7
370
    25
100
AcDbLine
 10
35.2337603785
 20
10.6889473106
 30
0.0
 11
44.8732884742
 21
10.6889473106
 31
0.0
  0
SPLINE
  5
84
330
1F
100
AcDbEntity
  8
0
  6
Continuous
 62
     7
370
    25
100
AcDbSpline
210
0.0
220
0.0
230
1.0
 70
     8
 71
     3
 72
    14
 73
    10
 74
     0
 42
0.00000001
 43
0.00000001
 40
0.0
 40
0.0
 40
0.0
 40
0.0
 40
0.1320388233743715
 40
0.2645921498218152
 40
0.3993056464371222
 40
0.5350449852775292
 40
0.6499418619038163
 40
0.7654696844438669
 40
1.0
 40
1.0
 40
1.0
 40
1.0
 10
35.23376037851059
 20
7.224845695496293
 30
0.0
 10
35.15231401518776
 20
7.374190275390488
 30
0.0
 10
34.98910392427644
 20
7.673461371940644
 30
0.0
 10
34.81400775357121
 20
8.133737689312612
 30
0.0
 10
34.70742871563486
 20
8.603551715341414
 30
0.0
 10
34.68705379354927
 20
9.055801858038171
 30
0.0
 10
34.74154608487648
 20
9.484407249372579
 30
0.0
 10
34.8864068092884
 20
10.02524904191955
 30
0.0
 10
35.09440603155032
 20
10.42267902664186
 30
0.0
 10
35.23376037851058
 20
10.68894731063411
 30
0.0
  0
SPLINE
  5
85
330
1F
100
AcDbEntity
  8
0
  6
Continuous
 62
     7
370
    25
100
AcDbSpline
210
0.0
220
0.0
230
1.0
 70
     8
 71
     3
 72
    14
 73
    10
 74
     0
 42
0.00000001
 43
0.00000001
 40
0.0
 40
0.0
 40
0.0
 40
0.0
 40
0.132038823374373
 40
0.2645921498218185
 40
0.3993056464371272
 40
0.535044985277536
 40
0.6499418619038215
 40
0.7654696844438704
 40
1.0
 40
1.0
 40
1.0
 40
1.0
 10
35.23376037851058
 20
17.61715054090963
 30
0.0
 10
35.15231401518776
 20
17.76649512080382
 30
0.0
 10
34.98910392427644
 20
18.06576621735398
 30
0.0
 10
34.81400775357123
 20
18.52604253472593
 30
0.0
 10
34.70742871563487
 20
18.99585656075472
 30
0.0
 10
34.6870537935493
 20
19.44810670345147
 30
0.0
 10
34.74154608487649
 20
19.87671209478586
 30
0.0
 10
34.88640680928842
 20
20.41755388733281
 30
0.0
 10
35.09440603155033
 20
20.81498387205509
 30
0.0
 10
35.23376037851059
 20
21.08125215604732
 30
0.0
  0
LINE
  5
86
330
1F
100
AcDbEntity
  8
0
  6
Continuous
 62
     7
370
    25
100
AcDbLine
 10
34.5535244264
 20
14.1530489258
 30
0.0
 11
34.5535244264
 21
19.9030489258
 31
0.0
  0
LINE
  5
87
330
1F
100
AcDbEntity
  8
0
  6
Continuous
 62
     7
370
    25
100
AcDbLine
 10
34.5535244264
 20
8.4030489258
 30
0.0
 11
34.5535244264
 21
14.1530489258
 31
0.0
  0
SPLINE
  5
88
330
1F
100
AcDbEntity
  8
0
  6
Continuous
 62
     7
370
    25
100
AcDbSpline
210
0.0
220
0.0
230
1.0
 70
     8
 71
     3
 72
    14
 73
    10
 74
     0
 42
0.00000001
 43
0.00000001
 40
0.0
 40
0.0
 40
0.0
 40
0.0
 40
0.1323155559186224
 40
0.2645937031373452
 40
0.3998308617390275
 40
0.535043616153098
 40
0.6502468603041163
 40
0.7654680754360031
 40
1.0
 40
1.0
 40
1.0
 40
1.0
 10
44.87328847419128
 20
7.224845695496293
 30
0.0
 10
44.95486495704989
 20
7.37450642227807
 30
0.0
 10
45.11799485918898
 20
7.673785563256562
 30
0.0
 10
45.29353944420374
 20
8.134652152322916
 30
0.0
 10
45.39900561005098
 20
8.604192024169722
 30
0.0
 10
45.42017608612633
 20
9.056777737875944
 30
0.0
 10
45.3651024247763
 20
9.484752941303084
 30
0.0
 10
45.22064785410615
 20
10.02560756540641
 30
0.0
 10
45.01271846970209
 20
10.42268285069089
 30
0.0
 10
44.87328847419128
 20
10.68894731063411
 30
0.0
  0
LINE
  5
89
330
1F
100
AcDbEntity
  8
0
  6
Continuous
 62
     7
370
    25
100
AcDbLine
 10
35.2337603785
 20
7.2248456955
 30
0.0
 11
44.8732884742
 21
7.2248456955
 31
0.0
  0
SPLINE
  5
8A
330
1F
100
AcDbEntity
  8
0
  6
Continuous
 62
     7
370
    25
100
AcDbSpline
210
0.0
220
0.0
230
1.0
 70
     8
 71
     3
 72
    14
 73
    10
 74
     0
 42
0.00000001
 43
0.00000001
 40
0.0
 40
0.0
 40
0.0
 40
0.0
 40
0.132315555918624
 40
0.2645937031373486
 40
0.3998308617390326
 40
0.5350436161531048
 40
0.6502468603041215
 40
0.7654680754360069
 40
1.0
 40
1.0
 40
1.0
 40
1.0
 10
44.87328847419128
 20
17.61715054090963
 30
0.0
 10
44.95486495704989
 20
17.76681126769141
 30
0.0
 10
45.11799485918897
 20
18.0660904086699
 30
0.0
 10
45.29353944420373
 20
18.52695699773624
 30
0.0
 10
45.39900561005096
 20
18.99649686958303
 30
0.0
 10
45.42017608612632
 20
19.44908258328924
 30
0.0
 10
45.36510242477629
 20
19.87705778671636
 30
0.0
 10
45.22064785410612
 20
20.41791241081966
 30
0.0
 10
45.01271846970208
 20
20.81498769610413
 30
0.0
 10
44.87328847419128
 20
21.08125215604732
 30
0.0
  0
LINE
  5
8B
330
1F
100
AcDbEntity
  8
0
  6
Continuous
 62
     7
370
    25
100
AcDbLine
 10
45.5535244264
 20
14.1530489258
 30
0.0
 11
45.5535244264
 21
19.9030489258
 31
0.0
  0
LINE
  5
8C
330
1F
100
AcDbEntity
  8
0
  6
Continuous
 62
     7
370
    25
100
AcDbLine
 10
45.5535244264
 20
8.4030489258
 30
0.0
 11
45.5535244264
 21
14.1530489258
 31
0.0
  0
LINE
  5
8D
330
1F
100
AcDbEntity
  8
0
  6
Continuous
 62
     7
370
    25
100
AcDbLine
 10
35.2337603785
 20
21.081252156
 30
0.0
 11
44.8732884742
 21
21.081252156
 31
0.0
  0
SPLINE
  5
8E
330
1F
100
AcDbEntity
  8
0
  6
Continuous
 62
     7
370
    25
100
AcDbSpline
210
0.0
220
0.0
230
1.0
 70
     8
 71
     3
 72
    14
 73
    10
 74
     0
 42
0.00000001
 43
0.00000001
 40
0.0
 40
0.0
 40
0.0
 40
0.0
 40
0.1323155559186223
 40
0.2645937031373451
 40
0.3998308617390275
 40
0.535043616153098
 40
0.6502468603041163
 40
0.7654680754360033
 40
1.0
 40
1.0
 40
1.0
 40
1.0
 10
22.34108886105271
 20
23.58161882809193
 30
0.0
 10
22.19142813427093
 20
23.50004234523331
 30
0.0
 10
21.89214899329245
 20
23.33691244309424
 30
0.0
 10
21.43128240422611
 20
23.16136785807948
 30
0.0
 10
20.96174253237931
 20
23.05590169223224
 30
0.0
 10
20.5091568186731
 20
23.03473121615688
 30
0.0
 10
20.08118161524597
 20
23.08980487750692
 30
0.0
 10
19.54032699114266
 20
23.23425944817708
 30
0.0
 10
19.14325170585818
 20
23.44218883258113
 30
0.0
 10
18.87698724591498
 20
23.58161882809194
 30
0.0
  0
SPLINE
  5
8F
330
1F
100
AcDbEntity
  8
0
  6
Continuous
 62
     7
370
    25
100
AcDbSpline
210
0.0
220
0.0
230
1.0
 70
     8
 71
     3
 72
    14
 73
    10
 74
     0
 42
0.00000001
 43
0.00000001
 40
0.0
 40
0.0
 40
0.0
 40
0.0
 40
0.1891270614966405
 40
0.3780940792926145
 40
0.5036288693078392
 40
0.6291643795827022
 40
0.7580460920753342
 40
0.8869635954929536
 40
1.0
 40
1.0
 40
1.0
 40
1.0
 10
29.26929209132824
 20
23.58161882809191
 30
0.0
 10
28.84055020355206
 20
23.46783924197304
 30
0.0
 10
27.98342923931719
 20
23.24037635265686
 30
0.0
 10
26.81094800016193
 20
23.07505464003479
 30
0.0
 10
25.77936793414422
 20
23.03363642027316
 30
0.0
 10
24.88844737225611
 20
23.07320061888889
 30
0.0
 10
23.9965616863923
 20
23.18918089506933
 30
0.0
 10
23.14359028365432
 20
23.36099394952817
 30
0.0
 10
22.59662224392531
 20
23.51136721235961
 30
0.0
 10
22.34108886105271
 20
23.58161882809193
 30
0.0
  0
SPLINE
  5
90
330
1F
100
AcDbEntity
  8
0
  6
Continuous
 62
     7
370
    25
100
AcDbSpline
210
0.0
220
0.0
230
1.0
 70
     8
 71
     3
 72
    14
 73
    10
 74
     0
 42
0.00000001
 43
0.00000001
 40
0.0
 40
0.0
 40
0.0
 40
0.0
 40
0.1320388233743715
 40
0.2645921498218153
 40
0.3993056464371222
 40
0.5350449852775292
 40
0.6499418619038162
 40
0.7654696844438668
 40
1.0
 40
1.0
 40
1.0
 40
1.0
 10
32.73339370646601
 20
23.5816188280919
 30
0.0
 10
32.58404912657182
 20
23.50017246476907
 30
0.0
 10
32.28477803002166
 20
23.33696237385775
 30
0.0
 10
31.8245017126497
 20
23.16186620315253
 30
0.0
 10
31.35468768662091
 20
23.05528716521618
 30
0.0
 10
30.90243754392415
 20
23.0349122431306
 30
0.0
 10
30.47383215258975
 20
23.08940453445781
 30
0.0
 10
29.93299036004278
 20
23.23426525886972
 30
0.0
 10
29.53556037532048
 20
23.44226448113164
 30
0.0
 10
29.26929209132824
 20
23.58161882809191
 30
0.0
  0
LINE
  5
91
330
1F
100
AcDbEntity
  8
0
  6
Continuous
 62
     7
370
    25
100
AcDbLine
 10
31.5551904762
 20
22.9013828759
 30
0.0
 11
20.0551904762
 21
22.9013828759
 31
0.0
  0
LINE
  5
92
330
1F
100
AcDbEntity
  8
0
  6
Continuous
 62
     7
370
    25
100
AcDbLine
 10
29.2692920913
 20
23.5816188281
 30
0.0
 11
29.2692920913
 21
33.2211469238
 31
0.0
  0
SPLINE
  5
93
330
1F
100
AcDbEntity
  8
0
  6
Continuous
 62
     7
370
    25
100
AcDbSpline
210
0.0
220
0.0
230
1.0
 70
     8
 71
     3
 72
    14
 73
    10
 74
     0
 42
0.00000001
 43
0.00000001
 40
0.0
 40
0.0
 40
0.0
 40
0.0
 40
0.1323155559186224
 40
0.2645937031373453
 40
0.3998308617390276
 40
0.535043616153098
 40
0.6502468603041162
 40
0.7654680754360031
 40
0.9999999999999999
 40
0.9999999999999999
 40
0.9999999999999999
 40
0.9999999999999999
 10
32.73339370646605
 20
33.22114692377259
 30
0.0
 10
32.58373297968427
 20
33.30272340663122
 30
0.0
 10
32.28445383870578
 20
33.46585330877028
 30
0.0
 10
31.82358724963943
 20
33.64139789378505
 30
0.0
 10
31.35404737779263
 20
33.74686405963229
 30
0.0
 10
30.90146166408642
 20
33.76803453570765
 30
0.0
 10
30.47348646065928
 20
33.71296087435763
 30
0.0
 10
29.93263183655596
 20
33.56850630368746
 30
0.0
 10
29.53555655127148
 20
33.36057691928342
 30
0.0
 10
29.26929209132827
 20
33.22114692377261
 30
0.0
  0
LINE
  5
94
330
1F
100
AcDbEntity
  8
0
  6
Continuous
 62
     7
370
    25
100
AcDbLine
 10
32.7333937065
 20
23.5816188281
 30
0.0
 11
32.7333937065
 21
33.2211469238
 31
0.0
  0
LINE
  5
95
330
1F
100
AcDbEntity
  8
0
  6
Continuous
 62
     7
370
    25
100
AcDbLine
 10
22.3410888611
 20
23.5816188281
 30
0.0
 11
22.3410888611
 21
33.2211469238
 31
0.0
  0
SPLINE
  5
96
330
1F
100
AcDbEntity
  8
0
  6
Continuous
 62
     7
370
    25
100
AcDbSpline
210
0.0
220
0.0
230
1.0
 70
     8
 71
     3
 72
    14
 73
    10
 74
     0
 42
0.00000001
 43
0.00000001
 40
0.0
 40
0.0
 40
0.0
 40
0.0
 40
0.1881834863217925
 40
0.3780973734199338
 40
0.5036314984992454
 40
0.62916634383438
 40
0.7580473736630334
 40
0.8869641942270959
 40
1.0
 40
1.0
 40
1.0
 40
1.0
 10
29.26929209132827
 20
33.22114692377261
 30
0.0
 10
28.84274929489944
 20
33.33460988960811
 30
0.0
 10
27.98574151949266
 20
33.56257914557929
 30
0.0
 10
26.81315271204215
 20
33.72751393993286
 30
0.0
 10
25.77937176121958
 20
33.76915308480787
 30
0.0
 10
24.88844631635878
 20
33.729558579418
 30
0.0
 10
23.99656197242837
 20
33.61358663211327
 30
0.0
 10
23.14359022231903
 20
33.44177142165107
 30
0.0
 10
22.59662222439488
 20
33.29139841828673
 30
0.0
 10
22.34108886105274
 20
33.22114692377264
 30
0.0
  0
SPLINE
  5
97
330
1F
100
AcDbEntity
  8
0
  6
Continuous
 62
     7
370
    25
100
AcDbSpline
210
0.0
220
0.0
230
1.0
 70
     8
 71
     3
 72
    14
 73
    10
 74
     0
 42
0.00000001
 43
0.00000001
 40
0.0
 40
0.0
 40
0.0
 40
0.0
 40
0.1323155559186225
 40
0.2645937031373453
 40
0.3998308617390275
 40
0.535043616153098
 40
0.6502468603041162
 40
0.7654680754360034
 40
1.0
 40
1.0
 40
1.0
 40
1.0
 10
22.34108886105274
 20
33.22114692377264
 30
0.0
 10
22.19142813427097
 20
33.30272340663125
 30
0.0
 10
21.89214899329248
 20
33.46585330877033
 30
0.0
 10
21.43128240422614
 20
33.64139789378508
 30
0.0
 10
20.96174253237935
 20
33.74686405963233
 30
0.0
 10
20.50915681867314
 20
33.76803453570769
 30
0.0
 10
20.08118161524601
 20
33.71296087435767
 30
0.0
 10
19.54032699114269
 20
33.56850630368749
 30
0.0
 10
19.14325170585822
 20
33.36057691928345
 30
0.0
 10
18.87698724591501
 20
33.22114692377265
 30
0.0
  0
LINE
  5
98
330
1F
100
AcDbEntity
  8
0
  6
Continuous
 62
     7
370
    25
100
AcDbLine
 10
31.5551904762
 20
33.9013828759
 30
0.0
 11
20.0551904762
 21
33.9013828759
 31
0.0
  0
LINE
  5
99
330
1F
100
AcDbEntity
  8
0
  6
Continuous
 62
     7
370
    25
100
AcDbLine
 10
18.8769872459
 20
23.5816188281
 30
0.0
 11
18.8769872459
 21
33.2211469238
 31
0.0
  0
SPLINE
  5
9A
330
1F
100
AcDbEntity
  8
0
  6
Continuous
 62
     7
370
    25
100
AcDbSpline
210
0.0
220
0.0
230
1.0
 70
     8
 71
     3
 72
    14
 73
    10
 74
     0
 42
0.00000001
 43
0.00000001
 40
0.0
 40
0.0
 40
0.0
 40
0.0
 40
0.1323155559186224
 40
0.2645937031373454
 40
0.3998308617390277
 40
0.535043616153098
 40
0.6502468603041162
 40
0.7654680754360031
 40
1.0
 40
1.0
 40
1.0
 40
1.0
 10
6.737092478189658
 20
21.08125215604732
 30
0.0
 10
6.65551599533104
 20
20.93159142926554
 30
0.0
 10
6.492386093191961
 20
20.63231228828706
 30
0.0
 10
6.316841508177198
 20
20.17144569922071
 30
0.0
 10
6.211375342329965
 20
19.70190582737391
 30
0.0
 10
6.190204866254607
 20
19.24932011366769
 30
0.0
 10
6.245278527604627
 20
18.82134491024056
 30
0.0
 10
6.389733098274796
 20
18.28049028613724
 30
0.0
 10
6.597662482678849
 20
17.88341500085276
 30
0.0
 10
6.737092478189658
 20
17.61715054090955
 30
0.0
  0
SPLINE
  5
9B
330
1F
100
AcDbEntity
  8
0
  6
Continuous
 62
     7
370
    25
100
AcDbSpline
210
0.0
220
0.0
230
1.0
 70
     8
 71
     3
 72
    14
 73
    10
 74
     0
 42
0.00000001
 43
0.00000001
 40
0.0
 40
0.0
 40
0.0
 40
0.0
 40
0.1881834863217924
 40
0.3780973734199337
 40
0.5036314984992453
 40
0.6291663438343799
 40
0.7580473736630332
 40
0.8869641942270957
 40
0.9999999999999999
 40
0.9999999999999999
 40
0.9999999999999999
 40
0.9999999999999999
 10
6.737092478189658
 20
17.61715054090955
 30
0.0
 10
6.623629512354148
 20
17.19060774448073
 30
0.0
 10
6.395660256382975
 20
16.33359996907394
 30
0.0
 10
6.230725462029421
 20
15.16101116162343
 30
0.0
 10
6.1890863171544
 20
14.12723021080086
 30
0.0
 10
6.228680822544269
 20
13.23630476594006
 30
0.0
 10
6.34465276984901
 20
12.34442042200965
 30
0.0
 10
6.516467980311209
 20
11.49144867190031
 30
0.0
 10
6.666840983675565
 20
10.94448067397616
 30
0.0
 10
6.737092478189658
 20
10.68894731063402
 30
0.0
  0
SPLINE
  5
9C
330
1F
100
AcDbEntity
  8
0
  6
Continuous
 62
     7
370
    25
100
AcDbSpline
210
0.0
220
0.0
230
1.0
 70
     8
 71
     3
 72
    14
 73
    10
 74
     0
 42
0.00000001
 43
0.00000001
 40
0.0
 40
0.0
 40
0.0
 40
0.0
 40
0.1323155559186224
 40
0.2645937031373453
 40
0.3998308617390275
 40
0.5350436161530979
 40
0.6502468603041162
 40
0.7654680754360033
 40
1.0
 40
1.0
 40
1.0
 40
1.0
 10
6.737092478189658
 20
10.68894731063402
 30
0.0
 10
6.655515995331037
 20
10.53928658385225
 30
0.0
 10
6.492386093191964
 20
10.24000744287376
 30
0.0
 10
6.316841508177198
 20
9.779140853807423
 30
0.0
 10
6.211375342329958
 20
9.309600981960624
 30
0.0
 10
6.190204866254607
 20
8.857015268254417
 30
0.0
 10
6.245278527604637
 20
8.429040064827289
 30
0.0
 10
6.389733098274789
 20
7.88818544072397
 30
0.0
 10
6.597662482678842
 20
7.491110155439499
 30
0.0
 10
6.737092478189658
 20
7.224845695496293
 30
0.0
  0
LINE
  5
9D
330
1F
100
AcDbEntity
  8
0
  6
Continuous
 62
     7
370
    25
100
AcDbLine
 10
6.056856526
 20
19.9030489258
 30
0.0
 11
6.056856526
 21
8.4030489258
 31
0.0
  0
SPLINE
  5
9E
330
1F
100
AcDbEntity
  8
0
  6
Continuous
 62
     7
370
    25
100
AcDbSpline
210
0.0
220
0.0
230
1.0
 70
     8
 71
     3
 72
    14
 73
    10
 74
     0
 42
0.00000001
 43
0.00000001
 40
0.0
 40
0.0
 40
0.0
 40
0.0
 40
0.1323155559186224
 40
0.2645937031373453
 40
0.3998308617390275
 40
0.5350436161530979
 40
0.6502468603041162
 40
0.7654680754360033
 40
1.0
 40
1.0
 40
1.0
 40
1.0
 10
16.37662057387035
 20
10.68894731063402
 30
0.0
 10
16.45819705672897
 20
10.53928658385225
 30
0.0
 10
16.62132695886805
 20
10.24000744287376
 30
0.0
 10
16.79687154388281
 20
9.779140853807423
 30
0.0
 10
16.90233770973004
 20
9.309600981960626
 30
0.0
 10
16.9235081858054
 20
8.857015268254415
 30
0.0
 10
16.86843452445538
 20
8.429040064827289
 30
0.0
 10
16.72397995378521
 20
7.88818544072397
 30
0.0
 10
16.51605056938116
 20
7.491110155439499
 30
0.0
 10
16.37662057387035
 20
7.224845695496293
 30
0.0
  0
SPLINE
  5
9F
330
1F
100
AcDbEntity
  8
0
  6
Continuous
 62
     7
370
    25
100
AcDbSpline
210
0.0
220
0.0
230
1.0
 70
     8
 71
     3
 72
    14
 73
    10
 74
     0
 42
0.00000001
 43
0.00000001
 40
0.0
 40
0.0
 40
0.0
 40
0.0
 40
0.1891270614966406
 40
0.3780940792926145
 40
0.5036288693078393
 40
0.6291643795827022
 40
0.7580460920753341
 40
0.8869635954929534
 40
1.0
 40
1.0
 40
1.0
 40
1.0
 10
16.37662057387035
 20
17.61715054090955
 30
0.0
 10
16.49040015998922
 20
17.18840865313338
 30
0.0
 10
16.71786304930541
 20
16.3312876888985
 30
0.0
 10
16.88318476192748
 20
15.15880644974324
 30
0.0
 10
16.92460298168911
 20
14.12722638372554
 30
0.0
 10
16.88503878307339
 20
13.23630582183742
 30
0.0
 10
16.76905850689295
 20
12.34442013597361
 30
0.0
 10
16.59724545243412
 20
11.49144873323564
 30
0.0
 10
16.44687218960268
 20
10.94448069350662
 30
0.0
 10
16.37662057387035
 20
10.68894731063402
 30
0.0
  0
SPLINE
  5
A0
330
1F
100
AcDbEntity
  8
0
  6
Continuous
 62
     7
370
    25
100
AcDbSpline
210
0.0
220
0.0
230
1.0
 70
     8
 71
     3
 72
    14
 73
    10
 74
     0
 42
0.00000001
 43
0.00000001
 40
0.0
 40
0.0
 40
0.0
 40
0.0
 40
0.1320388233743716
 40
0.2645921498218153
 40
0.3993056464371223
 40
0.5350449852775292
 40
0.6499418619038162
 40
0.7654696844438668
 40
1.0
 40
1.0
 40
1.0
 40
1.0
 10
16.37662057387035
 20
21.08125215604732
 30
0.0
 10
16.45806693719318
 20
20.93190757615313
 30
0.0
 10
16.6212770281045
 20
20.63263647960298
 30
0.0
 10
16.79637319880971
 20
20.17236016223102
 30
0.0
 10
16.90295223674608
 20
19.70254613620222
 30
0.0
 10
16.92332715883166
 20
19.25029599350547
 30
0.0
 10
16.86883486750445
 20
18.82169060217106
 30
0.0
 10
16.72397414309255
 20
18.2808488096241
 30
0.0
 10
16.51597492083062
 20
17.8834188249018
 30
0.0
 10
16.37662057387035
 20
17.61715054090955
 30
0.0
  0
LINE
  5
A1
330
1F
100
AcDbEntity
  8
0
  6
Continuous
 62
     7
370
    25
100
AcDbLine
 10
17.056856526
 20
19.9030489258
 30
0.0
 11
17.056856526
 21
8.4030489258
 31
0.0
  0
LINE
  5
A2
330
1F
100
AcDbEntity
  8
0
  6
Continuous
 62
     7
370
    25
100
AcDbLine
 10
16.3766205739
 20
10.6889473106
 30
0.0
 11
6.7370924782
 21
10.6889473106
 31
0.0
  0
LINE
  5
A3
330
1F
100
AcDbEntity
  8
0
  6
Continuous
 62
     7
370
    25
100
AcDbLine
 10
16.3766205739
 20
17.6171505409
 30
0.0
 11
6.7370924782
 21
17.6171505409
 31
0.0
  0
LINE
  5
A4
330
1F
100
AcDbEntity
  8
0
  6
Continuous
 62
     7
370
    25
100
AcDbLine
 10
16.3766205739
 20
21.081252156
 30
0.0
 11
6.7370924782
 21
21.081252156
 31
0.0
  0
LINE
  5
A5
330
1F
100
AcDbEntity
  8
0
  6
Continuous
 62
     7
370
    25
100
AcDbLine
 10
16.3766205739
 20
7.2248456955
 30
0.0
 11
6.7370924782
 21
7.2248456955
 31
0.0
  0
LINE
  5
A6
330
1F
100
AcDbEntity
  8
0
  6
Continuous
 62
     7
370
    25
100
AcDbLine
 10
30.6691904762
 20
22.1530489258
 30
0.0
 11
20.9411904762
 21
22.1530489258
 31
0.0
  0
LINE
  5
A7
330
1F
100
AcDbEntity
  8
0
  6
Continuous
 62
     7
370
    25
100
AcDbLine
 10
33.8051904762
 20
19.0170489258
 30
0.0
 11
33.8051904762
 21
9.2890489258
 31
0.0
  0
LINE
  5
A8
330
1F
100
AcDbEntity
  8
0
  6
Continuous
 62
     7
370
    25
100
AcDbLine
 10
17.8051904762
 20
14.1530489258
 30
0.0
 11
17.8051904762
 21
9.2890489258
 31
0.0
  0
LINE
  5
A9
330
1F
100
AcDbEntity
  8
0
  6
Continuous
 62
     7
370
    25
100
AcDbLine
 10
17.8051904762
 20
19.0170489258
 30
0.0
 11
17.8051904762
 21
14.1530489258
 31
0.0
  0
LINE
  5
AA
330
1F
100
AcDbEntity
  8
0
  6
Continuous
 62
     7
370
    25
100
AcDbLine
 10
29.4516370856
 20
17.7994955352
 30
0.0
 11
30.3051904762
 21
18.6530489258
 31
0.0
  0
LINE
  5
AB
330
1F
100
AcDbEntity
  8
0
  6
Continuous
 62
     7
370
    25
100
AcDbLine
 10
21.3051904762
 20
18.6530489258
 30
0.0
 11
22.1587438668
 21
17.7994955352
 31
0.0
  0
ELLIPSE
  5
AC
330
1F
100
AcDbEntity
  8
0
  6
Continuous
 62
     7
370
    25
100
AcDbEllipse
 10
27.913312754
 20
12.8190588394
 30
0.0
 11
0.04781765271718541
 21
0.0
 31
0.0
210
0.0
220
0.0
230
1.0
 40
0.9531667975
 41
0.3430239404214808
 42
2.798568713169147
  0
LINE
  5
AD
330
1F
100
AcDbEntity
  8
0
  6
Continuous
 62
     7
370
    25
100
AcDbLine
 10
28.0845475326
 20
12.3164777824
 30
0.0
 11
27.7420779734
 21
12.3164777824
 31
0.0
  0
ELLIPSE
  5
AE
330
1F
100
AcDbEntity
  8
0
  6
Continuous
 62
     7
370
    25
100
AcDbEllipse
 10
28.0845475326
 20
12.3620559813
 30
0.0
 11
0.04781765271718541
 21
0.0
 31
0.0
210
0.0
220
0.0
230
1.0
 40
0.9531667975
 41
4.712388980384703
 42
6.626209245739818
  0
LINE
  5
AF
330
1F
100
AcDbEntity
  8
0
  6
Continuous
 62
     7
370
    25
100
AcDbLine
 10
27.9583446417
 20
12.8343884466
 30
0.0
 11
28.1295794203
 21
12.3773855884
 31
0.0
  0
ELLIPSE
  5
B0
330
1F
100
AcDbEntity
  8
0
  6
Continuous
 62
     7
370
    25
100
AcDbEllipse
 10
27.7420779734
 20
12.3620559813
 30
0.0
 11
-0.04781765271718541
 21
0.0
 31
0.0
210
0.0
220
0.0
230
1.0
 40
0.9531667975
 41
5.940161364898076
 42
7.853981633974483
  0
LINE
  5
B1
330
1F
100
AcDbEntity
  8
0
  6
Continuous
 62
     7
370
    25
100
AcDbLine
 10
27.6970460858
 20
12.3773855886
 30
0.0
 11
27.8682808663
 21
12.8343884466
 31
0.0
  0
ARC
  5
B2
330
1F
100
AcDbEntity
  8
0
  6
Continuous
 62
     7
370
    25
100
AcDbCircle
 10
29.8051904762
 20
18.1530489258
 30
0.0
 40
0.5000000000000036
100
AcDbArc
 50
180.0
 51
270.0
  0
LINE
  5
B3
330
1F
100
AcDbEntity
  8
0
  6
Continuous
 62
     7
370
    25
100
AcDbLine
 10
21.3051904762
 20
14.1530489258
 30
0.0
 11
21.3051904762
 21
10.6530489258
 31
0.0
  0
LINE
  5
B4
330
1F
100
AcDbEntity
  8
0
  6
Continuous
 62
     7
370
    25
100
AcDbLine
 10
21.3051904762
 20
17.6530489258
 30
0.0
 11
21.3051904762
 21
14.1530489258
 31
0.0
  0
ARC
  5
B5
330
1F
100
AcDbEntity
  8
0
  6
Continuous
 62
     7
370
    25
100
AcDbCircle
 10
21.8051904762
 20
18.1530489258
 30
0.0
 40
0.5000000000000036
100
AcDbArc
 50
270.0
 51
0.0
  0
LINE
  5
B6
330
1F
100
AcDbEntity
  8
0
  6
Continuous
 62
     7
370
    25
100
AcDbLine
 10
29.3051904762
 20
18.6530489258
 30
0.0
 11
25.8051904762
 21
18.6530489258
 31
0.0
  0
LINE
  5
B7
330
1F
100
AcDbEntity
  8
0
  6
Continuous
 62
     7
370
    25
100
AcDbLine
 10
26.8699474146
 20
12.3162789977
 30
0.0
 11
27.5800717302
 21
14.3017552959
 31
0.0
  0
ELLIPSE
  5
B8
330
1F
100
AcDbEntity
  8
0
  6
Continuous
 62
     7
370
    25
100
AcDbEllipse
 10
26.5078682508
 20
12.4339341694
 30
0.0
 11
-0.3825412217369113
 21
5.684341886080801E-14
 31
0.0
210
0.0
220
0.0
230
1.0
 40
0.9531667975
 41
1.047197551195834
 42
2.813039483039018
  0
LINE
  5
B9
330
1F
100
AcDbEntity
  8
0
  6
Continuous
 62
     7
370
    25
100
AcDbLine
 10
26.2875125605
 20
12.1341649867
 30
0.0
 11
26.3165976399
 21
12.1181591445
 31
0.0
  0
LINE
  5
BA
330
1F
100
AcDbEntity
  8
0
  6
Continuous
 62
     7
370
    25
100
AcDbLine
 10
26.7365098663
 20
11.2782263386
 30
0.0
 11
26.2875125605
 21
12.1341649867
 31
0.0
  0
ELLIPSE
  5
BB
330
1F
100
AcDbEntity
  8
0
  6
Continuous
 62
     7
370
    25
100
AcDbEllipse
 10
29.0473462306
 20
11.2986095288
 30
0.0
 11
0.04781765271718541
 21
0.0
 31
0.0
210
0.0
220
0.0
230
1.0
 40
0.9531667975
 41
3.962594650553917
 42
5.819537698178616
  0
LINE
  5
BC
330
1F
100
AcDbEntity
  8
0
  6
Continuous
 62
     7
370
    25
100
AcDbLine
 10
29.5391129453
 20
12.1341649867
 30
0.0
 11
29.0901156394
 21
11.2782263386
 31
0.0
  0
LINE
  5
BD
330
1F
100
AcDbEntity
  8
0
  6
Continuous
 62
     7
370
    25
100
AcDbLine
 10
29.5156273027
 20
12.1207438736
 30
0.0
 11
29.5391129453
 21
12.1341649867
 31
0.0
  0
ELLIPSE
  5
BE
330
1F
100
AcDbEntity
  8
0
  6
Continuous
 62
     7
370
    25
100
AcDbEllipse
 10
27.9133127529
 20
10.1378398746
 30
0.0
 11
1.616236661841299
 21
-1.705302565824240E-13
 31
0.0
210
0.0
220
0.0
230
1.0
 40
0.9531667975
 41
0.8210019969646679
 42
2.320590656625285
  0
LINE
  5
BF
330
1F
100
AcDbEntity
  8
0
  6
Continuous
 62
     7
370
    25
100
AcDbLine
 10
22.3051904762
 20
18.1530489258
 30
0.0
 11
22.3051904762
 21
18.6530489258
 31
0.0
  0
LINE
  5
C0
330
1F
100
AcDbEntity
  8
0
  6
Continuous
 62
     7
370
    25
100
AcDbLine
 10
21.3051904762
 20
17.6530489258
 30
0.0
 11
21.8051904762
 21
17.6530489258
 31
0.0
  0
ELLIPSE
  5
C1
330
1F
100
AcDbEntity
  8
0
  6
Continuous
 62
     7
370
    25
100
AcDbEllipse
 10
27.9133127529
 20
14.1538489258
 30
0.0
 11
0.3675982052634481
 21
7.975842208907125E-13
 31
0.0
210
0.0
220
0.0
230
1.0
 40
0.9531667975
 41
0.4357918987533342
 42
2.705800754832137
  0
ELLIPSE
  5
C2
330
1F
100
AcDbEntity
  8
0
  6
Continuous
 62
     7
370
    25
100
AcDbEllipse
 10
29.3189227785
 20
12.4334713728
 30
0.0
 11
-0.3825412217374868
 21
-1.119104808822158E-13
 31
0.0
210
0.0
220
0.0
230
1.0
 40
0.9531667975
 41
0.3285531705510847
 42
2.110876526947019
  0
LINE
  5
C3
330
1F
100
AcDbEntity
  8
0
  6
Continuous
 62
     7
370
    25
100
AcDbLine
 10
30.3051904762
 20
17.6530489258
 30
0.0
 11
29.8051904762
 21
17.6530489258
 31
0.0
  0
LINE
  5
C4
330
1F
100
AcDbEntity
  8
0
  6
Continuous
 62
     7
370
    25
100
AcDbLine
 10
28.2465537755
 20
14.3017552959
 30
0.0
 11
28.9568436148
 21
12.3158162011
 31
0.0
  0
ELLIPSE
  5
C5
330
1F
100
AcDbEntity
  8
0
  6
Continuous
 62
     7
370
    25
100
AcDbEllipse
 10
26.7792792751
 20
11.2986095288
 30
0.0
 11
0.04781765271718541
 21
0.0
 31
0.0
210
0.0
220
0.0
230
1.0
 40
0.9531667975
 41
3.605240262590321
 42
5.462183310216055
  0
LINE
  5
C6
330
1F
100
AcDbEntity
  8
0
  6
Continuous
 62
     7
370
    25
100
AcDbLine
 10
30.3051904762
 20
14.1530489258
 30
0.0
 11
30.3051904762
 21
17.6530489258
 31
0.0
  0
LINE
  5
C7
330
1F
100
AcDbEntity
  8
0
  6
Continuous
 62
     7
370
    25
100
AcDbLine
 10
21.3051904762
 20
10.6530489258
 30
0.0
 11
30.3051904762
 21
10.6530489258
 31
0.0
  0
LINE
  5
C8
330
1F
100
AcDbEntity
  8
0
  6
Continuous
 62
     7
370
    25
100
AcDbLine
 10
30.3051904762
 20
10.6530489258
 30
0.0
 11
30.3051904762
 21
14.1530489258
 31
0.0
  0
LINE
  5
C9
330
1F
100
AcDbEntity
  8
0
  6
Continuous
 62
     7
370
    25
100
AcDbLine
 10
25.8051904762
 20
18.6530489258
 30
0.0
 11
22.3051904762
 21
18.6530489258
 31
0.0
  0
LINE
  5
CA
330
1F
100
AcDbEntity
  8
0
  6
Continuous
 62
     7
370
    25
100
AcDbLine
 10
29.3051904762
 20
18.1530489258
 30
0.0
 11
29.3051904762
 21
18.6530489258
 31
0.0
  0
LINE
  5
CB
330
1F
100
AcDbEntity
  8
0
  6
Continuous
 62
     7
370
    25
100
AcDbLine
 10
33.5051904762
 20
9.6530489258
 30
0.0
 11
33.5051904762
 21
18.6530489258
 31
0.0
  0
LINE
  5
CC
330
1F
100
AcDbEntity
  8
0
  6
Continuous
 62
     7
370
    25
100
AcDbLine
 10
30.3051904762
 20
21.8530489258
 30
0.0
 11
21.3051904762
 21
21.8530489258
 31
0.0
  0
LINE
  5
CD
330
1F
100
AcDbEntity
  8
0
  6
Continuous
 62
     7
370
    25
100
AcDbLine
 10
18.1051904762
 20
14.1530489258
 30
0.0
 11
18.1051904762
 21
9.6530489258
 31
0.0
  0
LINE
  5
CE
330
1F
100
AcDbEntity
  8
0
  6
Continuous
 62
     7
370
    25
100
AcDbLine
 10
18.1051904762
 20
18.6530489258
 30
0.0
 11
18.1051904762
 21
14.1530489258
 31
0.0
  0
LINE
  5
CF
330
1F
100
AcDbEntity
  8
0
  6
CENTERX2
 62
     7
370
    18
100
AcDbLine
 10
4.3074681719
 20
14.1530489258
 30
0.0
 11
47.9647267473
 21
14.1530489258
 31
0.0
  0
LINE
  5
D0
330
1F
100
AcDbEntity
  8
0
  6
CENTERX2
 62
     7
370
    18
100
AcDbLine
 10
25.8051904762
 20
8.0674596885
 30
0.0
 11
25.8051904762
 21
35.5535690823
 31
0.0
  0
LINE
  5
D1
330
1F
100
AcDbEntity
  8
0
  6
Continuous
 62
     7
370
    25
100
AcDbLine
 10
55.5841543214
 20
23.0457204432
 30
0.0
 11
55.8341543214
 21
22.9013828759
 31
0.0
  0
LINE
  5
D2
330
1F
100
AcDbEntity
  8
0
  6
Continuous
 62
     7
370
    25
100
AcDbLine
 10
67.3341543214
 20
22.9013828759
 30
0.0
 11
67.5841543214
 21
23.0457204432
 31
0.0
  0
LINE
  5
D3
330
1F
100
AcDbEntity
  8
0
  6
Continuous
 62
     7
370
    25
100
AcDbLine
 10
67.5841543214
 20
33.7570453086
 30
0.0
 11
67.3341543214
 21
33.9013828759
 31
0.0
  0
LINE
  5
D4
330
1F
100
AcDbEntity
  8
0
  6
Continuous
 62
     7
370
    25
100
AcDbLine
 10
55.8341543214
 20
33.9013828759
 30
0.0
 11
55.5841543214
 21
33.7570453086
 31
0.0
  0
LINE
  5
D5
330
1F
100
AcDbEntity
  8
0
  6
Continuous
 62
     7
370
    25
100
AcDbLine
 10
56.7201543214
 20
22.9013828759
 30
0.0
 11
56.7201543214
 21
22.1530489258
 31
0.0
  0
LINE
  5
D6
330
1F
100
AcDbEntity
  8
0
  6
Continuous
 62
     7
370
    25
100
AcDbLine
 10
66.4481543214
 20
22.1530489258
 30
0.0
 11
66.4481543214
 21
22.9013828759
 31
0.0
  0
ARC
  5
D7
330
1F
100
AcDbEntity
  8
0
  6
Continuous
 62
     7
370
    25
100
AcDbCircle
 10
56.7841543214
 20
21.8530489258
 30
0.0
 40
0.3000000000000043
100
AcDbArc
 50
0.0
 51
90.0
  0
ARC
  5
D8
330
1F
100
AcDbEntity
  8
0
  6
Continuous
 62
     7
370
    25
100
AcDbCircle
 10
66.3841543214
 20
21.8530489258
 30
0.0
 40
0.3000000000000043
100
AcDbArc
 50
90.0
 51
180.0
  0
LINE
  5
D9
330
1F
100
AcDbEntity
  8
0
  6
Continuous
 62
     7
370
    25
100
AcDbLine
 10
66.0841543214
 20
18.6530489258
 30
0.0
 11
66.0841543214
 21
21.8530489258
 31
0.0
  0
LINE
  5
DA
330
1F
100
AcDbEntity
  8
0
  6
Continuous
 62
     7
370
    25
100
AcDbLine
 10
57.0841543214
 20
21.8530489258
 30
0.0
 11
57.0841543214
 21
18.6530489258
 31
0.0
  0
SPLINE
  5
DB
330
1F
100
AcDbEntity
  8
0
  6
Continuous
 62
     7
370
    25
100
AcDbSpline
210
0.0
220
0.0
230
1.0
 70
    24
 71
     3
 72
    12
 73
     8
 74
     0
 42
0.00000001
 43
0.00000001
 40
0.0
 40
0.0
 40
0.0
 40
0.0
 40
0.2260702282847286
 40
0.477458654837457
 40
0.7287821548975008
 40
0.9862900169026242
 40
1.0
 40
1.0
 40
1.0
 40
1.0
 10
55.58415432144609
 20
23.58161882809193
 30
0.0
 10
55.58415432144609
 20
23.51146166722699
 30
0.0
 10
55.58415432144609
 20
23.36329026089921
 30
0.0
 10
55.5841543214461
 20
23.19206880331729
 30
0.0
 10
55.5841543214461
 20
23.08119706272787
 30
0.0
 10
55.58415432144614
 20
23.03461552433226
 30
0.0
 10
55.58415432144612
 20
23.04739296069442
 30
0.0
 10
55.58415432144612
 20
23.04803885638202
 30
0.0
  0
SPLINE
  5
DC
330
1F
100
AcDbEntity
  8
0
  6
Continuous
 62
     7
370
    25
100
AcDbSpline
210
0.0
220
0.0
230
1.0
 70
     8
 71
     3
 72
    14
 73
    10
 74
     0
 42
0.00000001
 43
0.00000001
 40
0.0
 40
0.0
 40
0.0
 40
0.0
 40
0.1323155559186225
 40
0.2645937031373456
 40
0.399830861739028
 40
0.5350436161530985
 40
0.6502468603041168
 40
0.7654680754360039
 40
1.0
 40
1.0
 40
1.0
 40
1.0
 10
61.58415432144607
 20
23.58161882809194
 30
0.0
 10
61.32493433876235
 20
23.50004234523332
 30
0.0
 10
60.80656766094205
 20
23.33691244309425
 30
0.0
 10
60.00832331316818
 20
23.16136785807949
 30
0.0
 10
59.19505639895014
 20
23.05590169223225
 30
0.0
 10
58.41115494803115
 20
23.03473121615689
 30
0.0
 10
57.66988015131574
 20
23.08980487750691
 30
0.0
 10
56.73309246286023
 20
23.23425944817708
 30
0.0
 10
56.04533789431761
 20
23.44218883258112
 30
0.0
 10
55.58415432144609
 20
23.58161882809193
 30
0.0
  0
SPLINE
  5
DD
330
1F
100
AcDbEntity
  8
0
  6
Continuous
 62
     7
370
    25
100
AcDbSpline
210
0.0
220
0.0
230
1.0
 70
     8
 71
     3
 72
    14
 73
    10
 74
     0
 42
0.00000001
 43
0.00000001
 40
0.0
 40
0.0
 40
0.0
 40
0.0
 40
0.1323155559186224
 40
0.2645937031373453
 40
0.3998308617390278
 40
0.5350436161530981
 40
0.6502468603041163
 40
0.7654680754360033
 40
0.9999999999999999
 40
0.9999999999999999
 40
0.9999999999999999
 40
0.9999999999999999
 10
67.5841543214461
 20
23.58161882809193
 30
0.0
 10
67.32493433876239
 20
23.50004234523331
 30
0.0
 10
66.80656766094208
 20
23.33691244309423
 30
0.0
 10
66.00832331316819
 20
23.16136785807948
 30
0.0
 10
65.19505639895016
 20
23.05590169223224
 30
0.0
 10
64.41115494803117
 20
23.03473121615689
 30
0.0
 10
63.66988015131575
 20
23.08980487750692
 30
0.0
 10
62.73309246286023
 20
23.23425944817708
 30
0.0
 10
62.0453378943176
 20
23.44218883258113
 30
0.0
 10
61.58415432144607
 20
23.58161882809195
 30
0.0
  0
SPLINE
  5
DE
330
1F
100
AcDbEntity
  8
0
  6
Continuous
 62
     7
370
    25
100
AcDbSpline
210
0.0
220
0.0
230
1.0
 70
    24
 71
     3
 72
    12
 73
     8
 74
     0
 42
0.00000001
 43
0.00000001
 40
0.0
 40
0.0
 40
0.0
 40
0.0
 40
0.0072676815355925
 40
0.2583361874557439
 40
0.5160970307829167
 40
0.7739294552431282
 40
1.0
 40
1.0
 40
1.0
 40
1.0
 10
67.58415432144612
 20
23.04708583170428
 30
0.0
 10
67.58415432144612
 20
23.04674159601655
 30
0.0
 10
67.58415432144609
 20
23.03450543311903
 30
0.0
 10
67.58415432144612
 20
23.07872401794837
 30
0.0
 10
67.5841543214461
 20
23.18768464058211
 30
0.0
 10
67.5841543214461
 20
23.36131479463847
 30
0.0
 10
67.5841543214461
 20
23.51146937621141
 30
0.0
 10
67.5841543214461
 20
23.58161882809193
 30
0.0
  0
LINE
  5
DF
330
1F
100
AcDbEntity
  8
0
  6
Continuous
 62
     7
370
    25
100
AcDbLine
 10
67.3341543214
 20
22.9013828759
 30
0.0
 11
55.8341543214
 21
22.9013828759
 31
0.0
  0
LINE
  5
E0
330
1F
100
AcDbEntity
  8
0
  6
Continuous
 62
     7
370
    25
100
AcDbLine
 10
55.5841543214
 20
23.5816188281
 30
0.0
 11
55.5841543214
 21
33.2211469238
 31
0.0
  0
SPLINE
  5
E1
330
1F
100
AcDbEntity
  8
0
  6
Continuous
 62
     7
370
    25
100
AcDbSpline
210
0.0
220
0.0
230
1.0
 70
     8
 71
     3
 72
    14
 73
    10
 74
     0
 42
0.00000001
 43
0.00000001
 40
0.0
 40
0.0
 40
0.0
 40
0.0
 40
0.1323155559186223
 40
0.2645937031373451
 40
0.3998308617390274
 40
0.5350436161530976
 40
0.6502468603041159
 40
0.7654680754360031
 40
1.0
 40
1.0
 40
1.0
 40
1.0
 10
61.58415432144607
 20
33.22114692377264
 30
0.0
 10
61.32493433876235
 20
33.30272340663126
 30
0.0
 10
60.80656766094204
 20
33.46585330877033
 30
0.0
 10
60.00832331316818
 20
33.64139789378509
 30
0.0
 10
59.19505639895014
 20
33.74686405963232
 30
0.0
 10
58.41115494803115
 20
33.76803453570769
 30
0.0
 10
57.66988015131574
 20
33.71296087435766
 30
0.0
 10
56.73309246286022
 20
33.56850630368749
 30
0.0
 10
56.0453378943176
 20
33.36057691928344
 30
0.0
 10
55.58415432144607
 20
33.22114692377263
 30
0.0
  0
LINE
  5
E2
330
1F
100
AcDbEntity
  8
0
  6
Continuous
 62
     7
370
    25
100
AcDbLine
 10
61.5841543214
 20
23.5816188281
 30
0.0
 11
61.5841543214
 21
33.2211469238
 31
0.0
  0
SPLINE
  5
E3
330
1F
100
AcDbEntity
  8
0
  6
Continuous
 62
     7
370
    25
100
AcDbSpline
210
0.0
220
0.0
230
1.0
 70
     8
 71
     3
 72
    14
 73
    10
 74
     0
 42
0.00000001
 43
0.00000001
 40
0.0
 40
0.0
 40
0.0
 40
0.0
 40
0.1323155559186222
 40
0.264593703137345
 40
0.3998308617390272
 40
0.5350436161530976
 40
0.6502468603041159
 40
0.7654680754360031
 40
1.0
 40
1.0
 40
1.0
 40
1.0
 10
67.58415432144609
 20
33.22114692377263
 30
0.0
 10
67.32493433876238
 20
33.30272340663125
 30
0.0
 10
66.80656766094208
 20
33.46585330877033
 30
0.0
 10
66.00832331316819
 20
33.64139789378508
 30
0.0
 10
65.19505639895016
 20
33.74686405963233
 30
0.0
 10
64.41115494803117
 20
33.76803453570769
 30
0.0
 10
63.66988015131575
 20
33.71296087435767
 30
0.0
 10
62.73309246286023
 20
33.56850630368749
 30
0.0
 10
62.0453378943176
 20
33.36057691928345
 30
0.0
 10
61.58415432144607
 20
33.22114692377264
 30
0.0
  0
LINE
  5
E4
330
1F
100
AcDbEntity
  8
0
  6
Continuous
 62
     7
370
    25
100
AcDbLine
 10
67.5841543214
 20
23.5816188281
 30
0.0
 11
67.5841543214
 21
33.2211469238
 31
0.0
  0
SPLINE
  5
E5
330
1F
100
AcDbEntity
  8
0
  6
Continuous
 62
     7
370
    25
100
AcDbSpline
210
0.0
220
0.0
230
1.0
 70
    24
 71
     3
 72
    12
 73
     8
 74
     0
 42
0.00000001
 43
0.00000001
 40
0.0
 40
0.0
 40
0.0
 40
0.0
 40
0.0072676815355728
 40
0.2583361874557297
 40
0.5160970307829079
 40
0.7739294552431251
 40
1.0
 40
1.0
 40
1.0
 40
1.0
 10
67.5841543214461
 20
33.75567992016025
 30
0.0
 10
67.5841543214461
 20
33.756024155848
 30
0.0
 10
67.58415432144612
 20
33.76826031874553
 30
0.0
 10
67.5841543214461
 20
33.72404173391617
 30
0.0
 10
67.5841543214461
 20
33.61508111128244
 30
0.0
 10
67.58415432144609
 20
33.44145095722609
 30
0.0
 10
67.58415432144609
 20
33.29129637565315
 30
0.0
 10
67.58415432144609
 20
33.22114692377263
 30
0.0
  0
SPLINE
  5
E6
330
1F
100
AcDbEntity
  8
0
  6
Continuous
 62
     7
370
    25
100
AcDbSpline
210
0.0
220
0.0
230
1.0
 70
    24
 71
     3
 72
    12
 73
     8
 74
     0
 42
0.00000001
 43
0.00000001
 40
0.0
 40
0.0
 40
0.0
 40
0.0
 40
0.2260702282847316
 40
0.4774586548374654
 40
0.728782154897515
 40
0.9862900169026442
 40
1.0
 40
1.0
 40
1.0
 40
1.0
 10
55.58415432144607
 20
33.22114692377263
 30
0.0
 10
55.58415432144608
 20
33.29130408463757
 30
0.0
 10
55.58415432144609
 20
33.43947549096536
 30
0.0
 10
55.5841543214461
 20
33.61069694854724
 30
0.0
 10
55.58415432144611
 20
33.72156868913669
 30
0.0
 10
55.58415432144611
 20
33.76815022753227
 30
0.0
 10
55.58415432144611
 20
33.75537279117012
 30
0.0
 10
55.58415432144611
 20
33.75472689548252
 30
0.0
  0
LINE
  5
E7
330
1F
100
AcDbEntity
  8
0
  6
Continuous
 62
     7
370
    25
100
AcDbLine
 10
67.3341543214
 20
33.9013828759
 30
0.0
 11
55.8341543214
 21
33.9013828759
 31
0.0
  0
SPLINE
  5
E8
330
1F
100
AcDbEntity
  8
0
  6
Continuous
 62
     7
370
    25
100
AcDbSpline
210
0.0
220
0.0
230
1.0
 70
    24
 71
     3
 72
    14
 73
    10
 74
     0
 42
0.00000001
 43
0.00000001
 40
0.0
 40
0.0
 40
0.0
 40
0.0
 40
0.1323155559186239
 40
0.2645937031373487
 40
0.399830861739033
 40
0.5350436161531051
 40
0.6502468603041217
 40
0.765468075436007
 40
0.9999999999999999
 40
0.9999999999999999
 40
0.9999999999999999
 40
0.9999999999999999
 10
55.58415432144615
 20
17.61715054090963
 30
0.0
 10
55.84337430412987
 20
17.76681126769141
 30
0.0
 10
56.36174098195019
 20
18.06609040866989
 30
0.0
 10
57.15998532972407
 20
18.52695699773624
 30
0.0
 10
57.97325224394211
 20
18.99649686958303
 30
0.0
 10
58.7571536948611
 20
19.44908258328924
 30
0.0
 10
59.4984284915765
 20
19.87705778671636
 30
0.0
 10
60.435216180032
 20
20.41791241081966
 30
0.0
 10
61.1229707485746
 20
20.81498769610412
 30
0.0
 10
61.58415432144612
 20
21.08125215604732
 30
0.0
  0
SPLINE
  5
E9
330
1F
100
AcDbEntity
  8
0
  6
Continuous
 62
     7
370
    25
100
AcDbSpline
210
0.0
220
0.0
230
1.0
 70
    24
 71
     3
 72
    14
 73
    10
 74
     0
 42
0.00000001
 43
0.00000001
 40
0.0
 40
0.0
 40
0.0
 40
0.0
 40
0.1323155559186225
 40
0.2645937031373455
 40
0.3998308617390279
 40
0.5350436161530984
 40
0.6502468603041165
 40
0.7654680754360035
 40
1.0
 40
1.0
 40
1.0
 40
1.0
 10
61.58415432144612
 20
21.08125215604732
 30
0.0
 10
61.84337430412984
 20
20.93159142926554
 30
0.0
 10
62.36174098195015
 20
20.63231228828706
 30
0.0
 10
63.15998532972403
 20
20.17144569922071
 30
0.0
 10
63.97325224394207
 20
19.70190582737391
 30
0.0
 10
64.75715369486106
 20
19.2493201136677
 30
0.0
 10
65.49842849157648
 20
18.82134491024056
 30
0.0
 10
66.43521618003199
 20
18.28049028613724
 30
0.0
 10
67.12297074857462
 20
17.88341500085276
 30
0.0
 10
67.58415432144612
 20
17.61715054090955
 30
0.0
  0
SPLINE
  5
EA
330
1F
100
AcDbEntity
  8
0
  6
Continuous
 62
     7
370
    25
100
AcDbSpline
210
0.0
220
0.0
230
1.0
 70
    24
 71
     3
 72
    14
 73
    10
 74
     0
 42
0.00000001
 43
0.00000001
 40
0.0
 40
0.0
 40
0.0
 40
0.0
 40
0.1881834863217924
 40
0.3780973734199338
 40
0.5036314984992455
 40
0.6291663438343802
 40
0.7580473736630337
 40
0.8869641942270963
 40
1.0
 40
1.0
 40
1.0
 40
1.0
 10
67.58415432144612
 20
17.61715054090955
 30
0.0
 10
67.58415432144612
 20
17.19060774448073
 30
0.0
 10
67.58415432144614
 20
16.33359996907394
 30
0.0
 10
67.5841543214461
 20
15.16101116162343
 30
0.0
 10
67.58415432144612
 20
14.12723021080086
 30
0.0
 10
67.58415432144612
 20
13.23630476594006
 30
0.0
 10
67.5841543214461
 20
12.34442042200964
 30
0.0
 10
67.58415432144609
 20
11.4914486719003
 30
0.0
 10
67.58415432144609
 20
10.94448067397616
 30
0.0
 10
67.58415432144609
 20
10.68894731063402
 30
0.0
  0
SPLINE
  5
EB
330
1F
100
AcDbEntity
  8
0
  6
Continuous
 62
     7
370
    25
100
AcDbSpline
210
0.0
220
0.0
230
1.0
 70
    24
 71
     3
 72
    14
 73
    10
 74
     0
 42
0.00000001
 43
0.00000001
 40
0.0
 40
0.0
 40
0.0
 40
0.0
 40
0.1323155559186222
 40
0.264593703137345
 40
0.3998308617390272
 40
0.5350436161530976
 40
0.6502468603041159
 40
0.7654680754360031
 40
1.0
 40
1.0
 40
1.0
 40
1.0
 10
67.58415432144609
 20
10.68894731063402
 30
0.0
 10
67.32493433876238
 20
10.53928658385225
 30
0.0
 10
66.80656766094208
 20
10.24000744287376
 30
0.0
 10
66.00832331316819
 20
9.77914085380742
 30
0.0
 10
65.19505639895016
 20
9.309600981960628
 30
0.0
 10
64.41115494803117
 20
8.857015268254418
 30
0.0
 10
63.66988015131575
 20
8.429040064827285
 30
0.0
 10
62.73309246286023
 20
7.888185440723974
 30
0.0
 10
62.0453378943176
 20
7.4911101554395
 30
0.0
 10
61.58415432144607
 20
7.224845695496293
 30
0.0
  0
SPLINE
  5
EC
330
1F
100
AcDbEntity
  8
0
  6
Continuous
 62
     7
370
    25
100
AcDbSpline
210
0.0
220
0.0
230
1.0
 70
    24
 71
     3
 72
    14
 73
    10
 74
     0
 42
0.00000001
 43
0.00000001
 40
0.0
 40
0.0
 40
0.0
 40
0.0
 40
0.1323155559186222
 40
0.2645937031373451
 40
0.3998308617390274
 40
0.5350436161530976
 40
0.6502468603041159
 40
0.7654680754360031
 40
1.0
 40
1.0
 40
1.0
 40
1.0
 10
61.58415432144607
 20
7.224845695496293
 30
0.0
 10
61.32493433876235
 20
7.374506422278071
 30
0.0
 10
60.80656766094205
 20
7.673785563256565
 30
0.0
 10
60.00832331316818
 20
8.134652152322914
 30
0.0
 10
59.19505639895014
 20
8.604192024169725
 30
0.0
 10
58.41115494803116
 20
9.056777737875944
 30
0.0
 10
57.66988015131574
 20
9.484752941303084
 30
0.0
 10
56.73309246286023
 20
10.02560756540641
 30
0.0
 10
56.0453378943176
 20
10.4226828506909
 30
0.0
 10
55.58415432144608
 20
10.68894731063411
 30
0.0
  0
SPLINE
  5
ED
330
1F
100
AcDbEntity
  8
0
  6
Continuous
 62
     7
370
    25
100
AcDbSpline
210
0.0
220
0.0
230
1.0
 70
    24
 71
     3
 72
    14
 73
    10
 74
     0
 42
0.00000001
 43
0.00000001
 40
0.0
 40
0.0
 40
0.0
 40
0.0
 40
0.1130358674256958
 40
0.23873091834757
 40
0.364393505806762
 40
0.4931482948452618
 40
0.6219015933115537
 40
0.8099221489291576
 40
1.0
 40
1.0
 40
1.0
 40
1.0
 10
55.58415432144608
 20
10.68894731063411
 30
0.0
 10
55.58415432144608
 20
10.94447981805854
 30
0.0
 10
55.58415432144609
 20
11.48416258915057
 30
0.0
 10
55.58415432144609
 20
12.32214362377672
 30
0.0
 10
55.58415432144611
 20
13.20614052056253
 30
0.0
 10
55.58415432144611
 20
14.10454225541702
 30
0.0
 10
55.58415432144612
 20
15.14908749394083
 30
0.0
 10
55.58415432144614
 20
16.32920855045856
 30
0.0
 10
55.58415432144615
 20
17.18628205158856
 30
0.0
 10
55.58415432144615
 20
17.61715054090963
 30
0.0
  0
CIRCLE
  5
EE
330
1F
100
AcDbEntity
  8
0
  6
Continuous
 62
     7
370
    25
100
AcDbCircle
 10
61.5841543214
 20
14.1530489258
 30
0.0
 40
5.75
  0
CIRCLE
  5
EF
330
1F
100
AcDbEntity
  8
0
  6
Continuous
 62
     7
370
    25
100
AcDbCircle
 10
61.5841543214
 20
14.1530489258
 30
0.0
 40
3.275000000000006
  0
CIRCLE
  5
F0
330
1F
100
AcDbEntity
  8
0
  6
Continuous
 62
     7
370
    25
100
AcDbCircle
 10
61.5841543214
 20
14.1530489258
 30
0.0
 40
3.074999999999989
  0
CIRCLE
  5
F1
330
1F
100
AcDbEntity
  8
0
  6
Continuous
 62
     7
370
    25
100
AcDbCircle
 10
61.5841543214
 20
14.1530489258
 30
0.0
 40
3.050000000000008
  0
CIRCLE
  5
F2
330
1F
100
AcDbEntity
  8
0
  6
Continuous
 62
     7
370
    25
100
AcDbCircle
 10
61.5841543214
 20
14.1530489258
 30
0.0
 40
1.999999999999993
  0
LINE
  5
F3
330
1F
100
AcDbEntity
  8
0
  6
Continuous
 62
     7
370
    25
100
AcDbLine
 10
66.4481543214
 20
22.1530489258
 30
0.0
 11
56.7201543214
 21
22.1530489258
 31
0.0
  0
LINE
  5
F4
330
1F
100
AcDbEntity
  8
0
  6
Continuous
 62
     7
370
    25
100
AcDbLine
 10
57.3783829555
 20
18.6530489258
 30
0.0
 11
57.0841543214
 21
18.6530489258
 31
0.0
  0
LINE
  5
F5
330
1F
100
AcDbEntity
  8
0
  6
Continuous
 62
     7
370
    25
100
AcDbLine
 10
57.0841543214
 20
18.4831759447
 30
0.0
 11
57.0841543214
 21
18.6530489258
 31
0.0
  0
LINE
  5
F6
330
1F
100
AcDbEntity
  8
0
  6
Continuous
 62
     7
370
    25
100
AcDbLine
 10
66.0841543214
 20
18.6530489258
 30
0.0
 11
65.7899256874
 21
18.6530489258
 31
0.0
  0
LINE
  5
F7
330
1F
100
AcDbEntity
  8
0
  6
Continuous
 62
     7
370
    25
100
AcDbLine
 10
66.0841543214
 20
18.4831759447
 30
0.0
 11
66.0841543214
 21
18.6530489258
 31
0.0
  0
LINE
  5
F8
330
1F
100
AcDbEntity
  8
0
  6
Continuous
 62
     7
370
    25
100
AcDbLine
 10
66.0841543214
 20
21.8530489258
 30
0.0
 11
57.0841543214
 21
21.8530489258
 31
0.0
  0
INSERT
  5
104
330
1F
100
AcDbEntity
  8
0
  6
Continuous
 62
     7
370
    18
100
AcDbBlockReference
  2
SW_CENTERMARKSYMBOL_0
 10
61.5841543214
 20
14.1530489258
 30
0.0
  0
LINE
  5
105
330
1F
100
AcDbEntity
  8
0
  6
Continuous
 62
     7
370
    25
100
AcDbLine
 10
45.4091868591
 20
47.7646318945
 30
0.0
 11
45.5535244264
 21
48.0146318945
 31
0.0
  0
LINE
  5
106
330
1F
100
AcDbEntity
  8
0
  6
Continuous
 62
     7
370
    25
100
AcDbLine
 10
45.5535244264
 20
59.5146318945
 30
0.0
 11
45.4091868591
 21
59.7646318945
 31
0.0
  0
LINE
  5
107
330
1F
100
AcDbEntity
  8
0
  6
Continuous
 62
     7
370
    25
100
AcDbLine
 10
34.6978619936
 20
59.7646318945
 30
0.0
 11
34.5535244264
 21
59.5146318945
 31
0.0
  0
LINE
  5
108
330
1F
100
AcDbEntity
  8
0
  6
Continuous
 62
     7
370
    25
100
AcDbLine
 10
34.5535244264
 20
48.0146318945
 30
0.0
 11
34.6978619936
 21
47.7646318945
 31
0.0
  0
LINE
  5
109
330
1F
100
AcDbEntity
  8
0
  6
Continuous
 62
     7
370
    25
100
AcDbLine
 10
16.9125189587
 20
47.7646318945
 30
0.0
 11
17.056856526
 21
48.0146318945
 31
0.0
  0
LINE
  5
10A
330
1F
100
AcDbEntity
  8
0
  6
Continuous
 62
     7
370
    25
100
AcDbLine
 10
17.056856526
 20
59.5146318945
 30
0.0
 11
16.9125189587
 21
59.7646318945
 31
0.0
  0
LINE
  5
10B
330
1F
100
AcDbEntity
  8
0
  6
Continuous
 62
     7
370
    25
100
AcDbLine
 10
6.2011940933
 20
59.7646318945
 30
0.0
 11
6.056856526
 21
59.5146318945
 31
0.0
  0
LINE
  5
10C
330
1F
100
AcDbEntity
  8
0
  6
Continuous
 62
     7
370
    25
100
AcDbLine
 10
6.056856526
 20
48.0146318945
 30
0.0
 11
6.2011940933
 21
47.7646318945
 31
0.0
  0
LINE
  5
10D
330
1F
100
AcDbEntity
  8
0
  6
Continuous
 62
     7
370
    25
100
AcDbLine
 10
17.056856526
 20
48.9006318945
 30
0.0
 11
17.8051904762
 21
48.9006318945
 31
0.0
  0
LINE
  5
10E
330
1F
100
AcDbEntity
  8
0
  6
Continuous
 62
     7
370
    25
100
AcDbLine
 10
17.8051904762
 20
58.6286318945
 30
0.0
 11
17.056856526
 21
58.6286318945
 31
0.0
  0
LINE
  5
10F
330
1F
100
AcDbEntity
  8
0
  6
Continuous
 62
     7
370
    25
100
AcDbLine
 10
34.5535244264
 20
58.6286318945
 30
0.0
 11
33.8051904762
 21
58.6286318945
 31
0.0
  0
LINE
  5
110
330
1F
100
AcDbEntity
  8
0
  6
Continuous
 62
     7
370
    25
100
AcDbLine
 10
33.8051904762
 20
48.9006318945
 30
0.0
 11
34.5535244264
 21
48.9006318945
 31
0.0
  0
ARC
  5
111
330
1F
100
AcDbEntity
  8
0
  6
Continuous
 62
     7
370
    25
100
AcDbCircle
 10
18.1051904762
 20
48.9646318945
 30
0.0
 40
0.2999999999999972
100
AcDbArc
 50
90.0
 51
180.0
  0
ARC
  5
112
330
1F
100
AcDbEntity
  8
0
  6
Continuous
 62
     7
370
    25
100
AcDbCircle
 10
18.1051904762
 20
58.5646318945
 30
0.0
 40
0.3000000000000043
100
AcDbArc
 50
180.0
 51
270.0
  0
ARC
  5
113
330
1F
100
AcDbEntity
  8
0
  6
Continuous
 62
     7
370
    25
100
AcDbCircle
 10
33.5051904762
 20
58.5646318945
 30
0.0
 40
0.3000000000000043
100
AcDbArc
 50
270.0
 51
0.0
  0
ARC
  5
114
330
1F
100
AcDbEntity
  8
0
  6
Continuous
 62
     7
370
    25
100
AcDbCircle
 10
33.5051904762
 20
48.9646318945
 30
0.0
 40
0.2999999999999972
100
AcDbArc
 50
0.0
 51
90.0
  0
LINE
  5
115
330
1F
100
AcDbEntity
  8
0
  6
Continuous
 62
     7
370
    25
100
AcDbLine
 10
30.3051904762
 20
49.2646318945
 30
0.0
 11
33.5051904762
 21
49.2646318945
 31
0.0
  0
LINE
  5
116
330
1F
100
AcDbEntity
  8
0
  6
Continuous
 62
     7
370
    25
100
AcDbLine
 10
18.1051904762
 20
49.2646318945
 30
0.0
 11
21.3051904762
 21
49.2646318945
 31
0.0
  0
LINE
  5
117
330
1F
100
AcDbEntity
  8
0
  6
Continuous
 62
     7
370
    25
100
AcDbLine
 10
21.3051904762
 20
58.2646318945
 30
0.0
 11
18.1051904762
 21
58.2646318945
 31
0.0
  0
LINE
  5
118
330
1F
100
AcDbEntity
  8
0
  6
Continuous
 62
     7
370
    25
100
AcDbLine
 10
30.8051904762
 20
58.2646318945
 30
0.0
 11
30.3051904762
 21
58.2646318945
 31
0.0
  0
LINE
  5
119
330
1F
100
AcDbEntity
  8
0
  6
Continuous
 62
     7
370
    25
100
AcDbLine
 10
33.5051904762
 20
58.2646318945
 30
0.0
 11
31.8051904737
 21
58.2646318945
 31
0.0
  0
SPLINE
  5
11A
330
1F
100
AcDbEntity
  8
0
  6
Continuous
 62
     7
370
    25
100
AcDbSpline
210
0.0
220
0.0
230
1.0
 70
     8
 71
     3
 72
    11
 73
     7
 74
     0
 42
0.00000001
 43
0.00000001
 40
0.0
 40
0.0
 40
0.0
 40
0.0
 40
0.2499999577018356
 40
0.499999946255631
 40
0.749999963848326
 40
1.0
 40
1.0
 40
1.0
 40
1.0
 10
31.05519051945177
 20
58.56463189167707
 30
0.0
 10
31.02243125174175
 20
58.56087399812782
 30
0.0
 10
30.95691271227896
 20
58.55335821056558
 30
0.0
 10
30.87427646035712
 20
58.49554590641854
 30
0.0
 10
30.81646415084834
 20
58.4129096743014
 30
0.0
 10
30.80894837472605
 20
58.34739115426213
 30
0.0
 10
30.80519048652542
 20
58.31463189302654
 30
0.0
  0
SPLINE
  5
11B
330
1F
100
AcDbEntity
  8
0
  6
Continuous
 62
     7
370
    25
100
AcDbSpline
210
0.0
220
0.0
230
1.0
 70
     8
 71
     3
 72
    11
 73
     7
 74
     0
 42
0.00000001
 43
0.00000001
 40
0.0
 40
0.0
 40
0.0
 40
0.0
 40
0.2500000003374397
 40
0.5000000005203773
 40
0.7500000004155705
 40
1.0
 40
1.0
 40
1.0
 40
1.0
 10
31.8051904766988
 20
58.31463189444086
 30
0.0
 10
31.80143258317885
 20
58.34739115539282
 30
0.0
 10
31.79391679614127
 20
58.41290967727648
 30
0.0
 10
31.73610449205781
 20
58.49554591154791
 30
0.0
 10
31.65346825730483
 20
58.55335821488177
 30
0.0
 10
31.58794973546298
 20
58.56087400129285
 30
0.0
 10
31.55519047456242
 20
58.56463189449607
 30
0.0
  0
LINE
  5
11C
330
1F
100
AcDbEntity
  8
0
  6
Continuous
 62
     7
370
    25
100
AcDbLine
 10
30.8051904762
 20
58.3149319892
 30
0.0
 11
30.8051904762
 21
58.2646318945
 31
0.0
  0
LINE
  5
11D
330
1F
100
AcDbEntity
  8
0
  6
Continuous
 62
     7
370
    25
100
AcDbLine
 10
31.8051904788
 20
58.2646318942
 30
0.0
 11
31.8051904788
 21
58.3149319889
 31
0.0
  0
LINE
  5
11E
330
1F
100
AcDbEntity
  8
0
  6
Continuous
 62
     7
370
    25
100
AcDbLine
 10
31.5707737974
 20
58.5646318945
 30
0.0
 11
31.0396071561
 21
58.5646318945
 31
0.0
  0
SPLINE
  5
11F
330
1F
100
AcDbEntity
  8
0
  6
Continuous
 62
     7
370
    25
100
AcDbSpline
210
0.0
220
0.0
230
1.0
 70
     8
 71
     3
 72
    14
 73
    10
 74
     0
 42
0.00000001
 43
0.00000001
 40
0.0
 40
0.0
 40
0.0
 40
0.0
 40
0.1323155559186242
 40
0.2645937031373489
 40
0.3998308617390331
 40
0.5350436161531053
 40
0.6502468603041218
 40
0.7654680754360071
 40
1.0
 40
1.0
 40
1.0
 40
1.0
 10
44.87328847419128
 20
47.76463189449784
 30
0.0
 10
44.95486495704989
 20
48.02385187718156
 30
0.0
 10
45.11799485918896
 20
48.54221855500187
 30
0.0
 10
45.29353944420372
 20
49.34046290277576
 30
0.0
 10
45.39900561005096
 20
50.1537298169938
 30
0.0
 10
45.4201760861263
 20
50.93763126791278
 30
0.0
 10
45.3651024247763
 20
51.67890606462819
 30
0.0
 10
45.2206478541061
 20
52.61569375308369
 30
0.0
 10
45.01271846970208
 20
53.3034483216263
 30
0.0
 10
44.87328847419128
 20
53.76463189449781
 30
0.0
  0
SPLINE
  5
120
330
1F
100
AcDbEntity
  8
0
  6
Continuous
 62
     7
370
    25
100
AcDbSpline
210
0.0
220
0.0
230
1.0
 70
     8
 71
     3
 72
    14
 73
    10
 74
     0
 42
0.00000001
 43
0.00000001
 40
0.0
 40
0.0
 40
0.0
 40
0.0
 40
0.1323155559186225
 40
0.2645937031373455
 40
0.3998308617390279
 40
0.5350436161530984
 40
0.6502468603041164
 40
0.7654680754360034
 40
1.0
 40
1.0
 40
1.0
 40
1.0
 10
44.87328847419128
 20
53.76463189449781
 30
0.0
 10
44.95486495704989
 20
54.02385187718154
 30
0.0
 10
45.11799485918897
 20
54.54221855500184
 30
0.0
 10
45.29353944420374
 20
55.34046290277571
 30
0.0
 10
45.39900561005096
 20
56.15372981699376
 30
0.0
 10
45.42017608612633
 20
56.93763126791274
 30
0.0
 10
45.3651024247763
 20
57.67890606462816
 30
0.0
 10
45.22064785410614
 20
58.61569375308368
 30
0.0
 10
45.01271846970209
 20
59.30344832162629
 30
0.0
 10
44.87328847419128
 20
59.76463189449782
 30
0.0
  0
SPLINE
  5
121
330
1F
100
AcDbEntity
  8
0
  6
Continuous
 62
     7
370
    25
100
AcDbSpline
210
0.0
220
0.0
230
1.0
 70
    24
 71
     3
 72
    10
 73
     6
 74
     0
 42
0.00000001
 43
0.00000001
 40
0.0
 40
0.0
 40
0.0
 40
0.0
 40
0.3763687486645028
 40
0.7561983152127216
 40
1.0
 40
1.0
 40
1.0
 40
1.0
 10
44.87328847419128
 20
59.76463189449782
 30
0.0
 10
44.98621257234421
 20
59.76463189449782
 30
0.0
 10
45.21309913790839
 20
59.76463189449783
 30
0.0
 10
45.38404214553066
 20
59.7646318944978
 30
0.0
 10
45.40113802651259
 20
59.76463189449781
 30
0.0
 10
45.40782147057892
 20
59.76463189449781
 30
0.0
  0
SPLINE
  5
122
330
1F
100
AcDbEntity
  8
0
  6
Continuous
 62
     7
370
    25
100
AcDbSpline
210
0.0
220
0.0
230
1.0
 70
    24
 71
     3
 72
    10
 73
     6
 74
     0
 42
0.00000001
 43
0.00000001
 40
0.0
 40
0.0
 40
0.0
 40
0.0
 40
0.24379814717802
 40
0.6198417644255476
 40
0.9999999999999999
 40
0.9999999999999999
 40
0.9999999999999999
 40
0.9999999999999999
 10
45.40686844590118
 20
47.76463189449781
 30
0.0
 10
45.40057333747669
 20
47.76463189449781
 30
0.0
 10
45.38456841226192
 20
47.76463189449781
 30
0.0
 10
45.21387523165691
 20
47.76463189449784
 30
0.0
 10
44.98722846742077
 20
47.76463189449784
 30
0.0
 10
44.87328847419128
 20
47.76463189449784
 30
0.0
  0
LINE
  5
123
330
1F
100
AcDbEntity
  8
0
  6
Continuous
 62
     7
370
    25
100
AcDbLine
 10
45.5535244264
 20
48.0146318945
 30
0.0
 11
45.5535244264
 21
59.5146318945
 31
0.0
  0
SPLINE
  5
124
330
1F
100
AcDbEntity
  8
0
  6
Continuous
 62
     7
370
    25
100
AcDbSpline
210
0.0
220
0.0
230
1.0
 70
    24
 71
     3
 72
    10
 73
     6
 74
     0
 42
0.00000001
 43
0.00000001
 40
0.0
 40
0.0
 40
0.0
 40
0.0
 40
0.2437988370187128
 40
0.6198421112226624
 40
1.0
 40
1.0
 40
1.0
 40
1.0
 10
34.69997619512611
 20
47.76463189449781
 30
0.0
 10
34.70635381705252
 20
47.76463189449781
 30
0.0
 10
34.72256849095245
 20
47.76463189449782
 30
0.0
 10
34.89314745829905
 20
47.76463189449783
 30
0.0
 10
35.11981163278844
 20
47.76463189449784
 30
0.0
 10
35.23376037851058
 20
47.76463189449785
 30
0.0
  0
SPLINE
  5
125
330
1F
100
AcDbEntity
  8
0
  6
Continuous
 62
     7
370
    25
100
AcDbSpline
210
0.0
220
0.0
230
1.0
 70
    24
 71
     3
 72
    10
 73
     6
 74
     0
 42
0.00000001
 43
0.00000001
 40
0.0
 40
0.0
 40
0.0
 40
0.0
 40
0.37636805593814
 40
0.7561969233901806
 40
1.0
 40
1.0
 40
1.0
 40
1.0
 10
35.23376037851059
 20
59.76463189449782
 30
0.0
 10
35.12081745099269
 20
59.76463189449782
 30
0.0
 10
34.89389305355724
 20
59.76463189449782
 30
0.0
 10
34.72320125703184
 20
59.76463189449782
 30
0.0
 10
34.70564490930171
 20
59.76463189449782
 30
0.0
 10
34.69878141933557
 20
59.76463189449781
 30
0.0
  0
SPLINE
  5
126
330
1F
100
AcDbEntity
  8
0
  6
Continuous
 62
     7
370
    25
100
AcDbSpline
210
0.0
220
0.0
230
1.0
 70
     8
 71
     3
 72
    14
 73
    10
 74
     0
 42
0.00000001
 43
0.00000001
 40
0.0
 40
0.0
 40
0.0
 40
0.0
 40
0.1323155559186222
 40
0.2645937031373447
 40
0.399830861739027
 40
0.5350436161530974
 40
0.6502468603041155
 40
0.7654680754360024
 40
1.0
 40
1.0
 40
1.0
 40
1.0
 10
35.23376037851059
 20
53.76463189449781
 30
0.0
 10
35.15218389565197
 20
54.02385187718154
 30
0.0
 10
34.98905399351289
 20
54.54221855500184
 30
0.0
 10
34.81350940849813
 20
55.34046290277572
 30
0.0
 10
34.70804324265089
 20
56.15372981699376
 30
0.0
 10
34.68687276657553
 20
56.93763126791274
 30
0.0
 10
34.74194642792556
 20
57.67890606462816
 30
0.0
 10
34.88640099859572
 20
58.61569375308368
 30
0.0
 10
35.09433038299977
 20
59.3034483216263
 30
0.0
 10
35.23376037851059
 20
59.76463189449782
 30
0.0
  0
SPLINE
  5
127
330
1F
100
AcDbEntity
  8
0
  6
Continuous
 62
     7
370
    25
100
AcDbSpline
210
0.0
220
0.0
230
1.0
 70
     8
 71
     3
 72
    14
 73
    10
 74
     0
 42
0.00000001
 43
0.00000001
 40
0.0
 40
0.0
 40
0.0
 40
0.0
 40
0.1323155559186243
 40
0.2645937031373493
 40
0.3998308617390329
 40
0.5350436161531045
 40
0.6502468603041216
 40
0.7654680754360075
 40
1.0
 40
1.0
 40
1.0
 40
1.0
 10
35.23376037851058
 20
47.76463189449785
 30
0.0
 10
35.15218389565197
 20
48.02385187718157
 30
0.0
 10
34.98905399351289
 20
48.54221855500188
 30
0.0
 10
34.81350940849813
 20
49.34046290277576
 30
0.0
 10
34.70804324265089
 20
50.1537298169938
 30
0.0
 10
34.68687276657555
 20
50.93763126791278
 30
0.0
 10
34.74194642792558
 20
51.67890606462819
 30
0.0
 10
34.88640099859573
 20
52.61569375308369
 30
0.0
 10
35.09433038299978
 20
53.3034483216263
 30
0.0
 10
35.23376037851059
 20
53.76463189449781
 30
0.0
  0
LINE
  5
128
330
1F
100
AcDbEntity
  8
0
  6
Continuous
 62
     7
370
    25
100
AcDbLine
 10
34.5535244264
 20
48.0146318945
 30
0.0
 11
34.5535244264
 21
59.5146318945
 31
0.0
  0
LINE
  5
129
330
1F
100
AcDbEntity
  8
0
  6
Continuous
 62
     7
370
    25
100
AcDbLine
 10
35.2337603785
 20
59.7646318945
 30
0.0
 11
44.8732884742
 21
59.7646318945
 31
0.0
  0
LINE
  5
12A
330
1F
100
AcDbEntity
  8
0
  6
Continuous
 62
     7
370
    25
100
AcDbLine
 10
35.2337603785
 20
53.7646318945
 30
0.0
 11
44.8732884742
 21
53.7646318945
 31
0.0
  0
LINE
  5
12B
330
1F
100
AcDbEntity
  8
0
  6
Continuous
 62
     7
370
    25
100
AcDbLine
 10
35.2337603785
 20
47.7646318945
 30
0.0
 11
44.8732884742
 21
47.7646318945
 31
0.0
  0
SPLINE
  5
12C
330
1F
100
AcDbEntity
  8
0
  6
Continuous
 62
     7
370
    25
100
AcDbSpline
210
0.0
220
0.0
230
1.0
 70
    24
 71
     3
 72
    14
 73
    10
 74
     0
 42
0.00000001
 43
0.00000001
 40
0.0
 40
0.0
 40
0.0
 40
0.0
 40
0.1323155559186243
 40
0.2645937031373489
 40
0.3998308617390332
 40
0.5350436161531054
 40
0.6502468603041219
 40
0.7654680754360071
 40
1.0
 40
1.0
 40
1.0
 40
1.0
 10
29.26929209132836
 20
59.76463189449779
 30
0.0
 10
29.41895281811013
 20
59.50541191181406
 30
0.0
 10
29.71823195908862
 20
58.98704523399375
 30
0.0
 10
30.17909854815496
 20
58.18880088621986
 30
0.0
 10
30.64863842000176
 20
57.37553397200182
 30
0.0
 10
31.10122413370796
 20
56.59163252108284
 30
0.0
 10
31.52919933713509
 20
55.85035772436743
 30
0.0
 10
32.07005396123838
 20
54.91357003591193
 30
0.0
 10
32.46712924652284
 20
54.22581546736933
 30
0.0
 10
32.73339370646605
 20
53.76463189449781
 30
0.0
  0
SPLINE
  5
12D
330
1F
100
AcDbEntity
  8
0
  6
Continuous
 62
     7
370
    25
100
AcDbSpline
210
0.0
220
0.0
230
1.0
 70
    24
 71
     3
 72
    14
 73
    10
 74
     0
 42
0.00000001
 43
0.00000001
 40
0.0
 40
0.0
 40
0.0
 40
0.0
 40
0.1323155559186225
 40
0.2645937031373456
 40
0.399830861739028
 40
0.5350436161530985
 40
0.6502468603041165
 40
0.7654680754360035
 40
1.0
 40
1.0
 40
1.0
 40
1.0
 10
32.73339370646605
 20
53.76463189449781
 30
0.0
 10
32.58373297968427
 20
53.50541191181409
 30
0.0
 10
32.28445383870578
 20
52.98704523399378
 30
0.0
 10
31.82358724963943
 20
52.1888008862199
 30
0.0
 10
31.35404737779263
 20
51.37553397200187
 30
0.0
 10
30.90146166408642
 20
50.59163252108289
 30
0.0
 10
30.47348646065928
 20
49.85035772436747
 30
0.0
 10
29.93263183655596
 20
48.91357003591195
 30
0.0
 10
29.53555655127148
 20
48.22581546736933
 30
0.0
 10
29.26929209132827
 20
47.7646318944978
 30
0.0
  0
SPLINE
  5
12E
330
1F
100
AcDbEntity
  8
0
  6
Continuous
 62
     7
370
    25
100
AcDbSpline
210
0.0
220
0.0
230
1.0
 70
    24
 71
     3
 72
    14
 73
    10
 74
     0
 42
0.00000001
 43
0.00000001
 40
0.0
 40
0.0
 40
0.0
 40
0.0
 40
0.1881834863217924
 40
0.3780973734199337
 40
0.5036314984992454
 40
0.6291663438343802
 40
0.7580473736630338
 40
0.8869641942270964
 40
0.9999999999999999
 40
0.9999999999999999
 40
0.9999999999999999
 40
0.9999999999999999
 10
29.26929209132827
 20
47.7646318944978
 30
0.0
 10
28.84274929489944
 20
47.7646318944978
 30
0.0
 10
27.98574151949266
 20
47.7646318944978
 30
0.0
 10
26.81315271204215
 20
47.76463189449782
 30
0.0
 10
25.77937176121958
 20
47.76463189449782
 30
0.0
 10
24.88844631635878
 20
47.76463189449781
 30
0.0
 10
23.99656197242837
 20
47.76463189449782
 30
0.0
 10
23.14359022231902
 20
47.76463189449782
 30
0.0
 10
22.59662222439488
 20
47.76463189449783
 30
0.0
 10
22.34108886105274
 20
47.76463189449783
 30
0.0
  0
SPLINE
  5
12F
330
1F
100
AcDbEntity
  8
0
  6
Continuous
 62
     7
370
    25
100
AcDbSpline
210
0.0
220
0.0
230
1.0
 70
    24
 71
     3
 72
    14
 73
    10
 74
     0
 42
0.00000001
 43
0.00000001
 40
0.0
 40
0.0
 40
0.0
 40
0.0
 40
0.1323155559186222
 40
0.2645937031373451
 40
0.3998308617390272
 40
0.5350436161530975
 40
0.6502468603041158
 40
0.765468075436003
 40
1.0
 40
1.0
 40
1.0
 40
1.0
 10
22.34108886105274
 20
47.76463189449783
 30
0.0
 10
22.19142813427097
 20
48.02385187718155
 30
0.0
 10
21.89214899329248
 20
48.54221855500186
 30
0.0
 10
21.43128240422614
 20
49.34046290277574
 30
0.0
 10
20.96174253237935
 20
50.15372981699378
 30
0.0
 10
20.50915681867314
 20
50.93763126791276
 30
0.0
 10
20.08118161524601
 20
51.67890606462819
 30
0.0
 10
19.5403269911427
 20
52.61569375308371
 30
0.0
 10
19.14325170585822
 20
53.30344832162633
 30
0.0
 10
18.87698724591501
 20
53.76463189449786
 30
0.0
  0
SPLINE
  5
130
330
1F
100
AcDbEntity
  8
0
  6
Continuous
 62
     7
370
    25
100
AcDbSpline
210
0.0
220
0.0
230
1.0
 70
    24
 71
     3
 72
    14
 73
    10
 74
     0
 42
0.00000001
 43
0.00000001
 40
0.0
 40
0.0
 40
0.0
 40
0.0
 40
0.1323155559186223
 40
0.264593703137345
 40
0.3998308617390273
 40
0.5350436161530975
 40
0.6502468603041159
 40
0.7654680754360031
 40
1.0
 40
1.0
 40
1.0
 40
1.0
 10
18.87698724591501
 20
53.76463189449786
 30
0.0
 10
19.02664797269679
 20
54.02385187718158
 30
0.0
 10
19.32592711367528
 20
54.54221855500189
 30
0.0
 10
19.78679370274164
 20
55.34046290277576
 30
0.0
 10
20.25633357458845
 20
56.15372981699379
 30
0.0
 10
20.70891928829467
 20
56.93763126791278
 30
0.0
 10
21.1368944917218
 20
57.67890606462819
 30
0.0
 10
21.67774911582514
 20
58.61569375308371
 30
0.0
 10
22.07482440110961
 20
59.30344832162633
 30
0.0
 10
22.34108886105283
 20
59.76463189449785
 30
0.0
  0
SPLINE
  5
131
330
1F
100
AcDbEntity
  8
0
  6
Continuous
 62
     7
370
    25
100
AcDbSpline
210
0.0
220
0.0
230
1.0
 70
    24
 71
     3
 72
    14
 73
    10
 74
     0
 42
0.00000001
 43
0.00000001
 40
0.0
 40
0.0
 40
0.0
 40
0.0
 40
0.1130358674256956
 40
0.2387309183475699
 40
0.364393505806762
 40
0.4931482948452619
 40
0.6219015933115538
 40
0.8099221489291576
 40
1.0
 40
1.0
 40
1.0
 40
1.0
 10
22.34108886105283
 20
59.76463189449785
 30
0.0
 10
22.59662136847725
 20
59.76463189449785
 30
0.0
 10
23.13630413956929
 20
59.76463189449785
 30
0.0
 10
23.97428517419544
 20
59.76463189449784
 30
0.0
 10
24.85828207098125
 20
59.76463189449782
 30
0.0
 10
25.75668380583574
 20
59.76463189449782
 30
0.0
 10
26.80122904435955
 20
59.76463189449782
 30
0.0
 10
27.98135010087728
 20
59.76463189449779
 30
0.0
 10
28.83842360200729
 20
59.76463189449779
 30
0.0
 10
29.26929209132836
 20
59.76463189449779
 30
0.0
  0
CIRCLE
  5
132
330
1F
100
AcDbEntity
  8
0
  6
Continuous
 62
     7
370
    25
100
AcDbCircle
 10
25.8051904762
 20
53.7646318945
 30
0.0
 40
5.750000000000007
  0
CIRCLE
  5
133
330
1F
100
AcDbEntity
  8
0
  6
Continuous
 62
     7
370
    25
100
AcDbCircle
 10
25.8051904762
 20
53.7646318945
 30
0.0
 40
3.274999999999999
  0
CIRCLE
  5
134
330
1F
100
AcDbEntity
  8
0
  6
Continuous
 62
     7
370
    25
100
AcDbCircle
 10
25.8051904762
 20
53.7646318945
 30
0.0
 40
3.074999999999989
  0
SPLINE
  5
135
330
1F
100
AcDbEntity
  8
0
  6
Continuous
 62
     7
370
    25
100
AcDbSpline
210
0.0
220
0.0
230
1.0
 70
     8
 71
     3
 72
    14
 73
    10
 74
     0
 42
0.00000001
 43
0.00000001
 40
0.0
 40
0.0
 40
0.0
 40
0.0
 40
0.1323155559186243
 40
0.2645937031373493
 40
0.3998308617390329
 40
0.5350436161531045
 40
0.6502468603041216
 40
0.7654680754360075
 40
1.0
 40
1.0
 40
1.0
 40
1.0
 10
16.37662057387035
 20
59.76463189449778
 30
0.0
 10
16.45819705672897
 20
59.50541191181406
 30
0.0
 10
16.62132695886805
 20
58.98704523399374
 30
0.0
 10
16.7968715438828
 20
58.18880088621986
 30
0.0
 10
16.90233770973003
 20
57.37553397200182
 30
0.0
 10
16.9235081858054
 20
56.59163252108283
 30
0.0
 10
16.86843452445536
 20
55.85035772436743
 30
0.0
 10
16.7239799537852
 20
54.91357003591194
 30
0.0
 10
16.51605056938116
 20
54.22581546736933
 30
0.0
 10
16.37662057387035
 20
53.76463189449781
 30
0.0
  0
LINE
  5
136
330
1F
100
AcDbEntity
  8
0
  6
Continuous
 62
     7
370
    25
100
AcDbLine
 10
16.3766205739
 20
53.7646318945
 30
0.0
 11
6.7370924782
 21
53.7646318945
 31
0.0
  0
SPLINE
  5
137
330
1F
100
AcDbEntity
  8
0
  6
Continuous
 62
     7
370
    25
100
AcDbSpline
210
0.0
220
0.0
230
1.0
 70
     8
 71
     3
 72
    14
 73
    10
 74
     0
 42
0.00000001
 43
0.00000001
 40
0.0
 40
0.0
 40
0.0
 40
0.0
 40
0.1323155559186242
 40
0.2645937031373489
 40
0.3998308617390332
 40
0.5350436161531054
 40
0.6502468603041218
 40
0.7654680754360071
 40
1.0
 40
1.0
 40
1.0
 40
1.0
 10
6.737092478189658
 20
59.76463189449778
 30
0.0
 10
6.655515995331037
 20
59.50541191181406
 30
0.0
 10
6.492386093191964
 20
58.98704523399374
 30
0.0
 10
6.316841508177216
 20
58.18880088621986
 30
0.0
 10
6.211375342329972
 20
57.37553397200182
 30
0.0
 10
6.190204866254621
 20
56.59163252108284
 30
0.0
 10
6.245278527604647
 20
55.85035772436742
 30
0.0
 10
6.389733098274817
 20
54.91357003591193
 30
0.0
 10
6.597662482678856
 20
54.22581546736933
 30
0.0
 10
6.737092478189658
 20
53.76463189449781
 30
0.0
  0
LINE
  5
138
330
1F
100
AcDbEntity
  8
0
  6
Continuous
 62
     7
370
    25
100
AcDbLine
 10
16.3766205739
 20
59.7646318945
 30
0.0
 11
6.7370924782
 21
59.7646318945
 31
0.0
  0
SPLINE
  5
139
330
1F
100
AcDbEntity
  8
0
  6
Continuous
 62
     7
370
    25
100
AcDbSpline
210
0.0
220
0.0
230
1.0
 70
    24
 71
     3
 72
    10
 73
     6
 74
     0
 42
0.00000001
 43
0.00000001
 40
0.0
 40
0.0
 40
0.0
 40
0.0
 40
0.2437988370187217
 40
0.6198421112226667
 40
0.9999999999999999
 40
0.9999999999999999
 40
0.9999999999999999
 40
0.9999999999999999
 10
16.91040475725482
 20
59.76463189449781
 30
0.0
 10
16.90402713532842
 20
59.76463189449781
 30
0.0
 10
16.88781246142849
 20
59.7646318944978
 30
0.0
 10
16.71723349408188
 20
59.7646318944978
 30
0.0
 10
16.4905693195925
 20
59.76463189449778
 30
0.0
 10
16.37662057387035
 20
59.76463189449778
 30
0.0
  0
SPLINE
  5
13A
330
1F
100
AcDbEntity
  8
0
  6
Continuous
 62
     7
370
    25
100
AcDbSpline
210
0.0
220
0.0
230
1.0
 70
    24
 71
     3
 72
    10
 73
     6
 74
     0
 42
0.00000001
 43
0.00000001
 40
0.0
 40
0.0
 40
0.0
 40
0.0
 40
0.3763680559381444
 40
0.7561969233901895
 40
0.9999999999999999
 40
0.9999999999999999
 40
0.9999999999999999
 40
0.9999999999999999
 10
16.37662057387035
 20
47.7646318944978
 30
0.0
 10
16.48956350138825
 20
47.7646318944978
 30
0.0
 10
16.71648789882368
 20
47.7646318944978
 30
0.0
 10
16.8871796953491
 20
47.76463189449781
 30
0.0
 10
16.90473604307923
 20
47.76463189449781
 30
0.0
 10
16.91159953304537
 20
47.76463189449781
 30
0.0
  0
SPLINE
  5
13B
330
1F
100
AcDbEntity
  8
0
  6
Continuous
 62
     7
370
    25
100
AcDbSpline
210
0.0
220
0.0
230
1.0
 70
     8
 71
     3
 72
    14
 73
    10
 74
     0
 42
0.00000001
 43
0.00000001
 40
0.0
 40
0.0
 40
0.0
 40
0.0
 40
0.1323155559186222
 40
0.2645937031373448
 40
0.3998308617390271
 40
0.5350436161530975
 40
0.6502468603041155
 40
0.7654680754360025
 40
1.0
 40
1.0
 40
1.0
 40
1.0
 10
16.37662057387035
 20
53.76463189449781
 30
0.0
 10
16.45819705672897
 20
53.50541191181409
 30
0.0
 10
16.62132695886805
 20
52.98704523399378
 30
0.0
 10
16.79687154388281
 20
52.1888008862199
 30
0.0
 10
16.90233770973005
 20
51.37553397200187
 30
0.0
 10
16.9235081858054
 20
50.59163252108289
 30
0.0
 10
16.86843452445538
 20
49.85035772436747
 30
0.0
 10
16.72397995378521
 20
48.91357003591195
 30
0.0
 10
16.51605056938116
 20
48.22581546736932
 30
0.0
 10
16.37662057387035
 20
47.7646318944978
 30
0.0
  0
LINE
  5
13C
330
1F
100
AcDbEntity
  8
0
  6
Continuous
 62
     7
370
    25
100
AcDbLine
 10
17.056856526
 20
59.5146318945
 30
0.0
 11
17.056856526
 21
48.0146318945
 31
0.0
  0
SPLINE
  5
13D
330
1F
100
AcDbEntity
  8
0
  6
Continuous
 62
     7
370
    25
100
AcDbSpline
210
0.0
220
0.0
230
1.0
 70
     8
 71
     3
 72
    14
 73
    10
 74
     0
 42
0.00000001
 43
0.00000001
 40
0.0
 40
0.0
 40
0.0
 40
0.0
 40
0.1323155559186225
 40
0.2645937031373455
 40
0.3998308617390279
 40
0.5350436161530984
 40
0.6502468603041164
 40
0.7654680754360034
 40
1.0
 40
1.0
 40
1.0
 40
1.0
 10
6.737092478189655
 20
53.76463189449781
 30
0.0
 10
6.65551599533104
 20
53.50541191181409
 30
0.0
 10
6.492386093191964
 20
52.98704523399378
 30
0.0
 10
6.316841508177198
 20
52.1888008862199
 30
0.0
 10
6.211375342329968
 20
51.37553397200187
 30
0.0
 10
6.190204866254611
 20
50.59163252108289
 30
0.0
 10
6.245278527604634
 20
49.85035772436747
 30
0.0
 10
6.389733098274796
 20
48.91357003591195
 30
0.0
 10
6.597662482678849
 20
48.22581546736933
 30
0.0
 10
6.737092478189655
 20
47.7646318944978
 30
0.0
  0
SPLINE
  5
13E
330
1F
100
AcDbEntity
  8
0
  6
Continuous
 62
     7
370
    25
100
AcDbSpline
210
0.0
220
0.0
230
1.0
 70
    24
 71
     3
 72
    10
 73
     6
 74
     0
 42
0.00000001
 43
0.00000001
 40
0.0
 40
0.0
 40
0.0
 40
0.0
 40
0.3763687486645071
 40
0.7561983152127304
 40
1.0
 40
1.0
 40
1.0
 40
1.0
 10
6.737092478189658
 20
47.7646318944978
 30
0.0
 10
6.624168380036717
 20
47.7646318944978
 30
0.0
 10
6.397281814472557
 20
47.7646318944978
 30
0.0
 10
6.226338806850272
 20
47.76463189449782
 30
0.0
 10
6.209242925868348
 20
47.76463189449782
 30
0.0
 10
6.202559481802019
 20
47.76463189449781
 30
0.0
  0
SPLINE
  5
13F
330
1F
100
AcDbEntity
  8
0
  6
Continuous
 62
     7
370
    25
100
AcDbSpline
210
0.0
220
0.0
230
1.0
 70
    24
 71
     3
 72
    10
 73
     6
 74
     0
 42
0.00000001
 43
0.00000001
 40
0.0
 40
0.0
 40
0.0
 40
0.0
 40
0.2437981471780289
 40
0.6198417644255522
 40
1.0
 40
1.0
 40
1.0
 40
1.0
 10
6.203512506479758
 20
59.76463189449782
 30
0.0
 10
6.209807614904247
 20
59.76463189449782
 30
0.0
 10
6.225812540119013
 20
59.76463189449782
 30
0.0
 10
6.396505720724015
 20
59.76463189449779
 30
0.0
 10
6.623152484960156
 20
59.76463189449779
 30
0.0
 10
6.737092478189658
 20
59.76463189449778
 30
0.0
  0
LINE
  5
140
330
1F
100
AcDbEntity
  8
0
  6
Continuous
 62
     7
370
    25
100
AcDbLine
 10
6.056856526
 20
59.5146318945
 30
0.0
 11
6.056856526
 21
48.0146318945
 31
0.0
  0
LINE
  5
141
330
1F
100
AcDbEntity
  8
0
  6
Continuous
 62
     7
370
    25
100
AcDbLine
 10
16.3766205739
 20
47.7646318945
 30
0.0
 11
6.7370924782
 21
47.7646318945
 31
0.0
  0
CIRCLE
  5
142
330
1F
100
AcDbEntity
  8
0
  6
Continuous
 62
     7
370
    25
100
AcDbCircle
 10
25.8051904762
 20
53.7646318945
 30
0.0
 40
3.049999999999998
  0
CIRCLE
  5
143
330
1F
100
AcDbEntity
  8
0
  6
Continuous
 62
     7
370
    25
100
AcDbCircle
 10
25.8051904762
 20
53.7646318945
 30
0.0
 40
1.999999999999996
  0
LINE
  5
144
330
1F
100
AcDbEntity
  8
0
  6
Continuous
 62
     7
370
    25
100
AcDbLine
 10
17.8051904762
 20
58.6286318945
 30
0.0
 11
17.8051904762
 21
48.9006318945
 31
0.0
  0
LINE
  5
145
330
1F
100
AcDbEntity
  8
0
  6
Continuous
 62
     7
370
    25
100
AcDbLine
 10
33.8051904762
 20
58.6286318945
 30
0.0
 11
33.8051904762
 21
48.9006318945
 31
0.0
  0
SPLINE
  5
146
330
1F
100
AcDbEntity
  8
0
  6
Continuous
 62
     7
370
    25
100
AcDbSpline
210
0.0
220
0.0
230
1.0
 70
     8
 71
     3
 72
    22
 73
    18
 74
     0
 42
0.00000001
 43
0.00000001
 40
0.0
 40
0.0
 40
0.0
 40
0.0
 40
0.0625
 40
0.0625
 40
0.125
 40
0.125
 40
0.1875
 40
0.1875
 40
0.25
 40
0.25
 40
0.3125
 40
0.3125
 40
0.375
 40
0.375
 40
0.4375
 40
0.4375
 40
0.5
 40
0.5
 40
0.5
 40
0.5
 10
31.80519047617362
 20
58.2646318944978
 30
0.0
 10
31.80518385371244
 20
58.26463189468464
 30
0.0
 10
31.79249710109878
 20
58.26316701675415
 30
0.0
 10
31.74176337553272
 20
58.25796207442126
 30
0.0
 10
31.70560906743874
 20
58.25442770343262
 30
0.0
 10
31.61187864309691
 20
58.24707259203625
 30
0.0
 10
31.55776094334734
 20
58.24354105654663
 30
0.0
 10
31.43530342833038
 20
58.23834472561519
 30
0.0
 10
31.37131760248323
 20
58.23687535116898
 30
0.0
 10
31.23906336258504
 20
58.23689001472233
 30
0.0
 10
31.17492802141609
 20
58.23834960334639
 30
0.0
 10
31.05276953507633
 20
58.24353617781218
 30
0.0
 10
30.99849295028364
 20
58.24707185559221
 30
0.0
 10
30.90478126195313
 20
58.25442843847407
 30
0.0
 10
30.86860533300446
 20
58.2579618586413
 30
0.0
 10
30.81789610479279
 20
58.26316723153676
 30
0.0
 10
30.80519048168604
 20
58.2646318944978
 30
0.0
 10
30.80519047619047
 20
58.2646318944978
 30
0.0
  0
LINE
  5
147
330
1F
100
AcDbEntity
  8
0
  6
Continuous
 62
     7
370
    25
100
AcDbLine
 10
21.3051904762
 20
57.9704032604
 30
0.0
 11
21.3051904762
 21
58.2646318945
 31
0.0
  0
LINE
  5
148
330
1F
100
AcDbEntity
  8
0
  6
Continuous
 62
     7
370
    25
100
AcDbLine
 10
21.3051904762
 20
58.2646318945
 30
0.0
 11
21.4750634573
 21
58.2646318945
 31
0.0
  0
LINE
  5
149
330
1F
100
AcDbEntity
  8
0
  6
Continuous
 62
     7
370
    25
100
AcDbLine
 10
30.3051904762
 20
57.9704032604
 30
0.0
 11
30.3051904762
 21
58.2646318945
 31
0.0
  0
LINE
  5
14A
330
1F
100
AcDbEntity
  8
0
  6
Continuous
 62
     7
370
    25
100
AcDbLine
 10
30.3051904762
 20
58.2646318945
 30
0.0
 11
30.1353174951
 21
58.2646318945
 31
0.0
  0
LINE
  5
14B
330
1F
100
AcDbEntity
  8
0
  6
Continuous
 62
     7
370
    25
100
AcDbLine
 10
21.3051904762
 20
49.2646318945
 30
0.0
 11
21.3051904762
 21
49.5588605286
 31
0.0
  0
LINE
  5
14C
330
1F
100
AcDbEntity
  8
0
  6
Continuous
 62
     7
370
    25
100
AcDbLine
 10
21.3051904762
 20
49.2646318945
 30
0.0
 11
21.4750634573
 21
49.2646318945
 31
0.0
  0
LINE
  5
14D
330
1F
100
AcDbEntity
  8
0
  6
Continuous
 62
     7
370
    25
100
AcDbLine
 10
30.3051904762
 20
49.2646318945
 30
0.0
 11
30.3051904762
 21
49.5588605286
 31
0.0
  0
LINE
  5
14E
330
1F
100
AcDbEntity
  8
0
  6
Continuous
 62
     7
370
    25
100
AcDbLine
 10
30.3051904762
 20
49.2646318945
 30
0.0
 11
30.1353174951
 21
49.2646318945
 31
0.0
  0
LINE
  5
14F
330
1F
100
AcDbEntity
  8
0
  6
Continuous
 62
     7
370
    25
100
AcDbLine
 10
18.1051904762
 20
58.2646318945
 30
0.0
 11
18.1051904762
 21
49.2646318945
 31
0.0
  0
LINE
  5
150
330
1F
100
AcDbEntity
  8
0
  6
Continuous
 62
     7
370
    25
100
AcDbLine
 10
33.5051904762
 20
49.2646318945
 30
0.0
 11
33.5051904762
 21
58.2646318945
 31
0.0
  0
SPLINE
  5
151
330
1F
100
AcDbEntity
  8
0
  6
Continuous
 62
     7
370
    25
100
AcDbSpline
210
0.0
220
0.0
230
1.0
 70
     8
 71
     3
 72
    14
 73
    10
 74
     0
 42
0.00000001
 43
0.00000001
 40
0.0
 40
0.0
 40
0.0
 40
0.0
 40
0.25
 40
0.25
 40
0.5
 40
0.5
 40
0.75
 40
0.75
 40
1.0
 40
1.0
 40
1.0
 40
1.0
 10
31.05519047619047
 20
58.56463189449781
 30
0.0
 10
31.05519048200711
 20
58.56463189477562
 30
0.0
 10
31.07944643619955
 20
58.56297515050197
 30
0.0
 10
31.1710262271841
 20
58.55899694202018
 30
0.0
 10
31.23766008683872
 20
58.55707502895193
 30
0.0
 10
31.37312814649905
 20
58.55706544283316
 30
0.0
 10
31.43999493510843
 20
58.55902353355496
 30
0.0
 10
31.53072783316779
 20
58.56296716324681
 30
0.0
 10
31.55518151342334
 20
58.56463210091579
 30
0.0
 10
31.55519047609078
 20
58.56463189447603
 30
0.0
  0
ARC
  5
152
330
1F
100
AcDbEntity
  8
0
  6
Continuous
 62
     7
370
    25
100
AcDbCircle
 10
31.3051904718
 20
61.8733435113
 30
0.0
 40
3.593665032649248
100
AcDbArc
 50
262.0022783516
 51
277.9977088415
  0
MTEXT
  5
154
330
1F
100
AcDbEntity
  8
0
  6
Continuous
 62
     7
370
     0
100
AcDbMText
 10
36.1057336659
 20
40.5809618001
 30
0.0
 40
1.75
 41
0.0
 71
     1
 72
     1
  1
三方リングチーズ　RT-3106R
  7
SLDTEXTSTYLE0
 73
     1
 44
1.0
  0
INSERT
  5
160
330
1F
100
AcDbEntity
  8
0
  6
Continuous
 62
     7
370
    18
100
AcDbBlockReference
  2
SW_CENTERMARKSYMBOL_1
 10
25.8051904762
 20
53.7646318945
 30
0.0
  0
ENDSEC
  0
SECTION
  2
OBJECTS
  0
DICTIONARY
  5
C
330
0
100
AcDbDictionary
281
     1
  3
ACAD_GROUP
350
D
  3
ACAD_LAYOUT
350
1A
  3
ACAD_MLINESTYLE
350
17
  3
ACAD_PLOTSETTINGS
350
19
  3
ACAD_PLOTSTYLENAME
350
E
  3
ACAD_SCALELIST
350
47
  3
DWGPROPS
350
161
  0
DICTIONARY
  5
D
102
{ACAD_REACTORS
330
C
102
}
330
C
100
AcDbDictionary
281
     1
  0
DICTIONARY
  5
1A
102
{ACAD_REACTORS
330
C
102
}
330
C
100
AcDbDictionary
281
     1
  3
Layout1
350
1E
  3
Layout2
350
26
  3
Model
350
22
  0
DICTIONARY
  5
17
102
{ACAD_REACTORS
330
C
102
}
330
C
100
AcDbDictionary
281
     1
  3
Standard
350
18
  0
DICTIONARY
  5
19
102
{ACAD_REACTORS
330
C
102
}
330
C
100
AcDbDictionary
281
     1
  0
ACDBDICTIONARYWDFLT
  5
E
102
{ACAD_REACTORS
330
C
102
}
330
C
100
AcDbDictionary
281
     1
  3
Normal
350
F
100
AcDbDictionaryWithDefault
340
F
  0
DICTIONARY
  5
47
102
{ACAD_REACTORS
330
C
102
}
330
C
100
AcDbDictionary
281
     1
  3
A0
350
48
  3
A1
350
49
  3
A2
350
4A
  3
A3
350
4B
  3
A4
350
4C
  3
A5
350
4D
  3
A6
350
4E
  3
A7
350
4F
  3
A8
350
50
  3
A9
350
51
  3
B0
350
52
  3
B1
350
53
  3
B2
350
54
  3
B3
350
55
  3
B4
350
56
  3
B5
350
57
  3
B6
350
58
  0
XRECORD
  5
161
102
{ACAD_REACTORS
330
C
102
}
330
C
100
AcDbXrecord
280
     1
  1
DWGPROPS COOKIE
  2

  3

  4

  6

  7

  8
user52
  9

300
=
301
=
302
=
303
=
304
=
305
=
306
=
307
=
308
=
309
=
 40
0.0
 41
2460279.340540764
 42
2460279.3405411
  1

 90
        0
  0
LAYOUT
  5
1E
102
{ACAD_REACTORS
330
1A
102
}
330
1A
100
AcDbPlotSettings
  1

  2
none_device
  4

  6

 40
0.0
 41
0.0
 42
0.0
 43
0.0
 44
0.0
 45
0.0
 46
0.0
 47
0.0
 48
0.0
 49
0.0
140
0.0
141
0.0
142
1.0
143
1.0
 70
   688
 72
     1
 73
     0
 74
     5
  7

 75
    16
147
1.0
148
0.0
149
0.0
100
AcDbLayout
  1
Layout1
 70
     1
 71
     1
 10
0.0
 20
0.0
 11
420.0
 21
297.0
 12
0.0
 22
0.0
 32
0.0
 14
1.0000000000E+20
 24
1.0000000000E+20
 34
1.0000000000E+20
 15
-1.0000000000E+20
 25
-1.0000000000E+20
 35
-1.0000000000E+20
146
0.0
 13
0.0
 23
0.0
 33
0.0
 16
1.0
 26
0.0
 36
0.0
 17
0.0
 27
1.0
 37
0.0
 76
     0
330
1B
  0
LAYOUT
  5
26
102
{ACAD_REACTORS
330
1A
102
}
330
1A
100
AcDbPlotSettings
  1

  2
none_device
  4

  6

 40
0.0
 41
0.0
 42
0.0
 43
0.0
 44
0.0
 45
0.0
 46
0.0
 47
0.0
 48
0.0
 49
0.0
140
0.0
141
0.0
142
1.0
143
1.0
 70
   688
 72
     1
 73
     0
 74
     5
  7

 75
    16
147
1.0
148
0.0
149
0.0
100
AcDbLayout
  1
Layout2
 70
     1
 71
     2
 10
0.0
 20
0.0
 11
0.0
 21
0.0
 12
0.0
 22
0.0
 32
0.0
 14
0.0
 24
0.0
 34
0.0
 15
0.0
 25
0.0
 35
0.0
146
0.0
 13
0.0
 23
0.0
 33
0.0
 16
1.0
 26
0.0
 36
0.0
 17
0.0
 27
1.0
 37
0.0
 76
     0
330
23
  0
LAYOUT
  5
22
102
{ACAD_REACTORS
330
1A
102
}
330
1A
100
AcDbPlotSettings
  1

  2
none_device
  4
Letter_(8.50_x_11.00_Inches)
  6

 40
6.35
 41
6.35
 42
6.35000508
 43
6.35000508
 44
215.9
 45
279.4
 46
0.0
 47
0.0
 48
0.0
 49
0.0
140
0.0
141
0.0
142
1.0
143
1.0
 70
  1712
 72
     1
 73
     0
 74
     0
  7

 75
     0
147
1.0
148
0.0
149
0.0
100
AcDbLayout
  1
Model
 70
     1
 71
     0
 10
0.0
 20
0.0
 11
215.9
 21
139.7
 12
0.0
 22
0.0
 32
0.0
 14
0.0
 24
0.0
 34
0.0
 15
215.9
 25
139.7
 35
0.0
146
0.0
 13
0.0
 23
0.0
 33
0.0
 16
1.0
 26
0.0
 36
0.0
 17
0.0
 27
1.0
 37
0.0
 76
     0
330
1F
331
29
  0
MLINESTYLE
  5
18
102
{ACAD_REACTORS
330
17
102
}
330
17
100
AcDbMlineStyle
  2
Standard
 70
     0
  3

 62
   256
 51
90.0
 52
90.0
 71
     2
 49
0.5
 62
   256
  6
BYLAYER
 49
-0.5
 62
   256
  6
BYLAYER
  0
ACDBPLACEHOLDER
  5
F
102
{ACAD_REACTORS
330
E
102
}
330
E
  0
SCALE
  5
48
102
{ACAD_REACTORS
330
47
102
}
330
47
100
AcDbScale
 70
     0
300
1:1
140
1.0
141
1.0
290
     1
  0
SCALE
  5
49
102
{ACAD_REACTORS
330
47
102
}
330
47
100
AcDbScale
 70
     0
300
1:2
140
1.0
141
2.0
290
     0
  0
SCALE
  5
4A
102
{ACAD_REACTORS
330
47
102
}
330
47
100
AcDbScale
 70
     0
300
1:4
140
1.0
141
4.0
290
     0
  0
SCALE
  5
4B
102
{ACAD_REACTORS
330
47
102
}
330
47
100
AcDbScale
 70
     0
300
1:5
140
1.0
141
5.0
290
     0
  0
SCALE
  5
4C
102
{ACAD_REACTORS
330
47
102
}
330
47
100
AcDbScale
 70
     0
300
1:8
140
1.0
141
8.0
290
     0
  0
SCALE
  5
4D
102
{ACAD_REACTORS
330
47
102
}
330
47
100
AcDbScale
 70
     0
300
1:10
140
1.0
141
10.0
290
     0
  0
SCALE
  5
4E
102
{ACAD_REACTORS
330
47
102
}
330
47
100
AcDbScale
 70
     0
300
1:16
140
1.0
141
16.0
290
     0
  0
SCALE
  5
4F
102
{ACAD_REACTORS
330
47
102
}
330
47
100
AcDbScale
 70
     0
300
1:20
140
1.0
141
20.0
290
     0
  0
SCALE
  5
50
102
{ACAD_REACTORS
330
47
102
}
330
47
100
AcDbScale
 70
     0
300
1:30
140
1.0
141
30.0
290
     0
  0
SCALE
  5
51
102
{ACAD_REACTORS
330
47
102
}
330
47
100
AcDbScale
 70
     0
300
1:40
140
1.0
141
40.0
290
     0
  0
SCALE
  5
52
102
{ACAD_REACTORS
330
47
102
}
330
47
100
AcDbScale
 70
     0
300
1:50
140
1.0
141
50.0
290
     0
  0
SCALE
  5
53
102
{ACAD_REACTORS
330
47
102
}
330
47
100
AcDbScale
 70
     0
300
1:100
140
1.0
141
100.0
290
     0
  0
SCALE
  5
54
102
{ACAD_REACTORS
330
47
102
}
330
47
100
AcDbScale
 70
     0
300
2:1
140
2.0
141
1.0
290
     0
  0
SCALE
  5
55
102
{ACAD_REACTORS
330
47
102
}
330
47
100
AcDbScale
 70
     0
300
4:1
140
4.0
141
1.0
290
     0
  0
SCALE
  5
56
102
{ACAD_REACTORS
330
47
102
}
330
47
100
AcDbScale
 70
     0
300
8:1
140
8.0
141
1.0
290
     0
  0
SCALE
  5
57
102
{ACAD_REACTORS
330
47
102
}
330
47
100
AcDbScale
 70
     0
300
10:1
140
10.0
141
1.0
290
     0
  0
SCALE
  5
58
102
{ACAD_REACTORS
330
47
102
}
330
47
100
AcDbScale
 70
     0
300
100:1
140
100.0
141
1.0
290
     0
  0
ENDSEC
  0
EOF
