  0
SECTION
  2
HEADER
  9
$ACADVER
  1
AC1015
  9
$ACADMAINTVER
 70
     6
  9
$DWGCODEPAGE
  3
DOS932
  9
$INSBASE
 10
0.0
 20
0.0
 30
0.0
  9
$EXTMIN
 10
0.0
 20
0.0
 30
0.0
  9
$EXTMAX
 10
431.8
 20
279.4
 30
0.0
  9
$LIMMIN
 10
0.0
 20
0.0
  9
$LIMMAX
 10
431.8
 20
279.4
  9
$ORTHOMODE
 70
     0
  9
$REGENMODE
 70
     1
  9
$FILLMODE
 70
     1
  9
$QTEXTMODE
 70
     0
  9
$MIRRTEXT
 70
     1
  9
$LTSCALE
 40
1.0
  9
$ATTMODE
 70
     1
  9
$TEXTSIZE
 40
3.5
  9
$TRACEWID
 40
1.0
  9
$TEXTSTYLE
  7
Standard
  9
$CLAYER
  8
0
  9
$CELTYPE
  6
ByLayer
  9
$CECOLOR
 62
   256
  9
$CELTSCALE
 40
1.0
  9
$DISPSILH
 70
     0
  9
$DIMSCALE
 40
1.0
  9
$DIMASZ
 40
3.556
  9
$DIMEXO
 40
1.0
  9
$DIMDLI
 40
3.75
  9
$DIMRND
 40
0.0
  9
$DIMDLE
 40
0.0
  9
$DIMEXE
 40
1.0
  9
$DIMTP
 40
0.0
  9
$DIMTM
 40
0.0
  9
$DIMTXT
 40
3.5
  9
$DIMCEN
 40
2.5
  9
$DIMTSZ
 40
0.0
  9
$DIMTOL
 70
     0
  9
$DIMLIM
 70
     0
  9
$DIMTIH
 70
     1
  9
$DIMTOH
 70
     1
  9
$DIMSE1
 70
     0
  9
$DIMSE2
 70
     0
  9
$DIMTAD
 70
     1
  9
$DIMZIN
 70
     1
  9
$DIMBLK
  1

  9
$DIMASO
 70
     1
  9
$DIMSHO
 70
     1
  9
$DIMPOST
  1

  9
$DIMAPOST
  1

  9
$DIMALT
 70
     0
  9
$DIMALTD
 70
     3
  9
$DIMALTF
 40
0.0393700787
  9
$DIMLFAC
 40
1.0
  9
$DIMTOFL
 70
     1
  9
$DIMTVP
 40
0.0
  9
$DIMTIX
 70
     0
  9
$DIMSOXD
 70
     0
  9
$DIMSAH
 70
     0
  9
$DIMBLK1
  1

  9
$DIMBLK2
  1

  9
$DIMSTYLE
  2
ISO-25
  9
$DIMCLRD
 70
     0
  9
$DIMCLRE
 70
     0
  9
$DIMCLRT
 70
     0
  9
$DIMTFAC
 40
1.0
  9
$DIMGAP
 40
1.524
  9
$DIMJUST
 70
     0
  9
$DIMSD1
 70
     0
  9
$DIMSD2
 70
     0
  9
$DIMTOLJ
 70
     0
  9
$DIMTZIN
 70
     1
  9
$DIMALTZ
 70
     0
  9
$DIMALTTZ
 70
     0
  9
$DIMUPT
 70
     0
  9
$DIMDEC
 70
     2
  9
$DIMTDEC
 70
     2
  9
$DIMALTU
 70
     2
  9
$DIMALTTD
 70
     3
  9
$DIMTXSTY
  7
Standard
  9
$DIMAUNIT
 70
     0
  9
$DIMADEC
 70
     2
  9
$DIMALTRND
 40
0.0
  9
$DIMAZIN
 70
     0
  9
$DIMDSEP
 70
    44
  9
$DIMATFIT
 70
     3
  9
$DIMFRAC
 70
     0
  9
$DIMLDRBLK
  1

  9
$DIMLUNIT
 70
     2
  9
$DIMLWD
 70
    -2
  9
$DIMLWE
 70
    -2
  9
$DIMTMOVE
 70
     0
  9
$LUNITS
 70
     2
  9
$LUPREC
 70
     2
  9
$SKETCHINC
 40
1.0
  9
$FILLETRAD
 40
10.0
  9
$AUNITS
 70
     0
  9
$AUPREC
 70
     2
  9
$MENU
  1
.
  9
$ELEVATION
 40
0.0
  9
$PELEVATION
 40
0.0
  9
$THICKNESS
 40
0.0
  9
$LIMCHECK
 70
     0
  9
$CHAMFERA
 40
0.0
  9
$CHAMFERB
 40
0.0
  9
$CHAMFERC
 40
0.0
  9
$CHAMFERD
 40
0.0
  9
$SKPOLY
 70
     0
  9
$TDCREATE
 40
2459439.591669213
  9
$TDUCREATE
 40
2459439.216669213
  9
$TDUPDATE
 40
2459439.591669931
  9
$TDUUPDATE
 40
2459439.216669931
  9
$TDINDWG
 40
0.0000000116
  9
$TDUSRTIMER
 40
0.0000000116
  9
$USRTIMER
 70
     1
  9
$ANGBASE
 50
0.0
  9
$ANGDIR
 70
     0
  9
$PDMODE
 70
     0
  9
$PDSIZE
 40
-1.0
  9
$PLINEWID
 40
0.0
  9
$SPLFRAME
 70
     0
  9
$SPLINETYPE
 70
     6
  9
$SPLINESEGS
 70
     8
  9
$HANDSEED
  5
208
  9
$SURFTAB1
 70
     6
  9
$SURFTAB2
 70
     6
  9
$SURFTYPE
 70
     6
  9
$SURFU
 70
     6
  9
$SURFV
 70
     6
  9
$UCSBASE
  2

  9
$UCSNAME
  2

  9
$UCSORG
 10
0.0
 20
0.0
 30
0.0
  9
$UCSXDIR
 10
1.0
 20
0.0
 30
0.0
  9
$UCSYDIR
 10
0.0
 20
1.0
 30
0.0
  9
$UCSORTHOREF
  2

  9
$UCSORTHOVIEW
 70
     0
  9
$UCSORGTOP
 10
0.0
 20
0.0
 30
0.0
  9
$UCSORGBOTTOM
 10
0.0
 20
0.0
 30
0.0
  9
$UCSORGLEFT
 10
0.0
 20
0.0
 30
0.0
  9
$UCSORGRIGHT
 10
0.0
 20
0.0
 30
0.0
  9
$UCSORGFRONT
 10
0.0
 20
0.0
 30
0.0
  9
$UCSORGBACK
 10
0.0
 20
0.0
 30
0.0
  9
$PUCSBASE
  2

  9
$PUCSNAME
  2

  9
$PUCSORG
 10
0.0
 20
0.0
 30
0.0
  9
$PUCSXDIR
 10
1.0
 20
0.0
 30
0.0
  9
$PUCSYDIR
 10
0.0
 20
1.0
 30
0.0
  9
$PUCSORTHOREF
  2

  9
$PUCSORTHOVIEW
 70
     0
  9
$PUCSORGTOP
 10
0.0
 20
0.0
 30
0.0
  9
$PUCSORGBOTTOM
 10
0.0
 20
0.0
 30
0.0
  9
$PUCSORGLEFT
 10
0.0
 20
0.0
 30
0.0
  9
$PUCSORGRIGHT
 10
0.0
 20
0.0
 30
0.0
  9
$PUCSORGFRONT
 10
0.0
 20
0.0
 30
0.0
  9
$PUCSORGBACK
 10
0.0
 20
0.0
 30
0.0
  9
$USERI1
 70
     0
  9
$USERI2
 70
     0
  9
$USERI3
 70
     0
  9
$USERI4
 70
     0
  9
$USERI5
 70
     0
  9
$USERR1
 40
0.0
  9
$USERR2
 40
0.0
  9
$USERR3
 40
0.0
  9
$USERR4
 40
0.0
  9
$USERR5
 40
0.0
  9
$WORLDVIEW
 70
     1
  9
$SHADEDGE
 70
     3
  9
$SHADEDIF
 70
    70
  9
$TILEMODE
 70
     1
  9
$MAXACTVP
 70
    64
  9
$PINSBASE
 10
0.0
 20
0.0
 30
0.0
  9
$PLIMCHECK
 70
     0
  9
$PEXTMIN
 10
1.0000000000E+20
 20
1.0000000000E+20
 30
1.0000000000E+20
  9
$PEXTMAX
 10
-1.0000000000E+20
 20
-1.0000000000E+20
 30
-1.0000000000E+20
  9
$PLIMMIN
 10
0.0
 20
0.0
  9
$PLIMMAX
 10
420.0
 20
297.0
  9
$UNITMODE
 70
     0
  9
$VISRETAIN
 70
     1
  9
$PLINEGEN
 70
     0
  9
$PSLTSCALE
 70
     1
  9
$TREEDEPTH
 70
  3020
  9
$CMLSTYLE
  2
Standard
  9
$CMLJUST
 70
     0
  9
$CMLSCALE
 40
20.0
  9
$PROXYGRAPHICS
 70
     1
  9
$MEASUREMENT
 70
     1
  9
$CELWEIGHT
370
    -1
  9
$ENDCAPS
280
     0
  9
$JOINSTYLE
280
     0
  9
$LWDISPLAY
290
     1
  9
$INSUNITS
 70
     4
  9
$HYPERLINKBASE
  1

  9
$STYLESHEET
  1

  9
$XEDIT
290
     1
  9
$CEPSNTYPE
380
     0
  9
$PSTYLEMODE
290
     1
  9
$FINGERPRINTGUID
  2
{ED695F27-5A52-4B72-9443-D6C63A322332}
  9
$VERSIONGUID
  2
{FAEB1C32-E019-11D5-929B-00C0DF256EC4}
  9
$EXTNAMES
290
     1
  9
$PSVPSCALE
 40
0.0
  9
$OLESTARTUP
290
     0
  0
ENDSEC
  0
SECTION
  2
CLASSES
  0
CLASS
  1
ACDBDICTIONARYWDFLT
  2
AcDbDictionaryWithDefault
  3
ObjectDBX Classes
 90
        0
280
     0
281
     0
  0
CLASS
  1
VISUALSTYLE
  2
AcDbVisualStyle
  3
ObjectDBX Classes
 90
     4095
280
     0
281
     0
  0
CLASS
  1
MATERIAL
  2
AcDbMaterial
  3
ObjectDBX Classes
 90
     1153
280
     0
281
     0
  0
CLASS
  1
SCALE
  2
AcDbScale
  3
ObjectDBX Classes
 90
     1153
280
     0
281
     0
  0
CLASS
  1
TABLESTYLE
  2
AcDbTableStyle
  3
ObjectDBX Classes
 90
     4095
280
     0
281
     0
  0
CLASS
  1
MLEADERSTYLE
  2
AcDbMLeaderStyle
  3
ACDB_MLEADERSTYLE_CLASS
 90
     4095
280
     0
281
     0
  0
CLASS
  1
SUN
  2
AcDbSun
  3
SCENEOE
 90
     1153
280
     0
281
     0
  0
CLASS
  1
ACDBPLACEHOLDER
  2
AcDbPlaceHolder
  3
ObjectDBX Classes
 90
        0
280
     0
281
     0
  0
CLASS
  1
LAYOUT
  2
AcDbLayout
  3
ObjectDBX Classes
 90
        0
280
     0
281
     0
  0
ENDSEC
  0
SECTION
  2
TABLES
  0
TABLE
  2
VPORT
  5
8
330
0
100
AcDbSymbolTable
 70
     1
  0
VPORT
  5
29
330
8
100
AcDbSymbolTableRecord
100
AcDbViewportTableRecord
  2
*Active
 70
     0
 10
0.0
 20
0.0
 11
1.0
 21
1.0
 12
215.9
 22
139.7
 13
0.0
 23
0.0
 14
10.0
 24
10.0
 15
10.0
 25
10.0
 16
0.0
 26
0.0
 36
1.0
 17
0.0
 27
0.0
 37
0.0
 40
279.4
 41
1.5454545455
 42
50.0
 43
0.0
 44
0.0
 50
0.0
 51
0.0
 71
     0
 72
  2000
 73
     1
 74
     3
 75
     0
 76
     0
 77
     0
 78
     0
281
     0
 65
     1
110
0.0
120
0.0
130
0.0
111
1.0
121
0.0
131
0.0
112
0.0
122
1.0
132
0.0
 79
     0
146
0.0
  0
ENDTAB
  0
TABLE
  2
LTYPE
  5
5
330
0
100
AcDbSymbolTable
 70
     6
  0
LTYPE
  5
14
330
5
100
AcDbSymbolTableRecord
100
AcDbLinetypeTableRecord
  2
ByBlock
 70
     0
  3

 72
    65
 73
     0
 40
0.0
  0
LTYPE
  5
15
330
5
100
AcDbSymbolTableRecord
100
AcDbLinetypeTableRecord
  2
ByLayer
 70
     0
  3

 72
    65
 73
     0
 40
0.0
  0
LTYPE
  5
16
330
5
100
AcDbSymbolTableRecord
100
AcDbLinetypeTableRecord
  2
Continuous
 70
     0
  3
Solid line
 72
    65
 73
     0
 40
0.0
  0
LTYPE
  5
6E
330
5
100
AcDbSymbolTableRecord
100
AcDbLinetypeTableRecord
  2
HIDDEN
 70
     0
  3
Hidden __ __ __ __ __ __ __ __ __ __ __ __ __ __
 72
    65
 73
     2
 40
1.905
 49
1.27
 74
     0
 49
-0.635
 74
     0
  0
LTYPE
  5
6F
330
5
100
AcDbSymbolTableRecord
100
AcDbLinetypeTableRecord
  2
PHANTOM
 70
     0
  3
Phantom ______  __  __  ______  __  __  ______
 72
    65
 73
     6
 40
12.7
 49
6.35
 74
     0
 49
-1.27
 74
     0
 49
1.27
 74
     0
 49
-1.27
 74
     0
 49
1.27
 74
     0
 49
-1.27
 74
     0
  0
LTYPE
  5
70
330
5
100
AcDbSymbolTableRecord
100
AcDbLinetypeTableRecord
  2
CENTER
 70
     0
  3
Center ____ _ ____ _ ____ _ ____ _ ____ _ ____
 72
    65
 73
     4
 40
10.16
 49
6.35
 74
     0
 49
-1.27
 74
     0
 49
1.27
 74
     0
 49
-1.27
 74
     0
  0
LTYPE
  5
71
330
5
100
AcDbSymbolTableRecord
100
AcDbLinetypeTableRecord
  2
CENTERX2
 70
     0
  3
Center (2x) ________  __  ________  __  _____
 72
    65
 73
     4
 40
20.32
 49
12.7
 74
     0
 49
-2.54
 74
     0
 49
2.54
 74
     0
 49
-2.54
 74
     0
  0
LTYPE
  5
72
330
5
100
AcDbSymbolTableRecord
100
AcDbLinetypeTableRecord
  2
DOT2
 70
     0
  3
Dot (.5x) ........................................
 72
    65
 73
     2
 40
0.635
 49
0.0
 74
     0
 49
-0.635
 74
     0
  0
ENDTAB
  0
TABLE
  2
LAYER
  5
2
330
0
100
AcDbSymbolTable
 70
     1
  0
LAYER
  5
10
330
2
100
AcDbSymbolTableRecord
100
AcDbLayerTableRecord
  2
0
 70
     0
 62
     7
  6
Continuous
370
    -3
390
F
  0
ENDTAB
  0
TABLE
  2
STYLE
  5
3
330
0
100
AcDbSymbolTable
 70
     2
  0
STYLE
  5
11
330
3
100
AcDbSymbolTableRecord
100
AcDbTextStyleTableRecord
  2
Standard
 70
     0
 40
0.0
 41
1.0
 50
0.0
 71
     0
 42
3.5
  3
txt
  4
bigfont
  0
STYLE
  5
73
330
3
100
AcDbSymbolTableRecord
100
AcDbTextStyleTableRecord
  2
SLDTEXTSTYLE0
 70
     0
 40
0.0
 41
0.7
 50
0.0
 71
     0
 42
3.5
  3
TXT
  4
bigfont
  0
ENDTAB
  0
TABLE
  2
VIEW
  5
6
330
0
100
AcDbSymbolTable
 70
     0
  0
ENDTAB
  0
TABLE
  2
UCS
  5
7
330
0
100
AcDbSymbolTable
 70
     0
  0
ENDTAB
  0
TABLE
  2
APPID
  5
9
330
0
100
AcDbSymbolTable
 70
     1
  0
APPID
  5
12
330
9
100
AcDbSymbolTableRecord
100
AcDbRegAppTableRecord
  2
ACAD
 70
     0
  0
ENDTAB
  0
TABLE
  2
DIMSTYLE
  5
A
330
0
100
AcDbSymbolTable
 70
     1
100
AcDbDimStyleTable
  0
DIMSTYLE
105
27
330
A
100
AcDbSymbolTableRecord
100
AcDbDimStyleTableRecord
  2
ISO-25
 70
     0
 41
2.5
 42
0.625
 43
3.75
 44
1.25
 73
     0
 74
     0
 77
     1
 78
     8
140
2.5
141
2.5
143
0.0393700787
147
0.625
171
     3
172
     1
178
     0
271
     2
272
     2
274
     3
278
    44
283
     0
284
     8
340
11
  0
ENDTAB
  0
TABLE
  2
BLOCK_RECORD
  5
1
330
0
100
AcDbSymbolTable
 70
     1
  0
BLOCK_RECORD
  5
1F
330
1
100
AcDbSymbolTableRecord
100
AcDbBlockTableRecord
  2
*Model_Space
340
22
  0
BLOCK_RECORD
  5
1B
330
1
100
AcDbSymbolTableRecord
100
AcDbBlockTableRecord
  2
*Paper_Space
340
1E
  0
BLOCK_RECORD
  5
23
330
1
100
AcDbSymbolTableRecord
100
AcDbBlockTableRecord
  2
*Paper_Space0
340
26
  0
ENDTAB
  0
ENDSEC
  0
SECTION
  2
BLOCKS
  0
BLOCK
  5
20
330
1F
100
AcDbEntity
  8
0
100
AcDbBlockBegin
  2
*Model_Space
 70
     0
 10
0.0
 20
0.0
 30
0.0
  3
*Model_Space
  1

  0
ENDBLK
  5
21
330
1F
100
AcDbEntity
  8
0
100
AcDbBlockEnd
  0
BLOCK
  5
1C
330
1B
100
AcDbEntity
 67
     1
  8
0
100
AcDbBlockBegin
  2
*Paper_Space
 70
     0
 10
0.0
 20
0.0
 30
0.0
  3
*Paper_Space
  1

  0
ENDBLK
  5
1D
330
1B
100
AcDbEntity
 67
     1
  8
0
100
AcDbBlockEnd
  0
BLOCK
  5
24
330
23
100
AcDbEntity
  8
0
100
AcDbBlockBegin
  2
*Paper_Space0
 70
     0
 10
0.0
 20
0.0
 30
0.0
  3
*Paper_Space0
  1

  0
ENDBLK
  5
25
330
23
100
AcDbEntity
  8
0
100
AcDbBlockEnd
  0
ENDSEC
  0
SECTION
  2
ENTITIES
  0
MTEXT
  5
74
330
1F
100
AcDbEntity
  8
0
  6
Continuous
 62
     7
370
     0
100
AcDbMText
 10
166.6919955752
 20
132.4824469272
 30
0.0
 40
5.2916666667
 41
0.0
 71
     1
 72
     1
  1
5R-RS2412
  7
SLDTEXTSTYLE0
 73
     1
 44
1.0
  0
LINE
  5
75
330
1F
100
AcDbEntity
  8
0
  6
Continuous
 62
     7
370
    25
100
AcDbLine
 10
151.7489744293
 20
117.9902250446
 30
0.0
 11
150.5328400923
 21
115.8838185841
 31
0.0
  0
LINE
  5
76
330
1F
100
AcDbEntity
  8
0
  6
Continuous
 62
     7
370
    25
100
AcDbLine
 10
150.5328400923
 20
92.3838185841
 30
0.0
 11
151.7489744293
 21
90.2774121235
 31
0.0
  0
LINE
  5
77
330
1F
100
AcDbEntity
  8
0
  6
Continuous
 62
     7
370
    25
100
AcDbLine
 10
168.3328400923
 20
115.8838185841
 30
0.0
 11
167.2545279288
 21
115.8838185841
 31
0.0
  0
LINE
  5
78
330
1F
100
AcDbEntity
  8
0
  6
Continuous
 62
     7
370
    25
100
AcDbLine
 10
167.2545279288
 20
92.3838185841
 30
0.0
 11
168.3328400923
 21
92.3838185841
 31
0.0
  0
LINE
  5
79
330
1F
100
AcDbEntity
  8
0
  6
Continuous
 62
     7
370
    25
100
AcDbLine
 10
168.3328400923
 20
92.3838185841
 30
0.0
 11
168.5328400923
 21
92.5838185841
 31
0.0
  0
LINE
  5
7A
330
1F
100
AcDbEntity
  8
0
  6
Continuous
 62
     7
370
    25
100
AcDbLine
 10
168.5328400923
 20
115.6838185841
 30
0.0
 11
168.3328400923
 21
115.8838185841
 31
0.0
  0
LINE
  5
7B
330
1F
100
AcDbEntity
  8
0
  6
Continuous
 62
     7
370
    25
100
AcDbLine
 10
166.171996174
 20
116.5088185841
 30
0.0
 11
165.3167057552
 21
117.9902250446
 31
0.0
  0
ARC
  5
7C
330
1F
100
AcDbEntity
  8
0
  6
Continuous
 62
     7
370
    25
100
AcDbCircle
 10
167.2545279288
 20
117.1338185841
 30
0.0
 40
1.250000000000004
100
AcDbArc
 50
210.0
 51
270.0
  0
ARC
  5
7D
330
1F
100
AcDbEntity
  8
0
  6
Continuous
 62
     7
370
    25
100
AcDbCircle
 10
167.2545279288
 20
91.1338185841
 30
0.0
 40
1.250000000000004
100
AcDbArc
 50
90.0
 51
150.0
  0
LINE
  5
7E
330
1F
100
AcDbEntity
  8
0
  6
Continuous
 62
     7
370
    25
100
AcDbLine
 10
165.3167057552
 20
90.2774121235
 30
0.0
 11
166.171996174
 21
91.7588185841
 31
0.0
  0
LINE
  5
7F
330
1F
100
AcDbEntity
  8
0
  6
Continuous
 62
     7
370
    25
100
AcDbLine
 10
126.4181140663
 20
90.2774121235
 30
0.0
 11
127.6342484033
 21
92.3838185841
 31
0.0
  0
LINE
  5
80
330
1F
100
AcDbEntity
  8
0
  6
Continuous
 62
     7
370
    25
100
AcDbLine
 10
127.6342484033
 20
115.8838185841
 30
0.0
 11
126.4181140663
 21
117.9902250446
 31
0.0
  0
LINE
  5
81
330
1F
100
AcDbEntity
  8
0
  6
Continuous
 62
     7
370
    25
100
AcDbLine
 10
109.8342484033
 20
115.8838185841
 30
0.0
 11
109.6342484033
 21
115.6838185841
 31
0.0
  0
LINE
  5
82
330
1F
100
AcDbEntity
  8
0
  6
Continuous
 62
     7
370
    25
100
AcDbLine
 10
109.6342484033
 20
92.5838185841
 30
0.0
 11
109.8342484033
 21
92.3838185841
 31
0.0
  0
LINE
  5
83
330
1F
100
AcDbEntity
  8
0
  6
Continuous
 62
     7
370
    25
100
AcDbLine
 10
109.8342484033
 20
92.3838185841
 30
0.0
 11
110.9125605668
 21
92.3838185841
 31
0.0
  0
LINE
  5
84
330
1F
100
AcDbEntity
  8
0
  6
Continuous
 62
     7
370
    25
100
AcDbLine
 10
110.9125605668
 20
115.8838185841
 30
0.0
 11
109.8342484033
 21
115.8838185841
 31
0.0
  0
ARC
  5
85
330
1F
100
AcDbEntity
  8
0
  6
Continuous
 62
     7
370
    25
100
AcDbCircle
 10
110.9125605668
 20
117.1338185841
 30
0.0
 40
1.250000000000004
100
AcDbArc
 50
270.0
 51
330.0
  0
LINE
  5
86
330
1F
100
AcDbEntity
  8
0
  6
Continuous
 62
     7
370
    25
100
AcDbLine
 10
112.8503827403
 20
117.9902250446
 30
0.0
 11
111.9950923215
 21
116.5088185841
 31
0.0
  0
LINE
  5
87
330
1F
100
AcDbEntity
  8
0
  6
Continuous
 62
     7
370
    25
100
AcDbLine
 10
111.9950923215
 20
91.7588185841
 30
0.0
 11
112.8503827403
 21
90.2774121235
 31
0.0
  0
ARC
  5
88
330
1F
100
AcDbEntity
  8
0
  6
Continuous
 62
     7
370
    25
100
AcDbCircle
 10
110.9125605668
 20
91.1338185841
 30
0.0
 40
1.250000000000004
100
AcDbArc
 50
30.0
 51
90.0
  0
LINE
  5
89
330
1F
100
AcDbEntity
  8
0
  6
Continuous
 62
     7
370
    25
100
AcDbLine
 10
143.8835442478
 20
93.3838185841
 30
0.0
 11
144.0835442478
 21
93.5838185841
 31
0.0
  0
LINE
  5
8A
330
1F
100
AcDbEntity
  8
0
  6
Continuous
 62
     7
370
    25
100
AcDbLine
 10
144.0835442478
 20
114.6838185841
 30
0.0
 11
143.8835442478
 21
114.8838185841
 31
0.0
  0
LINE
  5
8B
330
1F
100
AcDbEntity
  8
0
  6
Continuous
 62
     7
370
    25
100
AcDbLine
 10
134.2835442478
 20
114.8838185841
 30
0.0
 11
134.0835442478
 21
114.6838185841
 31
0.0
  0
LINE
  5
8C
330
1F
100
AcDbEntity
  8
0
  6
Continuous
 62
     7
370
    25
100
AcDbLine
 10
134.0835442478
 20
93.5838185841
 30
0.0
 11
134.2835442478
 21
93.3838185841
 31
0.0
  0
LINE
  5
8D
330
1F
100
AcDbEntity
  8
0
  6
Continuous
 62
     7
370
    25
100
AcDbLine
 10
143.8835442478
 20
114.8838185841
 30
0.0
 11
143.160894517
 21
114.8838185841
 31
0.0
  0
LINE
  5
8E
330
1F
100
AcDbEntity
  8
0
  6
Continuous
 62
     7
370
    25
100
AcDbLine
 10
143.160894517
 20
93.3838185841
 30
0.0
 11
143.8835442478
 21
93.3838185841
 31
0.0
  0
LINE
  5
8F
330
1F
100
AcDbEntity
  8
0
  6
Continuous
 62
     7
370
    25
100
AcDbLine
 10
134.2835442478
 20
93.3838185841
 30
0.0
 11
135.0061939786
 21
93.3838185841
 31
0.0
  0
LINE
  5
90
330
1F
100
AcDbEntity
  8
0
  6
Continuous
 62
     7
370
    25
100
AcDbLine
 10
135.0061939786
 20
114.8838185841
 30
0.0
 11
134.2835442478
 21
114.8838185841
 31
0.0
  0
LINE
  5
91
330
1F
100
AcDbEntity
  8
0
  6
Continuous
 62
     7
370
    25
100
AcDbLine
 10
148.0335442478
 20
114.6113185841
 30
0.0
 11
146.8060442478
 21
113.3838185841
 31
0.0
  0
LINE
  5
92
330
1F
100
AcDbEntity
  8
0
  6
Continuous
 62
     7
370
    25
100
AcDbLine
 10
146.8060442478
 20
94.8838185841
 30
0.0
 11
148.0335442478
 21
93.6563185841
 31
0.0
  0
LINE
  5
93
330
1F
100
AcDbEntity
  8
0
  6
Continuous
 62
     7
370
    25
100
AcDbLine
 10
130.1335442478
 20
93.6563185841
 30
0.0
 11
131.3610442478
 21
94.8838185841
 31
0.0
  0
LINE
  5
94
330
1F
100
AcDbEntity
  8
0
  6
Continuous
 62
     7
370
    25
100
AcDbLine
 10
131.3610442478
 20
113.3838185841
 30
0.0
 11
130.1335442478
 21
114.6113185841
 31
0.0
  0
LINE
  5
95
330
1F
100
AcDbEntity
  8
0
  6
Continuous
 62
     7
370
    25
100
AcDbLine
 10
130.1335442478
 20
114.6113185841
 30
0.0
 11
127.6342484033
 21
114.6113185841
 31
0.0
  0
LINE
  5
96
330
1F
100
AcDbEntity
  8
0
  6
Continuous
 62
     7
370
    25
100
AcDbLine
 10
127.6342484033
 20
93.6563185841
 30
0.0
 11
130.1335442478
 21
93.6563185841
 31
0.0
  0
LINE
  5
97
330
1F
100
AcDbEntity
  8
0
  6
Continuous
 62
     7
370
    25
100
AcDbLine
 10
148.0335442478
 20
93.6563185841
 30
0.0
 11
150.5328400923
 21
93.6563185841
 31
0.0
  0
LINE
  5
98
330
1F
100
AcDbEntity
  8
0
  6
Continuous
 62
     7
370
    25
100
AcDbLine
 10
150.5328400923
 20
114.6113185841
 30
0.0
 11
148.0335442478
 21
114.6113185841
 31
0.0
  0
LINE
  5
99
330
1F
100
AcDbEntity
  8
0
  6
Continuous
 62
     7
370
    25
100
AcDbLine
 10
144.0835442478
 20
94.8838185841
 30
0.0
 11
146.8060442478
 21
94.8838185841
 31
0.0
  0
LINE
  5
9A
330
1F
100
AcDbEntity
  8
0
  6
Continuous
 62
     7
370
    25
100
AcDbLine
 10
146.8060442478
 20
113.3838185841
 30
0.0
 11
144.0835442478
 21
113.3838185841
 31
0.0
  0
LINE
  5
9B
330
1F
100
AcDbEntity
  8
0
  6
Continuous
 62
     7
370
    25
100
AcDbLine
 10
134.0835442478
 20
113.3838185841
 30
0.0
 11
131.3610442478
 21
113.3838185841
 31
0.0
  0
LINE
  5
9C
330
1F
100
AcDbEntity
  8
0
  6
Continuous
 62
     7
370
    25
100
AcDbLine
 10
131.3610442478
 20
94.8838185841
 30
0.0
 11
134.0835442478
 21
94.8838185841
 31
0.0
  0
LINE
  5
9D
330
1F
100
AcDbEntity
  8
0
  6
Continuous
 62
     7
370
    25
100
AcDbLine
 10
142.2948691132
 20
115.3838185841
 30
0.0
 11
141.4567263082
 21
116.8355245062
 31
0.0
  0
LINE
  5
9E
330
1F
100
AcDbEntity
  8
0
  6
Continuous
 62
     7
370
    25
100
AcDbLine
 10
136.7103621873
 20
116.8355245062
 30
0.0
 11
135.8722193824
 21
115.3838185841
 31
0.0
  0
ARC
  5
9F
330
1F
100
AcDbEntity
  8
0
  6
Continuous
 62
     7
370
    25
100
AcDbCircle
 10
135.0061939786
 20
115.8838185841
 30
0.0
 40
1.000000000000008
100
AcDbArc
 50
270.0
 51
330.0
  0
ARC
  5
A0
330
1F
100
AcDbEntity
  8
0
  6
Continuous
 62
     7
370
    25
100
AcDbCircle
 10
143.160894517
 20
115.8838185841
 30
0.0
 40
1.0
100
AcDbArc
 50
210.0
 51
270.0
  0
ARC
  5
A1
330
1F
100
AcDbEntity
  8
0
  6
Continuous
 62
     7
370
    25
100
AcDbCircle
 10
143.160894517
 20
92.3838185841
 30
0.0
 40
1.0
100
AcDbArc
 50
90.0
 51
150.0
  0
LINE
  5
A2
330
1F
100
AcDbEntity
  8
0
  6
Continuous
 62
     7
370
    25
100
AcDbLine
 10
141.4567263082
 20
91.4321126619
 30
0.0
 11
142.2948691132
 21
92.8838185841
 31
0.0
  0
LINE
  5
A3
330
1F
100
AcDbEntity
  8
0
  6
Continuous
 62
     7
370
    25
100
AcDbLine
 10
135.8722193824
 20
92.8838185841
 30
0.0
 11
136.7103621873
 21
91.4321126619
 31
0.0
  0
ARC
  5
A4
330
1F
100
AcDbEntity
  8
0
  6
Continuous
 62
     7
370
    25
100
AcDbCircle
 10
135.0061939786
 20
92.3838185841
 30
0.0
 40
1.000000000000008
100
AcDbArc
 50
30.0
 51
90.0
  0
SPLINE
  5
A5
330
1F
100
AcDbEntity
  8
0
  6
Continuous
 62
     7
370
    25
100
AcDbSpline
210
0.0
220
0.0
230
1.0
 70
     8
 71
     3
 72
    11
 73
     7
 74
     0
 42
0.000000001
 43
0.00000001
 40
0.0
 40
0.0
 40
0.0
 40
0.0
 40
0.2896312968534328
 40
0.5811875798131638
 40
0.7902304971769972
 40
1.0
 40
1.0
 40
1.0
 40
1.0
 10
166.1719961740279
 20
95.25318706646352
 30
0.0
 10
166.2413430110434
 20
94.9622680262105
 30
0.0
 10
166.3804975872601
 20
94.37849640082644
 30
0.0
 10
166.4023885675869
 20
93.57831370695034
 30
0.0
 10
166.3299905165644
 20
92.86060145929757
 30
0.0
 10
166.2247218307315
 20
92.44033712844579
 30
0.0
 10
166.1719961740279
 20
92.22984041085157
 30
0.0
  0
SPLINE
  5
A6
330
1F
100
AcDbEntity
  8
0
  6
Continuous
 62
     7
370
    25
100
AcDbSpline
210
0.0
220
0.0
230
1.0
 70
     8
 71
     3
 72
     9
 73
     5
 74
     0
 42
0.000000001
 43
0.00000001
 40
0.0
 40
0.0
 40
0.0
 40
0.0
 40
0.4986680494787147
 40
1.0
 40
1.0
 40
1.0
 40
1.0
 10
166.1719961740279
 20
92.22984041085157
 30
0.0
 10
166.0641892834436
 20
91.90154106078526
 30
0.0
 10
165.8479995943368
 20
91.24318857477881
 30
0.0
 10
165.4941179368507
 20
90.59990881847729
 30
0.0
 10
165.3167057552495
 20
90.27741212351978
 30
0.0
  0
LINE
  5
A7
330
1F
100
AcDbEntity
  8
0
  6
Continuous
 62
     7
370
    25
100
AcDbLine
 10
165.3167057552
 20
90.2774121235
 30
0.0
 11
151.7489744293
 21
90.2774121235
 31
0.0
  0
SPLINE
  5
A8
330
1F
100
AcDbEntity
  8
0
  6
Continuous
 62
     7
370
    25
100
AcDbSpline
210
0.0
220
0.0
230
1.0
 70
     8
 71
     3
 72
    15
 73
    11
 74
     0
 42
0.000000001
 43
0.00000001
 40
0.0
 40
0.0
 40
0.0
 40
0.0
 40
0.1323065044264402
 40
0.2645755999739297
 40
0.399803678967109
 40
0.5350073556765891
 40
0.650196947540502
 40
0.7654045076453764
 40
0.8826909144168967
 40
1.0
 40
1.0
 40
1.0
 40
1.0
 10
151.7489744292933
 20
90.27741212351978
 30
0.0
 10
151.5858153473756
 20
90.57674094629039
 30
0.0
 10
151.2595433158023
 20
91.17531395838333
 30
0.0
 10
150.9084886127824
 20
92.09706373517612
 30
0.0
 10
150.6974118272533
 20
93.03618884892667
 30
0.0
 10
150.6556145169677
 20
93.94128974696987
 30
0.0
 10
150.7640731496684
 20
94.79748645175442
 30
0.0
 10
150.9862990587293
 20
95.60551896056393
 30
0.0
 10
151.3122768320156
 20
96.40989802967387
 30
0.0
 10
151.603399182409
 20
96.94035915217852
 30
0.0
 10
151.7489744292933
 20
97.2056153537953
 30
0.0
  0
LINE
  5
A9
330
1F
100
AcDbEntity
  8
0
  6
Continuous
 62
     7
370
    25
100
AcDbLine
 10
165.3167057552
 20
97.2056153538
 30
0.0
 11
151.7489744293
 21
97.2056153538
 31
0.0
  0
SPLINE
  5
AA
330
1F
100
AcDbEntity
  8
0
  6
Continuous
 62
     7
370
    25
100
AcDbSpline
210
0.0
220
0.0
230
1.0
 70
     8
 71
     3
 72
     9
 73
     5
 74
     0
 42
0.000000001
 43
0.00000001
 40
0.0
 40
0.0
 40
0.0
 40
0.0
 40
0.4988470384231428
 40
1.0
 40
1.0
 40
1.0
 40
1.0
 10
165.3167057552495
 20
97.2056153537953
 30
0.0
 10
165.493281755588
 20
96.88472503386105
 30
0.0
 10
165.847249979789
 20
96.24146107673987
 30
0.0
 10
166.063581161588
 20
95.5831177662499
 30
0.0
 10
166.1719961740279
 20
95.25318706646352
 30
0.0
  0
SPLINE
  5
AB
330
1F
100
AcDbEntity
  8
0
  6
Continuous
 62
     7
370
    25
100
AcDbSpline
210
0.0
220
0.0
230
1.0
 70
     8
 71
     3
 72
    15
 73
    11
 74
     0
 42
0.000000001
 43
0.00000001
 40
0.0
 40
0.0
 40
0.0
 40
0.0
 40
0.1323065044264403
 40
0.2645755999739298
 40
0.3998036789671092
 40
0.5350073556765891
 40
0.6501969475405018
 40
0.7654045076453763
 40
0.8826909144168966
 40
0.9999999999999999
 40
0.9999999999999999
 40
0.9999999999999999
 40
0.9999999999999999
 10
151.7489744292933
 20
111.0620218143463
 30
0.0
 10
151.5858153473756
 20
111.3613506371169
 30
0.0
 10
151.2595433158023
 20
111.9599236492099
 30
0.0
 10
150.9084886127824
 20
112.8816734260026
 30
0.0
 10
150.6974118272533
 20
113.8207985397532
 30
0.0
 10
150.6556145169677
 20
114.7258994377964
 30
0.0
 10
150.7640731496684
 20
115.582096142581
 30
0.0
 10
150.9862990587293
 20
116.3901286513905
 30
0.0
 10
151.3122768320156
 20
117.1945077205004
 30
0.0
 10
151.603399182409
 20
117.7249688430051
 30
0.0
 10
151.7489744292933
 20
117.9902250446218
 30
0.0
  0
SPLINE
  5
AC
330
1F
100
AcDbEntity
  8
0
  6
Continuous
 62
     7
370
    25
100
AcDbSpline
210
0.0
220
0.0
230
1.0
 70
     8
 71
     3
 72
    16
 73
    12
 74
     0
 42
0.000000001
 43
0.00000001
 40
0.0
 40
0.0
 40
0.0
 40
0.0
 40
0.1213012521508891
 40
0.246546111220084
 40
0.3717591011841888
 40
0.5000673345948778
 40
0.6283755856756821
 40
0.7208001477423515
 40
0.8132339918616915
 40
0.9066126185871437
 40
1.0
 40
1.0
 40
1.0
 40
1.0
 10
151.7489744292933
 20
97.2056153537953
 30
0.0
 10
151.5986308078731
 20
97.75426783041166
 30
0.0
 10
151.2930557659784
 20
98.86940994248786
 30
0.0
 10
150.954574526302
 20
100.5809755129647
 30
0.0
 10
150.7284370316899
 20
102.3440408603282
 30
0.0
 10
150.6521772693185
 20
104.1349976877801
 30
0.0
 10
150.7223739827316
 20
105.7720851273117
 30
0.0
 10
150.8922775725985
 20
107.2313786692378
 30
0.0
 10
151.1145343666302
 20
108.5173875594922
 30
0.0
 10
151.3978942518427
 20
109.7960833000103
 30
0.0
 10
151.6319440464355
 20
110.6400291228678
 30
0.0
 10
151.7489744292933
 20
111.0620218143463
 30
0.0
  0
LINE
  5
AD
330
1F
100
AcDbEntity
  8
0
  6
Continuous
 62
     7
370
    25
100
AcDbLine
 10
150.5328400923
 20
104.1338185841
 30
0.0
 11
150.5328400923
 21
115.8838185841
 31
0.0
  0
LINE
  5
AE
330
1F
100
AcDbEntity
  8
0
  6
Continuous
 62
     7
370
    25
100
AcDbLine
 10
150.5328400923
 20
92.3838185841
 30
0.0
 11
150.5328400923
 21
104.1338185841
 31
0.0
  0
LINE
  5
AF
330
1F
100
AcDbEntity
  8
0
  6
Continuous
 62
     7
370
    25
100
AcDbLine
 10
166.171996174
 20
107.1571652397
 30
0.0
 11
166.171996174
 21
113.0144501017
 31
0.0
  0
ARC
  5
B0
330
1F
100
AcDbEntity
  8
0
  6
Continuous
 62
     7
370
    25
100
AcDbCircle
 10
167.1973293573
 20
113.9585276681
 30
0.0
 40
1.393768484391409
100
AcDbArc
 50
222.6373822127
 51
272.352009954
  0
LINE
  5
B1
330
1F
100
AcDbEntity
  8
0
  6
Continuous
 62
     7
370
    25
100
AcDbLine
 10
167.2545279288
 20
112.5659333584
 30
0.0
 11
167.2545279288
 21
107.0044709641
 31
0.0
  0
ARC
  5
B2
330
1F
100
AcDbEntity
  8
0
  6
Continuous
 62
     7
370
    25
100
AcDbCircle
 10
167.1436347169
 20
110.1319611465
 30
0.0
 40
3.129455566916157
100
AcDbArc
 50
251.9117403692
 51
272.0307185446
  0
SPLINE
  5
B3
330
1F
100
AcDbEntity
  8
0
  6
Continuous
 62
     7
370
    25
100
AcDbSpline
210
0.0
220
0.0
230
1.0
 70
     8
 71
     3
 72
    11
 73
     7
 74
     0
 42
0.000000001
 43
0.00000001
 40
0.0
 40
0.0
 40
0.0
 40
0.0
 40
0.2896312968534326
 40
0.5811875798131635
 40
0.7902304971769967
 40
1.0
 40
1.0
 40
1.0
 40
1.0
 10
166.1719961740279
 20
116.0377967572901
 30
0.0
 10
166.2413430110434
 20
115.746877717037
 30
0.0
 10
166.3804975872601
 20
115.163106091653
 30
0.0
 10
166.4023885675869
 20
114.3629233977769
 30
0.0
 10
166.3299905165644
 20
113.6452111501241
 30
0.0
 10
166.2247218307315
 20
113.2249468192723
 30
0.0
 10
166.1719961740279
 20
113.0144501016781
 30
0.0
  0
SPLINE
  5
B4
330
1F
100
AcDbEntity
  8
0
  6
Continuous
 62
     7
370
    25
100
AcDbSpline
210
0.0
220
0.0
230
1.0
 70
     8
 71
     3
 72
     9
 73
     5
 74
     0
 42
0.000000001
 43
0.00000001
 40
0.0
 40
0.0
 40
0.0
 40
0.0
 40
0.4986680494787145
 40
1.0
 40
1.0
 40
1.0
 40
1.0
 10
166.1719961740279
 20
113.0144501016781
 30
0.0
 10
166.0641892834436
 20
112.6861507516118
 30
0.0
 10
165.8479995943368
 20
112.0277982656054
 30
0.0
 10
165.4941179368508
 20
111.3845185093038
 30
0.0
 10
165.3167057552495
 20
111.0620218143463
 30
0.0
  0
LINE
  5
B5
330
1F
100
AcDbEntity
  8
0
  6
Continuous
 62
     7
370
    25
100
AcDbLine
 10
165.3167057552
 20
111.0620218143
 30
0.0
 11
151.7489744293
 21
111.0620218143
 31
0.0
  0
LINE
  5
B6
330
1F
100
AcDbEntity
  8
0
  6
Continuous
 62
     7
370
    25
100
AcDbLine
 10
165.3167057552
 20
117.9902250446
 30
0.0
 11
151.7489744293
 21
117.9902250446
 31
0.0
  0
SPLINE
  5
B7
330
1F
100
AcDbEntity
  8
0
  6
Continuous
 62
     7
370
    25
100
AcDbSpline
210
0.0
220
0.0
230
1.0
 70
     8
 71
     3
 72
     9
 73
     5
 74
     0
 42
0.000000001
 43
0.00000001
 40
0.0
 40
0.0
 40
0.0
 40
0.0
 40
0.498847038423143
 40
1.0
 40
1.0
 40
1.0
 40
1.0
 10
165.3167057552495
 20
117.9902250446218
 30
0.0
 10
165.493281755588
 20
117.6693347246876
 30
0.0
 10
165.847249979789
 20
117.0260707675664
 30
0.0
 10
166.063581161588
 20
116.3677274570764
 30
0.0
 10
166.1719961740279
 20
116.0377967572901
 30
0.0
  0
SPLINE
  5
B8
330
1F
100
AcDbEntity
  8
0
  6
Continuous
 62
     7
370
    25
100
AcDbSpline
210
0.0
220
0.0
230
1.0
 70
     8
 71
     3
 72
    14
 73
    10
 74
     0
 42
0.000000001
 43
0.00000001
 40
0.0
 40
0.0
 40
0.0
 40
0.0
 40
0.1109420297142707
 40
0.2219094160477018
 40
0.4465372559860625
 40
0.5835315770864746
 40
0.7205688931331014
 40
0.8603107605418564
 40
1.0
 40
1.0
 40
1.0
 40
1.0
 10
167.2545279287585
 20
107.0044709641468
 30
0.0
 10
167.2512492400178
 20
106.7954746488507
 30
0.0
 10
167.244691113168
 20
106.3774342506092
 30
0.0
 10
167.1932715913557
 20
105.5257686361504
 30
0.0
 10
167.1324634252392
 20
104.6141774131645
 30
0.0
 10
167.1418663791375
 20
103.6482246969893
 30
0.0
 10
167.1835389690259
 20
102.850622517296
 30
0.0
 10
167.2389086333373
 20
102.0535254498072
 30
0.0
 10
167.2493221507107
 20
101.5265862047519
 30
0.0
 10
167.2545279287585
 20
101.2631662039948
 30
0.0
  0
ARC
  5
B9
330
1F
100
AcDbEntity
  8
0
  6
Continuous
 62
     7
370
    25
100
AcDbCircle
 10
167.1436347169
 20
98.1356760216
 30
0.0
 40
3.129455566920369
100
AcDbArc
 50
87.9692814554
 51
108.0882596308
  0
SPLINE
  5
BA
330
1F
100
AcDbEntity
  8
0
  6
Continuous
 62
     7
370
    25
100
AcDbSpline
210
0.0
220
0.0
230
1.0
 70
     8
 71
     3
 72
    12
 73
     8
 74
     0
 42
0.000000001
 43
0.00000001
 40
0.0
 40
0.0
 40
0.0
 40
0.0
 40
0.212968915467141
 40
0.4084755341932518
 40
0.6039784210818411
 40
0.8019834228453047
 40
1.0
 40
1.0
 40
1.0
 40
1.0
 10
166.1719961740279
 20
107.1571652396828
 30
0.0
 10
166.2254056951083
 20
106.7297192015774
 30
0.0
 10
166.327845446029
 20
105.9098753836621
 30
0.0
 10
166.3915688029408
 20
104.6892173502147
 30
0.0
 10
166.3897736817038
 20
103.4977688885149
 30
0.0
 10
166.3219336515246
 20
102.3025677357138
 30
0.0
 10
166.2219763070844
 20
101.5078449405792
 30
0.0
 10
166.1719961740279
 20
101.1104719284589
 30
0.0
  0
LINE
  5
BB
330
1F
100
AcDbEntity
  8
0
  6
Continuous
 62
     7
370
    25
100
AcDbLine
 10
167.2545279288
 20
101.263166204
 30
0.0
 11
167.2545279288
 21
95.7017038098
 31
0.0
  0
ARC
  5
BC
330
1F
100
AcDbEntity
  8
0
  6
Continuous
 62
     7
370
    25
100
AcDbCircle
 10
167.1973293573
 20
94.3091095
 30
0.0
 40
1.393768484391438
100
AcDbArc
 50
87.647990046
 51
137.3626177873
  0
LINE
  5
BD
330
1F
100
AcDbEntity
  8
0
  6
Continuous
 62
     7
370
    25
100
AcDbLine
 10
166.171996174
 20
95.2531870665
 30
0.0
 11
166.171996174
 21
101.1104719285
 31
0.0
  0
SPLINE
  5
BE
330
1F
100
AcDbEntity
  8
0
  6
Continuous
 62
     7
370
    25
100
AcDbSpline
210
0.0
220
0.0
230
1.0
 70
     8
 71
     3
 72
    10
 73
     6
 74
     0
 42
0.000000001
 43
0.00000001
 40
0.0
 40
0.0
 40
0.0
 40
0.0
 40
0.2966942842518304
 40
0.5940284356736804
 40
1.0
 40
1.0
 40
1.0
 40
1.0
 10
166.1719961740279
 20
101.1104719284589
 30
0.0
 10
166.1108337133481
 20
100.7195434622083
 30
0.0
 10
165.9883768856702
 20
99.9368434319305
 30
0.0
 10
165.7080285242017
 20
98.63231812356052
 30
0.0
 10
165.4599214502987
 20
97.72775780246366
 30
0.0
 10
165.3167057552495
 20
97.2056153537953
 30
0.0
  0
SPLINE
  5
BF
330
1F
100
AcDbEntity
  8
0
  6
Continuous
 62
     7
370
    25
100
AcDbSpline
210
0.0
220
0.0
230
1.0
 70
     8
 71
     3
 72
     9
 73
     5
 74
     0
 42
0.000000001
 43
0.00000001
 40
0.0
 40
0.0
 40
0.0
 40
0.0
 40
0.4988470384231429
 40
1.0
 40
1.0
 40
1.0
 40
1.0
 10
165.3167057552495
 20
111.0620218143463
 30
0.0
 10
165.493281755588
 20
110.4202411744778
 30
0.0
 10
165.847249979789
 20
109.1337132602355
 30
0.0
 10
166.063581161588
 20
107.8170266392555
 30
0.0
 10
166.1719961740279
 20
107.1571652396828
 30
0.0
  0
LINE
  5
C0
330
1F
100
AcDbEntity
  8
0
  6
Continuous
 62
     7
370
    25
100
AcDbLine
 10
168.3328400923
 20
92.3838185841
 30
0.0
 11
168.3328400923
 21
115.8838185841
 31
0.0
  0
SPLINE
  5
C1
330
1F
100
AcDbEntity
  8
0
  6
Continuous
 62
     7
370
    25
100
AcDbSpline
210
0.0
220
0.0
230
1.0
 70
     8
 71
     3
 72
    14
 73
    10
 74
     0
 42
0.000000001
 43
0.00000001
 40
0.0
 40
0.0
 40
0.0
 40
0.0
 40
0.1109420297141664
 40
0.221909416047493
 40
0.446537255985638
 40
0.5835315770861527
 40
0.7205688931328821
 40
0.8603107605417468
 40
1.0
 40
1.0
 40
1.0
 40
1.0
 10
167.2545279287585
 20
95.70170380977702
 30
0.0
 10
167.2512492400178
 20
95.55466026512691
 30
0.0
 10
167.244691113168
 20
95.26053956794
 30
0.0
 10
167.1932715913558
 20
94.71427853758468
 30
0.0
 10
167.1324634252393
 20
94.1927622895285
 30
0.0
 10
167.1418663791374
 20
93.71609819432895
 30
0.0
 10
167.1835389690258
 20
93.369868064569
 30
0.0
 10
167.2389086333373
 20
93.06828707248428
 30
0.0
 10
167.2493221507107
 20
92.91012004758925
 30
0.0
 10
167.2545279287585
 20
92.83105142970102
 30
0.0
  0
SPLINE
  5
C2
330
1F
100
AcDbEntity
  8
0
  6
Continuous
 62
     7
370
    25
100
AcDbSpline
210
0.0
220
0.0
230
1.0
 70
     8
 71
     3
 72
    14
 73
    10
 74
     0
 42
0.000000001
 43
0.00000001
 40
0.0
 40
0.0
 40
0.0
 40
0.0
 40
0.1109420297141653
 40
0.2219094160474906
 40
0.4465372559856333
 40
0.5835315770861491
 40
0.7205688931328799
 40
0.8603107605417459
 40
1.0
 40
1.0
 40
1.0
 40
1.0
 10
167.2545279287585
 20
115.4365857384406
 30
0.0
 10
167.2512492400178
 20
115.3746329677948
 30
0.0
 10
167.244691113168
 20
115.2507132667405
 30
0.0
 10
167.1932715913558
 20
114.945308682638
 30
0.0
 10
167.1324634252393
 20
114.5552337077087
 30
0.0
 10
167.1418663791374
 20
114.0659450867331
 30
0.0
 10
167.1835389690258
 20
113.614573036799
 30
0.0
 10
167.2389086333373
 20
113.1190569613944
 30
0.0
 10
167.2493221507107
 20
112.7502847412337
 30
0.0
 10
167.2545279287585
 20
112.5659333583646
 30
0.0
  0
LINE
  5
C3
330
1F
100
AcDbEntity
  8
0
  6
Continuous
 62
     7
370
    25
100
AcDbLine
 10
168.5328400923
 20
115.6838185841
 30
0.0
 11
168.5328400923
 21
92.5838185841
 31
0.0
  0
ARC
  5
C4
330
1F
100
AcDbEntity
  8
0
  6
Continuous
 62
     7
370
    25
100
AcDbCircle
 10
167.2457212145
 20
91.5717077501
 30
0.0
 40
1.259374472362091
100
AcDbArc
 50
89.599331506
 51
148.4940606845
  0
ARC
  5
C5
330
1F
100
AcDbEntity
  8
0
  6
Continuous
 62
     7
370
    25
100
AcDbCircle
 10
167.2457212145
 20
116.6959294181
 30
0.0
 40
1.259374472359641
100
AcDbArc
 50
211.5059393155
 51
270.400668494
  0
SPLINE
  5
C6
330
1F
100
AcDbEntity
  8
0
  6
Continuous
 62
     7
370
    25
100
AcDbSpline
210
0.0
220
0.0
230
1.0
 70
     8
 71
     3
 72
    15
 73
    11
 74
     0
 42
0.000000001
 43
0.00000001
 40
0.0
 40
0.0
 40
0.0
 40
0.0
 40
0.1323065044264402
 40
0.2645755999739296
 40
0.399803678967109
 40
0.5350073556765891
 40
0.6501969475405018
 40
0.7654045076453765
 40
0.8826909144168966
 40
0.9999999999999999
 40
0.9999999999999999
 40
0.9999999999999999
 40
0.9999999999999999
 10
126.4181140662819
 20
97.20561535379531
 30
0.0
 10
126.5812731481997
 20
96.9062865310247
 30
0.0
 10
126.907545179773
 20
96.30771351893176
 30
0.0
 10
127.2585998827929
 20
95.38596374213897
 30
0.0
 10
127.469676668322
 20
94.44683862838842
 30
0.0
 10
127.5114739786076
 20
93.54173773034522
 30
0.0
 10
127.4030153459068
 20
92.68554102556067
 30
0.0
 10
127.180789436846
 20
91.87750851675116
 30
0.0
 10
126.8548116635597
 20
91.07312944764124
 30
0.0
 10
126.5636893131662
 20
90.54266832513657
 30
0.0
 10
126.4181140662819
 20
90.2774121235198
 30
0.0
  0
SPLINE
  5
C7
330
1F
100
AcDbEntity
  8
0
  6
Continuous
 62
     7
370
    25
100
AcDbSpline
210
0.0
220
0.0
230
1.0
 70
     8
 71
     3
 72
    16
 73
    12
 74
     0
 42
0.000000001
 43
0.00000001
 40
0.0
 40
0.0
 40
0.0
 40
0.0
 40
0.0924953574248765
 40
0.1849823039831077
 40
0.2783078833056683
 40
0.3716238080803785
 40
0.4967168198954153
 40
0.6218091934964649
 40
0.750236477767962
 40
0.8786988815360978
 40
1.0
 40
1.0
 40
1.0
 40
1.0
 10
126.4181140662819
 20
111.0620218143463
 30
0.0
 10
126.5340679659659
 20
110.6440720006974
 30
0.0
 10
126.7659652213151
 20
109.8082103787682
 30
0.0
 10
127.0492682280471
 20
108.5338036223881
 30
0.0
 10
127.2732324941631
 20
107.2438353911047
 30
0.0
 10
127.4427703606808
 20
105.791241086339
 30
0.0
 10
127.5136630827879
 20
104.1803216878229
 30
0.0
 10
127.4437934894855
 20
102.4043266588325
 30
0.0
 10
127.2208764040809
 20
100.6255162036189
 30
0.0
 10
126.8779877002857
 20
98.88396972772017
 30
0.0
 10
126.568446865581
 20
97.75426979404064
 30
0.0
 10
126.4181140662819
 20
97.20561535379531
 30
0.0
  0
SPLINE
  5
C8
330
1F
100
AcDbEntity
  8
0
  6
Continuous
 62
     7
370
    25
100
AcDbSpline
210
0.0
220
0.0
230
1.0
 70
     8
 71
     3
 72
    15
 73
    11
 74
     0
 42
0.000000001
 43
0.00000001
 40
0.0
 40
0.0
 40
0.0
 40
0.0
 40
0.1323065044264402
 40
0.2645755999739298
 40
0.3998036789671093
 40
0.5350073556765894
 40
0.6501969475405022
 40
0.7654045076453766
 40
0.8826909144168967
 40
0.9999999999999999
 40
0.9999999999999999
 40
0.9999999999999999
 40
0.9999999999999999
 10
126.4181140662819
 20
117.9902250446218
 30
0.0
 10
126.5812731481996
 20
117.6908962218512
 30
0.0
 10
126.907545179773
 20
117.0923232097583
 30
0.0
 10
127.2585998827929
 20
116.1705734329655
 30
0.0
 10
127.469676668322
 20
115.2314483192149
 30
0.0
 10
127.5114739786076
 20
114.3263474211718
 30
0.0
 10
127.4030153459068
 20
113.4701507163872
 30
0.0
 10
127.1807894368459
 20
112.6621182075777
 30
0.0
 10
126.8548116635597
 20
111.8577391384678
 30
0.0
 10
126.5636893131662
 20
111.3272780159631
 30
0.0
 10
126.4181140662819
 20
111.0620218143463
 30
0.0
  0
LINE
  5
C9
330
1F
100
AcDbEntity
  8
0
  6
Continuous
 62
     7
370
    25
100
AcDbLine
 10
127.6342484033
 20
115.8838185841
 30
0.0
 11
127.6342484033
 21
92.3838185841
 31
0.0
  0
SPLINE
  5
CA
330
1F
100
AcDbEntity
  8
0
  6
Continuous
 62
     7
370
    25
100
AcDbSpline
210
0.0
220
0.0
230
1.0
 70
     8
 71
     3
 72
    11
 73
     7
 74
     0
 42
0.000000001
 43
0.00000001
 40
0.0
 40
0.0
 40
0.0
 40
0.0
 40
0.2896312968534325
 40
0.581187579813163
 40
0.7902304971769964
 40
1.0
 40
1.0
 40
1.0
 40
1.0
 10
111.9950923215473
 20
92.22984041085157
 30
0.0
 10
111.9257454845319
 20
92.5207594511046
 30
0.0
 10
111.7865909083152
 20
93.10453107648864
 30
0.0
 10
111.7646999279883
 20
93.90471377036475
 30
0.0
 10
111.8370979790109
 20
94.62242601801752
 30
0.0
 10
111.9423666648437
 20
95.04269034886931
 30
0.0
 10
111.9950923215473
 20
95.25318706646354
 30
0.0
  0
SPLINE
  5
CB
330
1F
100
AcDbEntity
  8
0
  6
Continuous
 62
     7
370
    25
100
AcDbSpline
210
0.0
220
0.0
230
1.0
 70
     8
 71
     3
 72
     9
 73
     5
 74
     0
 42
0.000000001
 43
0.00000001
 40
0.0
 40
0.0
 40
0.0
 40
0.0
 40
0.4986680494787149
 40
1.0
 40
1.0
 40
1.0
 40
1.0
 10
111.9950923215473
 20
95.25318706646354
 30
0.0
 10
112.1028992121316
 20
95.58148641652983
 30
0.0
 10
112.3190889012384
 20
96.23983890253628
 30
0.0
 10
112.6729705587245
 20
96.8831186588378
 30
0.0
 10
112.8503827403257
 20
97.20561535379531
 30
0.0
  0
LINE
  5
CC
330
1F
100
AcDbEntity
  8
0
  6
Continuous
 62
     7
370
    25
100
AcDbLine
 10
112.8503827403
 20
97.2056153538
 30
0.0
 11
126.4181140663
 21
97.2056153538
 31
0.0
  0
LINE
  5
CD
330
1F
100
AcDbEntity
  8
0
  6
Continuous
 62
     7
370
    25
100
AcDbLine
 10
112.8503827403
 20
90.2774121235
 30
0.0
 11
126.4181140663
 21
90.2774121235
 31
0.0
  0
SPLINE
  5
CE
330
1F
100
AcDbEntity
  8
0
  6
Continuous
 62
     7
370
    25
100
AcDbSpline
210
0.0
220
0.0
230
1.0
 70
     8
 71
     3
 72
     9
 73
     5
 74
     0
 42
0.000000001
 43
0.00000001
 40
0.0
 40
0.0
 40
0.0
 40
0.0
 40
0.4988470384231435
 40
1.0
 40
1.0
 40
1.0
 40
1.0
 10
112.8503827403257
 20
90.2774121235198
 30
0.0
 10
112.6738067399872
 20
90.59830244345405
 30
0.0
 10
112.3198385157863
 20
91.24156640057522
 30
0.0
 10
112.1035073339873
 20
91.8999097110652
 30
0.0
 10
111.9950923215473
 20
92.22984041085157
 30
0.0
  0
SPLINE
  5
CF
330
1F
100
AcDbEntity
  8
0
  6
Continuous
 62
     7
370
    25
100
AcDbSpline
210
0.0
220
0.0
230
1.0
 70
     8
 71
     3
 72
    12
 73
     8
 74
     0
 42
0.000000001
 43
0.00000001
 40
0.0
 40
0.0
 40
0.0
 40
0.0
 40
0.1955379048913362
 40
0.3910647281628026
 40
0.5890459846401825
 40
0.7870310591970178
 40
0.9999999999999999
 40
0.9999999999999999
 40
0.9999999999999999
 40
0.9999999999999999
 10
111.9950923215473
 20
101.1104719284588
 30
0.0
 10
111.9456634595764
 20
101.5028591885548
 30
0.0
 10
111.8468085368913
 20
102.2876114711839
 30
0.0
 10
111.7779464218231
 20
103.4777016263875
 30
0.0
 10
111.7748568217343
 20
104.67417860307
 30
0.0
 10
111.838636496095
 20
105.9048996077656
 30
0.0
 10
111.9416879210522
 20
106.729718737516
 30
0.0
 10
111.9950923215473
 20
107.1571652396828
 30
0.0
  0
SPLINE
  5
D0
330
1F
100
AcDbEntity
  8
0
  6
Continuous
 62
     7
370
    25
100
AcDbSpline
210
0.0
220
0.0
230
1.0
 70
     8
 71
     3
 72
     9
 73
     5
 74
     0
 42
0.000000001
 43
0.00000001
 40
0.0
 40
0.0
 40
0.0
 40
0.0
 40
0.4986680494787147
 40
1.0
 40
1.0
 40
1.0
 40
1.0
 10
111.9950923215473
 20
107.1571652396828
 30
0.0
 10
112.1028992121316
 20
107.8137639398154
 30
0.0
 10
112.3190889012384
 20
109.1304689118283
 30
0.0
 10
112.6729705587245
 20
110.4170284244313
 30
0.0
 10
112.8503827403257
 20
111.0620218143463
 30
0.0
  0
LINE
  5
D1
330
1F
100
AcDbEntity
  8
0
  6
Continuous
 62
     7
370
    25
100
AcDbLine
 10
112.8503827403
 20
111.0620218143
 30
0.0
 11
126.4181140663
 21
111.0620218143
 31
0.0
  0
SPLINE
  5
D2
330
1F
100
AcDbEntity
  8
0
  6
Continuous
 62
     7
370
    25
100
AcDbSpline
210
0.0
220
0.0
230
1.0
 70
     8
 71
     3
 72
    10
 73
     6
 74
     0
 42
0.000000001
 43
0.00000001
 40
0.0
 40
0.0
 40
0.0
 40
0.0
 40
0.4059715743866125
 40
0.7026896990791633
 40
1.0
 40
1.0
 40
1.0
 40
1.0
 10
112.8503827403257
 20
97.20561535379531
 30
0.0
 10
112.7071664547234
 20
97.72775770326231
 30
0.0
 10
112.459275678663
 20
98.63152553719948
 30
0.0
 10
112.1788699856676
 20
99.93603574715927
 30
0.0
 10
112.0563922415391
 20
100.7187331157269
 30
0.0
 10
111.9950923215473
 20
101.1104719284588
 30
0.0
  0
LINE
  5
D3
330
1F
100
AcDbEntity
  8
0
  6
Continuous
 62
     7
370
    25
100
AcDbLine
 10
111.9950923215
 20
101.1104719285
 30
0.0
 11
111.9950923215
 21
95.2531870665
 31
0.0
  0
LINE
  5
D4
330
1F
100
AcDbEntity
  8
0
  6
Continuous
 62
     7
370
    25
100
AcDbLine
 10
110.9125605668
 20
95.7017038098
 30
0.0
 11
110.9125605668
 21
101.263166204
 31
0.0
  0
ARC
  5
D5
330
1F
100
AcDbEntity
  8
0
  6
Continuous
 62
     7
370
    25
100
AcDbCircle
 10
111.0234537787
 20
98.1356760216
 30
0.0
 40
3.129455566916258
100
AcDbArc
 50
71.9117403692
 51
92.0307185446
  0
ARC
  5
D6
330
1F
100
AcDbEntity
  8
0
  6
Continuous
 62
     7
370
    25
100
AcDbCircle
 10
110.9697591383
 20
94.3091095
 30
0.0
 40
1.393768484394683
100
AcDbArc
 50
42.6373822128
 51
92.3520099539
  0
SPLINE
  5
D7
330
1F
100
AcDbEntity
  8
0
  6
Continuous
 62
     7
370
    25
100
AcDbSpline
210
0.0
220
0.0
230
1.0
 70
     8
 71
     3
 72
    14
 73
    10
 74
     0
 42
0.000000001
 43
0.00000001
 40
0.0
 40
0.0
 40
0.0
 40
0.0
 40
0.1109420297102336
 40
0.2219094160396244
 40
0.4465372559696479
 40
0.5835315770740258
 40
0.7205688931246191
 40
0.8603107605376176
 40
1.0
 40
1.0
 40
1.0
 40
1.0
 10
110.9125605668168
 20
101.2631662039948
 30
0.0
 10
110.9158392555572
 20
101.4721625192832
 30
0.0
 10
110.9223973824065
 20
101.8902029175095
 30
0.0
 10
110.9738169042157
 20
102.7418685319366
 30
0.0
 10
111.034625070333
 20
103.6534597549055
 30
0.0
 10
111.0252221164404
 20
104.61941247108
 30
0.0
 10
110.9835495265529
 20
105.4170146507974
 30
0.0
 10
110.9281798622389
 20
106.2141117183103
 30
0.0
 10
110.9177663448648
 20
106.7410509633817
 30
0.0
 10
110.9125605668168
 20
107.0044709641468
 30
0.0
  0
ARC
  5
D8
330
1F
100
AcDbEntity
  8
0
  6
Continuous
 62
     7
370
    25
100
AcDbCircle
 10
111.0234537787
 20
110.1319611465
 30
0.0
 40
3.12945556691579
100
AcDbArc
 50
267.9692814554
 51
288.0882596308
  0
LINE
  5
D9
330
1F
100
AcDbEntity
  8
0
  6
Continuous
 62
     7
370
    25
100
AcDbLine
 10
111.9950923215
 20
113.0144501017
 30
0.0
 11
111.9950923215
 21
107.1571652397
 31
0.0
  0
SPLINE
  5
DA
330
1F
100
AcDbEntity
  8
0
  6
Continuous
 62
     7
370
    25
100
AcDbSpline
210
0.0
220
0.0
230
1.0
 70
     8
 71
     3
 72
     9
 73
     5
 74
     0
 42
0.000000001
 43
0.00000001
 40
0.0
 40
0.0
 40
0.0
 40
0.0
 40
0.498847038423143
 40
1.0
 40
1.0
 40
1.0
 40
1.0
 10
112.8503827403257
 20
111.0620218143463
 30
0.0
 10
112.6738067399872
 20
111.3829121342806
 30
0.0
 10
112.3198385157863
 20
112.0261760914018
 30
0.0
 10
112.1035073339873
 20
112.6845194018917
 30
0.0
 10
111.9950923215473
 20
113.0144501016781
 30
0.0
  0
LINE
  5
DB
330
1F
100
AcDbEntity
  8
0
  6
Continuous
 62
     7
370
    25
100
AcDbLine
 10
110.9125605668
 20
107.0044709641
 30
0.0
 11
110.9125605668
 21
112.5659333584
 31
0.0
  0
ARC
  5
DC
330
1F
100
AcDbEntity
  8
0
  6
Continuous
 62
     7
370
    25
100
AcDbCircle
 10
110.9697591383
 20
113.9585276681
 30
0.0
 40
1.393768484391385
100
AcDbArc
 50
267.647990046
 51
317.3626177873
  0
SPLINE
  5
DD
330
1F
100
AcDbEntity
  8
0
  6
Continuous
 62
     7
370
    25
100
AcDbSpline
210
0.0
220
0.0
230
1.0
 70
     8
 71
     3
 72
    11
 73
     7
 74
     0
 42
0.000000001
 43
0.00000001
 40
0.0
 40
0.0
 40
0.0
 40
0.0
 40
0.2896312968534335
 40
0.5811875798131653
 40
0.7902304971769979
 40
1.0
 40
1.0
 40
1.0
 40
1.0
 10
111.9950923215473
 20
113.0144501016781
 30
0.0
 10
111.9257454845319
 20
113.3053691419311
 30
0.0
 10
111.7865909083151
 20
113.8891407673152
 30
0.0
 10
111.7646999279883
 20
114.6893234611913
 30
0.0
 10
111.8370979790109
 20
115.4070357088441
 30
0.0
 10
111.9423666648437
 20
115.8273000396958
 30
0.0
 10
111.9950923215473
 20
116.0377967572901
 30
0.0
  0
SPLINE
  5
DE
330
1F
100
AcDbEntity
  8
0
  6
Continuous
 62
     7
370
    25
100
AcDbSpline
210
0.0
220
0.0
230
1.0
 70
     8
 71
     3
 72
     9
 73
     5
 74
     0
 42
0.000000001
 43
0.00000001
 40
0.0
 40
0.0
 40
0.0
 40
0.0
 40
0.498668049478715
 40
1.0
 40
1.0
 40
1.0
 40
1.0
 10
111.9950923215473
 20
116.0377967572901
 30
0.0
 10
112.1028992121316
 20
116.3660961073563
 30
0.0
 10
112.3190889012384
 20
117.0244485933628
 30
0.0
 10
112.6729705587245
 20
117.6677283496643
 30
0.0
 10
112.8503827403257
 20
117.9902250446218
 30
0.0
  0
LINE
  5
DF
330
1F
100
AcDbEntity
  8
0
  6
Continuous
 62
     7
370
    25
100
AcDbLine
 10
112.8503827403
 20
117.9902250446
 30
0.0
 11
126.4181140663
 21
117.9902250446
 31
0.0
  0
LINE
  5
E0
330
1F
100
AcDbEntity
  8
0
  6
Continuous
 62
     7
370
    25
100
AcDbLine
 10
109.6342484033
 20
104.1338185841
 30
0.0
 11
109.6342484033
 21
115.6838185841
 31
0.0
  0
LINE
  5
E1
330
1F
100
AcDbEntity
  8
0
  6
Continuous
 62
     7
370
    25
100
AcDbLine
 10
109.6342484033
 20
92.5838185841
 30
0.0
 11
109.6342484033
 21
104.1338185841
 31
0.0
  0
LINE
  5
E2
330
1F
100
AcDbEntity
  8
0
  6
Continuous
 62
     7
370
    25
100
AcDbLine
 10
109.8342484033
 20
104.1338185841
 30
0.0
 11
109.8342484033
 21
92.3838185841
 31
0.0
  0
LINE
  5
E3
330
1F
100
AcDbEntity
  8
0
  6
Continuous
 62
     7
370
    25
100
AcDbLine
 10
109.8342484033
 20
115.8838185841
 30
0.0
 11
109.8342484033
 21
104.1338185841
 31
0.0
  0
SPLINE
  5
E4
330
1F
100
AcDbEntity
  8
0
  6
Continuous
 62
     7
370
    25
100
AcDbSpline
210
0.0
220
0.0
230
1.0
 70
     8
 71
     3
 72
    14
 73
    10
 74
     0
 42
0.000000001
 43
0.00000001
 40
0.0
 40
0.0
 40
0.0
 40
0.0
 40
0.1109420297141673
 40
0.2219094160474948
 40
0.4465372559856415
 40
0.5835315770861556
 40
0.7205688931328839
 40
0.8603107605417474
 40
1.0
 40
1.0
 40
1.0
 40
1.0
 10
110.9125605668168
 20
92.83105142970102
 30
0.0
 10
110.9158392555574
 20
92.89300420034682
 30
0.0
 10
110.9223973824072
 20
93.0169239014011
 30
0.0
 10
110.9738169042195
 20
93.32232848550365
 30
0.0
 10
111.034625070336
 20
93.71240346043297
 30
0.0
 10
111.0252221164378
 20
94.20169208140858
 30
0.0
 10
110.9835495265495
 20
94.65306413134262
 30
0.0
 10
110.928179862238
 20
95.14858020674724
 30
0.0
 10
110.9177663448645
 20
95.51735242690796
 30
0.0
 10
110.9125605668168
 20
95.70170380977702
 30
0.0
  0
SPLINE
  5
E5
330
1F
100
AcDbEntity
  8
0
  6
Continuous
 62
     7
370
    25
100
AcDbSpline
210
0.0
220
0.0
230
1.0
 70
     8
 71
     3
 72
    14
 73
    10
 74
     0
 42
0.000000001
 43
0.00000001
 40
0.0
 40
0.0
 40
0.0
 40
0.0
 40
0.1109420297141656
 40
0.2219094160474918
 40
0.4465372559856349
 40
0.5835315770861503
 40
0.7205688931328808
 40
0.8603107605417464
 40
1.0
 40
1.0
 40
1.0
 40
1.0
 10
110.9125605668168
 20
112.5659333583646
 30
0.0
 10
110.9158392555574
 20
112.7129769030147
 30
0.0
 10
110.9223973824072
 20
113.0070976002016
 30
0.0
 10
110.9738169042195
 20
113.553358630557
 30
0.0
 10
111.034625070336
 20
114.0748748786131
 30
0.0
 10
111.0252221164378
 20
114.5515389738127
 30
0.0
 10
110.9835495265495
 20
114.8977691035726
 30
0.0
 10
110.928179862238
 20
115.1993500956573
 30
0.0
 10
110.9177663448645
 20
115.3575171205524
 30
0.0
 10
110.9125605668168
 20
115.4365857384406
 30
0.0
  0
ARC
  5
E6
330
1F
100
AcDbEntity
  8
0
  6
Continuous
 62
     7
370
    25
100
AcDbCircle
 10
110.9213672811
 20
91.5717077501
 30
0.0
 40
1.259374472359655
100
AcDbArc
 50
31.5059393155
 51
90.400668494
  0
ARC
  5
E7
330
1F
100
AcDbEntity
  8
0
  6
Continuous
 62
     7
370
    25
100
AcDbCircle
 10
110.9213672811
 20
116.6959294181
 30
0.0
 40
1.25937447235967
100
AcDbArc
 50
269.599331506
 51
328.4940606845
  0
SPLINE
  5
E8
330
1F
100
AcDbEntity
  8
0
  6
Continuous
 62
     7
370
    25
100
AcDbSpline
210
0.0
220
0.0
230
1.0
 70
     8
 71
     3
 72
    12
 73
     8
 74
     0
 42
0.000000001
 43
0.00000001
 40
0.0
 40
0.0
 40
0.0
 40
0.0
 40
0.4999999999999998
 40
0.4999999999999998
 40
0.7499999999999999
 40
0.7499999999999999
 40
1.0
 40
1.0
 40
1.0
 40
1.0
 10
142.2948691131928
 20
114.8393456672067
 30
0.0
 10
142.3889719341544
 20
114.4506132267779
 30
0.0
 10
142.4389448819477
 20
114.0587112191123
 30
0.0
 10
142.439336026608
 20
113.4655024440276
 30
0.0
 10
142.4270079358075
 20
113.2667033989773
 30
0.0
 10
142.3783893566997
 20
112.8723315907104
 30
0.0
 10
142.3421426893487
 20
112.6761343559065
 30
0.0
 10
142.2948691131928
 20
112.4808503841926
 30
0.0
  0
SPLINE
  5
E9
330
1F
100
AcDbEntity
  8
0
  6
Continuous
 62
     7
370
    25
100
AcDbSpline
210
0.0
220
0.0
230
1.0
 70
     8
 71
     3
 72
     8
 73
     4
 74
     0
 42
0.000000001
 43
0.00000001
 40
0.0
 40
0.0
 40
0.0
 40
0.0
 40
1.0
 40
1.0
 40
1.0
 40
1.0
 10
142.2948691131928
 20
112.4808503841926
 30
0.0
 10
142.1314681160435
 20
111.8058518268564
 30
0.0
 10
141.8361093150025
 20
111.1417821883924
 30
0.0
 10
141.4567263082429
 20
110.4846715451567
 30
0.0
  0
LINE
  5
EA
330
1F
100
AcDbEntity
  8
0
  6
Continuous
 62
     7
370
    25
100
AcDbLine
 10
141.4567263082
 20
110.4846715452
 30
0.0
 11
136.7103621873
 21
110.4846715452
 31
0.0
  0
SPLINE
  5
EB
330
1F
100
AcDbEntity
  8
0
  6
Continuous
 62
     7
370
    25
100
AcDbSpline
210
0.0
220
0.0
230
1.0
 70
     8
 71
     3
 72
     8
 73
     4
 74
     0
 42
0.000000001
 43
0.00000001
 40
0.0
 40
0.0
 40
0.0
 40
0.0
 40
1.0
 40
1.0
 40
1.0
 40
1.0
 10
135.8722193823824
 20
112.4808503841926
 30
0.0
 10
136.0356203795317
 20
111.8058518268564
 30
0.0
 10
136.3309791805728
 20
111.1417821883924
 30
0.0
 10
136.7103621873323
 20
110.4846715451567
 30
0.0
  0
SPLINE
  5
EC
330
1F
100
AcDbEntity
  8
0
  6
Continuous
 62
     7
370
    25
100
AcDbSpline
210
0.0
220
0.0
230
1.0
 70
     8
 71
     3
 72
    12
 73
     8
 74
     0
 42
0.000000001
 43
0.00000001
 40
0.0
 40
0.0
 40
0.0
 40
0.0
 40
0.4999999999999998
 40
0.4999999999999998
 40
0.7499999999999999
 40
0.7499999999999999
 40
1.0
 40
1.0
 40
1.0
 40
1.0
 10
135.8722193823824
 20
114.8393456672067
 30
0.0
 10
135.7781165614209
 20
114.4506132267779
 30
0.0
 10
135.7281436136276
 20
114.0587112191123
 30
0.0
 10
135.7277524689672
 20
113.4655024440276
 30
0.0
 10
135.7400805597678
 20
113.2667033989773
 30
0.0
 10
135.7886991388756
 20
112.8723315907104
 30
0.0
 10
135.8249458062266
 20
112.6761343559065
 30
0.0
 10
135.8722193823824
 20
112.4808503841926
 30
0.0
  0
SPLINE
  5
ED
330
1F
100
AcDbEntity
  8
0
  6
Continuous
 62
     7
370
    25
100
AcDbSpline
210
0.0
220
0.0
230
1.0
 70
     8
 71
     3
 72
     8
 73
     4
 74
     0
 42
0.000000001
 43
0.00000001
 40
0.0
 40
0.0
 40
0.0
 40
0.0
 40
1.0
 40
1.0
 40
1.0
 40
1.0
 10
136.7103621873322
 20
116.8355245062426
 30
0.0
 10
136.3303694971601
 20
116.1773578603599
 30
0.0
 10
136.0353168853823
 20
115.5130905105719
 30
0.0
 10
135.8722193823824
 20
114.8393456672067
 30
0.0
  0
LINE
  5
EE
330
1F
100
AcDbEntity
  8
0
  6
Continuous
 62
     7
370
    25
100
AcDbLine
 10
141.4567263082
 20
116.8355245062
 30
0.0
 11
136.7103621873
 21
116.8355245062
 31
0.0
  0
SPLINE
  5
EF
330
1F
100
AcDbEntity
  8
0
  6
Continuous
 62
     7
370
    25
100
AcDbSpline
210
0.0
220
0.0
230
1.0
 70
     8
 71
     3
 72
     8
 73
     4
 74
     0
 42
0.000000001
 43
0.00000001
 40
0.0
 40
0.0
 40
0.0
 40
0.0
 40
1.0
 40
1.0
 40
1.0
 40
1.0
 10
141.4567263082431
 20
116.8355245062426
 30
0.0
 10
141.8367189984151
 20
116.1773578603599
 30
0.0
 10
142.1317716101929
 20
115.5130905105719
 30
0.0
 10
142.2948691131928
 20
114.8393456672067
 30
0.0
  0
LINE
  5
F0
330
1F
100
AcDbEntity
  8
0
  6
Continuous
 62
     7
370
    25
100
AcDbLine
 10
142.2948691132
 20
106.4923138671
 30
0.0
 11
142.2948691132
 21
112.4808503842
 31
0.0
  0
SPLINE
  5
F1
330
1F
100
AcDbEntity
  8
0
  6
Continuous
 62
     7
370
    25
100
AcDbSpline
210
0.0
220
0.0
230
1.0
 70
     8
 71
     3
 72
     8
 73
     4
 74
     0
 42
0.000000001
 43
0.00000001
 40
0.0
 40
0.0
 40
0.0
 40
0.0
 40
1.0
 40
1.0
 40
1.0
 40
1.0
 10
142.2948691131928
 20
106.4923138670849
 30
0.0
 10
142.1301462523203
 20
107.8532320424816
 30
0.0
 10
141.8335023081979
 20
109.179481195167
 30
0.0
 10
141.4567263082428
 20
110.4846715451567
 30
0.0
  0
LINE
  5
F2
330
1F
100
AcDbEntity
  8
0
  6
Continuous
 62
     7
370
    25
100
AcDbLine
 10
135.8722193824
 20
106.4923138671
 30
0.0
 11
135.8722193824
 21
112.4808503842
 31
0.0
  0
SPLINE
  5
F3
330
1F
100
AcDbEntity
  8
0
  6
Continuous
 62
     7
370
    25
100
AcDbSpline
210
0.0
220
0.0
230
1.0
 70
     8
 71
     3
 72
     8
 73
     4
 74
     0
 42
0.000000001
 43
0.00000001
 40
0.0
 40
0.0
 40
0.0
 40
0.0
 40
1.0
 40
1.0
 40
1.0
 40
1.0
 10
135.8722193823824
 20
106.4923138670849
 30
0.0
 10
136.0369422432549
 20
107.8532320424816
 30
0.0
 10
136.3335861873774
 20
109.179481195167
 30
0.0
 10
136.7103621873325
 20
110.4846715451567
 30
0.0
  0
SPLINE
  5
F4
330
1F
100
AcDbEntity
  8
0
  6
Continuous
 62
     7
370
    25
100
AcDbSpline
210
0.0
220
0.0
230
1.0
 70
     8
 71
     3
 72
    14
 73
    10
 74
     0
 42
0.000000001
 43
0.00000001
 40
0.0
 40
0.0
 40
0.0
 40
0.0
 40
0.25
 40
0.25
 40
0.5
 40
0.5
 40
0.75
 40
0.75
 40
1.0
 40
1.0
 40
1.0
 40
1.0
 10
143.1608945169772
 20
106.3874918545065
 30
0.0
 10
143.1608945169772
 20
106.015909587875
 30
0.0
 10
143.1449110686108
 20
105.6428667590044
 30
0.0
 10
143.1142088855634
 20
104.8932317912038
 30
0.0
 10
143.1007298128088
 20
104.5166123554223
 30
0.0
 10
143.1005601215716
 20
103.7592183491598
 30
0.0
 10
143.1140351162975
 20
103.3787491812963
 30
0.0
 10
143.1448561490117
 20
102.6260110899267
 30
0.0
 10
143.1608945169775
 20
102.2520835518427
 30
0.0
 10
143.1608945169775
 20
101.8801453136351
 30
0.0
  0
ARC
  5
F5
330
1F
100
AcDbEntity
  8
0
  6
Continuous
 62
     7
370
    25
100
AcDbCircle
 10
143.0706952105
 20
98.9954560302
 30
0.0
 40
2.886099128010588
100
AcDbArc
 50
88.2090423678
 51
105.5937514303
  0
SPLINE
  5
F6
330
1F
100
AcDbEntity
  8
0
  6
Continuous
 62
     7
370
    25
100
AcDbSpline
210
0.0
220
0.0
230
1.0
 70
     8
 71
     3
 72
    12
 73
     8
 74
     0
 42
0.000000001
 43
0.00000001
 40
0.0
 40
0.0
 40
0.0
 40
0.0
 40
0.5
 40
0.5
 40
0.75
 40
0.75
 40
1.0
 40
1.0
 40
1.0
 40
1.0
 10
142.2948691131928
 20
101.7753233010567
 30
0.0
 10
142.3891612641767
 20
102.5543524011561
 30
0.0
 10
142.4388126173742
 20
103.337224473843
 30
0.0
 10
142.4394001732416
 20
104.5178934732894
 30
0.0
 10
142.4273671977935
 20
104.9125025440867
 30
0.0
 10
142.3788680237809
 20
105.7038240577382
 30
0.0
 10
142.3423293156989
 20
106.1002040417914
 30
0.0
 10
142.2948691131928
 20
106.4923138670849
 30
0.0
  0
ARC
  5
F7
330
1F
100
AcDbEntity
  8
0
  6
Continuous
 62
     7
370
    25
100
AcDbCircle
 10
143.0706952106
 20
109.2721811385
 30
0.0
 40
2.886099128617228
100
AcDbArc
 50
254.4062485716
 51
271.7909576304
  0
LINE
  5
F8
330
1F
100
AcDbEntity
  8
0
  6
Continuous
 62
     7
370
    25
100
AcDbLine
 10
135.0061939786
 20
112.1098711931
 30
0.0
 11
135.0061939786
 21
106.3874918545
 31
0.0
  0
ARC
  5
F9
330
1F
100
AcDbEntity
  8
0
  6
Continuous
 62
     7
370
    25
100
AcDbCircle
 10
135.0486022337
 20
113.2072000019
 30
0.0
 40
1.098147974908724
100
AcDbArc
 50
267.7868024677
 51
318.5908643937
  0
ARC
  5
FA
330
1F
100
AcDbEntity
  8
0
  6
Continuous
 62
     7
370
    25
100
AcDbCircle
 10
135.096393285
 20
109.2721811385
 30
0.0
 40
2.8860991286173
100
AcDbArc
 50
268.2090423696
 51
285.5937514284
  0
LINE
  5
FB
330
1F
100
AcDbEntity
  8
0
  6
Continuous
 62
     7
370
    25
100
AcDbLine
 10
135.8722193824
 20
95.7867867839
 30
0.0
 11
135.8722193824
 21
101.7753233011
 31
0.0
  0
ARC
  5
FC
330
1F
100
AcDbEntity
  8
0
  6
Continuous
 62
     7
370
    25
100
AcDbCircle
 10
135.0486022337
 20
95.0604371662
 30
0.0
 40
1.098147974908724
100
AcDbArc
 50
41.4091356063
 51
92.2131975323
  0
LINE
  5
FD
330
1F
100
AcDbEntity
  8
0
  6
Continuous
 62
     7
370
    25
100
AcDbLine
 10
135.0061939786
 20
101.8801453136
 30
0.0
 11
135.0061939786
 21
96.1577659751
 31
0.0
  0
ARC
  5
FE
330
1F
100
AcDbEntity
  8
0
  6
Continuous
 62
     7
370
    25
100
AcDbCircle
 10
135.0963932851
 20
98.9954560302
 30
0.0
 40
2.886099128010658
100
AcDbArc
 50
74.4062485697
 51
91.7909576322
  0
SPLINE
  5
FF
330
1F
100
AcDbEntity
  8
0
  6
Continuous
 62
     7
370
    25
100
AcDbSpline
210
0.0
220
0.0
230
1.0
 70
     8
 71
     3
 72
    10
 73
     6
 74
     0
 42
0.000000001
 43
0.00000001
 40
0.0
 40
0.0
 40
0.0
 40
0.0
 40
0.5
 40
0.5
 40
1.0
 40
1.0
 40
1.0
 40
1.0
 10
136.7103621873325
 20
97.78296562298492
 30
0.0
 10
136.5216882232718
 20
98.43655140662179
 30
0.0
 10
136.3520174599753
 20
99.10037704486227
 30
0.0
 10
136.0679227935586
 20
100.4340455235389
 30
0.0
 10
135.953564192923
 20
101.1032633905348
 30
0.0
 10
135.8722193823824
 20
101.7753233010567
 30
0.0
  0
SPLINE
  5
100
330
1F
100
AcDbEntity
  8
0
  6
Continuous
 62
     7
370
    25
100
AcDbSpline
210
0.0
220
0.0
230
1.0
 70
     8
 71
     3
 72
     8
 73
     4
 74
     0
 42
0.000000001
 43
0.00000001
 40
0.0
 40
0.0
 40
0.0
 40
0.0
 40
1.0
 40
1.0
 40
1.0
 40
1.0
 10
136.7103621873322
 20
97.78296562298495
 30
0.0
 10
136.3303694971601
 20
97.12479897710222
 30
0.0
 10
136.0353168853823
 20
96.46053162731425
 30
0.0
 10
135.8722193823824
 20
95.78678678394905
 30
0.0
  0
SPLINE
  5
101
330
1F
100
AcDbEntity
  8
0
  6
Continuous
 62
     7
370
    25
100
AcDbSpline
210
0.0
220
0.0
230
1.0
 70
     8
 71
     3
 72
    12
 73
     8
 74
     0
 42
0.000000001
 43
0.00000001
 40
0.0
 40
0.0
 40
0.0
 40
0.0
 40
0.5
 40
0.5
 40
0.75
 40
0.75
 40
1.0
 40
1.0
 40
1.0
 40
1.0
 10
135.8722193823824
 20
101.7753233010567
 30
0.0
 10
135.7779272313985
 20
102.5543524011561
 30
0.0
 10
135.728275878201
 20
103.337224473843
 30
0.0
 10
135.7276883223337
 20
104.5178934732894
 30
0.0
 10
135.7397212977818
 20
104.9125025440867
 30
0.0
 10
135.7882204717944
 20
105.7038240577382
 30
0.0
 10
135.8247591798763
 20
106.1002040417914
 30
0.0
 10
135.8722193823824
 20
106.4923138670849
 30
0.0
  0
SPLINE
  5
102
330
1F
100
AcDbEntity
  8
0
  6
Continuous
 62
     7
370
    25
100
AcDbSpline
210
0.0
220
0.0
230
1.0
 70
     8
 71
     3
 72
    14
 73
    10
 74
     0
 42
0.000000001
 43
0.00000001
 40
0.0
 40
0.0
 40
0.0
 40
0.0
 40
0.25
 40
0.25
 40
0.5
 40
0.5
 40
0.75
 40
0.75
 40
1.0
 40
1.0
 40
1.0
 40
1.0
 10
135.006193978598
 20
106.3874918545065
 30
0.0
 10
135.006193978598
 20
106.015909587875
 30
0.0
 10
135.0221774269645
 20
105.6428667590044
 30
0.0
 10
135.0528796100118
 20
104.8932317912038
 30
0.0
 10
135.0663586827665
 20
104.5166123554223
 30
0.0
 10
135.0665283740036
 20
103.7592183491598
 30
0.0
 10
135.0530533792777
 20
103.3787491812963
 30
0.0
 10
135.0222323465635
 20
102.6260110899267
 30
0.0
 10
135.0061939785977
 20
102.2520835518427
 30
0.0
 10
135.0061939785977
 20
101.8801453136351
 30
0.0
  0
SPLINE
  5
103
330
1F
100
AcDbEntity
  8
0
  6
Continuous
 62
     7
370
    25
100
AcDbSpline
210
0.0
220
0.0
230
1.0
 70
     8
 71
     3
 72
    10
 73
     6
 74
     0
 42
0.000000001
 43
0.00000001
 40
0.0
 40
0.0
 40
0.0
 40
0.0
 40
0.5
 40
0.5
 40
1.0
 40
1.0
 40
1.0
 40
1.0
 10
141.4567263082428
 20
97.78296562298492
 30
0.0
 10
141.6454002723034
 20
98.43655140662179
 30
0.0
 10
141.8150710355999
 20
99.10037704486227
 30
0.0
 10
142.0991657020167
 20
100.4340455235389
 30
0.0
 10
142.2135243026522
 20
101.1032633905348
 30
0.0
 10
142.2948691131928
 20
101.7753233010567
 30
0.0
  0
LINE
  5
104
330
1F
100
AcDbEntity
  8
0
  6
Continuous
 62
     7
370
    25
100
AcDbLine
 10
142.2948691132
 20
95.7867867839
 30
0.0
 11
142.2948691132
 21
101.7753233011
 31
0.0
  0
SPLINE
  5
105
330
1F
100
AcDbEntity
  8
0
  6
Continuous
 62
     7
370
    25
100
AcDbSpline
210
0.0
220
0.0
230
1.0
 70
     8
 71
     3
 72
     8
 73
     4
 74
     0
 42
0.000000001
 43
0.00000001
 40
0.0
 40
0.0
 40
0.0
 40
0.0
 40
1.0
 40
1.0
 40
1.0
 40
1.0
 10
141.4567263082431
 20
97.78296562298495
 30
0.0
 10
141.8367189984151
 20
97.12479897710222
 30
0.0
 10
142.1317716101929
 20
96.46053162731425
 30
0.0
 10
142.2948691131928
 20
95.78678678394905
 30
0.0
  0
LINE
  5
106
330
1F
100
AcDbEntity
  8
0
  6
Continuous
 62
     7
370
    25
100
AcDbLine
 10
143.160894517
 20
101.8801453136
 30
0.0
 11
143.160894517
 21
96.1577659751
 31
0.0
  0
ARC
  5
107
330
1F
100
AcDbEntity
  8
0
  6
Continuous
 62
     7
370
    25
100
AcDbCircle
 10
143.1184862619
 20
95.0604371662
 30
0.0
 40
1.098147974908724
100
AcDbArc
 50
87.7868024677
 51
138.5908643937
  0
LINE
  5
108
330
1F
100
AcDbEntity
  8
0
  6
Continuous
 62
     7
370
    25
100
AcDbLine
 10
141.4567263082
 20
97.782965623
 30
0.0
 11
136.7103621873
 21
97.782965623
 31
0.0
  0
SPLINE
  5
109
330
1F
100
AcDbEntity
  8
0
  6
Continuous
 62
     7
370
    25
100
AcDbSpline
210
0.0
220
0.0
230
1.0
 70
     8
 71
     3
 72
    12
 73
     8
 74
     0
 42
0.000000001
 43
0.00000001
 40
0.0
 40
0.0
 40
0.0
 40
0.0
 40
0.5
 40
0.5
 40
0.75
 40
0.75
 40
1.0
 40
1.0
 40
1.0
 40
1.0
 10
142.2948691131928
 20
95.78678678394905
 30
0.0
 10
142.3889719341544
 20
95.39805434352029
 30
0.0
 10
142.4389448819477
 20
95.0061523358547
 30
0.0
 10
142.439336026608
 20
94.41294356076997
 30
0.0
 10
142.4270079358075
 20
94.21414451571967
 30
0.0
 10
142.3783893566997
 20
93.81977270745278
 30
0.0
 10
142.3421426893487
 20
93.62357547264882
 30
0.0
 10
142.2948691131928
 20
93.42829150093492
 30
0.0
  0
SPLINE
  5
10A
330
1F
100
AcDbEntity
  8
0
  6
Continuous
 62
     7
370
    25
100
AcDbSpline
210
0.0
220
0.0
230
1.0
 70
     8
 71
     3
 72
     8
 73
     4
 74
     0
 42
0.000000001
 43
0.00000001
 40
0.0
 40
0.0
 40
0.0
 40
0.0
 40
1.0
 40
1.0
 40
1.0
 40
1.0
 10
142.2948691131928
 20
93.42829150093492
 30
0.0
 10
142.1314681160435
 20
92.75329294359871
 30
0.0
 10
141.8361093150025
 20
92.08922330513478
 30
0.0
 10
141.4567263082429
 20
91.43211266189903
 30
0.0
  0
LINE
  5
10B
330
1F
100
AcDbEntity
  8
0
  6
Continuous
 62
     7
370
    25
100
AcDbLine
 10
141.4567263082
 20
91.4321126619
 30
0.0
 11
136.7103621873
 21
91.4321126619
 31
0.0
  0
SPLINE
  5
10C
330
1F
100
AcDbEntity
  8
0
  6
Continuous
 62
     7
370
    25
100
AcDbSpline
210
0.0
220
0.0
230
1.0
 70
     8
 71
     3
 72
     8
 73
     4
 74
     0
 42
0.000000001
 43
0.00000001
 40
0.0
 40
0.0
 40
0.0
 40
0.0
 40
1.0
 40
1.0
 40
1.0
 40
1.0
 10
135.8722193823824
 20
93.42829150093492
 30
0.0
 10
136.0356203795317
 20
92.75329294359871
 30
0.0
 10
136.3309791805728
 20
92.08922330513478
 30
0.0
 10
136.7103621873323
 20
91.43211266189903
 30
0.0
  0
SPLINE
  5
10D
330
1F
100
AcDbEntity
  8
0
  6
Continuous
 62
     7
370
    25
100
AcDbSpline
210
0.0
220
0.0
230
1.0
 70
     8
 71
     3
 72
    12
 73
     8
 74
     0
 42
0.000000001
 43
0.00000001
 40
0.0
 40
0.0
 40
0.0
 40
0.0
 40
0.5
 40
0.5
 40
0.75
 40
0.75
 40
1.0
 40
1.0
 40
1.0
 40
1.0
 10
135.8722193823824
 20
95.78678678394905
 30
0.0
 10
135.7781165614209
 20
95.39805434352029
 30
0.0
 10
135.7281436136276
 20
95.0061523358547
 30
0.0
 10
135.7277524689672
 20
94.41294356076997
 30
0.0
 10
135.7400805597678
 20
94.21414451571967
 30
0.0
 10
135.7886991388756
 20
93.81977270745278
 30
0.0
 10
135.8249458062266
 20
93.62357547264882
 30
0.0
 10
135.8722193823824
 20
93.42829150093492
 30
0.0
  0
ARC
  5
10E
330
1F
100
AcDbEntity
  8
0
  6
Continuous
 62
     7
370
    25
100
AcDbCircle
 10
143.1184862619
 20
113.2072000019
 30
0.0
 40
1.098147974908714
100
AcDbArc
 50
221.4091356063
 51
272.2131975323
  0
LINE
  5
10F
330
1F
100
AcDbEntity
  8
0
  6
Continuous
 62
     7
370
    25
100
AcDbLine
 10
143.160894517
 20
112.1098711931
 30
0.0
 11
143.160894517
 21
106.3874918545
 31
0.0
  0
LINE
  5
110
330
1F
100
AcDbEntity
  8
0
  6
Continuous
 62
     7
370
    25
100
AcDbLine
 10
144.0835442478
 20
114.6838185841
 30
0.0
 11
144.0835442478
 21
93.5838185841
 31
0.0
  0
LINE
  5
111
330
1F
100
AcDbEntity
  8
0
  6
Continuous
 62
     7
370
    25
100
AcDbLine
 10
143.8835442478
 20
93.3838185841
 30
0.0
 11
143.8835442478
 21
114.8838185841
 31
0.0
  0
LINE
  5
112
330
1F
100
AcDbEntity
  8
0
  6
Continuous
 62
     7
370
    25
100
AcDbLine
 10
134.0835442478
 20
114.6838185841
 30
0.0
 11
134.0835442478
 21
93.5838185841
 31
0.0
  0
LINE
  5
113
330
1F
100
AcDbEntity
  8
0
  6
Continuous
 62
     7
370
    25
100
AcDbLine
 10
134.2835442478
 20
93.3838185841
 30
0.0
 11
134.2835442478
 21
114.8838185841
 31
0.0
  0
SPLINE
  5
114
330
1F
100
AcDbEntity
  8
0
  6
Continuous
 62
     7
370
    25
100
AcDbSpline
210
0.0
220
0.0
230
1.0
 70
     8
 71
     3
 72
    14
 73
    10
 74
     0
 42
0.000000001
 43
0.00000001
 40
0.0
 40
0.0
 40
0.0
 40
0.0
 40
0.25
 40
0.25
 40
0.5
 40
0.5
 40
0.75
 40
0.75
 40
1.0
 40
1.0
 40
1.0
 40
1.0
 10
143.1608945169772
 20
96.15776597506557
 30
0.0
 10
143.1608945169772
 20
95.90297820236358
 30
0.0
 10
143.1449110686108
 20
95.6649752014327
 30
0.0
 10
143.1142088855634
 20
95.22127594593502
 30
0.0
 10
143.1007298128088
 20
95.01556803940755
 30
0.0
 10
143.1005601215716
 20
94.63662106767693
 30
0.0
 10
143.1140351162975
 20
94.463721913041
 30
0.0
 10
143.1448561490117
 20
94.15634759149368
 30
0.0
 10
143.1608945169775
 20
94.02099908635331
 30
0.0
 10
143.1608945169775
 20
93.90409270462985
 30
0.0
  0
SPLINE
  5
115
330
1F
100
AcDbEntity
  8
0
  6
Continuous
 62
     7
370
    25
100
AcDbSpline
210
0.0
220
0.0
230
1.0
 70
     8
 71
     3
 72
    14
 73
    10
 74
     0
 42
0.000000001
 43
0.00000001
 40
0.0
 40
0.0
 40
0.0
 40
0.0
 40
0.25
 40
0.25
 40
0.5
 40
0.5
 40
0.75
 40
0.75
 40
1.0
 40
1.0
 40
1.0
 40
1.0
 10
143.1608945169772
 20
114.3635444635118
 30
0.0
 10
143.1608945169772
 20
114.2467499695822
 30
0.0
 10
143.1449110686108
 20
114.1117101416425
 30
0.0
 10
143.1142088855634
 20
113.8057744293396
 30
0.0
 10
143.1007298128088
 20
113.6348629000855
 30
0.0
 10
143.1005601215716
 20
113.2564158655537
 30
0.0
 10
143.1140351162975
 20
113.0488458523261
 30
0.0
 10
143.1448561490117
 20
112.6034820825038
 30
0.0
 10
143.1608945169775
 20
112.3649030495602
 30
0.0
 10
143.1608945169775
 20
112.1098711930761
 30
0.0
  0
SPLINE
  5
116
330
1F
100
AcDbEntity
  8
0
  6
Continuous
 62
     7
370
    25
100
AcDbSpline
210
0.0
220
0.0
230
1.0
 70
     8
 71
     3
 72
    14
 73
    10
 74
     0
 42
0.000000001
 43
0.00000001
 40
0.0
 40
0.0
 40
0.0
 40
0.0
 40
0.25
 40
0.25
 40
0.5
 40
0.5
 40
0.75
 40
0.75
 40
1.0
 40
1.0
 40
1.0
 40
1.0
 10
135.006193978598
 20
114.3635444635118
 30
0.0
 10
135.006193978598
 20
114.2467499695822
 30
0.0
 10
135.0221774269645
 20
114.1117101416425
 30
0.0
 10
135.0528796100118
 20
113.8057744293396
 30
0.0
 10
135.0663586827665
 20
113.6348629000855
 30
0.0
 10
135.0665283740036
 20
113.2564158655537
 30
0.0
 10
135.0530533792777
 20
113.0488458523261
 30
0.0
 10
135.0222323465635
 20
112.6034820825038
 30
0.0
 10
135.0061939785977
 20
112.3649030495602
 30
0.0
 10
135.0061939785977
 20
112.1098711930761
 30
0.0
  0
SPLINE
  5
117
330
1F
100
AcDbEntity
  8
0
  6
Continuous
 62
     7
370
    25
100
AcDbSpline
210
0.0
220
0.0
230
1.0
 70
     8
 71
     3
 72
    14
 73
    10
 74
     0
 42
0.000000001
 43
0.00000001
 40
0.0
 40
0.0
 40
0.0
 40
0.0
 40
0.25
 40
0.25
 40
0.5
 40
0.5
 40
0.75
 40
0.75
 40
1.0
 40
1.0
 40
1.0
 40
1.0
 10
135.006193978598
 20
96.15776597506557
 30
0.0
 10
135.006193978598
 20
95.90297820236358
 30
0.0
 10
135.0221774269645
 20
95.6649752014327
 30
0.0
 10
135.0528796100118
 20
95.22127594593502
 30
0.0
 10
135.0663586827665
 20
95.01556803940755
 30
0.0
 10
135.0665283740036
 20
94.63662106767693
 30
0.0
 10
135.0530533792777
 20
94.463721913041
 30
0.0
 10
135.0222323465635
 20
94.15634759149368
 30
0.0
 10
135.0061939785977
 20
94.02099908635331
 30
0.0
 10
135.0061939785977
 20
93.90409270462985
 30
0.0
  0
LINE
  5
118
330
1F
100
AcDbEntity
  8
0
  6
Continuous
 62
     7
370
    25
100
AcDbLine
 10
148.0335442478
 20
114.6113185841
 30
0.0
 11
148.0335442478
 21
93.6563185841
 31
0.0
  0
LINE
  5
119
330
1F
100
AcDbEntity
  8
0
  6
Continuous
 62
     7
370
    25
100
AcDbLine
 10
146.8060442478
 20
94.8838185841
 30
0.0
 11
146.8060442478
 21
113.3838185841
 31
0.0
  0
LINE
  5
11A
330
1F
100
AcDbEntity
  8
0
  6
Continuous
 62
     7
370
    25
100
AcDbLine
 10
130.1335442478
 20
114.6113185841
 30
0.0
 11
130.1335442478
 21
93.6563185841
 31
0.0
  0
LINE
  5
11B
330
1F
100
AcDbEntity
  8
0
  6
Continuous
 62
     7
370
    25
100
AcDbLine
 10
131.3610442478
 20
94.8838185841
 30
0.0
 11
131.3610442478
 21
113.3838185841
 31
0.0
  0
ARC
  5
11C
330
1F
100
AcDbEntity
  8
0
  6
Continuous
 62
     7
370
    25
100
AcDbCircle
 10
135.0151052153
 20
92.8942675263
 30
0.0
 40
1.009864496364117
100
AcDbArc
 50
31.9249214419
 51
90.5055954329
  0
ARC
  5
11D
330
1F
100
AcDbEntity
  8
0
  6
Continuous
 62
     7
370
    25
100
AcDbCircle
 10
143.1519832803
 20
92.8942675263
 30
0.0
 40
1.009864496364105
100
AcDbArc
 50
89.4944045671
 51
148.0750785581
  0
ARC
  5
11E
330
1F
100
AcDbEntity
  8
0
  6
Continuous
 62
     7
370
    25
100
AcDbCircle
 10
135.0151052153
 20
115.3733696419
 30
0.0
 40
1.009864496372714
100
AcDbArc
 50
269.4944045674
 51
328.0750785578
  0
ARC
  5
11F
330
1F
100
AcDbEntity
  8
0
  6
Continuous
 62
     7
370
    25
100
AcDbCircle
 10
143.1519832803
 20
115.3733696419
 30
0.0
 40
1.009864496372722
100
AcDbArc
 50
211.9249214422
 51
270.5055954326
  0
LINE
  5
120
330
1F
100
AcDbEntity
  8
0
  6
Continuous
 62
     1
370
    25
100
AcDbLine
 10
167.2545279288
 20
92.8310514297
 30
0.0
 11
167.2545279288
 21
92.3838185841
 31
0.0
  0
LINE
  5
121
330
1F
100
AcDbEntity
  8
0
  6
Continuous
 62
     1
370
    25
100
AcDbLine
 10
167.2545279288
 20
115.8838185841
 30
0.0
 11
167.2545279288
 21
115.4365857384
 31
0.0
  0
LINE
  5
122
330
1F
100
AcDbEntity
  8
0
  6
Continuous
 62
     1
370
    25
100
AcDbLine
 10
166.171996174
 20
116.0377967573
 30
0.0
 11
166.171996174
 21
116.5088185841
 31
0.0
  0
LINE
  5
123
330
1F
100
AcDbEntity
  8
0
  6
Continuous
 62
     1
370
    25
100
AcDbLine
 10
166.171996174
 20
91.7588185841
 30
0.0
 11
166.171996174
 21
92.2298404109
 31
0.0
  0
LINE
  5
124
330
1F
100
AcDbEntity
  8
0
  6
Continuous
 62
     1
370
    25
100
AcDbLine
 10
110.9125605668
 20
92.3838185841
 30
0.0
 11
110.9125605668
 21
92.8310514297
 31
0.0
  0
LINE
  5
125
330
1F
100
AcDbEntity
  8
0
  6
Continuous
 62
     1
370
    25
100
AcDbLine
 10
110.9125605668
 20
115.4365857384
 30
0.0
 11
110.9125605668
 21
115.8838185841
 31
0.0
  0
LINE
  5
126
330
1F
100
AcDbEntity
  8
0
  6
Continuous
 62
     1
370
    25
100
AcDbLine
 10
111.9950923215
 20
116.5088185841
 30
0.0
 11
111.9950923215
 21
116.0377967573
 31
0.0
  0
LINE
  5
127
330
1F
100
AcDbEntity
  8
0
  6
Continuous
 62
     1
370
    25
100
AcDbLine
 10
111.9950923215
 20
92.2298404109
 30
0.0
 11
111.9950923215
 21
91.7588185841
 31
0.0
  0
LINE
  5
128
330
1F
100
AcDbEntity
  8
0
  6
Continuous
 62
     1
370
    25
100
AcDbLine
 10
143.160894517
 20
93.9040927046
 30
0.0
 11
143.160894517
 21
93.3838185841
 31
0.0
  0
LINE
  5
129
330
1F
100
AcDbEntity
  8
0
  6
Continuous
 62
     1
370
    25
100
AcDbLine
 10
143.160894517
 20
114.8838185841
 30
0.0
 11
143.160894517
 21
114.3635444635
 31
0.0
  0
LINE
  5
12A
330
1F
100
AcDbEntity
  8
0
  6
Continuous
 62
     1
370
    25
100
AcDbLine
 10
135.0061939786
 20
114.8838185841
 30
0.0
 11
135.0061939786
 21
114.3635444635
 31
0.0
  0
LINE
  5
12B
330
1F
100
AcDbEntity
  8
0
  6
Continuous
 62
     1
370
    25
100
AcDbLine
 10
135.0061939786
 20
93.9040927046
 30
0.0
 11
135.0061939786
 21
93.3838185841
 31
0.0
  0
LINE
  5
12C
330
1F
100
AcDbEntity
  8
0
  6
Continuous
 62
     1
370
    25
100
AcDbLine
 10
142.2948691132
 20
114.8393456672
 30
0.0
 11
142.2948691132
 21
115.3838185841
 31
0.0
  0
LINE
  5
12D
330
1F
100
AcDbEntity
  8
0
  6
Continuous
 62
     1
370
    25
100
AcDbLine
 10
135.8722193824
 20
114.8393456672
 30
0.0
 11
135.8722193824
 21
115.3838185841
 31
0.0
  0
LINE
  5
12E
330
1F
100
AcDbEntity
  8
0
  6
Continuous
 62
     1
370
    25
100
AcDbLine
 10
142.2948691132
 20
92.8838185841
 30
0.0
 11
142.2948691132
 21
93.4282915009
 31
0.0
  0
LINE
  5
12F
330
1F
100
AcDbEntity
  8
0
  6
Continuous
 62
     1
370
    25
100
AcDbLine
 10
135.8722193824
 20
92.8838185841
 30
0.0
 11
135.8722193824
 21
93.4282915009
 31
0.0
  0
LINE
  5
130
330
1F
100
AcDbEntity
  8
0
  6
Continuous
 62
     7
370
    25
100
AcDbLine
 10
150.6771776596
 20
168.7522787611
 30
0.0
 11
150.5328400923
 21
168.5022787611
 31
0.0
  0
LINE
  5
131
330
1F
100
AcDbEntity
  8
0
  6
Continuous
 62
     7
370
    25
100
AcDbLine
 10
150.5328400923
 20
145.0022787611
 30
0.0
 11
150.6771776596
 21
144.7522787611
 31
0.0
  0
LINE
  5
132
330
1F
100
AcDbEntity
  8
0
  6
Continuous
 62
     7
370
    25
100
AcDbLine
 10
168.3328400923
 20
168.5022787611
 30
0.0
 11
167.143540362
 21
168.5022787611
 31
0.0
  0
LINE
  5
133
330
1F
100
AcDbEntity
  8
0
  6
Continuous
 62
     7
370
    25
100
AcDbLine
 10
167.143540362
 20
145.0022787611
 30
0.0
 11
168.3328400923
 21
145.0022787611
 31
0.0
  0
LINE
  5
134
330
1F
100
AcDbEntity
  8
0
  6
Continuous
 62
     7
370
    25
100
AcDbLine
 10
168.3328400923
 20
145.0022787611
 30
0.0
 11
168.5328400923
 21
145.2022787611
 31
0.0
  0
LINE
  5
135
330
1F
100
AcDbEntity
  8
0
  6
Continuous
 62
     7
370
    25
100
AcDbLine
 10
168.5328400923
 20
168.3022787611
 30
0.0
 11
168.3328400923
 21
168.5022787611
 31
0.0
  0
SPLINE
  5
136
330
1F
100
AcDbEntity
  8
0
  6
Continuous
 62
     7
370
    25
100
AcDbSpline
210
0.0
220
0.0
230
1.0
 70
     8
 71
     3
 72
    13
 73
     9
 74
     0
 42
0.000000001
 43
0.00000001
 40
0.0
 40
0.0
 40
0.0
 40
0.0
 40
0.1963000865972765
 40
0.404300185389157
 40
0.5991077669809906
 40
0.7785923261432968
 40
0.9396714683797375
 40
1.0
 40
1.0
 40
1.0
 40
1.0
 10
167.1439688697494
 20
168.5036127683287
 30
0.0
 10
167.0889150793718
 20
168.5050691700726
 30
0.0
 10
166.9755261448998
 20
168.5080687790147
 30
0.0
 10
166.8112459076941
 20
168.5432535513128
 30
0.0
 10
166.6580594681474
 20
168.5961171971809
 30
0.0
 10
166.5277869853513
 20
168.6611738506929
 30
0.0
 10
166.4364588841076
 20
168.7183407905587
 30
0.0
 10
166.3959498911994
 20
168.7505674222058
 30
0.0
 10
166.3849121163247
 20
168.7593484429016
 30
0.0
  0
SPLINE
  5
137
330
1F
100
AcDbEntity
  8
0
  6
Continuous
 62
     7
370
    25
100
AcDbSpline
210
0.0
220
0.0
230
1.0
 70
     8
 71
     3
 72
    13
 73
     9
 74
     0
 42
0.000000001
 43
0.00000001
 40
0.0
 40
0.0
 40
0.0
 40
0.0
 40
0.0707624687634949
 40
0.2511316238944795
 40
0.4572969606321864
 40
0.6794936604156905
 40
0.9157915935439854
 40
1.0
 40
1.0
 40
1.0
 40
1.0
 10
166.3856420254714
 20
144.7454628124229
 30
0.0
 10
166.3986005054236
 20
144.7557588250831
 30
0.0
 10
166.4445893490928
 20
144.7922987370476
 30
0.0
 10
166.5504845319826
 20
144.8566381076568
 30
0.0
 10
166.7013376852715
 20
144.9269614102519
 30
0.0
 10
166.8792945670691
 20
144.9781042910781
 30
0.0
 10
167.0299935795557
 20
145.0036786910549
 30
0.0
 10
167.1196831686685
 20
144.9995017605405
 30
0.0
 10
167.143247811367
 20
144.998404332443
 30
0.0
  0
LINE
  5
138
330
1F
100
AcDbEntity
  8
0
  6
Continuous
 62
     7
370
    25
100
AcDbLine
 10
127.489910836
 20
144.7522787611
 30
0.0
 11
127.6342484033
 21
145.0022787611
 31
0.0
  0
LINE
  5
139
330
1F
100
AcDbEntity
  8
0
  6
Continuous
 62
     7
370
    25
100
AcDbLine
 10
127.6342484033
 20
168.5022787611
 30
0.0
 11
127.489910836
 21
168.7522787611
 31
0.0
  0
LINE
  5
13A
330
1F
100
AcDbEntity
  8
0
  6
Continuous
 62
     7
370
    25
100
AcDbLine
 10
109.8342484033
 20
145.0022787611
 30
0.0
 11
111.0235481336
 21
145.0022787611
 31
0.0
  0
LINE
  5
13B
330
1F
100
AcDbEntity
  8
0
  6
Continuous
 62
     7
370
    25
100
AcDbLine
 10
111.0235481336
 20
168.5022787611
 30
0.0
 11
109.8342484033
 21
168.5022787611
 31
0.0
  0
LINE
  5
13C
330
1F
100
AcDbEntity
  8
0
  6
Continuous
 62
     7
370
    25
100
AcDbLine
 10
109.8342484033
 20
168.5022787611
 30
0.0
 11
109.6342484033
 21
168.3022787611
 31
0.0
  0
LINE
  5
13D
330
1F
100
AcDbEntity
  8
0
  6
Continuous
 62
     7
370
    25
100
AcDbLine
 10
109.6342484033
 20
145.2022787611
 30
0.0
 11
109.8342484033
 21
145.0022787611
 31
0.0
  0
SPLINE
  5
13E
330
1F
100
AcDbEntity
  8
0
  6
Continuous
 62
     7
370
    25
100
AcDbSpline
210
0.0
220
0.0
230
1.0
 70
     8
 71
     3
 72
    13
 73
     9
 74
     0
 42
0.000000001
 43
0.00000001
 40
0.0
 40
0.0
 40
0.0
 40
0.0
 40
0.0707624687632367
 40
0.2511316238940544
 40
0.4572969606311842
 40
0.6794936604146139
 40
0.9157915935429272
 40
0.9999999999999999
 40
0.9999999999999999
 40
0.9999999999999999
 40
0.9999999999999999
 10
111.7814464701039
 20
168.759094709701
 30
0.0
 10
111.7684879901517
 20
168.7487986970408
 30
0.0
 10
111.7224991464826
 20
168.7122587850763
 30
0.0
 10
111.616603963593
 20
168.6479194144673
 30
0.0
 10
111.4657508103044
 20
168.5775961118722
 30
0.0
 10
111.287793928507
 20
168.526453231046
 30
0.0
 10
111.1370949160202
 20
168.500878831069
 30
0.0
 10
111.047405326907
 20
168.5050557615833
 30
0.0
 10
111.0238406842083
 20
168.5061531896808
 30
0.0
  0
SPLINE
  5
13F
330
1F
100
AcDbEntity
  8
0
  6
Continuous
 62
     7
370
    25
100
AcDbSpline
210
0.0
220
0.0
230
1.0
 70
     8
 71
     3
 72
    13
 73
     9
 74
     0
 42
0.000000001
 43
0.00000001
 40
0.0
 40
0.0
 40
0.0
 40
0.0
 40
0.1962698010479401
 40
0.4042716453842208
 40
0.5990811661182616
 40
0.7785680806209948
 40
0.9396498839394947
 40
1.0
 40
1.0
 40
1.0
 40
1.0
 10
111.0231197010608
 20
145.0009431853824
 30
0.0
 10
111.0781650350265
 20
144.9994880419474
 30
0.0
 10
111.1915460422638
 20
144.9964907737606
 30
0.0
 10
111.3558197633214
 20
144.9613101725391
 30
0.0
 10
111.5090089397291
 20
144.9084488518135
 30
0.0
 10
111.63928489649
 20
144.8433932234716
 30
0.0
 10
111.7306200068696
 20
144.7862234300676
 30
0.0
 10
111.7711343823291
 20
144.7539930951116
 30
0.0
 10
111.7821763642979
 20
144.7452088852257
 30
0.0
  0
LINE
  5
140
330
1F
100
AcDbEntity
  8
0
  6
Continuous
 62
     7
370
    25
100
AcDbLine
 10
143.8835442478
 20
167.5022787611
 30
0.0
 11
143.1035784194
 21
167.5022787611
 31
0.0
  0
LINE
  5
141
330
1F
100
AcDbEntity
  8
0
  6
Continuous
 62
     7
370
    25
100
AcDbLine
 10
143.1035784194
 20
146.0022787611
 30
0.0
 11
143.8835442478
 21
146.0022787611
 31
0.0
  0
LINE
  5
142
330
1F
100
AcDbEntity
  8
0
  6
Continuous
 62
     7
370
    25
100
AcDbLine
 10
134.2835442478
 20
146.0022787611
 30
0.0
 11
135.0635100762
 21
146.0022787611
 31
0.0
  0
LINE
  5
143
330
1F
100
AcDbEntity
  8
0
  6
Continuous
 62
     7
370
    25
100
AcDbLine
 10
135.0635100762
 20
167.5022787611
 30
0.0
 11
134.2835442478
 21
167.5022787611
 31
0.0
  0
LINE
  5
144
330
1F
100
AcDbEntity
  8
0
  6
Continuous
 62
     7
370
    25
100
AcDbLine
 10
134.2835442478
 20
167.5022787611
 30
0.0
 11
134.0835442478
 21
167.3022787611
 31
0.0
  0
LINE
  5
145
330
1F
100
AcDbEntity
  8
0
  6
Continuous
 62
     7
370
    25
100
AcDbLine
 10
134.0835442478
 20
146.2022787611
 30
0.0
 11
134.2835442478
 21
146.0022787611
 31
0.0
  0
LINE
  5
146
330
1F
100
AcDbEntity
  8
0
  6
Continuous
 62
     7
370
    25
100
AcDbLine
 10
143.8835442478
 20
146.0022787611
 30
0.0
 11
144.0835442478
 21
146.2022787611
 31
0.0
  0
LINE
  5
147
330
1F
100
AcDbEntity
  8
0
  6
Continuous
 62
     7
370
    25
100
AcDbLine
 10
144.0835442478
 20
167.3022787611
 30
0.0
 11
143.8835442478
 21
167.5022787611
 31
0.0
  0
LINE
  5
148
330
1F
100
AcDbEntity
  8
0
  6
Continuous
 62
     7
370
    25
100
AcDbLine
 10
130.1335442478
 20
167.2297787611
 30
0.0
 11
127.6342484033
 21
167.2297787611
 31
0.0
  0
LINE
  5
149
330
1F
100
AcDbEntity
  8
0
  6
Continuous
 62
     7
370
    25
100
AcDbLine
 10
127.6342484033
 20
146.2747787611
 30
0.0
 11
130.1335442478
 21
146.2747787611
 31
0.0
  0
LINE
  5
14A
330
1F
100
AcDbEntity
  8
0
  6
Continuous
 62
     7
370
    25
100
AcDbLine
 10
130.1335442478
 20
146.2747787611
 30
0.0
 11
131.3610442478
 21
147.5022787611
 31
0.0
  0
LINE
  5
14B
330
1F
100
AcDbEntity
  8
0
  6
Continuous
 62
     7
370
    25
100
AcDbLine
 10
131.3610442478
 20
166.0022787611
 30
0.0
 11
130.1335442478
 21
167.2297787611
 31
0.0
  0
LINE
  5
14C
330
1F
100
AcDbEntity
  8
0
  6
Continuous
 62
     7
370
    25
100
AcDbLine
 10
148.0335442478
 20
167.2297787611
 30
0.0
 11
146.8060442478
 21
166.0022787611
 31
0.0
  0
LINE
  5
14D
330
1F
100
AcDbEntity
  8
0
  6
Continuous
 62
     7
370
    25
100
AcDbLine
 10
146.8060442478
 20
147.5022787611
 30
0.0
 11
148.0335442478
 21
146.2747787611
 31
0.0
  0
LINE
  5
14E
330
1F
100
AcDbEntity
  8
0
  6
Continuous
 62
     7
370
    25
100
AcDbLine
 10
148.0335442478
 20
146.2747787611
 30
0.0
 11
150.5328400923
 21
146.2747787611
 31
0.0
  0
LINE
  5
14F
330
1F
100
AcDbEntity
  8
0
  6
Continuous
 62
     7
370
    25
100
AcDbLine
 10
150.5328400923
 20
167.2297787611
 30
0.0
 11
148.0335442478
 21
167.2297787611
 31
0.0
  0
LINE
  5
150
330
1F
100
AcDbEntity
  8
0
  6
Continuous
 62
     7
370
    25
100
AcDbLine
 10
144.0835442478
 20
147.5022787611
 30
0.0
 11
146.8060442478
 21
147.5022787611
 31
0.0
  0
LINE
  5
151
330
1F
100
AcDbEntity
  8
0
  6
Continuous
 62
     7
370
    25
100
AcDbLine
 10
146.8060442478
 20
166.0022787611
 30
0.0
 11
144.0835442478
 21
166.0022787611
 31
0.0
  0
LINE
  5
152
330
1F
100
AcDbEntity
  8
0
  6
Continuous
 62
     7
370
    25
100
AcDbLine
 10
134.0835442478
 20
166.0022787611
 30
0.0
 11
131.3610442478
 21
166.0022787611
 31
0.0
  0
LINE
  5
153
330
1F
100
AcDbEntity
  8
0
  6
Continuous
 62
     7
370
    25
100
AcDbLine
 10
131.3610442478
 20
147.5022787611
 30
0.0
 11
134.0835442478
 21
147.5022787611
 31
0.0
  0
SPLINE
  5
154
330
1F
100
AcDbEntity
  8
0
  6
Continuous
 62
     7
370
    25
100
AcDbSpline
210
0.0
220
0.0
230
1.0
 70
     8
 71
     3
 72
    14
 73
    10
 74
     0
 42
0.000000001
 43
0.00000001
 40
0.0
 40
0.0
 40
0.0
 40
0.0
 40
0.0168018748131326
 40
0.2429191155303928
 40
0.4549475438925589
 40
0.6527892496834665
 40
0.8350837576880865
 40
0.9999434076776683
 40
1.0
 40
1.0
 40
1.0
 40
1.0
 10
143.1030829015354
 20
167.5034999934614
 30
0.0
 10
143.098908985837
 20
167.5031531886119
 30
0.0
 10
143.0385631065211
 20
167.4981391334392
 30
0.0
 10
142.9250789739888
 20
167.5158936456625
 30
0.0
 10
142.7724694905307
 20
167.5543516481973
 30
0.0
 10
142.6381713172686
 20
167.6137492078485
 30
0.0
 10
142.5281040008658
 20
167.6825466691489
 30
0.0
 10
142.4617087551391
 20
167.7333352713942
 30
0.0
 10
142.4379691804043
 20
167.7567031137025
 30
0.0
 10
142.4379610339801
 20
167.7567111325637
 30
0.0
  0
SPLINE
  5
155
330
1F
100
AcDbEntity
  8
0
  6
Continuous
 62
     7
370
    25
100
AcDbSpline
210
0.0
220
0.0
230
1.0
 70
     8
 71
     3
 72
    13
 73
     9
 74
     0
 42
0.000000001
 43
0.00000001
 40
0.0
 40
0.0
 40
0.0
 40
0.0
 40
0.0509827353517311
 40
0.2398974649602167
 40
0.4524339679720029
 40
0.68093008790319
 40
0.9234645997261429
 40
1.0
 40
1.0
 40
1.0
 40
1.0
 10
135.7284114132526
 20
167.7576919379704
 30
0.0
 10
135.720765102972
 20
167.7503603124307
 30
0.0
 10
135.6847856593433
 20
167.7158616067632
 30
0.0
 10
135.5950908368996
 20
167.6521407154731
 30
0.0
 10
135.4600379141081
 20
167.5791488156077
 30
0.0
 10
135.2982957650189
 20
167.5265563526552
 30
0.0
 10
135.1626508326359
 20
167.5006207016141
 30
0.0
 10
135.0829673167919
 20
167.5051460606725
 30
0.0
 10
135.063853606758
 20
167.5062315599747
 30
0.0
  0
SPLINE
  5
156
330
1F
100
AcDbEntity
  8
0
  6
Continuous
 62
     7
370
    25
100
AcDbSpline
210
0.0
220
0.0
230
1.0
 70
     8
 71
     3
 72
    13
 73
     9
 74
     0
 42
0.000000001
 43
0.00000001
 40
0.0
 40
0.0
 40
0.0
 40
0.0
 40
0.0522167347023179
 40
0.2408858200019703
 40
0.4531459635100001
 40
0.6813449717806949
 40
0.9235641179413523
 40
1.0
 40
1.0
 40
1.0
 40
1.0
 10
142.4380779169824
 20
145.746304704924
 30
0.0
 10
142.4459160294338
 20
145.7538237767858
 30
0.0
 10
142.4820747466703
 20
145.7885106985441
 30
0.0
 10
142.5719845456674
 20
145.8524176122897
 30
0.0
 10
142.7070545771206
 20
145.9254084609777
 30
0.0
 10
142.868791516489
 20
145.9780012440353
 30
0.0
 10
143.0044377441988
 20
146.0039368155051
 30
0.0
 10
143.0841211944823
 20
145.9994114604813
 30
0.0
 10
143.1032348888179
 20
145.9983259621454
 30
0.0
  0
SPLINE
  5
157
330
1F
100
AcDbEntity
  8
0
  6
Continuous
 62
     7
370
    25
100
AcDbSpline
210
0.0
220
0.0
230
1.0
 70
     8
 71
     3
 72
    14
 73
    10
 74
     0
 42
0.000000001
 43
0.00000001
 40
0.0
 40
0.0
 40
0.0
 40
0.0
 40
0.0168045635761227
 40
0.2426289801121288
 40
0.4543827805305078
 40
0.6519680673112106
 40
0.834025974056477
 40
0.9986714273940016
 40
1.0
 40
1.0
 40
1.0
 40
1.0
 10
135.0640055845342
 20
146.0010561210288
 30
0.0
 10
135.0681855595482
 20
146.0014033809545
 30
0.0
 10
135.1285372056905
 20
146.0064172167037
 30
0.0
 10
135.2420257044635
 20
145.988661219873
 30
0.0
 10
135.3946358487887
 20
145.9502003013323
 30
0.0
 10
135.5289237693765
 20
145.8908021240917
 30
0.0
 10
135.6390153829524
 20
145.8220014571232
 30
0.0
 10
135.7055920553856
 20
145.7710323515334
 30
0.0
 10
135.729494061078
 20
145.7474863764202
 30
0.0
 10
135.7296853895091
 20
145.7472978979077
 30
0.0
  0
SPLINE
  5
158
330
1F
100
AcDbEntity
  8
0
  6
Continuous
 62
     7
370
    25
100
AcDbSpline
210
0.0
220
0.0
230
1.0
 70
     8
 71
     3
 72
    11
 73
     7
 74
     0
 42
0.000000001
 43
0.00000001
 40
0.0
 40
0.0
 40
0.0
 40
0.0
 40
0.2896312968534336
 40
0.5811875798131653
 40
0.7902304971769979
 40
1.0
 40
1.0
 40
1.0
 40
1.0
 10
166.1719961740279
 20
165.3705737692686
 30
0.0
 10
166.2413430110434
 20
164.8666872106612
 30
0.0
 10
166.3804975872601
 20
163.8555650954789
 30
0.0
 10
166.4023885675869
 20
162.4696080143482
 30
0.0
 10
166.3299905165644
 20
161.2264939361991
 30
0.0
 10
166.2247218307315
 20
160.4985747625549
 30
0.0
 10
166.1719961740279
 20
160.1339837528553
 30
0.0
  0
SPLINE
  5
159
330
1F
100
AcDbEntity
  8
0
  6
Continuous
 62
     7
370
    25
100
AcDbSpline
210
0.0
220
0.0
230
1.0
 70
     8
 71
     3
 72
     9
 73
     5
 74
     0
 42
0.000000001
 43
0.00000001
 40
0.0
 40
0.0
 40
0.0
 40
0.0
 40
0.4986680494787149
 40
1.0
 40
1.0
 40
1.0
 40
1.0
 10
166.1719961740279
 20
160.1339837528553
 30
0.0
 10
166.0641892834436
 20
159.5653525984486
 30
0.0
 10
165.8479995943368
 20
158.4250526433962
 30
0.0
 10
165.4941179368508
 20
157.3108594220014
 30
0.0
 10
165.3167057552495
 20
156.7522787610619
 30
0.0
  0
LINE
  5
15A
330
1F
100
AcDbEntity
  8
0
  6
Continuous
 62
     7
370
    25
100
AcDbLine
 10
165.3167057552
 20
156.7522787611
 30
0.0
 11
151.7489744293
 21
156.7522787611
 31
0.0
  0
SPLINE
  5
15B
330
1F
100
AcDbEntity
  8
0
  6
Continuous
 62
     7
370
    25
100
AcDbSpline
210
0.0
220
0.0
230
1.0
 70
     8
 71
     3
 72
    15
 73
    11
 74
     0
 42
0.000000001
 43
0.00000001
 40
0.0
 40
0.0
 40
0.0
 40
0.0
 40
0.1323065044264403
 40
0.2645755999739298
 40
0.3998036789671094
 40
0.5350073556765895
 40
0.6501969475405023
 40
0.7654045076453767
 40
0.8826909144168968
 40
1.0
 40
1.0
 40
1.0
 40
1.0
 10
151.7489744292933
 20
156.7522787610619
 30
0.0
 10
151.5858153473756
 20
157.2707314902704
 30
0.0
 10
151.2595433158023
 20
158.3074903592549
 30
0.0
 10
150.9084886127824
 20
159.9040078045253
 30
0.0
 10
150.6974118272533
 20
161.5306202162052
 30
0.0
 10
150.6556145169677
 20
163.0983009575922
 30
0.0
 10
150.7640731496684
 20
164.5812771515521
 30
0.0
 10
150.9862990587293
 20
165.9808305109775
 30
0.0
 10
151.3122768320156
 20
167.3740559272208
 30
0.0
 10
151.603399182409
 20
168.2928415428389
 30
0.0
 10
151.7489744292933
 20
168.7522787610619
 30
0.0
  0
LINE
  5
15C
330
1F
100
AcDbEntity
  8
0
  6
Continuous
 62
     7
370
    25
100
AcDbLine
 10
165.3167057552
 20
168.7522787611
 30
0.0
 11
151.7489744293
 21
168.7522787611
 31
0.0
  0
SPLINE
  5
15D
330
1F
100
AcDbEntity
  8
0
  6
Continuous
 62
     7
370
    25
100
AcDbSpline
210
0.0
220
0.0
230
1.0
 70
     8
 71
     3
 72
     9
 73
     5
 74
     0
 42
0.000000001
 43
0.00000001
 40
0.0
 40
0.0
 40
0.0
 40
0.0
 40
0.4988470384231432
 40
1.0
 40
1.0
 40
1.0
 40
1.0
 10
165.3167057552495
 20
168.7522787610619
 30
0.0
 10
165.493281755588
 20
168.1964804232788
 30
0.0
 10
165.847249979789
 20
167.0823145668671
 30
0.0
 10
166.063581161588
 20
165.9420305042753
 30
0.0
 10
166.1719961740279
 20
165.3705737692686
 30
0.0
  0
SPLINE
  5
15E
330
1F
100
AcDbEntity
  8
0
  6
Continuous
 62
     7
370
    25
100
AcDbSpline
210
0.0
220
0.0
230
1.0
 70
     8
 71
     3
 72
    15
 73
    11
 74
     0
 42
0.000000001
 43
0.00000001
 40
0.0
 40
0.0
 40
0.0
 40
0.0
 40
0.1323065044264403
 40
0.2645755999739298
 40
0.3998036789671092
 40
0.5350073556765891
 40
0.6501969475405018
 40
0.7654045076453763
 40
0.8826909144168966
 40
0.9999999999999999
 40
0.9999999999999999
 40
0.9999999999999999
 40
0.9999999999999999
 10
151.7489744292933
 20
144.7522787610619
 30
0.0
 10
151.5858153473756
 20
145.2707314902704
 30
0.0
 10
151.2595433158023
 20
146.3074903592549
 30
0.0
 10
150.9084886127824
 20
147.9040078045253
 30
0.0
 10
150.6974118272533
 20
149.5306202162052
 30
0.0
 10
150.6556145169677
 20
151.0983009575922
 30
0.0
 10
150.7640731496684
 20
152.5812771515521
 30
0.0
 10
150.9862990587293
 20
153.9808305109775
 30
0.0
 10
151.3122768320156
 20
155.3740559272208
 30
0.0
 10
151.603399182409
 20
156.2928415428389
 30
0.0
 10
151.7489744292933
 20
156.7522787610619
 30
0.0
  0
SPLINE
  5
15F
330
1F
100
AcDbEntity
  8
0
  6
Continuous
 62
     7
370
    25
100
AcDbSpline
210
0.0
220
0.0
230
1.0
 70
    24
 71
     3
 72
    12
 73
     8
 74
     0
 42
0.000000001
 43
0.00000001
 40
0.0
 40
0.0
 40
0.0
 40
0.0
 40
0.2568038857303362
 40
0.4413613077456964
 40
0.6264948727557684
 40
0.8130672096297481
 40
1.0
 40
1.0
 40
1.0
 40
1.0
 10
150.677404048687
 20
144.7522787610619
 30
0.0
 10
150.6922130006479
 20
144.7522787610619
 30
0.0
 10
150.7176647121172
 20
144.7522787610619
 30
0.0
 10
150.8930958580059
 20
144.7522787610619
 30
0.0
 10
151.1140774198918
 20
144.7522787610619
 30
0.0
 10
151.3978612081249
 20
144.7522787610619
 30
0.0
 10
151.6318614144419
 20
144.7522787610619
 30
0.0
 10
151.7489744292933
 20
144.7522787610619
 30
0.0
  0
SPLINE
  5
160
330
1F
100
AcDbEntity
  8
0
  6
Continuous
 62
     7
370
    25
100
AcDbSpline
210
0.0
220
0.0
230
1.0
 70
    24
 71
     3
 72
    13
 73
     9
 74
     0
 42
0.000000001
 43
0.00000001
 40
0.0
 40
0.0
 40
0.0
 40
0.0
 40
0.1848240427243565
 40
0.369963424155164
 40
0.5563281586019259
 40
0.7432460478189225
 40
0.9925559464536737
 40
1.0
 40
1.0
 40
1.0
 40
1.0
 10
151.7489744292933
 20
168.7522787610619
 30
0.0
 10
151.6330759052291
 20
168.7522787610619
 30
0.0
 10
151.4010811161028
 20
168.7522787610619
 30
0.0
 10
151.1185896485058
 20
168.7522787610619
 30
0.0
 10
150.8918440740593
 20
168.7522787610619
 30
0.0
 10
150.7329242953113
 20
168.7522787610619
 30
0.0
 10
150.6540468801165
 20
168.7522787610619
 30
0.0
 10
150.6786095434075
 20
168.7522787610619
 30
0.0
 10
150.6793216873851
 20
168.7522787610619
 30
0.0
  0
LINE
  5
161
330
1F
100
AcDbEntity
  8
0
  6
Continuous
 62
     7
370
    25
100
AcDbLine
 10
150.5328400923
 20
145.0022787611
 30
0.0
 11
150.5328400923
 21
168.5022787611
 31
0.0
  0
LINE
  5
162
330
1F
100
AcDbEntity
  8
0
  6
Continuous
 62
     7
370
    25
100
AcDbLine
 10
166.171996174
 20
153.3705737693
 30
0.0
 11
166.171996174
 21
160.1339837529
 31
0.0
  0
SPLINE
  5
163
330
1F
100
AcDbEntity
  8
0
  6
Continuous
 62
     7
370
    25
100
AcDbSpline
210
0.0
220
0.0
230
1.0
 70
     8
 71
     3
 72
     9
 73
     5
 74
     0
 42
0.000000001
 43
0.00000001
 40
0.0
 40
0.0
 40
0.0
 40
0.0
 40
0.498847038423143
 40
1.0
 40
1.0
 40
1.0
 40
1.0
 10
165.3167057552495
 20
156.7522787610619
 30
0.0
 10
165.493281755588
 20
156.1964804232788
 30
0.0
 10
165.847249979789
 20
155.0823145668671
 30
0.0
 10
166.063581161588
 20
153.9420305042753
 30
0.0
 10
166.1719961740279
 20
153.3705737692686
 30
0.0
  0
SPLINE
  5
164
330
1F
100
AcDbEntity
  8
0
  6
Continuous
 62
     7
370
    25
100
AcDbSpline
210
0.0
220
0.0
230
1.0
 70
     8
 71
     3
 72
    11
 73
     7
 74
     0
 42
0.000000001
 43
0.00000001
 40
0.0
 40
0.0
 40
0.0
 40
0.0
 40
0.2896312968534326
 40
0.5811875798131636
 40
0.7902304971769969
 40
0.9999999999999999
 40
0.9999999999999999
 40
0.9999999999999999
 40
0.9999999999999999
 10
166.1719961740279
 20
153.3705737692686
 30
0.0
 10
166.2413430110434
 20
152.8666872106612
 30
0.0
 10
166.3804975872601
 20
151.8555650954789
 30
0.0
 10
166.4023885675869
 20
150.4696080143482
 30
0.0
 10
166.3299905165644
 20
149.2264939361991
 30
0.0
 10
166.2247218307315
 20
148.4985747625549
 30
0.0
 10
166.1719961740279
 20
148.1339837528553
 30
0.0
  0
SPLINE
  5
165
330
1F
100
AcDbEntity
  8
0
  6
Continuous
 62
     7
370
    25
100
AcDbSpline
210
0.0
220
0.0
230
1.0
 70
     8
 71
     3
 72
     9
 73
     5
 74
     0
 42
0.000000001
 43
0.00000001
 40
0.0
 40
0.0
 40
0.0
 40
0.0
 40
0.4986680494787145
 40
1.0
 40
1.0
 40
1.0
 40
1.0
 10
166.1719961740279
 20
148.1339837528553
 30
0.0
 10
166.0641892834436
 20
147.5653525984486
 30
0.0
 10
165.8479995943368
 20
146.4250526433961
 30
0.0
 10
165.4941179368507
 20
145.3108594220014
 30
0.0
 10
165.3167057552495
 20
144.7522787610619
 30
0.0
  0
LINE
  5
166
330
1F
100
AcDbEntity
  8
0
  6
Continuous
 62
     7
370
    25
100
AcDbLine
 10
165.3167057552
 20
144.7522787611
 30
0.0
 11
151.7489744293
 21
144.7522787611
 31
0.0
  0
ARC
  5
167
330
1F
100
AcDbEntity
  8
0
  6
Continuous
 62
     7
370
    25
100
AcDbCircle
 10
167.1454023113
 20
162.7876049027
 30
0.0
 40
2.826521663601514
100
AcDbArc
 50
249.8558609029
 51
272.2126105423
  0
LINE
  5
168
330
1F
100
AcDbEntity
  8
0
  6
Continuous
 62
     7
370
    25
100
AcDbLine
 10
167.2545279288
 20
159.9631905715
 30
0.0
 11
167.2545279288
 21
153.5413669507
 31
0.0
  0
ARC
  5
169
330
1F
100
AcDbEntity
  8
0
  6
Continuous
 62
     7
370
    25
100
AcDbCircle
 10
167.1454023113
 20
150.7169526194
 30
0.0
 40
2.826521663601514
100
AcDbArc
 50
87.7873894577
 51
110.1441390971
  0
ARC
  5
16A
330
1F
100
AcDbEntity
  8
0
  6
Continuous
 62
     7
370
    25
100
AcDbCircle
 10
167.1937941685
 20
166.3480473552
 30
0.0
 40
1.41404588066163
100
AcDbArc
 50
223.7299446481
 51
272.4616308106
  0
SPLINE
  5
16B
330
1F
100
AcDbEntity
  8
0
  6
Continuous
 62
     7
370
    25
100
AcDbSpline
210
0.0
220
0.0
230
1.0
 70
     8
 71
     3
 72
    14
 73
    10
 74
     0
 42
0.000000001
 43
0.00000001
 40
0.0
 40
0.0
 40
0.0
 40
0.0
 40
0.1109420297141657
 40
0.2219094160474918
 40
0.4465372559856349
 40
0.5835315770861503
 40
0.7205688931328808
 40
0.8603107605417464
 40
1.0
 40
1.0
 40
1.0
 40
1.0
 10
167.2545279287585
 20
164.9353063446117
 30
0.0
 10
167.2512492400178
 20
164.7788738169066
 30
0.0
 10
167.244691113168
 20
164.4659730076883
 30
0.0
 10
167.1932715913558
 20
163.7979382170782
 30
0.0
 10
167.1324634252393
 20
163.046420887317
 30
0.0
 10
167.1418663791374
 20
162.2062369095771
 30
0.0
 10
167.1835389690258
 20
161.4851413018905
 30
0.0
 10
167.2389086333373
 20
160.7388507558826
 30
0.0
 10
167.2493221507107
 20
160.2217115003237
 30
0.0
 10
167.2545279287585
 20
159.9631905714516
 30
0.0
  0
SPLINE
  5
16C
330
1F
100
AcDbEntity
  8
0
  6
Continuous
 62
     7
370
    25
100
AcDbSpline
210
0.0
220
0.0
230
1.0
 70
     8
 71
     3
 72
    14
 73
    10
 74
     0
 42
0.000000001
 43
0.00000001
 40
0.0
 40
0.0
 40
0.0
 40
0.0
 40
0.1109420297141653
 40
0.2219094160474906
 40
0.4465372559856333
 40
0.5835315770861491
 40
0.7205688931328799
 40
0.8603107605417459
 40
1.0
 40
1.0
 40
1.0
 40
1.0
 10
167.2545279287585
 20
153.5413669506723
 30
0.0
 10
167.2512492400178
 20
153.3358072416902
 30
0.0
 10
167.244691113168
 20
152.9246408415385
 30
0.0
 10
167.1932715913558
 20
152.1175475168482
 30
0.0
 10
167.1324634252393
 20
151.2901425326646
 30
0.0
 10
167.1418663791374
 20
150.45724732828
 30
0.0
 10
167.1835389690258
 20
149.796855436509
 30
0.0
 10
167.2389086333373
 20
149.1625333630611
 30
0.0
 10
167.2493221507107
 20
148.7669870736815
 30
0.0
 10
167.2545279287585
 20
148.5692511775121
 30
0.0
  0
ARC
  5
16D
330
1F
100
AcDbEntity
  8
0
  6
Continuous
 62
     7
370
    25
100
AcDbCircle
 10
167.1937941685
 20
147.1565101669
 30
0.0
 40
1.41404588066163
100
AcDbArc
 50
87.5383691894
 51
136.2700553519
  0
LINE
  5
16E
330
1F
100
AcDbEntity
  8
0
  6
Continuous
 62
     7
370
    25
100
AcDbLine
 10
168.3328400923
 20
145.0022787611
 30
0.0
 11
168.3328400923
 21
168.5022787611
 31
0.0
  0
LINE
  5
16F
330
1F
100
AcDbEntity
  8
0
  6
Continuous
 62
     7
370
    25
100
AcDbLine
 10
167.2545279288
 20
148.5692511775
 30
0.0
 11
167.2545279288
 21
145.3583393671
 31
0.0
  0
LINE
  5
170
330
1F
100
AcDbEntity
  8
0
  6
Continuous
 62
     7
370
    25
100
AcDbLine
 10
167.2545279288
 20
168.146218155
 30
0.0
 11
167.2545279288
 21
164.9353063446
 31
0.0
  0
LINE
  5
171
330
1F
100
AcDbEntity
  8
0
  6
Continuous
 62
     7
370
    25
100
AcDbLine
 10
168.5328400923
 20
168.3022787611
 30
0.0
 11
168.5328400923
 21
145.2022787611
 31
0.0
  0
LINE
  5
172
330
1F
100
AcDbEntity
  8
0
  6
Continuous
 62
     7
370
    25
100
AcDbLine
 10
166.171996174
 20
165.3705737693
 30
0.0
 11
166.171996174
 21
168.7522787611
 31
0.0
  0
ARC
  5
173
330
1F
100
AcDbEntity
  8
0
  6
Continuous
 62
     7
370
    25
100
AcDbCircle
 10
167.2474888089
 20
169.4034722162
 30
0.0
 40
1.257273766365356
100
AcDbArc
 50
211.1942295043
 51
270.3207845255
  0
SPLINE
  5
174
330
1F
100
AcDbEntity
  8
0
  6
Continuous
 62
     7
370
    25
100
AcDbSpline
210
0.0
220
0.0
230
1.0
 70
    24
 71
     3
 72
     9
 73
     5
 74
     0
 42
0.000000001
 43
0.00000001
 40
0.0
 40
0.0
 40
0.0
 40
0.0
 40
0.4986680494787147
 40
1.0
 40
1.0
 40
1.0
 40
1.0
 10
166.1719961740279
 20
168.7522787610619
 30
0.0
 10
166.0641892834436
 20
168.7522787610619
 30
0.0
 10
165.8479995943368
 20
168.7522787610619
 30
0.0
 10
165.4941179368508
 20
168.7522787610619
 30
0.0
 10
165.3167057552495
 20
168.7522787610619
 30
0.0
  0
LINE
  5
175
330
1F
100
AcDbEntity
  8
0
  6
Continuous
 62
     7
370
    25
100
AcDbLine
 10
166.171996174
 20
144.7522787611
 30
0.0
 11
166.171996174
 21
148.1339837529
 31
0.0
  0
ARC
  5
176
330
1F
100
AcDbEntity
  8
0
  6
Continuous
 62
     7
370
    25
100
AcDbCircle
 10
167.2474888089
 20
144.1010853059
 30
0.0
 40
1.257273766365258
100
AcDbArc
 50
89.6792154745
 51
148.8057704957
  0
SPLINE
  5
177
330
1F
100
AcDbEntity
  8
0
  6
Continuous
 62
     7
370
    25
100
AcDbSpline
210
0.0
220
0.0
230
1.0
 70
    24
 71
     3
 72
     9
 73
     5
 74
     0
 42
0.000000001
 43
0.00000001
 40
0.0
 40
0.0
 40
0.0
 40
0.0
 40
0.4988470384231429
 40
1.0
 40
1.0
 40
1.0
 40
1.0
 10
165.3167057552495
 20
144.7522787610619
 30
0.0
 10
165.493281755588
 20
144.7522787610619
 30
0.0
 10
165.847249979789
 20
144.7522787610619
 30
0.0
 10
166.063581161588
 20
144.7522787610619
 30
0.0
 10
166.1719961740279
 20
144.7522787610619
 30
0.0
  0
SPLINE
  5
178
330
1F
100
AcDbEntity
  8
0
  6
Continuous
 62
     7
370
    25
100
AcDbSpline
210
0.0
220
0.0
230
1.0
 70
    24
 71
     3
 72
    10
 73
     6
 74
     0
 42
0.000000001
 43
0.00000001
 40
0.0
 40
0.0
 40
0.0
 40
0.0
 40
0.2246817791110879
 40
0.5985245055809627
 40
1.0
 40
1.0
 40
1.0
 40
1.0
 10
166.3794073743837
 20
168.7522787610619
 30
0.0
 10
166.3822489010294
 20
168.7522787610619
 30
0.0
 10
166.3898183770119
 20
168.7522787610619
 30
0.0
 10
166.3266512558222
 20
168.7522787610619
 30
0.0
 10
166.2247583740806
 20
168.7522787610619
 30
0.0
 10
166.1719961740279
 20
168.7522787610619
 30
0.0
  0
SPLINE
  5
179
330
1F
100
AcDbEntity
  8
0
  6
Continuous
 62
     7
370
    25
100
AcDbSpline
210
0.0
220
0.0
230
1.0
 70
    24
 71
     3
 72
    10
 73
     6
 74
     0
 42
0.000000001
 43
0.00000001
 40
0.0
 40
0.0
 40
0.0
 40
0.0
 40
0.4536255531558286
 40
0.8693912861828439
 40
0.9999999999999999
 40
0.9999999999999999
 40
0.9999999999999999
 40
0.9999999999999999
 10
166.1719961740279
 20
144.7522787610619
 30
0.0
 10
166.2243723764742
 20
144.7522787610619
 30
0.0
 10
166.3247534367857
 20
144.7522787610619
 30
0.0
 10
166.3851579230482
 20
144.7522787610619
 30
0.0
 10
166.3813031052389
 20
144.7522787610619
 30
0.0
 10
166.3803816258414
 20
144.7522787610619
 30
0.0
  0
SPLINE
  5
17A
330
1F
100
AcDbEntity
  8
0
  6
Continuous
 62
     7
370
    25
100
AcDbSpline
210
0.0
220
0.0
230
1.0
 70
     8
 71
     3
 72
    15
 73
    11
 74
     0
 42
0.000000001
 43
0.00000001
 40
0.0
 40
0.0
 40
0.0
 40
0.0
 40
0.1323065044264403
 40
0.2645755999739297
 40
0.3998036789671092
 40
0.5350073556765891
 40
0.6501969475405016
 40
0.7654045076453763
 40
0.8826909144168966
 40
1.0
 40
1.0
 40
1.0
 40
1.0
 10
126.4181140662819
 20
168.7522787610619
 30
0.0
 10
126.5812731481996
 20
168.2338260318535
 30
0.0
 10
126.907545179773
 20
167.197067162869
 30
0.0
 10
127.2585998827928
 20
165.6005497175986
 30
0.0
 10
127.469676668322
 20
163.9739373059187
 30
0.0
 10
127.5114739786076
 20
162.4062565645317
 30
0.0
 10
127.4030153459068
 20
160.9232803705718
 30
0.0
 10
127.1807894368459
 20
159.5237270111464
 30
0.0
 10
126.8548116635596
 20
158.130501594903
 30
0.0
 10
126.5636893131662
 20
157.2117159792849
 30
0.0
 10
126.4181140662819
 20
156.7522787610619
 30
0.0
  0
SPLINE
  5
17B
330
1F
100
AcDbEntity
  8
0
  6
Continuous
 62
     7
370
    25
100
AcDbSpline
210
0.0
220
0.0
230
1.0
 70
    24
 71
     3
 72
    12
 73
     8
 74
     0
 42
0.000000001
 43
0.00000001
 40
0.0
 40
0.0
 40
0.0
 40
0.0
 40
0.2568038857303447
 40
0.4413613077457028
 40
0.6264948727557726
 40
0.8130672096297502
 40
0.9999999999999999
 40
0.9999999999999999
 40
0.9999999999999999
 40
0.9999999999999999
 10
127.4896844468883
 20
168.7522787610619
 30
0.0
 10
127.4748754949274
 20
168.7522787610619
 30
0.0
 10
127.4494237834581
 20
168.7522787610619
 30
0.0
 10
127.2739926375693
 20
168.7522787610619
 30
0.0
 10
127.0530110756834
 20
168.7522787610619
 30
0.0
 10
126.7692272874504
 20
168.7522787610619
 30
0.0
 10
126.5352270811334
 20
168.7522787610619
 30
0.0
 10
126.4181140662819
 20
168.7522787610619
 30
0.0
  0
SPLINE
  5
17C
330
1F
100
AcDbEntity
  8
0
  6
Continuous
 62
     7
370
    25
100
AcDbSpline
210
0.0
220
0.0
230
1.0
 70
    24
 71
     3
 72
    13
 73
     9
 74
     0
 42
0.000000001
 43
0.00000001
 40
0.0
 40
0.0
 40
0.0
 40
0.0
 40
0.1848240427243584
 40
0.3699634241551676
 40
0.5563281586019313
 40
0.7432460478189297
 40
0.9925559464536836
 40
0.9999999999999999
 40
0.9999999999999999
 40
0.9999999999999999
 40
0.9999999999999999
 10
126.4181140662819
 20
144.7522787610619
 30
0.0
 10
126.5340125903461
 20
144.7522787610619
 30
0.0
 10
126.7660073794724
 20
144.7522787610619
 30
0.0
 10
127.0484988470694
 20
144.7522787610619
 30
0.0
 10
127.275244421516
 20
144.7522787610619
 30
0.0
 10
127.4341642002639
 20
144.7522787610619
 30
0.0
 10
127.5130416154588
 20
144.7522787610619
 30
0.0
 10
127.4884789521678
 20
144.7522787610619
 30
0.0
 10
127.4877668081901
 20
144.7522787610619
 30
0.0
  0
SPLINE
  5
17D
330
1F
100
AcDbEntity
  8
0
  6
Continuous
 62
     7
370
    25
100
AcDbSpline
210
0.0
220
0.0
230
1.0
 70
     8
 71
     3
 72
    15
 73
    11
 74
     0
 42
0.000000001
 43
0.00000001
 40
0.0
 40
0.0
 40
0.0
 40
0.0
 40
0.1323065044264402
 40
0.2645755999739298
 40
0.3998036789671093
 40
0.5350073556765894
 40
0.6501969475405022
 40
0.7654045076453766
 40
0.8826909144168967
 40
0.9999999999999999
 40
0.9999999999999999
 40
0.9999999999999999
 40
0.9999999999999999
 10
126.4181140662819
 20
156.7522787610619
 30
0.0
 10
126.5812731481996
 20
156.2338260318535
 30
0.0
 10
126.907545179773
 20
155.197067162869
 30
0.0
 10
127.2585998827929
 20
153.6005497175986
 30
0.0
 10
127.469676668322
 20
151.9739373059187
 30
0.0
 10
127.5114739786076
 20
150.4062565645316
 30
0.0
 10
127.4030153459068
 20
148.9232803705718
 30
0.0
 10
127.1807894368459
 20
147.5237270111464
 30
0.0
 10
126.8548116635597
 20
146.130501594903
 30
0.0
 10
126.5636893131662
 20
145.2117159792849
 30
0.0
 10
126.4181140662819
 20
144.7522787610619
 30
0.0
  0
LINE
  5
17E
330
1F
100
AcDbEntity
  8
0
  6
Continuous
 62
     7
370
    25
100
AcDbLine
 10
127.6342484033
 20
168.5022787611
 30
0.0
 11
127.6342484033
 21
145.0022787611
 31
0.0
  0
SPLINE
  5
17F
330
1F
100
AcDbEntity
  8
0
  6
Continuous
 62
     7
370
    25
100
AcDbSpline
210
0.0
220
0.0
230
1.0
 70
     8
 71
     3
 72
    11
 73
     7
 74
     0
 42
0.000000001
 43
0.00000001
 40
0.0
 40
0.0
 40
0.0
 40
0.0
 40
0.2896312968534326
 40
0.5811875798131636
 40
0.7902304971769969
 40
1.0
 40
1.0
 40
1.0
 40
1.0
 10
111.9950923215473
 20
160.1339837528553
 30
0.0
 10
111.9257454845319
 20
160.6378703114627
 30
0.0
 10
111.7865909083151
 20
161.6489924266449
 30
0.0
 10
111.7646999279883
 20
163.0349495077757
 30
0.0
 10
111.8370979790109
 20
164.2780635859247
 30
0.0
 10
111.9423666648437
 20
165.0059827595689
 30
0.0
 10
111.9950923215473
 20
165.3705737692686
 30
0.0
  0
SPLINE
  5
180
330
1F
100
AcDbEntity
  8
0
  6
Continuous
 62
     7
370
    25
100
AcDbSpline
210
0.0
220
0.0
230
1.0
 70
     8
 71
     3
 72
     9
 73
     5
 74
     0
 42
0.000000001
 43
0.00000001
 40
0.0
 40
0.0
 40
0.0
 40
0.0
 40
0.4986680494787142
 40
1.0
 40
1.0
 40
1.0
 40
1.0
 10
111.9950923215473
 20
165.3705737692686
 30
0.0
 10
112.1028992121316
 20
165.9392049236753
 30
0.0
 10
112.3190889012384
 20
167.0795048787277
 30
0.0
 10
112.6729705587245
 20
168.1936981001225
 30
0.0
 10
112.8503827403257
 20
168.7522787610619
 30
0.0
  0
LINE
  5
181
330
1F
100
AcDbEntity
  8
0
  6
Continuous
 62
     7
370
    25
100
AcDbLine
 10
112.8503827403
 20
168.7522787611
 30
0.0
 11
126.4181140663
 21
168.7522787611
 31
0.0
  0
LINE
  5
182
330
1F
100
AcDbEntity
  8
0
  6
Continuous
 62
     7
370
    25
100
AcDbLine
 10
112.8503827403
 20
156.7522787611
 30
0.0
 11
126.4181140663
 21
156.7522787611
 31
0.0
  0
SPLINE
  5
183
330
1F
100
AcDbEntity
  8
0
  6
Continuous
 62
     7
370
    25
100
AcDbSpline
210
0.0
220
0.0
230
1.0
 70
     8
 71
     3
 72
     9
 73
     5
 74
     0
 42
0.000000001
 43
0.00000001
 40
0.0
 40
0.0
 40
0.0
 40
0.0
 40
0.4988470384231429
 40
1.0
 40
1.0
 40
1.0
 40
1.0
 10
112.8503827403257
 20
156.7522787610619
 30
0.0
 10
112.6738067399872
 20
157.3080770988451
 30
0.0
 10
112.3198385157863
 20
158.4222429552568
 30
0.0
 10
112.1035073339873
 20
159.5625270178485
 30
0.0
 10
111.9950923215473
 20
160.1339837528553
 30
0.0
  0
SPLINE
  5
184
330
1F
100
AcDbEntity
  8
0
  6
Continuous
 62
     7
370
    25
100
AcDbSpline
210
0.0
220
0.0
230
1.0
 70
     8
 71
     3
 72
     9
 73
     5
 74
     0
 42
0.000000001
 43
0.00000001
 40
0.0
 40
0.0
 40
0.0
 40
0.0
 40
0.498668049478715
 40
1.0
 40
1.0
 40
1.0
 40
1.0
 10
111.9950923215473
 20
153.3705737692686
 30
0.0
 10
112.1028992121316
 20
153.9392049236753
 30
0.0
 10
112.3190889012384
 20
155.0795048787277
 30
0.0
 10
112.6729705587245
 20
156.1936981001225
 30
0.0
 10
112.8503827403257
 20
156.7522787610619
 30
0.0
  0
LINE
  5
185
330
1F
100
AcDbEntity
  8
0
  6
Continuous
 62
     7
370
    25
100
AcDbLine
 10
111.9950923215
 20
160.1339837529
 30
0.0
 11
111.9950923215
 21
153.3705737693
 31
0.0
  0
SPLINE
  5
186
330
1F
100
AcDbEntity
  8
0
  6
Continuous
 62
     7
370
    25
100
AcDbSpline
210
0.0
220
0.0
230
1.0
 70
     8
 71
     3
 72
    11
 73
     7
 74
     0
 42
0.000000001
 43
0.00000001
 40
0.0
 40
0.0
 40
0.0
 40
0.0
 40
0.2896312968534336
 40
0.5811875798131654
 40
0.7902304971769979
 40
1.0
 40
1.0
 40
1.0
 40
1.0
 10
111.9950923215473
 20
148.1339837528553
 30
0.0
 10
111.9257454845319
 20
148.6378703114627
 30
0.0
 10
111.7865909083151
 20
149.6489924266449
 30
0.0
 10
111.7646999279883
 20
151.0349495077757
 30
0.0
 10
111.8370979790109
 20
152.2780635859247
 30
0.0
 10
111.9423666648437
 20
153.0059827595689
 30
0.0
 10
111.9950923215473
 20
153.3705737692686
 30
0.0
  0
LINE
  5
187
330
1F
100
AcDbEntity
  8
0
  6
Continuous
 62
     7
370
    25
100
AcDbLine
 10
112.8503827403
 20
144.7522787611
 30
0.0
 11
126.4181140663
 21
144.7522787611
 31
0.0
  0
SPLINE
  5
188
330
1F
100
AcDbEntity
  8
0
  6
Continuous
 62
     7
370
    25
100
AcDbSpline
210
0.0
220
0.0
230
1.0
 70
     8
 71
     3
 72
     9
 73
     5
 74
     0
 42
0.000000001
 43
0.00000001
 40
0.0
 40
0.0
 40
0.0
 40
0.0
 40
0.498847038423143
 40
1.0
 40
1.0
 40
1.0
 40
1.0
 10
112.8503827403257
 20
144.7522787610619
 30
0.0
 10
112.6738067399872
 20
145.3080770988451
 30
0.0
 10
112.3198385157863
 20
146.4222429552568
 30
0.0
 10
112.1035073339873
 20
147.5625270178485
 30
0.0
 10
111.9950923215473
 20
148.1339837528553
 30
0.0
  0
ARC
  5
189
330
1F
100
AcDbEntity
  8
0
  6
Continuous
 62
     7
370
    25
100
AcDbCircle
 10
111.0216861843
 20
150.7169526194
 30
0.0
 40
2.826521663601542
100
AcDbArc
 50
69.8558609029
 51
92.2126105423
  0
LINE
  5
18A
330
1F
100
AcDbEntity
  8
0
  6
Continuous
 62
     7
370
    25
100
AcDbLine
 10
110.9125605668
 20
153.5413669507
 30
0.0
 11
110.9125605668
 21
159.9631905715
 31
0.0
  0
ARC
  5
18B
330
1F
100
AcDbEntity
  8
0
  6
Continuous
 62
     7
370
    25
100
AcDbCircle
 10
111.0216861843
 20
162.7876049027
 30
0.0
 40
2.826521663602443
100
AcDbArc
 50
267.7873894577
 51
290.1441390971
  0
SPLINE
  5
18C
330
1F
100
AcDbEntity
  8
0
  6
Continuous
 62
     7
370
    25
100
AcDbSpline
210
0.0
220
0.0
230
1.0
 70
     8
 71
     3
 72
    14
 73
    10
 74
     0
 42
0.000000001
 43
0.00000001
 40
0.0
 40
0.0
 40
0.0
 40
0.0
 40
0.1109420297141653
 40
0.2219094160474907
 40
0.4465372559856334
 40
0.5835315770861492
 40
0.72056889313288
 40
0.8603107605417458
 40
1.0
 40
1.0
 40
1.0
 40
1.0
 10
110.9125605668168
 20
159.9631905714515
 30
0.0
 10
110.9158392555574
 20
160.1687502804336
 30
0.0
 10
110.9223973824072
 20
160.5799166805854
 30
0.0
 10
110.9738169042195
 20
161.3870100052757
 30
0.0
 10
111.034625070336
 20
162.2144149894592
 30
0.0
 10
111.0252221164378
 20
163.0473101938439
 30
0.0
 10
110.9835495265495
 20
163.7077020856149
 30
0.0
 10
110.928179862238
 20
164.3420241590627
 30
0.0
 10
110.9177663448645
 20
164.7375704484423
 30
0.0
 10
110.9125605668168
 20
164.9353063446117
 30
0.0
  0
ARC
  5
18D
330
1F
100
AcDbEntity
  8
0
  6
Continuous
 62
     7
370
    25
100
AcDbCircle
 10
110.9732943271
 20
166.3480473552
 30
0.0
 40
1.414045880661488
100
AcDbArc
 50
267.5383691894
 51
316.2700553519
  0
ARC
  5
18E
330
1F
100
AcDbEntity
  8
0
  6
Continuous
 62
     7
370
    25
100
AcDbCircle
 10
110.9732943271
 20
147.1565101669
 30
0.0
 40
1.414045880661795
100
AcDbArc
 50
43.7299446481
 51
92.4616308106
  0
SPLINE
  5
18F
330
1F
100
AcDbEntity
  8
0
  6
Continuous
 62
     7
370
    25
100
AcDbSpline
210
0.0
220
0.0
230
1.0
 70
     8
 71
     3
 72
    14
 73
    10
 74
     0
 42
0.000000001
 43
0.00000001
 40
0.0
 40
0.0
 40
0.0
 40
0.0
 40
0.1109420297141656
 40
0.2219094160474918
 40
0.4465372559856349
 40
0.5835315770861503
 40
0.7205688931328808
 40
0.8603107605417464
 40
1.0
 40
1.0
 40
1.0
 40
1.0
 10
110.9125605668168
 20
148.5692511775122
 30
0.0
 10
110.9158392555574
 20
148.7256837052173
 30
0.0
 10
110.9223973824072
 20
149.0385845144355
 30
0.0
 10
110.9738169042195
 20
149.7066193050457
 30
0.0
 10
111.034625070336
 20
150.4581366348069
 30
0.0
 10
111.0252221164378
 20
151.2983206125467
 30
0.0
 10
110.9835495265495
 20
152.0194162202334
 30
0.0
 10
110.928179862238
 20
152.7657067662412
 30
0.0
 10
110.9177663448645
 20
153.2828460218002
 30
0.0
 10
110.9125605668168
 20
153.5413669506723
 30
0.0
  0
LINE
  5
190
330
1F
100
AcDbEntity
  8
0
  6
Continuous
 62
     7
370
    25
100
AcDbLine
 10
109.8342484033
 20
168.5022787611
 30
0.0
 11
109.8342484033
 21
145.0022787611
 31
0.0
  0
LINE
  5
191
330
1F
100
AcDbEntity
  8
0
  6
Continuous
 62
     7
370
    25
100
AcDbLine
 10
110.9125605668
 20
164.9353063446
 30
0.0
 11
110.9125605668
 21
168.146218155
 31
0.0
  0
LINE
  5
192
330
1F
100
AcDbEntity
  8
0
  6
Continuous
 62
     7
370
    25
100
AcDbLine
 10
110.9125605668
 20
145.3583393671
 30
0.0
 11
110.9125605668
 21
148.5692511775
 31
0.0
  0
LINE
  5
193
330
1F
100
AcDbEntity
  8
0
  6
Continuous
 62
     7
370
    25
100
AcDbLine
 10
109.6342484033
 20
145.2022787611
 30
0.0
 11
109.6342484033
 21
168.3022787611
 31
0.0
  0
LINE
  5
194
330
1F
100
AcDbEntity
  8
0
  6
Continuous
 62
     7
370
    25
100
AcDbLine
 10
111.9950923215
 20
168.7522787611
 30
0.0
 11
111.9950923215
 21
165.3705737693
 31
0.0
  0
SPLINE
  5
195
330
1F
100
AcDbEntity
  8
0
  6
Continuous
 62
     7
370
    25
100
AcDbSpline
210
0.0
220
0.0
230
1.0
 70
    24
 71
     3
 72
     9
 73
     5
 74
     0
 42
0.000000001
 43
0.00000001
 40
0.0
 40
0.0
 40
0.0
 40
0.0
 40
0.4988470384231427
 40
1.0
 40
1.0
 40
1.0
 40
1.0
 10
112.8503827403257
 20
168.7522787610619
 30
0.0
 10
112.6738067399872
 20
168.7522787610619
 30
0.0
 10
112.3198385157863
 20
168.7522787610619
 30
0.0
 10
112.1035073339873
 20
168.7522787610619
 30
0.0
 10
111.9950923215473
 20
168.7522787610619
 30
0.0
  0
ARC
  5
196
330
1F
100
AcDbEntity
  8
0
  6
Continuous
 62
     7
370
    25
100
AcDbCircle
 10
110.9195996867
 20
169.4034722162
 30
0.0
 40
1.257273766365299
100
AcDbArc
 50
269.6792154745
 51
328.8057704957
  0
SPLINE
  5
197
330
1F
100
AcDbEntity
  8
0
  6
Continuous
 62
     7
370
    25
100
AcDbSpline
210
0.0
220
0.0
230
1.0
 70
    24
 71
     3
 72
     9
 73
     5
 74
     0
 42
0.000000001
 43
0.00000001
 40
0.0
 40
0.0
 40
0.0
 40
0.0
 40
0.4986680494787147
 40
1.0
 40
1.0
 40
1.0
 40
1.0
 10
111.9950923215473
 20
144.7522787610619
 30
0.0
 10
112.1028992121316
 20
144.7522787610619
 30
0.0
 10
112.3190889012384
 20
144.7522787610619
 30
0.0
 10
112.6729705587245
 20
144.7522787610619
 30
0.0
 10
112.8503827403257
 20
144.7522787610619
 30
0.0
  0
LINE
  5
198
330
1F
100
AcDbEntity
  8
0
  6
Continuous
 62
     7
370
    25
100
AcDbLine
 10
111.9950923215
 20
148.1339837529
 30
0.0
 11
111.9950923215
 21
144.7522787611
 31
0.0
  0
ARC
  5
199
330
1F
100
AcDbEntity
  8
0
  6
Continuous
 62
     7
370
    25
100
AcDbCircle
 10
110.9195996867
 20
144.1010853059
 30
0.0
 40
1.257273766365343
100
AcDbArc
 50
31.1942295043
 51
90.3207845255
  0
SPLINE
  5
19A
330
1F
100
AcDbEntity
  8
0
  6
Continuous
 62
     7
370
    25
100
AcDbSpline
210
0.0
220
0.0
230
1.0
 70
    24
 71
     3
 72
    10
 73
     6
 74
     0
 42
0.000000001
 43
0.00000001
 40
0.0
 40
0.0
 40
0.0
 40
0.0
 40
0.4536255531558052
 40
0.8693912861827992
 40
0.9999999999999999
 40
0.9999999999999999
 40
0.9999999999999999
 40
0.9999999999999999
 10
111.9950923215473
 20
168.7522787610619
 30
0.0
 10
111.942716119101
 20
168.7522787610619
 30
0.0
 10
111.8423350587896
 20
168.7522787610619
 30
0.0
 10
111.7819305725271
 20
168.7522787610619
 30
0.0
 10
111.7857853903363
 20
168.7522787610619
 30
0.0
 10
111.7867068697338
 20
168.7522787610619
 30
0.0
  0
SPLINE
  5
19B
330
1F
100
AcDbEntity
  8
0
  6
Continuous
 62
     7
370
    25
100
AcDbSpline
210
0.0
220
0.0
230
1.0
 70
    24
 71
     3
 72
    10
 73
     6
 74
     0
 42
0.000000001
 43
0.00000001
 40
0.0
 40
0.0
 40
0.0
 40
0.0
 40
0.2246818778765265
 40
0.5985245567237093
 40
1.0
 40
1.0
 40
1.0
 40
1.0
 10
111.7876811223993
 20
144.7522787610619
 30
0.0
 10
111.7848395934247
 20
144.7522787610619
 30
0.0
 10
111.7772701139187
 20
144.7522787610619
 30
0.0
 10
111.8404372386461
 20
144.7522787610619
 30
0.0
 10
111.942330121117
 20
144.7522787610619
 30
0.0
 10
111.9950923215473
 20
144.7522787610619
 30
0.0
  0
SPLINE
  5
19C
330
1F
100
AcDbEntity
  8
0
  6
Continuous
 62
     7
370
    25
100
AcDbSpline
210
0.0
220
0.0
230
1.0
 70
     8
 71
     3
 72
    12
 73
     8
 74
     0
 42
0.000000001
 43
0.00000001
 40
0.0
 40
0.0
 40
0.0
 40
0.0
 40
0.4999999999999998
 40
0.4999999999999998
 40
0.7499999999999999
 40
0.7499999999999999
 40
1.0
 40
1.0
 40
1.0
 40
1.0
 10
142.2948691131928
 20
164.2947955908579
 30
0.0
 10
142.3889719341544
 20
163.6214912534851
 30
0.0
 10
142.4389448819477
 20
162.94269706462
 30
0.0
 10
142.439336026608
 20
161.9152293266776
 30
0.0
 10
142.4270079358075
 20
161.5708992801543
 30
0.0
 10
142.3783893566997
 20
160.8878272711632
 30
0.0
 10
142.3421426893487
 20
160.5480036921782
 30
0.0
 10
142.2948691131928
 20
160.2097619312659
 30
0.0
  0
SPLINE
  5
19D
330
1F
100
AcDbEntity
  8
0
  6
Continuous
 62
     7
370
    25
100
AcDbSpline
210
0.0
220
0.0
230
1.0
 70
     8
 71
     3
 72
     8
 73
     4
 74
     0
 42
0.000000001
 43
0.00000001
 40
0.0
 40
0.0
 40
0.0
 40
0.0
 40
1.0
 40
1.0
 40
1.0
 40
1.0
 10
142.2948691131928
 20
160.2097619312659
 30
0.0
 10
142.1314681160435
 20
159.040630134924
 30
0.0
 10
141.8361093150025
 20
157.8904277813405
 30
0.0
 10
141.4567263082429
 20
156.7522787610619
 30
0.0
  0
LINE
  5
19E
330
1F
100
AcDbEntity
  8
0
  6
Continuous
 62
     7
370
    25
100
AcDbLine
 10
141.4567263082
 20
156.7522787611
 30
0.0
 11
136.7103621873
 21
156.7522787611
 31
0.0
  0
SPLINE
  5
19F
330
1F
100
AcDbEntity
  8
0
  6
Continuous
 62
     7
370
    25
100
AcDbSpline
210
0.0
220
0.0
230
1.0
 70
     8
 71
     3
 72
     8
 73
     4
 74
     0
 42
0.000000001
 43
0.00000001
 40
0.0
 40
0.0
 40
0.0
 40
0.0
 40
1.0
 40
1.0
 40
1.0
 40
1.0
 10
135.8722193823824
 20
160.2097619312659
 30
0.0
 10
136.0356203795317
 20
159.040630134924
 30
0.0
 10
136.3309791805728
 20
157.8904277813405
 30
0.0
 10
136.7103621873323
 20
156.7522787610619
 30
0.0
  0
SPLINE
  5
1A0
330
1F
100
AcDbEntity
  8
0
  6
Continuous
 62
     7
370
    25
100
AcDbSpline
210
0.0
220
0.0
230
1.0
 70
     8
 71
     3
 72
    12
 73
     8
 74
     0
 42
0.000000001
 43
0.00000001
 40
0.0
 40
0.0
 40
0.0
 40
0.0
 40
0.4999999999999998
 40
0.4999999999999998
 40
0.7499999999999999
 40
0.7499999999999999
 40
1.0
 40
1.0
 40
1.0
 40
1.0
 10
135.8722193823824
 20
164.2947955908579
 30
0.0
 10
135.7781165614209
 20
163.6214912534851
 30
0.0
 10
135.7281436136276
 20
162.94269706462
 30
0.0
 10
135.7277524689672
 20
161.9152293266776
 30
0.0
 10
135.7400805597678
 20
161.5708992801543
 30
0.0
 10
135.7886991388756
 20
160.8878272711632
 30
0.0
 10
135.8249458062266
 20
160.5480036921782
 30
0.0
 10
135.8722193823824
 20
160.2097619312659
 30
0.0
  0
SPLINE
  5
1A1
330
1F
100
AcDbEntity
  8
0
  6
Continuous
 62
     7
370
    25
100
AcDbSpline
210
0.0
220
0.0
230
1.0
 70
     8
 71
     3
 72
     8
 73
     4
 74
     0
 42
0.000000001
 43
0.00000001
 40
0.0
 40
0.0
 40
0.0
 40
0.0
 40
1.0
 40
1.0
 40
1.0
 40
1.0
 10
136.7103621873322
 20
167.752278761062
 30
0.0
 10
136.3303694971601
 20
166.6123006905459
 30
0.0
 10
136.0353168853823
 20
165.461755890904
 30
0.0
 10
135.8722193823824
 20
164.2947955908579
 30
0.0
  0
LINE
  5
1A2
330
1F
100
AcDbEntity
  8
0
  6
Continuous
 62
     7
370
    25
100
AcDbLine
 10
141.4567263082
 20
167.7522787611
 30
0.0
 11
136.7103621873
 21
167.7522787611
 31
0.0
  0
SPLINE
  5
1A3
330
1F
100
AcDbEntity
  8
0
  6
Continuous
 62
     7
370
    25
100
AcDbSpline
210
0.0
220
0.0
230
1.0
 70
     8
 71
     3
 72
     8
 73
     4
 74
     0
 42
0.000000001
 43
0.00000001
 40
0.0
 40
0.0
 40
0.0
 40
0.0
 40
1.0
 40
1.0
 40
1.0
 40
1.0
 10
141.4567263082431
 20
167.752278761062
 30
0.0
 10
141.8367189984151
 20
166.6123006905459
 30
0.0
 10
142.1317716101929
 20
165.461755890904
 30
0.0
 10
142.2948691131928
 20
164.2947955908579
 30
0.0
  0
LINE
  5
1A4
330
1F
100
AcDbEntity
  8
0
  6
Continuous
 62
     7
370
    25
100
AcDbLine
 10
142.2948691132
 20
153.2947955909
 30
0.0
 11
142.2948691132
 21
160.2097619313
 31
0.0
  0
SPLINE
  5
1A5
330
1F
100
AcDbEntity
  8
0
  6
Continuous
 62
     7
370
    25
100
AcDbSpline
210
0.0
220
0.0
230
1.0
 70
     8
 71
     3
 72
     8
 73
     4
 74
     0
 42
0.000000001
 43
0.00000001
 40
0.0
 40
0.0
 40
0.0
 40
0.0
 40
1.0
 40
1.0
 40
1.0
 40
1.0
 10
141.4567263082431
 20
156.7522787610619
 30
0.0
 10
141.8367189984151
 20
155.6123006905459
 30
0.0
 10
142.1317716101929
 20
154.461755890904
 30
0.0
 10
142.2948691131928
 20
153.2947955908579
 30
0.0
  0
LINE
  5
1A6
330
1F
100
AcDbEntity
  8
0
  6
Continuous
 62
     7
370
    25
100
AcDbLine
 10
135.8722193824
 20
153.2947955909
 30
0.0
 11
135.8722193824
 21
160.2097619313
 31
0.0
  0
SPLINE
  5
1A7
330
1F
100
AcDbEntity
  8
0
  6
Continuous
 62
     7
370
    25
100
AcDbSpline
210
0.0
220
0.0
230
1.0
 70
     8
 71
     3
 72
     8
 73
     4
 74
     0
 42
0.000000001
 43
0.00000001
 40
0.0
 40
0.0
 40
0.0
 40
0.0
 40
1.0
 40
1.0
 40
1.0
 40
1.0
 10
136.7103621873322
 20
156.7522787610619
 30
0.0
 10
136.3303694971601
 20
155.6123006905459
 30
0.0
 10
136.0353168853823
 20
154.461755890904
 30
0.0
 10
135.8722193823824
 20
153.2947955908579
 30
0.0
  0
SPLINE
  5
1A8
330
1F
100
AcDbEntity
  8
0
  6
Continuous
 62
     7
370
    25
100
AcDbSpline
210
0.0
220
0.0
230
1.0
 70
     8
 71
     3
 72
    12
 73
     8
 74
     0
 42
0.000000001
 43
0.00000001
 40
0.0
 40
0.0
 40
0.0
 40
0.0
 40
0.4999999999999998
 40
0.4999999999999998
 40
0.7499999999999999
 40
0.7499999999999999
 40
1.0
 40
1.0
 40
1.0
 40
1.0
 10
142.2948691131928
 20
153.2947955908579
 30
0.0
 10
142.3889719341544
 20
152.6214912534851
 30
0.0
 10
142.4389448819477
 20
151.94269706462
 30
0.0
 10
142.439336026608
 20
150.9152293266776
 30
0.0
 10
142.4270079358075
 20
150.5708992801543
 30
0.0
 10
142.3783893566997
 20
149.8878272711632
 30
0.0
 10
142.3421426893487
 20
149.5480036921782
 30
0.0
 10
142.2948691131928
 20
149.2097619312659
 30
0.0
  0
SPLINE
  5
1A9
330
1F
100
AcDbEntity
  8
0
  6
Continuous
 62
     7
370
    25
100
AcDbSpline
210
0.0
220
0.0
230
1.0
 70
     8
 71
     3
 72
     8
 73
     4
 74
     0
 42
0.000000001
 43
0.00000001
 40
0.0
 40
0.0
 40
0.0
 40
0.0
 40
1.0
 40
1.0
 40
1.0
 40
1.0
 10
142.2948691131928
 20
149.2097619312659
 30
0.0
 10
142.1314681160435
 20
148.0406301349239
 30
0.0
 10
141.8361093150025
 20
146.8904277813405
 30
0.0
 10
141.4567263082429
 20
145.7522787610619
 30
0.0
  0
LINE
  5
1AA
330
1F
100
AcDbEntity
  8
0
  6
Continuous
 62
     7
370
    25
100
AcDbLine
 10
141.4567263082
 20
145.7522787611
 30
0.0
 11
136.7103621873
 21
145.7522787611
 31
0.0
  0
SPLINE
  5
1AB
330
1F
100
AcDbEntity
  8
0
  6
Continuous
 62
     7
370
    25
100
AcDbSpline
210
0.0
220
0.0
230
1.0
 70
     8
 71
     3
 72
     8
 73
     4
 74
     0
 42
0.000000001
 43
0.00000001
 40
0.0
 40
0.0
 40
0.0
 40
0.0
 40
1.0
 40
1.0
 40
1.0
 40
1.0
 10
135.8722193823824
 20
149.2097619312659
 30
0.0
 10
136.0356203795317
 20
148.0406301349239
 30
0.0
 10
136.3309791805728
 20
146.8904277813405
 30
0.0
 10
136.7103621873323
 20
145.7522787610619
 30
0.0
  0
SPLINE
  5
1AC
330
1F
100
AcDbEntity
  8
0
  6
Continuous
 62
     7
370
    25
100
AcDbSpline
210
0.0
220
0.0
230
1.0
 70
     8
 71
     3
 72
    12
 73
     8
 74
     0
 42
0.000000001
 43
0.00000001
 40
0.0
 40
0.0
 40
0.0
 40
0.0
 40
0.4999999999999998
 40
0.4999999999999998
 40
0.7499999999999999
 40
0.7499999999999999
 40
1.0
 40
1.0
 40
1.0
 40
1.0
 10
135.8722193823824
 20
153.2947955908579
 30
0.0
 10
135.7781165614209
 20
152.6214912534851
 30
0.0
 10
135.7281436136276
 20
151.94269706462
 30
0.0
 10
135.7277524689672
 20
150.9152293266776
 30
0.0
 10
135.7400805597678
 20
150.5708992801543
 30
0.0
 10
135.7886991388756
 20
149.8878272711632
 30
0.0
 10
135.8249458062266
 20
149.5480036921782
 30
0.0
 10
135.8722193823824
 20
149.2097619312659
 30
0.0
  0
ARC
  5
1AD
330
1F
100
AcDbEntity
  8
0
  6
Continuous
 62
     7
370
    25
100
AcDbCircle
 10
143.0754598882
 20
162.0917982106
 30
0.0
 40
2.037494175377061
100
AcDbArc
 50
247.4733489604
 51
272.4031868565
  0
LINE
  5
1AE
330
1F
100
AcDbEntity
  8
0
  6
Continuous
 62
     7
370
    25
100
AcDbLine
 10
143.160894517
 20
160.0560960126
 30
0.0
 11
143.160894517
 21
153.4484615095
 31
0.0
  0
ARC
  5
1AF
330
1F
100
AcDbEntity
  8
0
  6
Continuous
 62
     7
370
    25
100
AcDbCircle
 10
143.0754598882
 20
151.4127593116
 30
0.0
 40
2.037494175366659
100
AcDbArc
 50
87.5968131435
 51
112.5266510396
  0
LINE
  5
1B0
330
1F
100
AcDbEntity
  8
0
  6
Continuous
 62
     7
370
    25
100
AcDbLine
 10
135.0061939786
 20
160.0560960126
 30
0.0
 11
135.0061939786
 21
153.4484615095
 31
0.0
  0
ARC
  5
1B1
330
1F
100
AcDbEntity
  8
0
  6
Continuous
 62
     7
370
    25
100
AcDbCircle
 10
135.0916286074
 20
162.0917982106
 30
0.0
 40
2.037494175377061
100
AcDbArc
 50
267.5968131435
 51
292.5266510396
  0
ARC
  5
1B2
330
1F
100
AcDbEntity
  8
0
  6
Continuous
 62
     7
370
    25
100
AcDbCircle
 10
135.0916286074
 20
151.4127593116
 30
0.0
 40
2.037494175366574
100
AcDbArc
 50
67.4733489604
 51
92.4031868565
  0
LINE
  5
1B3
330
1F
100
AcDbEntity
  8
0
  6
Continuous
 62
     7
370
    25
100
AcDbLine
 10
143.160894517
 20
149.5449849015
 30
0.0
 11
143.160894517
 21
146.24116765
 31
0.0
  0
SPLINE
  5
1B4
330
1F
100
AcDbEntity
  8
0
  6
Continuous
 62
     7
370
    25
100
AcDbSpline
210
0.0
220
0.0
230
1.0
 70
     8
 71
     3
 72
    14
 73
    10
 74
     0
 42
0.000000001
 43
0.00000001
 40
0.0
 40
0.0
 40
0.0
 40
0.0
 40
0.25
 40
0.25
 40
0.5
 40
0.5
 40
0.75
 40
0.75
 40
1.0
 40
1.0
 40
1.0
 40
1.0
 10
143.1608945169772
 20
153.4484615095337
 30
0.0
 10
143.1608945169772
 20
153.0868265987122
 30
0.0
 10
143.1449110686108
 20
152.7340391243891
 30
0.0
 10
143.1142088855634
 20
152.0450672893346
 30
0.0
 10
143.1007298128088
 20
151.708860441496
 30
0.0
 10
143.1005601215716
 20
151.0527936719605
 30
0.0
 10
143.1140351162975
 20
150.7333063220045
 30
0.0
 10
143.1448561490117
 20
150.1212501350356
 30
0.0
 10
143.1608945169775
 20
149.8272194743882
 30
0.0
 10
143.1608945169775
 20
149.5449849014791
 30
0.0
  0
SPLINE
  5
1B5
330
1F
100
AcDbEntity
  8
0
  6
Continuous
 62
     7
370
    25
100
AcDbSpline
210
0.0
220
0.0
230
1.0
 70
     8
 71
     3
 72
    14
 73
    10
 74
     0
 42
0.000000001
 43
0.00000001
 40
0.0
 40
0.0
 40
0.0
 40
0.0
 40
0.25
 40
0.25
 40
0.5
 40
0.5
 40
0.75
 40
0.75
 40
1.0
 40
1.0
 40
1.0
 40
1.0
 10
143.1608945169772
 20
163.9595726206448
 30
0.0
 10
143.1608945169772
 20
163.6776081664689
 30
0.0
 10
143.1449110686108
 20
163.3842665077889
 30
0.0
 10
143.1142088855634
 20
162.7748324914824
 30
0.0
 10
143.1007298128088
 20
162.4587153414295
 30
0.0
 10
143.1005601215716
 20
161.8029372107703
 30
0.0
 10
143.1140351162975
 20
161.4634326312733
 30
0.0
 10
143.1448561490117
 20
160.7717081991975
 30
0.0
 10
143.1608945169775
 20
160.4180773655343
 30
0.0
 10
143.1608945169775
 20
160.0560960125902
 30
0.0
  0
LINE
  5
1B6
330
1F
100
AcDbEntity
  8
0
  6
Continuous
 62
     7
370
    25
100
AcDbLine
 10
143.160894517
 20
167.2633898722
 30
0.0
 11
143.160894517
 21
163.9595726206
 31
0.0
  0
LINE
  5
1B7
330
1F
100
AcDbEntity
  8
0
  6
Continuous
 62
     7
370
    25
100
AcDbLine
 10
143.8835442478
 20
146.0022787611
 30
0.0
 11
143.8835442478
 21
167.5022787611
 31
0.0
  0
LINE
  5
1B8
330
1F
100
AcDbEntity
  8
0
  6
Continuous
 62
     7
370
    25
100
AcDbLine
 10
135.0061939786
 20
167.2633898722
 30
0.0
 11
135.0061939786
 21
163.9595726206
 31
0.0
  0
SPLINE
  5
1B9
330
1F
100
AcDbEntity
  8
0
  6
Continuous
 62
     7
370
    25
100
AcDbSpline
210
0.0
220
0.0
230
1.0
 70
     8
 71
     3
 72
    14
 73
    10
 74
     0
 42
0.000000001
 43
0.00000001
 40
0.0
 40
0.0
 40
0.0
 40
0.0
 40
0.25
 40
0.25
 40
0.5
 40
0.5
 40
0.75
 40
0.75
 40
1.0
 40
1.0
 40
1.0
 40
1.0
 10
135.006193978598
 20
163.9595726206448
 30
0.0
 10
135.006193978598
 20
163.6776081664689
 30
0.0
 10
135.0221774269645
 20
163.3842665077889
 30
0.0
 10
135.0528796100118
 20
162.7748324914824
 30
0.0
 10
135.0663586827665
 20
162.4587153414295
 30
0.0
 10
135.0665283740036
 20
161.8029372107703
 30
0.0
 10
135.0530533792777
 20
161.4634326312733
 30
0.0
 10
135.0222323465635
 20
160.7717081991975
 30
0.0
 10
135.0061939785977
 20
160.4180773655343
 30
0.0
 10
135.0061939785977
 20
160.0560960125902
 30
0.0
  0
SPLINE
  5
1BA
330
1F
100
AcDbEntity
  8
0
  6
Continuous
 62
     7
370
    25
100
AcDbSpline
210
0.0
220
0.0
230
1.0
 70
     8
 71
     3
 72
    14
 73
    10
 74
     0
 42
0.000000001
 43
0.00000001
 40
0.0
 40
0.0
 40
0.0
 40
0.0
 40
0.25
 40
0.25
 40
0.5
 40
0.5
 40
0.75
 40
0.75
 40
1.0
 40
1.0
 40
1.0
 40
1.0
 10
135.006193978598
 20
153.4484615095337
 30
0.0
 10
135.006193978598
 20
153.0868265987122
 30
0.0
 10
135.0221774269645
 20
152.7340391243891
 30
0.0
 10
135.0528796100118
 20
152.0450672893346
 30
0.0
 10
135.0663586827665
 20
151.708860441496
 30
0.0
 10
135.0665283740036
 20
151.0527936719605
 30
0.0
 10
135.0530533792777
 20
150.7333063220045
 30
0.0
 10
135.0222323465635
 20
150.1212501350356
 30
0.0
 10
135.0061939785977
 20
149.8272194743882
 30
0.0
 10
135.0061939785977
 20
149.5449849014791
 30
0.0
  0
LINE
  5
1BB
330
1F
100
AcDbEntity
  8
0
  6
Continuous
 62
     7
370
    25
100
AcDbLine
 10
135.0061939786
 20
149.5449849015
 30
0.0
 11
135.0061939786
 21
146.24116765
 31
0.0
  0
LINE
  5
1BC
330
1F
100
AcDbEntity
  8
0
  6
Continuous
 62
     7
370
    25
100
AcDbLine
 10
134.2835442478
 20
146.0022787611
 30
0.0
 11
134.2835442478
 21
167.5022787611
 31
0.0
  0
LINE
  5
1BD
330
1F
100
AcDbEntity
  8
0
  6
Continuous
 62
     7
370
    25
100
AcDbLine
 10
134.0835442478
 20
167.3022787611
 30
0.0
 11
134.0835442478
 21
146.2022787611
 31
0.0
  0
LINE
  5
1BE
330
1F
100
AcDbEntity
  8
0
  6
Continuous
 62
     7
370
    25
100
AcDbLine
 10
144.0835442478
 20
167.3022787611
 30
0.0
 11
144.0835442478
 21
146.2022787611
 31
0.0
  0
ARC
  5
1BF
330
1F
100
AcDbEntity
  8
0
  6
Continuous
 62
     7
370
    25
100
AcDbCircle
 10
143.1089569066
 20
165.1116652999
 30
0.0
 40
1.153262787498112
100
AcDbArc
 50
225.0977290148
 51
272.5812093616
  0
ARC
  5
1C0
330
1F
100
AcDbEntity
  8
0
  6
Continuous
 62
     7
370
    25
100
AcDbCircle
 10
135.0581315889
 20
165.1116652999
 30
0.0
 40
1.153262787498098
100
AcDbArc
 50
267.4187906384
 51
314.9022709852
  0
ARC
  5
1C1
330
1F
100
AcDbEntity
  8
0
  6
Continuous
 62
     7
370
    25
100
AcDbCircle
 10
143.1089569066
 20
148.3928922222
 30
0.0
 40
1.153262787503564
100
AcDbArc
 50
87.4187906385
 51
134.9022709851
  0
ARC
  5
1C2
330
1F
100
AcDbEntity
  8
0
  6
Continuous
 62
     7
370
    25
100
AcDbCircle
 10
135.0581315889
 20
148.3928922222
 30
0.0
 40
1.153262787503602
100
AcDbArc
 50
45.0977290149
 51
92.5812093615
  0
LINE
  5
1C3
330
1F
100
AcDbEntity
  8
0
  6
Continuous
 62
     7
370
    25
100
AcDbLine
 10
130.1335442478
 20
167.2297787611
 30
0.0
 11
130.1335442478
 21
146.2747787611
 31
0.0
  0
LINE
  5
1C4
330
1F
100
AcDbEntity
  8
0
  6
Continuous
 62
     7
370
    25
100
AcDbLine
 10
131.3610442478
 20
147.5022787611
 30
0.0
 11
131.3610442478
 21
166.0022787611
 31
0.0
  0
LINE
  5
1C5
330
1F
100
AcDbEntity
  8
0
  6
Continuous
 62
     7
370
    25
100
AcDbLine
 10
148.0335442478
 20
167.2297787611
 30
0.0
 11
148.0335442478
 21
146.2747787611
 31
0.0
  0
LINE
  5
1C6
330
1F
100
AcDbEntity
  8
0
  6
Continuous
 62
     7
370
    25
100
AcDbLine
 10
146.8060442478
 20
147.5022787611
 30
0.0
 11
146.8060442478
 21
166.0022787611
 31
0.0
  0
LINE
  5
1C7
330
1F
100
AcDbEntity
  8
0
  6
Continuous
 62
     7
370
    25
100
AcDbLine
 10
135.8722193824
 20
164.2947955909
 30
0.0
 11
135.8722193824
 21
167.7522787611
 31
0.0
  0
SPLINE
  5
1C8
330
1F
100
AcDbEntity
  8
0
  6
Continuous
 62
     7
370
    25
100
AcDbSpline
210
0.0
220
0.0
230
1.0
 70
    24
 71
     3
 72
     8
 73
     4
 74
     0
 42
0.000000001
 43
0.00000001
 40
0.0
 40
0.0
 40
0.0
 40
0.0
 40
1.0
 40
1.0
 40
1.0
 40
1.0
 10
135.8722193823824
 20
167.7522787610619
 30
0.0
 10
136.0369422432549
 20
167.7522787610619
 30
0.0
 10
136.3335861873774
 20
167.7522787610619
 30
0.0
 10
136.7103621873325
 20
167.7522787610619
 30
0.0
  0
SPLINE
  5
1C9
330
1F
100
AcDbEntity
  8
0
  6
Continuous
 62
     7
370
    25
100
AcDbSpline
210
0.0
220
0.0
230
1.0
 70
    24
 71
     3
 72
     8
 73
     4
 74
     0
 42
0.000000001
 43
0.00000001
 40
0.0
 40
0.0
 40
0.0
 40
0.0
 40
1.0
 40
1.0
 40
1.0
 40
1.0
 10
142.2948691131928
 20
167.7522787610619
 30
0.0
 10
142.1301462523203
 20
167.7522787610619
 30
0.0
 10
141.8335023081979
 20
167.7522787610619
 30
0.0
 10
141.4567263082428
 20
167.7522787610619
 30
0.0
  0
LINE
  5
1CA
330
1F
100
AcDbEntity
  8
0
  6
Continuous
 62
     7
370
    25
100
AcDbLine
 10
142.2948691132
 20
164.2947955909
 30
0.0
 11
142.2948691132
 21
167.7522787611
 31
0.0
  0
ARC
  5
1CB
330
1F
100
AcDbEntity
  8
0
  6
Continuous
 62
     7
370
    25
100
AcDbCircle
 10
135.0103405376
 20
168.2675344918
 30
0.0
 40
1.004153181110172
100
AcDbArc
 50
269.7634016291
 51
329.1278150849
  0
ARC
  5
1CC
330
1F
100
AcDbEntity
  8
0
  6
Continuous
 62
     7
370
    25
100
AcDbCircle
 10
143.156747958
 20
168.2675344918
 30
0.0
 40
1.004153181110152
100
AcDbArc
 50
210.8721849151
 51
270.2365983709
  0
LINE
  5
1CD
330
1F
100
AcDbEntity
  8
0
  6
Continuous
 62
     7
370
    25
100
AcDbLine
 10
135.8722193824
 20
145.7522787611
 30
0.0
 11
135.8722193824
 21
149.2097619313
 31
0.0
  0
SPLINE
  5
1CE
330
1F
100
AcDbEntity
  8
0
  6
Continuous
 62
     7
370
    25
100
AcDbSpline
210
0.0
220
0.0
230
1.0
 70
    24
 71
     3
 72
     8
 73
     4
 74
     0
 42
0.000000001
 43
0.00000001
 40
0.0
 40
0.0
 40
0.0
 40
0.0
 40
1.0
 40
1.0
 40
1.0
 40
1.0
 10
135.8722193823824
 20
145.7522787610619
 30
0.0
 10
136.0369422432549
 20
145.7522787610619
 30
0.0
 10
136.3335861873774
 20
145.7522787610619
 30
0.0
 10
136.7103621873325
 20
145.7522787610619
 30
0.0
  0
ARC
  5
1CF
330
1F
100
AcDbEntity
  8
0
  6
Continuous
 62
     7
370
    25
100
AcDbCircle
 10
135.0103405376
 20
145.2370230303
 30
0.0
 40
1.004153181105785
100
AcDbArc
 50
30.8721849149
 51
90.236598371
  0
LINE
  5
1D0
330
1F
100
AcDbEntity
  8
0
  6
Continuous
 62
     7
370
    25
100
AcDbLine
 10
142.2948691132
 20
145.7522787611
 30
0.0
 11
142.2948691132
 21
149.2097619313
 31
0.0
  0
SPLINE
  5
1D1
330
1F
100
AcDbEntity
  8
0
  6
Continuous
 62
     7
370
    25
100
AcDbSpline
210
0.0
220
0.0
230
1.0
 70
    24
 71
     3
 72
     8
 73
     4
 74
     0
 42
0.000000001
 43
0.00000001
 40
0.0
 40
0.0
 40
0.0
 40
0.0
 40
1.0
 40
1.0
 40
1.0
 40
1.0
 10
142.2948691131928
 20
145.7522787610619
 30
0.0
 10
142.1301462523203
 20
145.7522787610619
 30
0.0
 10
141.8335023081979
 20
145.7522787610619
 30
0.0
 10
141.4567263082428
 20
145.7522787610619
 30
0.0
  0
ARC
  5
1D2
330
1F
100
AcDbEntity
  8
0
  6
Continuous
 62
     7
370
    25
100
AcDbCircle
 10
143.156747958
 20
145.2370230303
 30
0.0
 40
1.004153181105756
100
AcDbArc
 50
89.763401629
 51
149.1278150851
  0
SPLINE
  5
1D3
330
1F
100
AcDbEntity
  8
0
  6
Continuous
 62
     7
370
    25
100
AcDbSpline
210
0.0
220
0.0
230
1.0
 70
    24
 71
     3
 72
    10
 73
     6
 74
     0
 42
0.000000001
 43
0.00000001
 40
0.0
 40
0.0
 40
0.0
 40
0.0
 40
0.2854545417597268
 40
0.6722270544186806
 40
1.0
 40
1.0
 40
1.0
 40
1.0
 10
142.4336131203289
 20
167.7522787610619
 30
0.0
 10
142.4349528742937
 20
167.7522787610619
 30
0.0
 10
142.4381079085624
 20
167.7522787610619
 30
0.0
 10
142.3896992232716
 20
167.7522787610619
 30
0.0
 10
142.3246898900268
 20
167.7522787610619
 30
0.0
 10
142.2948691131928
 20
167.7522787610619
 30
0.0
  0
SPLINE
  5
1D4
330
1F
100
AcDbEntity
  8
0
  6
Continuous
 62
     7
370
    25
100
AcDbSpline
210
0.0
220
0.0
230
1.0
 70
    24
 71
     3
 72
    10
 73
     6
 74
     0
 42
0.000000001
 43
0.00000001
 40
0.0
 40
0.0
 40
0.0
 40
0.0
 40
0.2864458949397082
 40
0.6726818033057761
 40
1.0
 40
1.0
 40
1.0
 40
1.0
 10
135.7334636090355
 20
167.7522787610619
 30
0.0
 10
135.7321116857731
 20
167.7522787610619
 30
0.0
 10
135.7289368656967
 20
167.7522787610619
 30
0.0
 10
135.777383827788
 20
167.7522787610619
 30
0.0
 10
135.8423968934373
 20
167.7522787610619
 30
0.0
 10
135.8722193823824
 20
167.7522787610619
 30
0.0
  0
SPLINE
  5
1D5
330
1F
100
AcDbEntity
  8
0
  6
Continuous
 62
     7
370
    25
100
AcDbSpline
210
0.0
220
0.0
230
1.0
 70
    24
 71
     3
 72
    10
 73
     6
 74
     0
 42
0.000000001
 43
0.00000001
 40
0.0
 40
0.0
 40
0.0
 40
0.0
 40
0.3795704993404139
 40
0.8218183144803368
 40
1.0
 40
1.0
 40
1.0
 40
1.0
 10
142.2948691131928
 20
145.7522787610619
 30
0.0
 10
142.3244900538947
 20
145.7522787610619
 30
0.0
 10
142.3886231506532
 20
145.7522787610619
 30
0.0
 10
142.4335698491557
 20
145.7522787610619
 30
0.0
 10
142.4327112126178
 20
145.7522787610619
 30
0.0
 10
142.4324646200471
 20
145.7522787610619
 30
0.0
  0
SPLINE
  5
1D6
330
1F
100
AcDbEntity
  8
0
  6
Continuous
 62
     7
370
    25
100
AcDbSpline
210
0.0
220
0.0
230
1.0
 70
    24
 71
     3
 72
    10
 73
     6
 74
     0
 42
0.000000001
 43
0.00000001
 40
0.0
 40
0.0
 40
0.0
 40
0.0
 40
0.3789677778344669
 40
0.8205133459093359
 40
0.9999999999999999
 40
0.9999999999999999
 40
0.9999999999999999
 40
0.9999999999999999
 10
135.8722193823824
 20
145.7522787610619
 30
0.0
 10
135.842595713497
 20
145.7522787610619
 30
0.0
 10
135.7784567098746
 20
145.7522787610619
 30
0.0
 10
135.7334780879881
 20
145.7522787610619
 30
0.0
 10
135.7343556807652
 20
145.7522787610619
 30
0.0
 10
135.7346093168659
 20
145.7522787610619
 30
0.0
  0
SPLINE
  5
1D7
330
1F
100
AcDbEntity
  8
0
  6
Continuous
 62
     1
370
    25
100
AcDbSpline
210
0.0
220
0.0
230
1.0
 70
     8
 71
     3
 72
    11
 73
     7
 74
     0
 42
0.000000001
 43
0.00000001
 40
0.0
 40
0.0
 40
0.0
 40
0.0
 40
0.2214590894024998
 40
0.4438409462535868
 40
0.8931175455254328
 40
1.0
 40
1.0
 40
1.0
 40
1.0
 10
167.2545279287585
 20
145.3583393671225
 30
0.0
 10
167.2512400421705
 20
145.3091849291037
 30
0.0
 10
167.2446505691516
 20
145.2106712381926
 30
0.0
 10
167.1944977223062
 20
145.073818100468
 30
0.0
 10
167.1362379003982
 20
144.9992789649833
 30
0.0
 10
167.1423632033871
 20
145.0071371088096
 30
0.0
 10
167.1435403619956
 20
145.0086472841706
 30
0.0
  0
SPLINE
  5
1D8
330
1F
100
AcDbEntity
  8
0
  6
Continuous
 62
     1
370
    25
100
AcDbSpline
210
0.0
220
0.0
230
1.0
 70
     8
 71
     3
 72
    11
 73
     7
 74
     0
 42
0.000000001
 43
0.00000001
 40
0.0
 40
0.0
 40
0.0
 40
0.0
 40
0.1662360229812969
 40
0.4411727365363968
 40
0.7198462192821721
 40
1.0
 40
1.0
 40
1.0
 40
1.0
 10
167.1435403619964
 20
168.4959102379522
 30
0.0
 10
167.1431698707476
 20
168.4965160496408
 30
0.0
 10
167.1421866263508
 20
168.4981238094734
 30
0.0
 10
167.1849626605164
 20
168.4392167543475
 30
0.0
 10
167.2388633208266
 20
168.3291678498334
 30
0.0
 10
167.2492971799043
 20
168.2073089854126
 30
0.0
 10
167.2545279287585
 20
168.1462181550013
 30
0.0
  0
SPLINE
  5
1D9
330
1F
100
AcDbEntity
  8
0
  6
Continuous
 62
     1
370
    25
100
AcDbSpline
210
0.0
220
0.0
230
1.0
 70
     8
 71
     3
 72
    11
 73
     7
 74
     0
 42
0.000000001
 43
0.00000001
 40
0.0
 40
0.0
 40
0.0
 40
0.0
 40
0.2214590894024942
 40
0.4438409462535755
 40
0.8931175455254101
 40
1.0
 40
1.0
 40
1.0
 40
1.0
 10
110.9125605668168
 20
168.1462181550013
 30
0.0
 10
110.9158484534048
 20
168.1953725930202
 30
0.0
 10
110.9224379264236
 20
168.2938862839313
 30
0.0
 10
110.972590773269
 20
168.4307394216558
 30
0.0
 10
111.030850595177
 20
168.5052785571405
 30
0.0
 10
111.0247252921882
 20
168.4974204133142
 30
0.0
 10
111.0235481335796
 20
168.4959102379532
 30
0.0
  0
SPLINE
  5
1DA
330
1F
100
AcDbEntity
  8
0
  6
Continuous
 62
     1
370
    25
100
AcDbSpline
210
0.0
220
0.0
230
1.0
 70
     8
 71
     3
 72
    11
 73
     7
 74
     0
 42
0.000000001
 43
0.00000001
 40
0.0
 40
0.0
 40
0.0
 40
0.0
 40
0.1662360229812758
 40
0.4411727365363828
 40
0.7198462192821651
 40
1.0
 40
1.0
 40
1.0
 40
1.0
 10
111.0235481335788
 20
145.0086472841716
 30
0.0
 10
111.0239186248277
 20
145.008041472483
 30
0.0
 10
111.0249018692244
 20
145.0064337126504
 30
0.0
 10
110.9821258350589
 20
145.0653407677764
 30
0.0
 10
110.9282251747486
 20
145.1753896722904
 30
0.0
 10
110.917791315671
 20
145.2972485367112
 30
0.0
 10
110.9125605668168
 20
145.3583393671225
 30
0.0
  0
SPLINE
  5
1DB
330
1F
100
AcDbEntity
  8
0
  6
Continuous
 62
     1
370
    25
100
AcDbSpline
210
0.0
220
0.0
230
1.0
 70
     8
 71
     3
 72
    11
 73
     7
 74
     0
 42
0.000000001
 43
0.00000001
 40
0.0
 40
0.0
 40
0.0
 40
0.0
 40
0.2859779775639221
 40
0.5731721364200606
 40
0.8633329257011331
 40
1.0
 40
1.0
 40
1.0
 40
1.0
 10
143.1608945169772
 20
146.2411676499508
 30
0.0
 10
143.1578416847494
 20
146.1993585918934
 30
0.0
 10
143.1517230374847
 20
146.1155626739956
 30
0.0
 10
143.1220309278562
 20
146.0409701774942
 30
0.0
 10
143.1010830708584
 20
146.0028453019265
 30
0.0
 10
143.1029732107934
 20
146.0062617803756
 30
0.0
 10
143.1035784193961
 20
146.0073557111001
 30
0.0
  0
SPLINE
  5
1DC
330
1F
100
AcDbEntity
  8
0
  6
Continuous
 62
     1
370
    25
100
AcDbSpline
210
0.0
220
0.0
230
1.0
 70
     8
 71
     3
 72
    10
 73
     6
 74
     0
 42
0.000000001
 43
0.00000001
 40
0.0
 40
0.0
 40
0.0
 40
0.0
 40
0.1548409829509123
 40
0.5757567374092096
 40
1.0
 40
1.0
 40
1.0
 40
1.0
 10
143.1035784193964
 20
167.4972018110233
 30
0.0
 10
143.1030968222959
 20
167.4978971761905
 30
0.0
 10
143.1013060639964
 20
167.5004828041832
 30
0.0
 10
143.142086524193
 20
167.4386923250253
 30
0.0
 10
143.1546087521338
 20
167.3219771976656
 30
0.0
 10
143.1608945169772
 20
167.263389872173
 30
0.0
  0
SPLINE
  5
1DD
330
1F
100
AcDbEntity
  8
0
  6
Continuous
 62
     1
370
    25
100
AcDbSpline
210
0.0
220
0.0
230
1.0
 70
     8
 71
     3
 72
    10
 73
     6
 74
     0
 42
0.000000001
 43
0.00000001
 40
0.0
 40
0.0
 40
0.0
 40
0.0
 40
0.1548409829509123
 40
0.5757567374092096
 40
1.0
 40
1.0
 40
1.0
 40
1.0
 10
135.0635100761789
 20
167.4972018110233
 30
0.0
 10
135.0639916732794
 20
167.4978971761905
 30
0.0
 10
135.0657824315788
 20
167.5004828041832
 30
0.0
 10
135.0250019713822
 20
167.4386923250253
 30
0.0
 10
135.0124797434415
 20
167.3219771976656
 30
0.0
 10
135.006193978598
 20
167.263389872173
 30
0.0
  0
SPLINE
  5
1DE
330
1F
100
AcDbEntity
  8
0
  6
Continuous
 62
     1
370
    25
100
AcDbSpline
210
0.0
220
0.0
230
1.0
 70
     8
 71
     3
 72
    11
 73
     7
 74
     0
 42
0.000000001
 43
0.00000001
 40
0.0
 40
0.0
 40
0.0
 40
0.0
 40
0.2859779775639221
 40
0.5731721364200606
 40
0.8633329257011331
 40
1.0
 40
1.0
 40
1.0
 40
1.0
 10
135.006193978598
 20
146.2411676499508
 30
0.0
 10
135.0092468108259
 20
146.1993585918934
 30
0.0
 10
135.0153654580906
 20
146.1155626739956
 30
0.0
 10
135.0450575677191
 20
146.0409701774942
 30
0.0
 10
135.0660054247169
 20
146.0028453019265
 30
0.0
 10
135.0641152847819
 20
146.0062617803756
 30
0.0
 10
135.0635100761791
 20
146.0073557111001
 30
0.0
  0
CIRCLE
  5
1DF
330
1F
100
AcDbEntity
  8
0
  6
Continuous
 62
     7
370
    25
100
AcDbCircle
 10
216.0624026549
 20
104.1338185841
 30
0.0
 40
11.54999999999998
  0
CIRCLE
  5
1E0
330
1F
100
AcDbEntity
  8
0
  6
Continuous
 62
     7
370
    25
100
AcDbCircle
 10
216.0624026549
 20
104.1338185841
 30
0.0
 40
6.175000000000011
  0
CIRCLE
  5
1E1
330
1F
100
AcDbEntity
  8
0
  6
Continuous
 62
     7
370
    25
100
AcDbCircle
 10
216.0624026549
 20
104.1338185841
 30
0.0
 40
6.074999999999989
  0
CIRCLE
  5
1E2
330
1F
100
AcDbEntity
  8
0
  6
Continuous
 62
     7
370
    25
100
AcDbCircle
 10
216.0624026549
 20
104.1338185841
 30
0.0
 40
11.75
  0
LINE
  5
1E3
330
1F
100
AcDbEntity
  8
0
  6
Continuous
 62
     7
370
    25
100
AcDbLine
 10
228.0624026549
 20
107.1571652397
 30
0.0
 11
227.4563420488
 21
107.0044709641
 31
0.0
  0
SPLINE
  5
1E4
330
1F
100
AcDbEntity
  8
0
  6
Continuous
 62
     7
370
    25
100
AcDbSpline
210
0.0
220
0.0
230
1.0
 70
    24
 71
     3
 72
    12
 73
     8
 74
     0
 42
0.000000001
 43
0.00000001
 40
0.0
 40
0.0
 40
0.0
 40
0.0
 40
0.1952499241818975
 40
0.3910647929541103
 40
0.5887212893264686
 40
0.787031544902466
 40
1.0
 40
1.0
 40
1.0
 40
1.0
 10
228.0624026548672
 20
101.1104719284588
 30
0.0
 10
228.0624026548672
 20
101.5022750107759
 30
0.0
 10
228.0624026548672
 20
102.2870148354242
 30
0.0
 10
228.0624026548672
 20
103.4764658993837
 30
0.0
 10
228.0624026548672
 20
104.6735249627883
 30
0.0
 10
228.0624026548672
 20
105.9042434845271
 30
0.0
 10
228.0624026548672
 20
106.7297178675766
 30
0.0
 10
228.0624026548672
 20
107.1571652396828
 30
0.0
  0
LINE
  5
1E5
330
1F
100
AcDbEntity
  8
0
  6
Continuous
 62
     7
370
    25
100
AcDbLine
 10
227.4563420488
 20
101.263166204
 30
0.0
 11
228.0624026549
 21
101.1104719285
 31
0.0
  0
SPLINE
  5
1E6
330
1F
100
AcDbEntity
  8
0
  6
Continuous
 62
     7
370
    25
100
AcDbSpline
210
0.0
220
0.0
230
1.0
 70
    24
 71
     3
 72
    11
 73
     7
 74
     0
 42
0.000000001
 43
0.00000001
 40
0.0
 40
0.0
 40
0.0
 40
0.0
 40
0.2896312968534327
 40
0.5811875798131638
 40
0.7902304971769971
 40
1.0
 40
1.0
 40
1.0
 40
1.0
 10
212.6806976630739
 20
116.0377967572901
 30
0.0
 10
212.1768111044665
 20
115.746877717037
 30
0.0
 10
211.1656889892842
 20
115.163106091653
 30
0.0
 10
209.7797319081535
 20
114.3629233977769
 30
0.0
 10
208.5366178300044
 20
113.6452111501241
 30
0.0
 10
207.8086986563602
 20
113.2249468192723
 30
0.0
 10
207.4441076466606
 20
113.0144501016781
 30
0.0
  0
LINE
  5
1E7
330
1F
100
AcDbEntity
  8
0
  6
Continuous
 62
     7
370
    25
100
AcDbLine
 10
212.6806976631
 20
116.0377967573
 30
0.0
 11
212.8514908445
 21
115.4365857384
 31
0.0
  0
LINE
  5
1E8
330
1F
100
AcDbEntity
  8
0
  6
Continuous
 62
     7
370
    25
100
AcDbLine
 10
207.4441076467
 20
113.0144501017
 30
0.0
 11
207.8793750713
 21
112.5659333584
 31
0.0
  0
SPLINE
  5
1E9
330
1F
100
AcDbEntity
  8
0
  6
Continuous
 62
     7
370
    25
100
AcDbSpline
210
0.0
220
0.0
230
1.0
 70
    24
 71
     3
 72
    11
 73
     7
 74
     0
 42
0.000000001
 43
0.00000001
 40
0.0
 40
0.0
 40
0.0
 40
0.0
 40
0.2896312968534339
 40
0.5811875798131654
 40
0.7902304971769979
 40
0.9999999999999999
 40
0.9999999999999999
 40
0.9999999999999999
 40
0.9999999999999999
 10
224.6806976630739
 20
113.0144501016781
 30
0.0
 10
224.1768111044665
 20
113.3053691419311
 30
0.0
 10
223.1656889892842
 20
113.8891407673152
 30
0.0
 10
221.7797319081535
 20
114.6893234611913
 30
0.0
 10
220.5366178300044
 20
115.407035708844
 30
0.0
 10
219.8086986563602
 20
115.8273000396958
 30
0.0
 10
219.4441076466606
 20
116.03779675729
 30
0.0
  0
LINE
  5
1EA
330
1F
100
AcDbEntity
  8
0
  6
Continuous
 62
     7
370
    25
100
AcDbLine
 10
224.6806976631
 20
113.0144501017
 30
0.0
 11
224.2454302384
 21
112.5659333584
 31
0.0
  0
LINE
  5
1EB
330
1F
100
AcDbEntity
  8
0
  6
Continuous
 62
     7
370
    25
100
AcDbLine
 10
219.4441076467
 20
116.0377967573
 30
0.0
 11
219.2733144653
 21
115.4365857384
 31
0.0
  0
LINE
  5
1EC
330
1F
100
AcDbEntity
  8
0
  6
Continuous
 62
     7
370
    25
100
AcDbLine
 10
212.8514908445
 20
92.8310514297
 30
0.0
 11
212.6806976631
 21
92.2298404109
 31
0.0
  0
SPLINE
  5
1ED
330
1F
100
AcDbEntity
  8
0
  6
Continuous
 62
     7
370
    25
100
AcDbSpline
210
0.0
220
0.0
230
1.0
 70
    24
 71
     3
 72
    11
 73
     7
 74
     0
 42
0.000000001
 43
0.00000001
 40
0.0
 40
0.0
 40
0.0
 40
0.0
 40
0.2896312968534325
 40
0.5811875798131637
 40
0.7902304971769972
 40
1.0
 40
1.0
 40
1.0
 40
1.0
 10
207.4441076466605
 20
95.25318706646352
 30
0.0
 10
207.947994205268
 20
94.9622680262105
 30
0.0
 10
208.9591163204502
 20
94.37849640082644
 30
0.0
 10
210.3450734015809
 20
93.57831370695034
 30
0.0
 10
211.58818747973
 20
92.86060145929756
 30
0.0
 10
212.3161066533742
 20
92.44033712844578
 30
0.0
 10
212.6806976630739
 20
92.22984041085157
 30
0.0
  0
LINE
  5
1EE
330
1F
100
AcDbEntity
  8
0
  6
Continuous
 62
     7
370
    25
100
AcDbLine
 10
207.8793750713
 20
95.7017038098
 30
0.0
 11
207.4441076467
 21
95.2531870665
 31
0.0
  0
LINE
  5
1EF
330
1F
100
AcDbEntity
  8
0
  6
Continuous
 62
     7
370
    25
100
AcDbLine
 10
224.2454302384
 20
95.7017038098
 30
0.0
 11
224.6806976631
 21
95.2531870665
 31
0.0
  0
SPLINE
  5
1F0
330
1F
100
AcDbEntity
  8
0
  6
Continuous
 62
     7
370
    25
100
AcDbSpline
210
0.0
220
0.0
230
1.0
 70
    24
 71
     3
 72
    11
 73
     7
 74
     0
 42
0.000000001
 43
0.00000001
 40
0.0
 40
0.0
 40
0.0
 40
0.0
 40
0.2896312968534324
 40
0.5811875798131627
 40
0.7902304971769961
 40
1.0
 40
1.0
 40
1.0
 40
1.0
 10
219.4441076466606
 20
92.22984041085155
 30
0.0
 10
219.9479942052679
 20
92.52075945110458
 30
0.0
 10
220.9591163204502
 20
93.10453107648864
 30
0.0
 10
222.345073401581
 20
93.90471377036475
 30
0.0
 10
223.58818747973
 20
94.6224260180175
 30
0.0
 10
224.3161066533742
 20
95.0426903488693
 30
0.0
 10
224.6806976630739
 20
95.25318706646352
 30
0.0
  0
LINE
  5
1F1
330
1F
100
AcDbEntity
  8
0
  6
Continuous
 62
     7
370
    25
100
AcDbLine
 10
219.2733144653
 20
92.8310514297
 30
0.0
 11
219.4441076467
 21
92.2298404109
 31
0.0
  0
LINE
  5
1F2
330
1F
100
AcDbEntity
  8
0
  6
Continuous
 62
     7
370
    25
100
AcDbLine
 10
204.6684632609
 20
101.263166204
 30
0.0
 11
204.0624026549
 21
101.1104719285
 31
0.0
  0
SPLINE
  5
1F3
330
1F
100
AcDbEntity
  8
0
  6
Continuous
 62
     7
370
    25
100
AcDbSpline
210
0.0
220
0.0
230
1.0
 70
    24
 71
     3
 72
    12
 73
     8
 74
     0
 42
0.000000001
 43
0.00000001
 40
0.0
 40
0.0
 40
0.0
 40
0.0
 40
0.212968430553326
 40
0.4081624072255347
 40
0.6039782819844953
 40
0.8016837761222428
 40
1.0
 40
1.0
 40
1.0
 40
1.0
 10
204.0624026548672
 20
107.1571652396828
 30
0.0
 10
204.0624026548672
 20
106.7297183636451
 30
0.0
 10
204.0624026548672
 20
105.9104995459487
 30
0.0
 10
204.0624026548672
 20
104.6898567395617
 30
0.0
 10
204.0624026548672
 20
103.499009414263
 30
0.0
 10
204.0624026548672
 20
102.3031576859783
 30
0.0
 10
204.0624026548672
 20
101.5084423742806
 30
0.0
 10
204.0624026548672
 20
101.1104719284589
 30
0.0
  0
LINE
  5
1F4
330
1F
100
AcDbEntity
  8
0
  6
Continuous
 62
     7
370
    25
100
AcDbLine
 10
204.0624026549
 20
107.1571652397
 30
0.0
 11
204.6684632609
 21
107.0044709641
 31
0.0
  0
ARC
  5
1F5
330
1F
100
AcDbEntity
  8
0
  6
Continuous
 62
     7
370
    25
100
AcDbCircle
 10
216.0624026549
 20
104.1338185841
 30
0.0
 40
12.37500000000003
100
AcDbArc
 50
134.1411102339
 51
165.8588897661
  0
ARC
  5
1F6
330
1F
100
AcDbEntity
  8
0
  6
Continuous
 62
     7
370
    25
100
AcDbCircle
 10
216.0624026549
 20
104.1338185841
 30
0.0
 40
12.37500000000001
100
AcDbArc
 50
14.1411102339
 51
45.8588897661
  0
ARC
  5
1F7
330
1F
100
AcDbEntity
  8
0
  6
Continuous
 62
     7
370
    25
100
AcDbCircle
 10
216.0624026549
 20
104.1338185841
 30
0.0
 40
12.37500000000002
100
AcDbArc
 50
194.1411102339
 51
225.8588897661
  0
ARC
  5
1F8
330
1F
100
AcDbEntity
  8
0
  6
Continuous
 62
     7
370
    25
100
AcDbCircle
 10
216.0624026549
 20
104.1338185841
 30
0.0
 40
12.375
100
AcDbArc
 50
74.1411102339
 51
105.8588897661
  0
ARC
  5
1F9
330
1F
100
AcDbEntity
  8
0
  6
Continuous
 62
     7
370
    25
100
AcDbCircle
 10
216.0624026549
 20
104.1338185841
 30
0.0
 40
12.37500000000002
100
AcDbArc
 50
254.1411102339
 51
285.8588897661
  0
ARC
  5
1FA
330
1F
100
AcDbEntity
  8
0
  6
Continuous
 62
     7
370
    25
100
AcDbCircle
 10
216.0624026549
 20
104.1338185841
 30
0.0
 40
12.37500000000001
100
AcDbArc
 50
314.1411102339
 51
345.8588897661
  0
SPLINE
  5
1FB
330
1F
100
AcDbEntity
  8
0
  6
Continuous
 62
     7
370
    25
100
AcDbSpline
210
0.0
220
0.0
230
1.0
 70
    24
 71
     3
 72
     9
 73
     5
 74
     0
 42
0.000000001
 43
0.00000001
 40
0.0
 40
0.0
 40
0.0
 40
0.0
 40
0.4986680494787149
 40
1.0
 40
1.0
 40
1.0
 40
1.0
 10
219.4441076466606
 20
116.03779675729
 30
0.0
 10
218.8754764922539
 20
116.3660961073563
 30
0.0
 10
217.7351765372015
 20
117.0244485933628
 30
0.0
 10
216.6209833158067
 20
117.6677283496643
 30
0.0
 10
216.0624026548672
 20
117.9902250446218
 30
0.0
  0
SPLINE
  5
1FC
330
1F
100
AcDbEntity
  8
0
  6
Continuous
 62
     7
370
    25
100
AcDbSpline
210
0.0
220
0.0
230
1.0
 70
    24
 71
     3
 72
     9
 73
     5
 74
     0
 42
0.000000001
 43
0.00000001
 40
0.0
 40
0.0
 40
0.0
 40
0.0
 40
0.4988470384231429
 40
1.0
 40
1.0
 40
1.0
 40
1.0
 10
216.0624026548672
 20
117.9902250446218
 30
0.0
 10
215.5066043170841
 20
117.6693347246876
 30
0.0
 10
214.3924384606724
 20
117.0260707675664
 30
0.0
 10
213.2521543980806
 20
116.3677274570764
 30
0.0
 10
212.6806976630739
 20
116.0377967572901
 30
0.0
  0
SPLINE
  5
1FD
330
1F
100
AcDbEntity
  8
0
  6
Continuous
 62
     7
370
    25
100
AcDbSpline
210
0.0
220
0.0
230
1.0
 70
    24
 71
     3
 72
     9
 73
     5
 74
     0
 42
0.000000001
 43
0.00000001
 40
0.0
 40
0.0
 40
0.0
 40
0.0
 40
0.4986680494787146
 40
1.0
 40
1.0
 40
1.0
 40
1.0
 10
212.6806976630739
 20
92.22984041085157
 30
0.0
 10
213.2493288174806
 20
91.90154106078526
 30
0.0
 10
214.389628772533
 20
91.24318857477881
 30
0.0
 10
215.5038219939278
 20
90.59990881847729
 30
0.0
 10
216.0624026548672
 20
90.27741212351978
 30
0.0
  0
SPLINE
  5
1FE
330
1F
100
AcDbEntity
  8
0
  6
Continuous
 62
     7
370
    25
100
AcDbSpline
210
0.0
220
0.0
230
1.0
 70
    24
 71
     3
 72
     9
 73
     5
 74
     0
 42
0.000000001
 43
0.00000001
 40
0.0
 40
0.0
 40
0.0
 40
0.0
 40
0.4988470384231438
 40
1.0
 40
1.0
 40
1.0
 40
1.0
 10
216.0624026548672
 20
90.27741212351978
 30
0.0
 10
216.6182009926504
 20
90.59830244345405
 30
0.0
 10
217.7323668490621
 20
91.24156640057521
 30
0.0
 10
218.8726509116538
 20
91.89990971106519
 30
0.0
 10
219.4441076466606
 20
92.22984041085155
 30
0.0
  0
SPLINE
  5
1FF
330
1F
100
AcDbEntity
  8
0
  6
Continuous
 62
     7
370
    25
100
AcDbSpline
210
0.0
220
0.0
230
1.0
 70
    24
 71
     3
 72
     9
 73
     5
 74
     0
 42
0.000000001
 43
0.00000001
 40
0.0
 40
0.0
 40
0.0
 40
0.0
 40
0.4988470384231433
 40
1.0
 40
1.0
 40
1.0
 40
1.0
 10
228.0624026548672
 20
111.0620218143463
 30
0.0
 10
227.5066043170841
 20
111.3829121342806
 30
0.0
 10
226.3924384606724
 20
112.0261760914018
 30
0.0
 10
225.2521543980806
 20
112.6845194018917
 30
0.0
 10
224.6806976630739
 20
113.0144501016781
 30
0.0
  0
SPLINE
  5
200
330
1F
100
AcDbEntity
  8
0
  6
Continuous
 62
     7
370
    25
100
AcDbSpline
210
0.0
220
0.0
230
1.0
 70
    24
 71
     3
 72
     9
 73
     5
 74
     0
 42
0.000000001
 43
0.00000001
 40
0.0
 40
0.0
 40
0.0
 40
0.0
 40
0.4986680494787146
 40
1.0
 40
1.0
 40
1.0
 40
1.0
 10
228.0624026548672
 20
107.1571652396828
 30
0.0
 10
228.0624026548672
 20
107.8137639398154
 30
0.0
 10
228.0624026548672
 20
109.1304689118283
 30
0.0
 10
228.0624026548672
 20
110.4170284244313
 30
0.0
 10
228.0624026548672
 20
111.0620218143463
 30
0.0
  0
SPLINE
  5
201
330
1F
100
AcDbEntity
  8
0
  6
Continuous
 62
     7
370
    25
100
AcDbSpline
210
0.0
220
0.0
230
1.0
 70
    24
 71
     3
 72
    10
 73
     6
 74
     0
 42
0.000000001
 43
0.00000001
 40
0.0
 40
0.0
 40
0.0
 40
0.0
 40
0.2966942842518306
 40
0.5940284356736805
 40
1.0
 40
1.0
 40
1.0
 40
1.0
 10
204.0624026548672
 20
101.1104719284589
 30
0.0
 10
204.0624026548672
 20
100.7195434622083
 30
0.0
 10
204.0624026548672
 20
99.9368434319305
 30
0.0
 10
204.0624026548672
 20
98.63231812356051
 30
0.0
 10
204.0624026548672
 20
97.72775780246366
 30
0.0
 10
204.0624026548672
 20
97.2056153537953
 30
0.0
  0
SPLINE
  5
202
330
1F
100
AcDbEntity
  8
0
  6
Continuous
 62
     7
370
    25
100
AcDbSpline
210
0.0
220
0.0
230
1.0
 70
    24
 71
     3
 72
     9
 73
     5
 74
     0
 42
0.000000001
 43
0.00000001
 40
0.0
 40
0.0
 40
0.0
 40
0.0
 40
0.4988470384231424
 40
1.0
 40
1.0
 40
1.0
 40
1.0
 10
204.0624026548672
 20
97.2056153537953
 30
0.0
 10
204.6182009926504
 20
96.88472503386105
 30
0.0
 10
205.7323668490621
 20
96.24146107673987
 30
0.0
 10
206.8726509116538
 20
95.58311776624988
 30
0.0
 10
207.4441076466605
 20
95.25318706646352
 30
0.0
  0
SPLINE
  5
203
330
1F
100
AcDbEntity
  8
0
  6
Continuous
 62
     7
370
    25
100
AcDbSpline
210
0.0
220
0.0
230
1.0
 70
    24
 71
     3
 72
     9
 73
     5
 74
     0
 42
0.000000001
 43
0.00000001
 40
0.0
 40
0.0
 40
0.0
 40
0.0
 40
0.4988470384231428
 40
1.0
 40
1.0
 40
1.0
 40
1.0
 10
204.0624026548672
 20
111.0620218143463
 30
0.0
 10
204.0624026548672
 20
110.4202411744778
 30
0.0
 10
204.0624026548672
 20
109.1337132602355
 30
0.0
 10
204.0624026548672
 20
107.8170266392555
 30
0.0
 10
204.0624026548672
 20
107.1571652396828
 30
0.0
  0
SPLINE
  5
204
330
1F
100
AcDbEntity
  8
0
  6
Continuous
 62
     7
370
    25
100
AcDbSpline
210
0.0
220
0.0
230
1.0
 70
    24
 71
     3
 72
     9
 73
     5
 74
     0
 42
0.000000001
 43
0.00000001
 40
0.0
 40
0.0
 40
0.0
 40
0.0
 40
0.4986680494787146
 40
1.0
 40
1.0
 40
1.0
 40
1.0
 10
207.4441076466606
 20
113.0144501016781
 30
0.0
 10
206.8754764922539
 20
112.6861507516118
 30
0.0
 10
205.7351765372015
 20
112.0277982656054
 30
0.0
 10
204.6209833158067
 20
111.3845185093038
 30
0.0
 10
204.0624026548672
 20
111.0620218143463
 30
0.0
  0
SPLINE
  5
205
330
1F
100
AcDbEntity
  8
0
  6
Continuous
 62
     7
370
    25
100
AcDbSpline
210
0.0
220
0.0
230
1.0
 70
    24
 71
     3
 72
     9
 73
     5
 74
     0
 42
0.000000001
 43
0.00000001
 40
0.0
 40
0.0
 40
0.0
 40
0.0
 40
0.4986680494787152
 40
1.0
 40
1.0
 40
1.0
 40
1.0
 10
224.6806976630739
 20
95.25318706646352
 30
0.0
 10
225.2493288174806
 20
95.58148641652981
 30
0.0
 10
226.389628772533
 20
96.23983890253626
 30
0.0
 10
227.5038219939278
 20
96.88311865883779
 30
0.0
 10
228.0624026548672
 20
97.2056153537953
 30
0.0
  0
SPLINE
  5
206
330
1F
100
AcDbEntity
  8
0
  6
Continuous
 62
     7
370
    25
100
AcDbSpline
210
0.0
220
0.0
230
1.0
 70
    24
 71
     3
 72
    10
 73
     6
 74
     0
 42
0.000000001
 43
0.00000001
 40
0.0
 40
0.0
 40
0.0
 40
0.0
 40
0.4059715743866124
 40
0.7026896990791632
 40
1.0
 40
1.0
 40
1.0
 40
1.0
 10
228.0624026548672
 20
97.2056153537953
 30
0.0
 10
228.0624026548672
 20
97.7277577032623
 30
0.0
 10
228.0624026548672
 20
98.63152553719947
 30
0.0
 10
228.0624026548672
 20
99.93603574715925
 30
0.0
 10
228.0624026548672
 20
100.7187331157269
 30
0.0
 10
228.0624026548672
 20
101.1104719284588
 30
0.0
  0
CIRCLE
  5
207
330
1F
100
AcDbEntity
  8
0
  6
Continuous
 62
     7
370
    25
100
AcDbCircle
 10
216.0624026549
 20
104.1338185841
 30
0.0
 40
5.0
  0
ENDSEC
  0
SECTION
  2
OBJECTS
  0
DICTIONARY
  5
C
330
0
100
AcDbDictionary
281
     1
  3
ACAD_GROUP
350
D
  3
ACAD_LAYOUT
350
1A
  3
ACAD_MLINESTYLE
350
17
  3
ACAD_PLOTSETTINGS
350
19
  3
ACAD_PLOTSTYLENAME
350
E
  3
ACAD_SCALELIST
350
47
  0
DICTIONARY
  5
D
102
{ACAD_REACTORS
330
C
102
}
330
C
100
AcDbDictionary
281
     1
  0
DICTIONARY
  5
1A
102
{ACAD_REACTORS
330
C
102
}
330
C
100
AcDbDictionary
281
     1
  3
Layout1
350
1E
  3
Layout2
350
26
  3
Model
350
22
  0
DICTIONARY
  5
17
102
{ACAD_REACTORS
330
C
102
}
330
C
100
AcDbDictionary
281
     1
  3
Standard
350
18
  0
DICTIONARY
  5
19
102
{ACAD_REACTORS
330
C
102
}
330
C
100
AcDbDictionary
281
     1
  0
ACDBDICTIONARYWDFLT
  5
E
102
{ACAD_REACTORS
330
C
102
}
330
C
100
AcDbDictionary
281
     1
  3
Normal
350
F
100
AcDbDictionaryWithDefault
340
F
  0
DICTIONARY
  5
47
102
{ACAD_REACTORS
330
C
102
}
330
C
100
AcDbDictionary
281
     1
  3
A0
350
48
  3
A1
350
49
  3
A2
350
4A
  3
A3
350
4B
  3
A4
350
4C
  3
A5
350
4D
  3
A6
350
4E
  3
A7
350
4F
  3
A8
350
50
  3
A9
350
51
  3
B0
350
52
  3
B1
350
53
  3
B2
350
54
  3
B3
350
55
  3
B4
350
56
  3
B5
350
57
  3
B6
350
58
  3
B7
350
59
  3
B8
350
5A
  3
B9
350
5B
  3
C0
350
5C
  3
C1
350
5D
  3
C2
350
5E
  3
C3
350
5F
  3
C4
350
60
  3
C5
350
61
  3
C6
350
62
  3
C7
350
63
  3
C8
350
64
  3
C9
350
65
  3
D0
350
66
  3
D1
350
67
  3
D2
350
68
  0
LAYOUT
  5
1E
102
{ACAD_REACTORS
330
1A
102
}
330
1A
100
AcDbPlotSettings
  1

  2
none_device
  4

  6

 40
0.0
 41
0.0
 42
0.0
 43
0.0
 44
0.0
 45
0.0
 46
0.0
 47
0.0
 48
0.0
 49
0.0
140
0.0
141
0.0
142
1.0
143
1.0
 70
   688
 72
     1
 73
     0
 74
     5
  7

 75
    16
147
1.0
148
0.0
149
0.0
100
AcDbLayout
  1
Layout1
 70
     1
 71
     1
 10
0.0
 20
0.0
 11
420.0
 21
297.0
 12
0.0
 22
0.0
 32
0.0
 14
1.0000000000E+20
 24
1.0000000000E+20
 34
1.0000000000E+20
 15
-1.0000000000E+20
 25
-1.0000000000E+20
 35
-1.0000000000E+20
146
0.0
 13
0.0
 23
0.0
 33
0.0
 16
1.0
 26
0.0
 36
0.0
 17
0.0
 27
1.0
 37
0.0
 76
     0
330
1B
  0
LAYOUT
  5
26
102
{ACAD_REACTORS
330
1A
102
}
330
1A
100
AcDbPlotSettings
  1

  2
none_device
  4

  6

 40
0.0
 41
0.0
 42
0.0
 43
0.0
 44
0.0
 45
0.0
 46
0.0
 47
0.0
 48
0.0
 49
0.0
140
0.0
141
0.0
142
1.0
143
1.0
 70
   688
 72
     1
 73
     0
 74
     5
  7

 75
    16
147
1.0
148
0.0
149
0.0
100
AcDbLayout
  1
Layout2
 70
     1
 71
     2
 10
0.0
 20
0.0
 11
0.0
 21
0.0
 12
0.0
 22
0.0
 32
0.0
 14
0.0
 24
0.0
 34
0.0
 15
0.0
 25
0.0
 35
0.0
146
0.0
 13
0.0
 23
0.0
 33
0.0
 16
1.0
 26
0.0
 36
0.0
 17
0.0
 27
1.0
 37
0.0
 76
     0
330
23
  0
LAYOUT
  5
22
102
{ACAD_REACTORS
330
1A
102
}
330
1A
100
AcDbPlotSettings
  1

  2
none_device
  4
Letter_(8.50_x_11.00_Inches)
  6

 40
6.35
 41
6.35
 42
6.35000508
 43
6.35000508
 44
215.9
 45
279.4
 46
0.0
 47
0.0
 48
0.0
 49
0.0
140
0.0
141
0.0
142
1.0
143
1.0
 70
  1712
 72
     1
 73
     0
 74
     0
  7

 75
     0
147
1.0
148
0.0
149
0.0
100
AcDbLayout
  1
Model
 70
     1
 71
     0
 10
0.0
 20
0.0
 11
431.8
 21
279.4
 12
0.0
 22
0.0
 32
0.0
 14
0.0
 24
0.0
 34
0.0
 15
431.8
 25
279.4
 35
0.0
146
0.0
 13
0.0
 23
0.0
 33
0.0
 16
1.0
 26
0.0
 36
0.0
 17
0.0
 27
1.0
 37
0.0
 76
     0
330
1F
331
29
  0
MLINESTYLE
  5
18
102
{ACAD_REACTORS
330
17
102
}
330
17
100
AcDbMlineStyle
  2
Standard
 70
     0
  3

 62
   256
 51
90.0
 52
90.0
 71
     2
 49
0.5
 62
   256
  6
BYLAYER
 49
-0.5
 62
   256
  6
BYLAYER
  0
ACDBPLACEHOLDER
  5
F
102
{ACAD_REACTORS
330
E
102
}
330
E
  0
SCALE
  5
48
102
{ACAD_REACTORS
330
47
102
}
330
47
100
AcDbScale
 70
     0
300
1:1
140
1.0
141
1.0
290
     1
  0
SCALE
  5
49
102
{ACAD_REACTORS
330
47
102
}
330
47
100
AcDbScale
 70
     0
300
1:2
140
1.0
141
2.0
290
     0
  0
SCALE
  5
4A
102
{ACAD_REACTORS
330
47
102
}
330
47
100
AcDbScale
 70
     0
300
1:4
140
1.0
141
4.0
290
     0
  0
SCALE
  5
4B
102
{ACAD_REACTORS
330
47
102
}
330
47
100
AcDbScale
 70
     0
300
1:5
140
1.0
141
5.0
290
     0
  0
SCALE
  5
4C
102
{ACAD_REACTORS
330
47
102
}
330
47
100
AcDbScale
 70
     0
300
1:8
140
1.0
141
8.0
290
     0
  0
SCALE
  5
4D
102
{ACAD_REACTORS
330
47
102
}
330
47
100
AcDbScale
 70
     0
300
1:10
140
1.0
141
10.0
290
     0
  0
SCALE
  5
4E
102
{ACAD_REACTORS
330
47
102
}
330
47
100
AcDbScale
 70
     0
300
1:16
140
1.0
141
16.0
290
     0
  0
SCALE
  5
4F
102
{ACAD_REACTORS
330
47
102
}
330
47
100
AcDbScale
 70
     0
300
1:20
140
1.0
141
20.0
290
     0
  0
SCALE
  5
50
102
{ACAD_REACTORS
330
47
102
}
330
47
100
AcDbScale
 70
     0
300
1:30
140
1.0
141
30.0
290
     0
  0
SCALE
  5
51
102
{ACAD_REACTORS
330
47
102
}
330
47
100
AcDbScale
 70
     0
300
1:40
140
1.0
141
40.0
290
     0
  0
SCALE
  5
52
102
{ACAD_REACTORS
330
47
102
}
330
47
100
AcDbScale
 70
     0
300
1:50
140
1.0
141
50.0
290
     0
  0
SCALE
  5
53
102
{ACAD_REACTORS
330
47
102
}
330
47
100
AcDbScale
 70
     0
300
1:100
140
1.0
141
100.0
290
     0
  0
SCALE
  5
54
102
{ACAD_REACTORS
330
47
102
}
330
47
100
AcDbScale
 70
     0
300
2:1
140
2.0
141
1.0
290
     0
  0
SCALE
  5
55
102
{ACAD_REACTORS
330
47
102
}
330
47
100
AcDbScale
 70
     0
300
4:1
140
4.0
141
1.0
290
     0
  0
SCALE
  5
56
102
{ACAD_REACTORS
330
47
102
}
330
47
100
AcDbScale
 70
     0
300
8:1
140
8.0
141
1.0
290
     0
  0
SCALE
  5
57
102
{ACAD_REACTORS
330
47
102
}
330
47
100
AcDbScale
 70
     0
300
10:1
140
10.0
141
1.0
290
     0
  0
SCALE
  5
58
102
{ACAD_REACTORS
330
47
102
}
330
47
100
AcDbScale
 70
     0
300
100:1
140
100.0
141
1.0
290
     0
  0
SCALE
  5
59
102
{ACAD_REACTORS
330
47
102
}
330
47
100
AcDbScale
 70
     0
300
1/128" = 1'-0"
140
0.0078125
141
12.0
290
     0
  0
SCALE
  5
5A
102
{ACAD_REACTORS
330
47
102
}
330
47
100
AcDbScale
 70
     0
300
1/64" = 1'-0"
140
0.015625
141
12.0
290
     0
  0
SCALE
  5
5B
102
{ACAD_REACTORS
330
47
102
}
330
47
100
AcDbScale
 70
     0
300
1/32" = 1'-0"
140
0.03125
141
12.0
290
     0
  0
SCALE
  5
5C
102
{ACAD_REACTORS
330
47
102
}
330
47
100
AcDbScale
 70
     0
300
1/16" = 1'-0"
140
0.0625
141
12.0
290
     0
  0
SCALE
  5
5D
102
{ACAD_REACTORS
330
47
102
}
330
47
100
AcDbScale
 70
     0
300
3/32" = 1'-0"
140
0.09375
141
12.0
290
     0
  0
SCALE
  5
5E
102
{ACAD_REACTORS
330
47
102
}
330
47
100
AcDbScale
 70
     0
300
1/8" = 1'-0"
140
0.125
141
12.0
290
     0
  0
SCALE
  5
5F
102
{ACAD_REACTORS
330
47
102
}
330
47
100
AcDbScale
 70
     0
300
3/16" = 1'-0"
140
0.1875
141
12.0
290
     0
  0
SCALE
  5
60
102
{ACAD_REACTORS
330
47
102
}
330
47
100
AcDbScale
 70
     0
300
1/4" = 1'-0"
140
0.25
141
12.0
290
     0
  0
SCALE
  5
61
102
{ACAD_REACTORS
330
47
102
}
330
47
100
AcDbScale
 70
     0
300
3/8" = 1'-0"
140
0.375
141
12.0
290
     0
  0
SCALE
  5
62
102
{ACAD_REACTORS
330
47
102
}
330
47
100
AcDbScale
 70
     0
300
1/2" = 1'-0"
140
0.5
141
12.0
290
     0
  0
SCALE
  5
63
102
{ACAD_REACTORS
330
47
102
}
330
47
100
AcDbScale
 70
     0
300
3/4" = 1'-0"
140
0.75
141
12.0
290
     0
  0
SCALE
  5
64
102
{ACAD_REACTORS
330
47
102
}
330
47
100
AcDbScale
 70
     0
300
1" = 1'-0"
140
1.0
141
12.0
290
     0
  0
SCALE
  5
65
102
{ACAD_REACTORS
330
47
102
}
330
47
100
AcDbScale
 70
     0
300
1-1/2" = 1'-0"
140
1.5
141
12.0
290
     0
  0
SCALE
  5
66
102
{ACAD_REACTORS
330
47
102
}
330
47
100
AcDbScale
 70
     0
300
3" = 1'-0"
140
3.0
141
12.0
290
     0
  0
SCALE
  5
67
102
{ACAD_REACTORS
330
47
102
}
330
47
100
AcDbScale
 70
     0
300
6" = 1'-0"
140
6.0
141
12.0
290
     0
  0
SCALE
  5
68
102
{ACAD_REACTORS
330
47
102
}
330
47
100
AcDbScale
 70
     0
300
1'-0" = 1'-0"
140
12.0
141
12.0
290
     0
  0
ENDSEC
  0
EOF
