  0
SECTION
  2
HEADER
  9
$ACADVER
  1
AC1015
  9
$ACADMAINTVER
 70
     6
  9
$DWGCODEPAGE
  3
DOS932
  9
$INSBASE
 10
0.0
 20
0.0
 30
0.0
  9
$EXTMIN
 10
0.0
 20
0.0
 30
0.0
  9
$EXTMAX
 10
431.8
 20
279.4
 30
0.0
  9
$LIMMIN
 10
0.0
 20
0.0
  9
$LIMMAX
 10
431.8
 20
279.4
  9
$ORTHOMODE
 70
     0
  9
$REGENMODE
 70
     1
  9
$FILLMODE
 70
     1
  9
$QTEXTMODE
 70
     0
  9
$MIRRTEXT
 70
     1
  9
$LTSCALE
 40
1.0
  9
$ATTMODE
 70
     1
  9
$TEXTSIZE
 40
3.5
  9
$TRACEWID
 40
1.0
  9
$TEXTSTYLE
  7
Standard
  9
$CLAYER
  8
0
  9
$CELTYPE
  6
ByLayer
  9
$CECOLOR
 62
   256
  9
$CELTSCALE
 40
1.0
  9
$DISPSILH
 70
     0
  9
$DIMSCALE
 40
1.0
  9
$DIMASZ
 40
3.556
  9
$DIMEXO
 40
1.0
  9
$DIMDLI
 40
3.75
  9
$DIMRND
 40
0.0
  9
$DIMDLE
 40
0.0
  9
$DIMEXE
 40
1.0
  9
$DIMTP
 40
0.0
  9
$DIMTM
 40
0.0
  9
$DIMTXT
 40
3.5
  9
$DIMCEN
 40
2.5
  9
$DIMTSZ
 40
0.0
  9
$DIMTOL
 70
     0
  9
$DIMLIM
 70
     0
  9
$DIMTIH
 70
     1
  9
$DIMTOH
 70
     1
  9
$DIMSE1
 70
     0
  9
$DIMSE2
 70
     0
  9
$DIMTAD
 70
     1
  9
$DIMZIN
 70
     1
  9
$DIMBLK
  1

  9
$DIMASO
 70
     1
  9
$DIMSHO
 70
     1
  9
$DIMPOST
  1

  9
$DIMAPOST
  1

  9
$DIMALT
 70
     0
  9
$DIMALTD
 70
     3
  9
$DIMALTF
 40
0.0393700787
  9
$DIMLFAC
 40
1.0
  9
$DIMTOFL
 70
     1
  9
$DIMTVP
 40
0.0
  9
$DIMTIX
 70
     0
  9
$DIMSOXD
 70
     0
  9
$DIMSAH
 70
     0
  9
$DIMBLK1
  1

  9
$DIMBLK2
  1

  9
$DIMSTYLE
  2
ISO-25
  9
$DIMCLRD
 70
     0
  9
$DIMCLRE
 70
     0
  9
$DIMCLRT
 70
     0
  9
$DIMTFAC
 40
1.0
  9
$DIMGAP
 40
1.524
  9
$DIMJUST
 70
     0
  9
$DIMSD1
 70
     0
  9
$DIMSD2
 70
     0
  9
$DIMTOLJ
 70
     0
  9
$DIMTZIN
 70
     1
  9
$DIMALTZ
 70
     0
  9
$DIMALTTZ
 70
     0
  9
$DIMUPT
 70
     0
  9
$DIMDEC
 70
     2
  9
$DIMTDEC
 70
     2
  9
$DIMALTU
 70
     2
  9
$DIMALTTD
 70
     3
  9
$DIMTXSTY
  7
Standard
  9
$DIMAUNIT
 70
     0
  9
$DIMADEC
 70
     2
  9
$DIMALTRND
 40
0.0
  9
$DIMAZIN
 70
     0
  9
$DIMDSEP
 70
    44
  9
$DIMATFIT
 70
     3
  9
$DIMFRAC
 70
     0
  9
$DIMLDRBLK
  1

  9
$DIMLUNIT
 70
     2
  9
$DIMLWD
 70
    -2
  9
$DIMLWE
 70
    -2
  9
$DIMTMOVE
 70
     0
  9
$LUNITS
 70
     2
  9
$LUPREC
 70
     2
  9
$SKETCHINC
 40
1.0
  9
$FILLETRAD
 40
10.0
  9
$AUNITS
 70
     0
  9
$AUPREC
 70
     2
  9
$MENU
  1
.
  9
$ELEVATION
 40
0.0
  9
$PELEVATION
 40
0.0
  9
$THICKNESS
 40
0.0
  9
$LIMCHECK
 70
     0
  9
$CHAMFERA
 40
0.0
  9
$CHAMFERB
 40
0.0
  9
$CHAMFERC
 40
0.0
  9
$CHAMFERD
 40
0.0
  9
$SKPOLY
 70
     0
  9
$TDCREATE
 40
2459439.590588368
  9
$TDUCREATE
 40
2459439.215588368
  9
$TDUPDATE
 40
2459439.590589109
  9
$TDUUPDATE
 40
2459439.215589109
  9
$TDINDWG
 40
0.0000000116
  9
$TDUSRTIMER
 40
0.0000000116
  9
$USRTIMER
 70
     1
  9
$ANGBASE
 50
0.0
  9
$ANGDIR
 70
     0
  9
$PDMODE
 70
     0
  9
$PDSIZE
 40
-1.0
  9
$PLINEWID
 40
0.0
  9
$SPLFRAME
 70
     0
  9
$SPLINETYPE
 70
     6
  9
$SPLINESEGS
 70
     8
  9
$HANDSEED
  5
20A
  9
$SURFTAB1
 70
     6
  9
$SURFTAB2
 70
     6
  9
$SURFTYPE
 70
     6
  9
$SURFU
 70
     6
  9
$SURFV
 70
     6
  9
$UCSBASE
  2

  9
$UCSNAME
  2

  9
$UCSORG
 10
0.0
 20
0.0
 30
0.0
  9
$UCSXDIR
 10
1.0
 20
0.0
 30
0.0
  9
$UCSYDIR
 10
0.0
 20
1.0
 30
0.0
  9
$UCSORTHOREF
  2

  9
$UCSORTHOVIEW
 70
     0
  9
$UCSORGTOP
 10
0.0
 20
0.0
 30
0.0
  9
$UCSORGBOTTOM
 10
0.0
 20
0.0
 30
0.0
  9
$UCSORGLEFT
 10
0.0
 20
0.0
 30
0.0
  9
$UCSORGRIGHT
 10
0.0
 20
0.0
 30
0.0
  9
$UCSORGFRONT
 10
0.0
 20
0.0
 30
0.0
  9
$UCSORGBACK
 10
0.0
 20
0.0
 30
0.0
  9
$PUCSBASE
  2

  9
$PUCSNAME
  2

  9
$PUCSORG
 10
0.0
 20
0.0
 30
0.0
  9
$PUCSXDIR
 10
1.0
 20
0.0
 30
0.0
  9
$PUCSYDIR
 10
0.0
 20
1.0
 30
0.0
  9
$PUCSORTHOREF
  2

  9
$PUCSORTHOVIEW
 70
     0
  9
$PUCSORGTOP
 10
0.0
 20
0.0
 30
0.0
  9
$PUCSORGBOTTOM
 10
0.0
 20
0.0
 30
0.0
  9
$PUCSORGLEFT
 10
0.0
 20
0.0
 30
0.0
  9
$PUCSORGRIGHT
 10
0.0
 20
0.0
 30
0.0
  9
$PUCSORGFRONT
 10
0.0
 20
0.0
 30
0.0
  9
$PUCSORGBACK
 10
0.0
 20
0.0
 30
0.0
  9
$USERI1
 70
     0
  9
$USERI2
 70
     0
  9
$USERI3
 70
     0
  9
$USERI4
 70
     0
  9
$USERI5
 70
     0
  9
$USERR1
 40
0.0
  9
$USERR2
 40
0.0
  9
$USERR3
 40
0.0
  9
$USERR4
 40
0.0
  9
$USERR5
 40
0.0
  9
$WORLDVIEW
 70
     1
  9
$SHADEDGE
 70
     3
  9
$SHADEDIF
 70
    70
  9
$TILEMODE
 70
     1
  9
$MAXACTVP
 70
    64
  9
$PINSBASE
 10
0.0
 20
0.0
 30
0.0
  9
$PLIMCHECK
 70
     0
  9
$PEXTMIN
 10
1.0000000000E+20
 20
1.0000000000E+20
 30
1.0000000000E+20
  9
$PEXTMAX
 10
-1.0000000000E+20
 20
-1.0000000000E+20
 30
-1.0000000000E+20
  9
$PLIMMIN
 10
0.0
 20
0.0
  9
$PLIMMAX
 10
420.0
 20
297.0
  9
$UNITMODE
 70
     0
  9
$VISRETAIN
 70
     1
  9
$PLINEGEN
 70
     0
  9
$PSLTSCALE
 70
     1
  9
$TREEDEPTH
 70
  3020
  9
$CMLSTYLE
  2
Standard
  9
$CMLJUST
 70
     0
  9
$CMLSCALE
 40
20.0
  9
$PROXYGRAPHICS
 70
     1
  9
$MEASUREMENT
 70
     1
  9
$CELWEIGHT
370
    -1
  9
$ENDCAPS
280
     0
  9
$JOINSTYLE
280
     0
  9
$LWDISPLAY
290
     1
  9
$INSUNITS
 70
     4
  9
$HYPERLINKBASE
  1

  9
$STYLESHEET
  1

  9
$XEDIT
290
     1
  9
$CEPSNTYPE
380
     0
  9
$PSTYLEMODE
290
     1
  9
$FINGERPRINTGUID
  2
{8F71CAFF-3A56-432F-BCF3-8AA511375058}
  9
$VERSIONGUID
  2
{FAEB1C32-E019-11D5-929B-00C0DF256EC4}
  9
$EXTNAMES
290
     1
  9
$PSVPSCALE
 40
0.0
  9
$OLESTARTUP
290
     0
  0
ENDSEC
  0
SECTION
  2
CLASSES
  0
CLASS
  1
ACDBDICTIONARYWDFLT
  2
AcDbDictionaryWithDefault
  3
ObjectDBX Classes
 90
        0
280
     0
281
     0
  0
CLASS
  1
VISUALSTYLE
  2
AcDbVisualStyle
  3
ObjectDBX Classes
 90
     4095
280
     0
281
     0
  0
CLASS
  1
MATERIAL
  2
AcDbMaterial
  3
ObjectDBX Classes
 90
     1153
280
     0
281
     0
  0
CLASS
  1
SCALE
  2
AcDbScale
  3
ObjectDBX Classes
 90
     1153
280
     0
281
     0
  0
CLASS
  1
TABLESTYLE
  2
AcDbTableStyle
  3
ObjectDBX Classes
 90
     4095
280
     0
281
     0
  0
CLASS
  1
MLEADERSTYLE
  2
AcDbMLeaderStyle
  3
ACDB_MLEADERSTYLE_CLASS
 90
     4095
280
     0
281
     0
  0
CLASS
  1
SUN
  2
AcDbSun
  3
SCENEOE
 90
     1153
280
     0
281
     0
  0
CLASS
  1
ACDBPLACEHOLDER
  2
AcDbPlaceHolder
  3
ObjectDBX Classes
 90
        0
280
     0
281
     0
  0
CLASS
  1
LAYOUT
  2
AcDbLayout
  3
ObjectDBX Classes
 90
        0
280
     0
281
     0
  0
ENDSEC
  0
SECTION
  2
TABLES
  0
TABLE
  2
VPORT
  5
8
330
0
100
AcDbSymbolTable
 70
     1
  0
VPORT
  5
29
330
8
100
AcDbSymbolTableRecord
100
AcDbViewportTableRecord
  2
*Active
 70
     0
 10
0.0
 20
0.0
 11
1.0
 21
1.0
 12
215.9
 22
139.7
 13
0.0
 23
0.0
 14
10.0
 24
10.0
 15
10.0
 25
10.0
 16
0.0
 26
0.0
 36
1.0
 17
0.0
 27
0.0
 37
0.0
 40
279.4
 41
1.5454545455
 42
50.0
 43
0.0
 44
0.0
 50
0.0
 51
0.0
 71
     0
 72
  2000
 73
     1
 74
     3
 75
     0
 76
     0
 77
     0
 78
     0
281
     0
 65
     1
110
0.0
120
0.0
130
0.0
111
1.0
121
0.0
131
0.0
112
0.0
122
1.0
132
0.0
 79
     0
146
0.0
  0
ENDTAB
  0
TABLE
  2
LTYPE
  5
5
330
0
100
AcDbSymbolTable
 70
     6
  0
LTYPE
  5
14
330
5
100
AcDbSymbolTableRecord
100
AcDbLinetypeTableRecord
  2
ByBlock
 70
     0
  3

 72
    65
 73
     0
 40
0.0
  0
LTYPE
  5
15
330
5
100
AcDbSymbolTableRecord
100
AcDbLinetypeTableRecord
  2
ByLayer
 70
     0
  3

 72
    65
 73
     0
 40
0.0
  0
LTYPE
  5
16
330
5
100
AcDbSymbolTableRecord
100
AcDbLinetypeTableRecord
  2
Continuous
 70
     0
  3
Solid line
 72
    65
 73
     0
 40
0.0
  0
LTYPE
  5
6E
330
5
100
AcDbSymbolTableRecord
100
AcDbLinetypeTableRecord
  2
HIDDEN
 70
     0
  3
Hidden __ __ __ __ __ __ __ __ __ __ __ __ __ __
 72
    65
 73
     2
 40
1.905
 49
1.27
 74
     0
 49
-0.635
 74
     0
  0
LTYPE
  5
6F
330
5
100
AcDbSymbolTableRecord
100
AcDbLinetypeTableRecord
  2
PHANTOM
 70
     0
  3
Phantom ______  __  __  ______  __  __  ______
 72
    65
 73
     6
 40
12.7
 49
6.35
 74
     0
 49
-1.27
 74
     0
 49
1.27
 74
     0
 49
-1.27
 74
     0
 49
1.27
 74
     0
 49
-1.27
 74
     0
  0
LTYPE
  5
70
330
5
100
AcDbSymbolTableRecord
100
AcDbLinetypeTableRecord
  2
CENTER
 70
     0
  3
Center ____ _ ____ _ ____ _ ____ _ ____ _ ____
 72
    65
 73
     4
 40
10.16
 49
6.35
 74
     0
 49
-1.27
 74
     0
 49
1.27
 74
     0
 49
-1.27
 74
     0
  0
LTYPE
  5
71
330
5
100
AcDbSymbolTableRecord
100
AcDbLinetypeTableRecord
  2
CENTERX2
 70
     0
  3
Center (2x) ________  __  ________  __  _____
 72
    65
 73
     4
 40
20.32
 49
12.7
 74
     0
 49
-2.54
 74
     0
 49
2.54
 74
     0
 49
-2.54
 74
     0
  0
LTYPE
  5
72
330
5
100
AcDbSymbolTableRecord
100
AcDbLinetypeTableRecord
  2
DOT2
 70
     0
  3
Dot (.5x) ........................................
 72
    65
 73
     2
 40
0.635
 49
0.0
 74
     0
 49
-0.635
 74
     0
  0
ENDTAB
  0
TABLE
  2
LAYER
  5
2
330
0
100
AcDbSymbolTable
 70
     1
  0
LAYER
  5
10
330
2
100
AcDbSymbolTableRecord
100
AcDbLayerTableRecord
  2
0
 70
     0
 62
     7
  6
Continuous
370
    -3
390
F
  0
ENDTAB
  0
TABLE
  2
STYLE
  5
3
330
0
100
AcDbSymbolTable
 70
     2
  0
STYLE
  5
11
330
3
100
AcDbSymbolTableRecord
100
AcDbTextStyleTableRecord
  2
Standard
 70
     0
 40
0.0
 41
1.0
 50
0.0
 71
     0
 42
3.5
  3
txt
  4
bigfont
  0
STYLE
  5
12E
330
3
100
AcDbSymbolTableRecord
100
AcDbTextStyleTableRecord
  2
SLDTEXTSTYLE0
 70
     0
 40
0.0
 41
0.7
 50
0.0
 71
     0
 42
3.5
  3
TXT
  4
bigfont
  0
ENDTAB
  0
TABLE
  2
VIEW
  5
6
330
0
100
AcDbSymbolTable
 70
     0
  0
ENDTAB
  0
TABLE
  2
UCS
  5
7
330
0
100
AcDbSymbolTable
 70
     0
  0
ENDTAB
  0
TABLE
  2
APPID
  5
9
330
0
100
AcDbSymbolTable
 70
     1
  0
APPID
  5
12
330
9
100
AcDbSymbolTableRecord
100
AcDbRegAppTableRecord
  2
ACAD
 70
     0
  0
ENDTAB
  0
TABLE
  2
DIMSTYLE
  5
A
330
0
100
AcDbSymbolTable
 70
     1
100
AcDbDimStyleTable
  0
DIMSTYLE
105
27
330
A
100
AcDbSymbolTableRecord
100
AcDbDimStyleTableRecord
  2
ISO-25
 70
     0
 41
2.5
 42
0.625
 43
3.75
 44
1.25
 73
     0
 74
     0
 77
     1
 78
     8
140
2.5
141
2.5
143
0.0393700787
147
0.625
171
     3
172
     1
178
     0
271
     2
272
     2
274
     3
278
    44
283
     0
284
     8
340
11
  0
ENDTAB
  0
TABLE
  2
BLOCK_RECORD
  5
1
330
0
100
AcDbSymbolTable
 70
     1
  0
BLOCK_RECORD
  5
1F
330
1
100
AcDbSymbolTableRecord
100
AcDbBlockTableRecord
  2
*Model_Space
340
22
  0
BLOCK_RECORD
  5
1B
330
1
100
AcDbSymbolTableRecord
100
AcDbBlockTableRecord
  2
*Paper_Space
340
1E
  0
BLOCK_RECORD
  5
23
330
1
100
AcDbSymbolTableRecord
100
AcDbBlockTableRecord
  2
*Paper_Space0
340
26
  0
ENDTAB
  0
ENDSEC
  0
SECTION
  2
BLOCKS
  0
BLOCK
  5
20
330
1F
100
AcDbEntity
  8
0
100
AcDbBlockBegin
  2
*Model_Space
 70
     0
 10
0.0
 20
0.0
 30
0.0
  3
*Model_Space
  1

  0
ENDBLK
  5
21
330
1F
100
AcDbEntity
  8
0
100
AcDbBlockEnd
  0
BLOCK
  5
1C
330
1B
100
AcDbEntity
 67
     1
  8
0
100
AcDbBlockBegin
  2
*Paper_Space
 70
     0
 10
0.0
 20
0.0
 30
0.0
  3
*Paper_Space
  1

  0
ENDBLK
  5
1D
330
1B
100
AcDbEntity
 67
     1
  8
0
100
AcDbBlockEnd
  0
BLOCK
  5
24
330
23
100
AcDbEntity
  8
0
100
AcDbBlockBegin
  2
*Paper_Space0
 70
     0
 10
0.0
 20
0.0
 30
0.0
  3
*Paper_Space0
  1

  0
ENDBLK
  5
25
330
23
100
AcDbEntity
  8
0
100
AcDbBlockEnd
  0
ENDSEC
  0
SECTION
  2
ENTITIES
  0
LINE
  5
73
330
1F
100
AcDbEntity
  8
0
  6
Continuous
 62
     7
370
    25
100
AcDbLine
 10
132.6919343677
 20
85.1885514267
 30
0.0
 11
133.7740941085
 21
87.0629070796
 31
0.0
  0
LINE
  5
74
330
1F
100
AcDbEntity
  8
0
  6
Continuous
 62
     7
370
    25
100
AcDbLine
 10
133.7740941085
 20
107.5629070796
 30
0.0
 11
132.6919343677
 21
109.4372627326
 31
0.0
  0
LINE
  5
75
330
1F
100
AcDbEntity
  8
0
  6
Continuous
 62
     7
370
    25
100
AcDbLine
 10
118.9740941085
 20
107.5629070796
 30
0.0
 11
118.7740941085
 21
107.3629070796
 31
0.0
  0
LINE
  5
76
330
1F
100
AcDbEntity
  8
0
  6
Continuous
 62
     7
370
    25
100
AcDbLine
 10
118.7740941085
 20
87.2629070796
 30
0.0
 11
118.9740941085
 21
87.0629070796
 31
0.0
  0
LINE
  5
77
330
1F
100
AcDbEntity
  8
0
  6
Continuous
 62
     7
370
    25
100
AcDbLine
 10
118.9740941085
 20
87.0629070796
 30
0.0
 11
119.6967438393
 21
87.0629070796
 31
0.0
  0
LINE
  5
78
330
1F
100
AcDbEntity
  8
0
  6
Continuous
 62
     7
370
    25
100
AcDbLine
 10
119.6967438393
 20
107.5629070796
 30
0.0
 11
118.9740941085
 21
107.5629070796
 31
0.0
  0
ARC
  5
79
330
1F
100
AcDbEntity
  8
0
  6
Continuous
 62
     7
370
    25
100
AcDbCircle
 10
119.6967438393
 20
108.5629070796
 30
0.0
 40
1.0
100
AcDbArc
 50
270.0
 51
330.0
  0
ARC
  5
7A
330
1F
100
AcDbEntity
  8
0
  6
Continuous
 62
     7
370
    25
100
AcDbCircle
 10
119.6967438393
 20
86.0629070796
 30
0.0
 40
1.0
100
AcDbArc
 50
30.0
 51
90.0
  0
LINE
  5
7B
330
1F
100
AcDbEntity
  8
0
  6
Continuous
 62
     7
370
    25
100
AcDbLine
 10
121.3562538493
 20
109.4372627326
 30
0.0
 11
120.5627692431
 21
108.0629070796
 31
0.0
  0
LINE
  5
7C
330
1F
100
AcDbEntity
  8
0
  6
Continuous
 62
     7
370
    25
100
AcDbLine
 10
120.5627692431
 20
86.5629070796
 30
0.0
 11
121.3562538493
 21
85.1885514267
 31
0.0
  0
LINE
  5
7D
330
1F
100
AcDbEntity
  8
0
  6
Continuous
 62
     7
370
    25
100
AcDbLine
 10
152.620870942
 20
109.4372627326
 30
0.0
 11
151.5387112012
 21
107.5629070796
 31
0.0
  0
LINE
  5
7E
330
1F
100
AcDbEntity
  8
0
  6
Continuous
 62
     7
370
    25
100
AcDbLine
 10
151.5387112012
 20
87.0629070796
 30
0.0
 11
152.620870942
 21
85.1885514267
 31
0.0
  0
LINE
  5
7F
330
1F
100
AcDbEntity
  8
0
  6
Continuous
 62
     7
370
    25
100
AcDbLine
 10
166.3387112012
 20
107.5629070796
 30
0.0
 11
165.6160614704
 21
107.5629070796
 31
0.0
  0
LINE
  5
80
330
1F
100
AcDbEntity
  8
0
  6
Continuous
 62
     7
370
    25
100
AcDbLine
 10
165.6160614704
 20
87.0629070796
 30
0.0
 11
166.3387112012
 21
87.0629070796
 31
0.0
  0
LINE
  5
81
330
1F
100
AcDbEntity
  8
0
  6
Continuous
 62
     7
370
    25
100
AcDbLine
 10
166.3387112012
 20
87.0629070796
 30
0.0
 11
166.5387112012
 21
87.2629070796
 31
0.0
  0
LINE
  5
82
330
1F
100
AcDbEntity
  8
0
  6
Continuous
 62
     7
370
    25
100
AcDbLine
 10
166.5387112012
 20
107.3629070796
 30
0.0
 11
166.3387112012
 21
107.5629070796
 31
0.0
  0
ARC
  5
83
330
1F
100
AcDbEntity
  8
0
  6
Continuous
 62
     7
370
    25
100
AcDbCircle
 10
165.6160614704
 20
108.5629070796
 30
0.0
 40
1.000000000000008
100
AcDbArc
 50
210.0
 51
270.0
  0
LINE
  5
84
330
1F
100
AcDbEntity
  8
0
  6
Continuous
 62
     7
370
    25
100
AcDbLine
 10
164.7500360666
 20
108.0629070796
 30
0.0
 11
163.9565514604
 21
109.4372627326
 31
0.0
  0
ARC
  5
85
330
1F
100
AcDbEntity
  8
0
  6
Continuous
 62
     7
370
    25
100
AcDbCircle
 10
165.6160614704
 20
86.0629070796
 30
0.0
 40
1.000000000000008
100
AcDbArc
 50
90.0
 51
150.0
  0
LINE
  5
86
330
1F
100
AcDbEntity
  8
0
  6
Continuous
 62
     7
370
    25
100
AcDbLine
 10
163.9565514604
 20
85.1885514267
 30
0.0
 11
164.7500360666
 21
86.5629070796
 31
0.0
  0
LINE
  5
87
330
1F
100
AcDbEntity
  8
0
  6
Continuous
 62
     7
370
    25
100
AcDbLine
 10
149.6564026549
 20
88.9819070796
 30
0.0
 11
151.5387112012
 21
88.9819070796
 31
0.0
  0
LINE
  5
88
330
1F
100
AcDbEntity
  8
0
  6
Continuous
 62
     7
370
    25
100
AcDbLine
 10
151.5387112012
 20
105.6439070796
 30
0.0
 11
149.6564026549
 21
105.6439070796
 31
0.0
  0
LINE
  5
89
330
1F
100
AcDbEntity
  8
0
  6
Continuous
 62
     7
370
    25
100
AcDbLine
 10
135.6564026549
 20
105.6439070796
 30
0.0
 11
133.7740941085
 21
105.6439070796
 31
0.0
  0
LINE
  5
8A
330
1F
100
AcDbEntity
  8
0
  6
Continuous
 62
     7
370
    25
100
AcDbLine
 10
133.7740941085
 20
88.9819070796
 30
0.0
 11
135.6564026549
 21
88.9819070796
 31
0.0
  0
LINE
  5
8B
330
1F
100
AcDbEntity
  8
0
  6
Continuous
 62
     7
370
    25
100
AcDbLine
 10
149.6564026549
 20
105.6439070796
 30
0.0
 11
148.6564026549
 21
104.6439070796
 31
0.0
  0
LINE
  5
8C
330
1F
100
AcDbEntity
  8
0
  6
Continuous
 62
     7
370
    25
100
AcDbLine
 10
148.6564026549
 20
89.9819070796
 30
0.0
 11
149.6564026549
 21
88.9819070796
 31
0.0
  0
LINE
  5
8D
330
1F
100
AcDbEntity
  8
0
  6
Continuous
 62
     7
370
    25
100
AcDbLine
 10
135.6564026549
 20
88.9819070796
 30
0.0
 11
136.6564026549
 21
89.9819070796
 31
0.0
  0
LINE
  5
8E
330
1F
100
AcDbEntity
  8
0
  6
Continuous
 62
     7
370
    25
100
AcDbLine
 10
136.6564026549
 20
104.6439070796
 30
0.0
 11
135.6564026549
 21
105.6439070796
 31
0.0
  0
LINE
  5
8F
330
1F
100
AcDbEntity
  8
0
  6
Continuous
 62
     7
370
    25
100
AcDbLine
 10
146.4564026549
 20
89.0629070796
 30
0.0
 11
146.6564026549
 21
89.2629070796
 31
0.0
  0
LINE
  5
90
330
1F
100
AcDbEntity
  8
0
  6
Continuous
 62
     7
370
    25
100
AcDbLine
 10
146.6564026549
 20
105.3629070796
 30
0.0
 11
146.4564026549
 21
105.5629070796
 31
0.0
  0
LINE
  5
91
330
1F
100
AcDbEntity
  8
0
  6
Continuous
 62
     7
370
    25
100
AcDbLine
 10
138.8564026549
 20
105.5629070796
 30
0.0
 11
138.6564026549
 21
105.3629070796
 31
0.0
  0
LINE
  5
92
330
1F
100
AcDbEntity
  8
0
  6
Continuous
 62
     7
370
    25
100
AcDbLine
 10
138.6564026549
 20
89.2629070796
 30
0.0
 11
138.8564026549
 21
89.0629070796
 31
0.0
  0
LINE
  5
93
330
1F
100
AcDbEntity
  8
0
  6
Continuous
 62
     7
370
    25
100
AcDbLine
 10
146.4564026549
 20
105.5629070796
 30
0.0
 11
146.0894153568
 21
105.5629070796
 31
0.0
  0
LINE
  5
94
330
1F
100
AcDbEntity
  8
0
  6
Continuous
 62
     7
370
    25
100
AcDbLine
 10
146.0894153568
 20
89.0629070796
 30
0.0
 11
146.4564026549
 21
89.0629070796
 31
0.0
  0
LINE
  5
95
330
1F
100
AcDbEntity
  8
0
  6
Continuous
 62
     7
370
    25
100
AcDbLine
 10
138.8564026549
 20
89.0629070796
 30
0.0
 11
139.223389953
 21
89.0629070796
 31
0.0
  0
LINE
  5
96
330
1F
100
AcDbEntity
  8
0
  6
Continuous
 62
     7
370
    25
100
AcDbLine
 10
139.223389953
 20
105.5629070796
 30
0.0
 11
138.8564026549
 21
105.5629070796
 31
0.0
  0
LINE
  5
97
330
1F
100
AcDbEntity
  8
0
  6
Continuous
 62
     7
370
    25
100
AcDbLine
 10
146.6564026549
 20
90.3129070796
 30
0.0
 11
148.6564026549
 21
90.3129070796
 31
0.0
  0
LINE
  5
98
330
1F
100
AcDbEntity
  8
0
  6
Continuous
 62
     7
370
    25
100
AcDbLine
 10
148.6564026549
 20
104.3129070796
 30
0.0
 11
146.6564026549
 21
104.3129070796
 31
0.0
  0
LINE
  5
99
330
1F
100
AcDbEntity
  8
0
  6
Continuous
 62
     7
370
    25
100
AcDbLine
 10
138.6564026549
 20
104.3129070796
 30
0.0
 11
136.6564026549
 21
104.3129070796
 31
0.0
  0
LINE
  5
9A
330
1F
100
AcDbEntity
  8
0
  6
Continuous
 62
     7
370
    25
100
AcDbLine
 10
136.6564026549
 20
90.3129070796
 30
0.0
 11
138.6564026549
 21
90.3129070796
 31
0.0
  0
ARC
  5
9B
330
1F
100
AcDbEntity
  8
0
  6
Continuous
 62
     7
370
    25
100
AcDbCircle
 10
146.0894153568
 20
106.3129070796
 30
0.0
 40
0.75
100
AcDbArc
 50
210.0
 51
270.0
  0
LINE
  5
9C
330
1F
100
AcDbEntity
  8
0
  6
Continuous
 62
     7
370
    25
100
AcDbLine
 10
140.5599296007
 20
107.1278616559
 30
0.0
 11
139.8729090058
 21
105.9379070796
 31
0.0
  0
LINE
  5
9D
330
1F
100
AcDbEntity
  8
0
  6
Continuous
 62
     7
370
    25
100
AcDbLine
 10
145.4398963039
 20
105.9379070796
 30
0.0
 11
144.752875709
 21
107.1278616559
 31
0.0
  0
ARC
  5
9E
330
1F
100
AcDbEntity
  8
0
  6
Continuous
 62
     7
370
    25
100
AcDbCircle
 10
139.223389953
 20
106.3129070796
 30
0.0
 40
0.7500000000000123
100
AcDbArc
 50
270.0
 51
330.0
  0
LINE
  5
9F
330
1F
100
AcDbEntity
  8
0
  6
Continuous
 62
     7
370
    25
100
AcDbLine
 10
139.8729090058
 20
88.6879070796
 30
0.0
 11
140.5599296007
 21
87.4979525034
 31
0.0
  0
ARC
  5
A0
330
1F
100
AcDbEntity
  8
0
  6
Continuous
 62
     7
370
    25
100
AcDbCircle
 10
146.0894153568
 20
88.3129070796
 30
0.0
 40
0.75
100
AcDbArc
 50
90.0
 51
150.0
  0
ARC
  5
A1
330
1F
100
AcDbEntity
  8
0
  6
Continuous
 62
     7
370
    25
100
AcDbCircle
 10
139.223389953
 20
88.3129070796
 30
0.0
 40
0.7500000000000123
100
AcDbArc
 50
30.0
 51
90.0
  0
LINE
  5
A2
330
1F
100
AcDbEntity
  8
0
  6
Continuous
 62
     7
370
    25
100
AcDbLine
 10
144.752875709
 20
87.4979525034
 30
0.0
 11
145.4398963039
 21
88.6879070796
 31
0.0
  0
SPLINE
  5
A3
330
1F
100
AcDbEntity
  8
0
  6
Continuous
 62
     7
370
    25
100
AcDbSpline
210
0.0
220
0.0
230
1.0
 70
     8
 71
     3
 72
    15
 73
    11
 74
     0
 42
0.000000001
 43
0.00000001
 40
0.0
 40
0.0
 40
0.0
 40
0.0
 40
0.1323060649947139
 40
0.2645747216258911
 40
0.3998023269484416
 40
0.5350055300348283
 40
0.6501955637891816
 40
0.765403565940611
 40
0.8826904433746946
 40
0.9999999999999999
 40
0.9999999999999999
 40
0.9999999999999999
 40
0.9999999999999999
 10
132.6919343676849
 20
109.4372627326282
 30
0.0
 10
132.8346981167121
 20
109.1753508866212
 30
0.0
 10
133.1201852495859
 20
108.651601247853
 30
0.0
 10
133.4273576362764
 20
107.8450729815499
 30
0.0
 10
133.6120503482251
 20
107.0233414084567
 30
0.0
 10
133.6486246485579
 20
106.2313791897334
 30
0.0
 10
133.553724828732
 20
105.4822061734849
 30
0.0
 10
133.3592773930651
 20
104.7751748999835
 30
0.0
 10
133.0740462252406
 20
104.0713403718103
 30
0.0
 10
132.8193131954904
 20
103.6071850184913
 30
0.0
 10
132.6919343676849
 20
103.3750849061369
 30
0.0
  0
SPLINE
  5
A4
330
1F
100
AcDbEntity
  8
0
  6
Continuous
 62
     7
370
    25
100
AcDbSpline
210
0.0
220
0.0
230
1.0
 70
     8
 71
     3
 72
    16
 73
    12
 74
     0
 42
0.000000001
 43
0.00000001
 40
0.0
 40
0.0
 40
0.0
 40
0.0
 40
0.0937011567678331
 40
0.1873934353496051
 40
0.2819631175897053
 40
0.3765226855419945
 40
0.5019335856095865
 40
0.6273448601870506
 40
0.756099279501764
 40
0.8848893205520174
 40
1.0
 40
1.0
 40
1.0
 40
1.0
 10
132.6919343676849
 20
91.25072925315489
 30
0.0
 10
132.7946665699722
 20
91.0654847738336
 30
0.0
 10
133.0001212406691
 20
90.69501336710832
 30
0.0
 10
133.2502610492377
 20
90.13001709488117
 30
0.0
 10
133.4468829460369
 20
89.55801327029504
 30
0.0
 10
133.5931591559246
 20
88.91657311921213
 30
0.0
 10
133.6506748120894
 20
88.20782744257036
 30
0.0
 10
133.5837068439095
 20
87.42896843085887
 30
0.0
 10
133.3826747354598
 20
86.64910477432655
 30
0.0
 10
133.0821502229925
 20
85.89883316966217
 30
0.0
 10
132.8170502059078
 20
85.4162907520677
 30
0.0
 10
132.6919343676849
 20
85.18855142666388
 30
0.0
  0
SPLINE
  5
A5
330
1F
100
AcDbEntity
  8
0
  6
Continuous
 62
     7
370
    25
100
AcDbSpline
210
0.0
220
0.0
230
1.0
 70
     8
 71
     3
 72
    15
 73
    11
 74
     0
 42
0.000000001
 43
0.00000001
 40
0.0
 40
0.0
 40
0.0
 40
0.0
 40
0.1323060649947156
 40
0.2645747216258944
 40
0.3998023269484465
 40
0.535005530034835
 40
0.6501955637891867
 40
0.7654035659406144
 40
0.8826904433746964
 40
0.9999999999999999
 40
0.9999999999999999
 40
0.9999999999999999
 40
0.9999999999999999
 10
132.6919343676849
 20
103.3750849061369
 30
0.0
 10
132.8346981167121
 20
102.8512612141229
 30
0.0
 10
133.1201852495859
 20
101.8037619365866
 30
0.0
 10
133.4273576362764
 20
100.1907054039804
 30
0.0
 10
133.6120503482251
 20
98.54724225779403
 30
0.0
 10
133.6486246485579
 20
96.96331782034753
 30
0.0
 10
133.553724828732
 20
95.46497178785069
 30
0.0
 10
133.3592773930651
 20
94.05090924084796
 30
0.0
 10
133.0740462252406
 20
92.64324018450151
 30
0.0
 10
132.8193131954904
 20
91.71492947786355
 30
0.0
 10
132.6919343676849
 20
91.25072925315489
 30
0.0
  0
LINE
  5
A6
330
1F
100
AcDbEntity
  8
0
  6
Continuous
 62
     7
370
    25
100
AcDbLine
 10
133.7740941085
 20
107.5629070796
 30
0.0
 11
133.7740941085
 21
87.0629070796
 31
0.0
  0
SPLINE
  5
A7
330
1F
100
AcDbEntity
  8
0
  6
Continuous
 62
     7
370
    25
100
AcDbSpline
210
0.0
220
0.0
230
1.0
 70
     8
 71
     3
 72
    11
 73
     7
 74
     0
 42
0.000000001
 43
0.00000001
 40
0.0
 40
0.0
 40
0.0
 40
0.0
 40
0.2958382525912942
 40
0.5932610319617024
 40
0.7963744598462312
 40
1.0
 40
1.0
 40
1.0
 40
1.0
 10
120.5627692430861
 20
95.00802096532288
 30
0.0
 10
120.5156671072552
 20
95.46147582431907
 30
0.0
 10
120.4212105538315
 20
96.37081427274401
 30
0.0
 10
120.409794593571
 20
97.59910146673941
 30
0.0
 10
120.4598520610682
 20
98.68305959265109
 30
0.0
 10
120.5284347323171
 20
99.3059539046367
 30
0.0
 10
120.5627692430861
 20
99.61779319396892
 30
0.0
  0
SPLINE
  5
A8
330
1F
100
AcDbEntity
  8
0
  6
Continuous
 62
     7
370
    25
100
AcDbSpline
210
0.0
220
0.0
230
1.0
 70
     8
 71
     3
 72
    10
 73
     6
 74
     0
 42
0.000000001
 43
0.00000001
 40
0.0
 40
0.0
 40
0.0
 40
0.0
 40
0.2491816704414482
 40
0.4983789884270786
 40
1.0
 40
1.0
 40
1.0
 40
1.0
 10
120.5627692430861
 20
99.61779319396892
 30
0.0
 10
120.6065570208668
 20
99.93406586012347
 30
0.0
 10
120.6941353261137
 20
100.5666310530046
 30
0.0
 10
120.9380041721617
 20
101.8252586921998
 30
0.0
 10
121.1887384900744
 20
102.7543559273626
 30
0.0
 10
121.3562538492976
 20
103.3750849061369
 30
0.0
  0
LINE
  5
A9
330
1F
100
AcDbEntity
  8
0
  6
Continuous
 62
     7
370
    25
100
AcDbLine
 10
121.3562538493
 20
103.3750849061
 30
0.0
 11
132.6919343677
 21
103.3750849061
 31
0.0
  0
LINE
  5
AA
330
1F
100
AcDbEntity
  8
0
  6
Continuous
 62
     7
370
    25
100
AcDbLine
 10
121.3562538493
 20
91.2507292532
 30
0.0
 11
132.6919343677
 21
91.2507292532
 31
0.0
  0
SPLINE
  5
AB
330
1F
100
AcDbEntity
  8
0
  6
Continuous
 62
     7
370
    25
100
AcDbSpline
210
0.0
220
0.0
230
1.0
 70
     8
 71
     3
 72
    10
 73
     6
 74
     0
 42
0.000000001
 43
0.00000001
 40
0.0
 40
0.0
 40
0.0
 40
0.0
 40
0.4984982470945954
 40
0.7492571451420811
 40
1.0
 40
1.0
 40
1.0
 40
1.0
 10
121.3562538492976
 20
91.25072925315489
 30
0.0
 10
121.189727233431
 20
91.86757500491301
 30
0.0
 10
120.9394329595362
 20
92.79471183969429
 30
0.0
 10
120.6950434837848
 20
94.05324659395572
 30
0.0
 10
120.6068597163107
 20
94.68976962905396
 30
0.0
 10
120.5627692430861
 20
95.00802096532288
 30
0.0
  0
LINE
  5
AC
330
1F
100
AcDbEntity
  8
0
  6
Continuous
 62
     7
370
    25
100
AcDbLine
 10
118.7740941085
 20
88.6093517716
 30
0.0
 11
118.7740941085
 21
107.3629070796
 31
0.0
  0
LINE
  5
AD
330
1F
100
AcDbEntity
  8
0
  6
Continuous
 62
     7
370
    25
100
AcDbLine
 10
118.7740941085
 20
87.2629070796
 30
0.0
 11
118.7740941085
 21
88.6093517716
 31
0.0
  0
LINE
  5
AE
330
1F
100
AcDbEntity
  8
0
  6
Continuous
 62
     7
370
    25
100
AcDbLine
 10
118.9740941085
 20
88.4361466909
 30
0.0
 11
118.9740941085
 21
87.0629070796
 31
0.0
  0
LINE
  5
AF
330
1F
100
AcDbEntity
  8
0
  6
Continuous
 62
     7
370
    25
100
AcDbLine
 10
118.9740941085
 20
107.5629070796
 30
0.0
 11
118.9740941085
 21
88.4361466909
 31
0.0
  0
SPLINE
  5
B0
330
1F
100
AcDbEntity
  8
0
  6
Continuous
 62
     7
370
    25
100
AcDbSpline
210
0.0
220
0.0
230
1.0
 70
     8
 71
     3
 72
    13
 73
     9
 74
     0
 42
0.000000001
 43
0.00000001
 40
0.0
 40
0.0
 40
0.0
 40
0.0
 40
0.1365245485709923
 40
0.2730742214951699
 40
0.4115382417990631
 40
0.5499846193303765
 40
0.773937035610269
 40
1.0
 40
1.0
 40
1.0
 40
1.0
 10
119.6967438393016
 20
104.8843901258221
 30
0.0
 10
119.6994734282037
 20
105.0177664267187
 30
0.0
 10
119.704933108329
 20
105.2845435734992
 30
0.0
 10
119.733772361153
 20
105.651242044476
 30
0.0
 10
119.7548253590155
 20
105.9924143140995
 30
0.0
 10
119.7610719918031
 20
106.3670133792204
 30
0.0
 10
119.7193728286911
 20
106.7530357146545
 30
0.0
 10
119.70431038312
 20
106.9720510047642
 30
0.0
 10
119.6967438393016
 20
107.082072234828
 30
0.0
  0
LINE
  5
B1
330
1F
100
AcDbEntity
  8
0
  6
Continuous
 62
     7
370
    25
100
AcDbLine
 10
119.6967438393
 20
99.5105891887
 30
0.0
 11
119.6967438393
 21
104.8843901258
 31
0.0
  0
SPLINE
  5
B2
330
1F
100
AcDbEntity
  8
0
  6
Continuous
 62
     7
370
    25
100
AcDbSpline
210
0.0
220
0.0
230
1.0
 70
     8
 71
     3
 72
    13
 73
     9
 74
     0
 42
0.000000001
 43
0.00000001
 40
0.0
 40
0.0
 40
0.0
 40
0.0
 40
0.1365245485710108
 40
0.2730742214952072
 40
0.4115382417991189
 40
0.5499846193304512
 40
0.7739370356103076
 40
1.0
 40
1.0
 40
1.0
 40
1.0
 10
119.6967438393016
 20
95.11522497064023
 30
0.0
 10
119.6994734282037
 20
95.31292081920583
 30
0.0
 10
119.704933108329
 20
95.70834889792825
 30
0.0
 10
119.733772361153
 20
96.31131653930714
 30
0.0
 10
119.7548253590155
 20
96.92043424625128
 30
0.0
 10
119.761071991803
 20
97.66053091344452
 30
0.0
 10
119.719372828691
 20
98.52923568473678
 30
0.0
 10
119.7043103831199
 20
99.1824501736536
 30
0.0
 10
119.6967438393016
 20
99.51058918865158
 30
0.0
  0
LINE
  5
B3
330
1F
100
AcDbEntity
  8
0
  6
Continuous
 62
     7
370
    25
100
AcDbLine
 10
119.6967438393
 20
89.7414240335
 30
0.0
 11
119.6967438393
 21
95.1152249706
 31
0.0
  0
SPLINE
  5
B4
330
1F
100
AcDbEntity
  8
0
  6
Continuous
 62
     7
370
    25
100
AcDbSpline
210
0.0
220
0.0
230
1.0
 70
     8
 71
     3
 72
    13
 73
     9
 74
     0
 42
0.000000001
 43
0.00000001
 40
0.0
 40
0.0
 40
0.0
 40
0.0
 40
0.1365245485808607
 40
0.2730742215149118
 40
0.4115382418290887
 40
0.5499846193706845
 40
0.7739370356307161
 40
1.0
 40
1.0
 40
1.0
 40
1.0
 10
119.6967438393016
 20
87.54374192446399
 30
0.0
 10
119.6994734282041
 20
87.6080614721378
 30
0.0
 10
119.7049331083302
 20
87.73671240408953
 30
0.0
 10
119.7337723611573
 20
87.97298157451254
 30
0.0
 10
119.7548253590189
 20
88.24092701185882
 30
0.0
 10
119.7610719917996
 20
88.60642461394163
 30
0.0
 10
119.7193728286867
 20
89.08910704978496
 30
0.0
 10
119.7043103831185
 20
89.52330624855462
 30
0.0
 10
119.6967438393016
 20
89.74142403346981
 30
0.0
  0
ARC
  5
B5
330
1F
100
AcDbEntity
  8
0
  6
Continuous
 62
     7
370
    25
100
AcDbCircle
 10
119.7867525503
 20
92.2907361075
 30
0.0
 40
2.825922664566335
100
AcDbArc
 50
74.0614353189
 51
91.8252416096
  0
ARC
  5
B6
330
1F
100
AcDbEntity
  8
0
  6
Continuous
 62
     7
370
    25
100
AcDbCircle
 10
119.7867525503
 20
102.3350780518
 30
0.0
 40
2.825922664589282
100
AcDbArc
 50
268.1747583904
 51
285.938564681
  0
LINE
  5
B7
330
1F
100
AcDbEntity
  8
0
  6
Continuous
 62
     7
370
    25
100
AcDbLine
 10
120.5627692431
 20
105.2537307622
 30
0.0
 11
120.5627692431
 21
99.617793194
 31
0.0
  0
SPLINE
  5
B8
330
1F
100
AcDbEntity
  8
0
  6
Continuous
 62
     7
370
    25
100
AcDbSpline
210
0.0
220
0.0
230
1.0
 70
     8
 71
     3
 72
    10
 73
     6
 74
     0
 42
0.000000001
 43
0.00000001
 40
0.0
 40
0.0
 40
0.0
 40
0.0
 40
0.4984982470945957
 40
0.7492571451420811
 40
1.0
 40
1.0
 40
1.0
 40
1.0
 10
121.3562538492976
 20
103.3750849061369
 30
0.0
 10
121.189727233431
 20
103.683507782016
 30
0.0
 10
120.9394329595362
 20
104.1470761994066
 30
0.0
 10
120.6950434837848
 20
104.7763435765373
 30
0.0
 10
120.6068597163107
 20
105.0946050940864
 30
0.0
 10
120.5627692430861
 20
105.2537307622209
 30
0.0
  0
SPLINE
  5
B9
330
1F
100
AcDbEntity
  8
0
  6
Continuous
 62
     7
370
    25
100
AcDbSpline
210
0.0
220
0.0
230
1.0
 70
     8
 71
     3
 72
    10
 73
     6
 74
     0
 42
0.000000001
 43
0.00000001
 40
0.0
 40
0.0
 40
0.0
 40
0.0
 40
0.2491816704414482
 40
0.4983789884270782
 40
1.0
 40
1.0
 40
1.0
 40
1.0
 10
120.5627692430861
 20
89.37208339707098
 30
0.0
 10
120.6065570208668
 20
89.53021973014825
 30
0.0
 10
120.6941353261137
 20
89.84650232658879
 30
0.0
 10
120.9380041721617
 20
90.47581614618636
 30
0.0
 10
121.1887384900744
 20
90.94036476376773
 30
0.0
 10
121.3562538492976
 20
91.25072925315489
 30
0.0
  0
LINE
  5
BA
330
1F
100
AcDbEntity
  8
0
  6
Continuous
 62
     7
370
    25
100
AcDbLine
 10
120.5627692431
 20
95.0080209653
 30
0.0
 11
120.5627692431
 21
89.3720833971
 31
0.0
  0
ARC
  5
BB
330
1F
100
AcDbEntity
  8
0
  6
Continuous
 62
     7
370
    25
100
AcDbCircle
 10
119.7396098811
 20
88.6419426018
 30
0.0
 40
1.100316734466075
100
AcDbArc
 50
41.5729649515
 51
92.2326889081
  0
ARC
  5
BC
330
1F
100
AcDbEntity
  8
0
  6
Continuous
 62
     7
370
    25
100
AcDbCircle
 10
119.7396098811
 20
105.9838715575
 30
0.0
 40
1.100316734458296
100
AcDbArc
 50
267.7673110917
 51
318.4270350487
  0
SPLINE
  5
BD
330
1F
100
AcDbEntity
  8
0
  6
Continuous
 62
     7
370
    25
100
AcDbSpline
210
0.0
220
0.0
230
1.0
 70
     8
 71
     3
 72
    11
 73
     7
 74
     0
 42
0.000000001
 43
0.00000001
 40
0.0
 40
0.0
 40
0.0
 40
0.0
 40
0.2958382525912818
 40
0.5932610319616777
 40
0.796374459846219
 40
1.0
 40
1.0
 40
1.0
 40
1.0
 10
120.5627692430861
 20
105.2537307622209
 30
0.0
 10
120.5156671072551
 20
105.480458191719
 30
0.0
 10
120.4212105538315
 20
105.9351274159315
 30
0.0
 10
120.409794593571
 20
106.5492710129293
 30
0.0
 10
120.4598520610682
 20
107.0912500758852
 30
0.0
 10
120.5284347323171
 20
107.402697231878
 30
0.0
 10
120.5627692430861
 20
107.5586168765442
 30
0.0
  0
SPLINE
  5
BE
330
1F
100
AcDbEntity
  8
0
  6
Continuous
 62
     7
370
    25
100
AcDbSpline
210
0.0
220
0.0
230
1.0
 70
     8
 71
     3
 72
    10
 73
     6
 74
     0
 42
0.000000001
 43
0.00000001
 40
0.0
 40
0.0
 40
0.0
 40
0.0
 40
0.2491816704414482
 40
0.4983789884270783
 40
0.9999999999999999
 40
0.9999999999999999
 40
0.9999999999999999
 40
0.9999999999999999
 10
120.5627692430861
 20
107.5586168765442
 30
0.0
 10
120.6065570208668
 20
107.7167532096215
 30
0.0
 10
120.6941353261137
 20
108.033035806062
 30
0.0
 10
120.9380041721617
 20
108.6623496256596
 30
0.0
 10
121.1887384900744
 20
109.126898243241
 30
0.0
 10
121.3562538492976
 20
109.4372627326282
 30
0.0
  0
LINE
  5
BF
330
1F
100
AcDbEntity
  8
0
  6
Continuous
 62
     7
370
    25
100
AcDbLine
 10
121.3562538493
 20
109.4372627326
 30
0.0
 11
132.6919343677
 21
109.4372627326
 31
0.0
  0
SPLINE
  5
C0
330
1F
100
AcDbEntity
  8
0
  6
Continuous
 62
     7
370
    25
100
AcDbSpline
210
0.0
220
0.0
230
1.0
 70
     8
 71
     3
 72
    12
 73
     8
 74
     0
 42
0.000000001
 43
0.00000001
 40
0.0
 40
0.0
 40
0.0
 40
0.0
 40
0.202689755715197
 40
0.4053720478393041
 40
0.610148915474459
 40
0.8149288996812589
 40
1.0
 40
1.0
 40
1.0
 40
1.0
 10
120.5627692430861
 20
87.06719728274778
 30
0.0
 10
120.528663566467
 20
87.22240619307101
 30
0.0
 10
120.4604534690931
 20
87.53281829850094
 30
0.0
 10
120.415820721747
 20
88.00254422356174
 30
0.0
 10
120.4178729730662
 20
88.47422837603305
 30
0.0
 10
120.4649251901959
 20
88.93191422166694
 30
0.0
 10
120.5312726214468
 20
89.23039014576518
 30
0.0
 10
120.5627692430861
 20
89.37208339707098
 30
0.0
  0
LINE
  5
C1
330
1F
100
AcDbEntity
  8
0
  6
Continuous
 62
     7
370
    25
100
AcDbLine
 10
121.3562538493
 20
85.1885514267
 30
0.0
 11
132.6919343677
 21
85.1885514267
 31
0.0
  0
SPLINE
  5
C2
330
1F
100
AcDbEntity
  8
0
  6
Continuous
 62
     7
370
    25
100
AcDbSpline
210
0.0
220
0.0
230
1.0
 70
     8
 71
     3
 72
    10
 73
     6
 74
     0
 42
0.000000001
 43
0.00000001
 40
0.0
 40
0.0
 40
0.0
 40
0.0
 40
0.347203973793914
 40
0.6731184750787441
 40
1.0
 40
1.0
 40
1.0
 40
1.0
 10
121.3562538492976
 20
85.18855142666388
 30
0.0
 10
121.2383657720021
 20
85.40304514108871
 30
0.0
 10
121.0098181492546
 20
85.81888047957858
 30
0.0
 10
120.7402572962824
 20
86.44575681726782
 30
0.0
 10
120.6219903259999
 20
86.85984598969212
 30
0.0
 10
120.5627692430861
 20
87.06719728274778
 30
0.0
  0
ARC
  5
C3
330
1F
100
AcDbEntity
  8
0
  6
Continuous
 62
     7
370
    25
100
AcDbCircle
 10
119.7053878846
 20
108.0915504511
 30
0.0
 40
1.009515224614237
100
AcDbArc
 50
269.5093948498
 51
328.1356233675
  0
ARC
  5
C4
330
1F
100
AcDbEntity
  8
0
  6
Continuous
 62
     7
370
    25
100
AcDbCircle
 10
119.7053878846
 20
86.5342637082
 30
0.0
 40
1.00951522461425
100
AcDbArc
 50
31.8643766325
 51
90.4906051502
  0
SPLINE
  5
C5
330
1F
100
AcDbEntity
  8
0
  6
Continuous
 62
     7
370
    25
100
AcDbSpline
210
0.0
220
0.0
230
1.0
 70
     8
 71
     3
 72
    13
 73
     9
 74
     0
 42
0.000000001
 43
0.00000001
 40
0.0
 40
0.0
 40
0.0
 40
0.0
 40
0.1365245485709977
 40
0.2730742214951815
 40
0.4115382417990804
 40
0.5499846193303997
 40
0.773937035610281
 40
1.0
 40
1.0
 40
1.0
 40
1.0
 10
165.6160614704329
 20
99.51058918865184
 30
0.0
 10
165.6133318815308
 20
99.31289334008625
 30
0.0
 10
165.6078722014055
 20
98.91746526136383
 30
0.0
 10
165.5790329485815
 20
98.31449761998493
 30
0.0
 10
165.557979950719
 20
97.70537991304082
 30
0.0
 10
165.5517333179315
 20
96.96528324584749
 30
0.0
 10
165.5934324810434
 20
96.09657847455512
 30
0.0
 10
165.6084949266146
 20
95.44336398563816
 30
0.0
 10
165.6160614704329
 20
95.11522497064013
 30
0.0
  0
ARC
  5
C6
330
1F
100
AcDbEntity
  8
0
  6
Continuous
 62
     7
370
    25
100
AcDbCircle
 10
165.5260527595
 20
92.2907361075
 30
0.0
 40
2.825922664583141
100
AcDbArc
 50
88.1747583904
 51
105.9385646811
  0
SPLINE
  5
C7
330
1F
100
AcDbEntity
  8
0
  6
Continuous
 62
     7
370
    25
100
AcDbSpline
210
0.0
220
0.0
230
1.0
 70
     8
 71
     3
 72
    12
 73
     8
 74
     0
 42
0.000000001
 43
0.00000001
 40
0.0
 40
0.0
 40
0.0
 40
0.0
 40
0.1850710896720204
 40
0.3877424800495118
 40
0.5904108230733411
 40
0.7952015463110217
 40
1.0
 40
1.0
 40
1.0
 40
1.0
 10
164.7500360666485
 20
99.61779319396922
 30
0.0
 10
164.7815349280958
 20
99.33440686596845
 30
0.0
 10
164.8475281995352
 20
98.74068410880594
 30
0.0
 10
164.8944997356959
 20
97.83182738326563
 30
0.0
 10
164.8972942410724
 20
96.8917195180785
 30
0.0
 10
164.8532810509187
 20
95.94896952836942
 30
0.0
 10
164.7844514944274
 20
95.32167443279204
 30
0.0
 10
164.7500360666484
 20
95.00802096532277
 30
0.0
  0
ARC
  5
C8
330
1F
100
AcDbEntity
  8
0
  6
Continuous
 62
     7
370
    25
100
AcDbCircle
 10
165.5260527595
 20
102.3350780518
 30
0.0
 40
2.825922664589744
100
AcDbArc
 50
254.061435319
 51
271.8252416096
  0
SPLINE
  5
C9
330
1F
100
AcDbEntity
  8
0
  6
Continuous
 62
     7
370
    25
100
AcDbSpline
210
0.0
220
0.0
230
1.0
 70
     8
 71
     3
 72
    11
 73
     7
 74
     0
 42
0.000000001
 43
0.00000001
 40
0.0
 40
0.0
 40
0.0
 40
0.0
 40
0.2958382525912819
 40
0.5932610319616778
 40
0.7963744598462189
 40
1.0
 40
1.0
 40
1.0
 40
1.0
 10
164.7500360666484
 20
107.5586168765442
 30
0.0
 10
164.7971382024794
 20
107.3318894470461
 30
0.0
 10
164.891594755903
 20
106.8772202228336
 30
0.0
 10
164.9030107161635
 20
106.2630766258359
 30
0.0
 10
164.8529532486663
 20
105.72109756288
 30
0.0
 10
164.7843705774174
 20
105.4096504068871
 30
0.0
 10
164.7500360666484
 20
105.253730762221
 30
0.0
  0
SPLINE
  5
CA
330
1F
100
AcDbEntity
  8
0
  6
Continuous
 62
     7
370
    25
100
AcDbSpline
210
0.0
220
0.0
230
1.0
 70
     8
 71
     3
 72
    10
 73
     6
 74
     0
 42
0.000000001
 43
0.00000001
 40
0.0
 40
0.0
 40
0.0
 40
0.0
 40
0.2491816704414485
 40
0.4983789884270786
 40
1.0
 40
1.0
 40
1.0
 40
1.0
 10
164.7500360666484
 20
105.253730762221
 30
0.0
 10
164.7062482888677
 20
105.0955944291437
 30
0.0
 10
164.6186699836208
 20
104.7793118327032
 30
0.0
 10
164.3748011375728
 20
104.1499980131056
 30
0.0
 10
164.1240668196602
 20
103.6854493955242
 30
0.0
 10
163.9565514604369
 20
103.3750849061371
 30
0.0
  0
LINE
  5
CB
330
1F
100
AcDbEntity
  8
0
  6
Continuous
 62
     7
370
    25
100
AcDbLine
 10
163.9565514604
 20
103.3750849061
 30
0.0
 11
152.620870942
 21
103.3750849061
 31
0.0
  0
SPLINE
  5
CC
330
1F
100
AcDbEntity
  8
0
  6
Continuous
 62
     7
370
    25
100
AcDbSpline
210
0.0
220
0.0
230
1.0
 70
     8
 71
     3
 72
    15
 73
    11
 74
     0
 42
0.000000001
 43
0.00000001
 40
0.0
 40
0.0
 40
0.0
 40
0.0
 40
0.1323060649947138
 40
0.2645747216258911
 40
0.3998023269484415
 40
0.5350055300348283
 40
0.6501955637891815
 40
0.7654035659406109
 40
0.8826904433746946
 40
1.0
 40
1.0
 40
1.0
 40
1.0
 10
152.6208709420496
 20
103.3750849061371
 30
0.0
 10
152.4781071930224
 20
103.6369967521441
 30
0.0
 10
152.1926200601486
 20
104.1607463909123
 30
0.0
 10
151.8854476734581
 20
104.9672746572153
 30
0.0
 10
151.7007549615094
 20
105.7890062303085
 30
0.0
 10
151.6641806611766
 20
106.5809684490318
 30
0.0
 10
151.7590804810025
 20
107.3301414652802
 30
0.0
 10
151.9535279166694
 20
108.0371727387816
 30
0.0
 10
152.2387590844939
 20
108.7410072669548
 30
0.0
 10
152.4934921142442
 20
109.2051626202738
 30
0.0
 10
152.6208709420496
 20
109.4372627326282
 30
0.0
  0
LINE
  5
CD
330
1F
100
AcDbEntity
  8
0
  6
Continuous
 62
     7
370
    25
100
AcDbLine
 10
163.9565514604
 20
109.4372627326
 30
0.0
 11
152.620870942
 21
109.4372627326
 31
0.0
  0
SPLINE
  5
CE
330
1F
100
AcDbEntity
  8
0
  6
Continuous
 62
     7
370
    25
100
AcDbSpline
210
0.0
220
0.0
230
1.0
 70
     8
 71
     3
 72
    10
 73
     6
 74
     0
 42
0.000000001
 43
0.00000001
 40
0.0
 40
0.0
 40
0.0
 40
0.0
 40
0.4984982470945961
 40
0.7492571451420814
 40
1.0
 40
1.0
 40
1.0
 40
1.0
 10
163.9565514604369
 20
109.4372627326282
 30
0.0
 10
164.1230780763035
 20
109.1288398567491
 30
0.0
 10
164.3733723501983
 20
108.6652714393585
 30
0.0
 10
164.6177618259497
 20
108.0360040622278
 30
0.0
 10
164.7059455934238
 20
107.7177425446787
 30
0.0
 10
164.7500360666484
 20
107.5586168765442
 30
0.0
  0
LINE
  5
CF
330
1F
100
AcDbEntity
  8
0
  6
Continuous
 62
     7
370
    25
100
AcDbLine
 10
164.7500360666
 20
99.617793194
 30
0.0
 11
164.7500360666
 21
105.2537307622
 31
0.0
  0
SPLINE
  5
D0
330
1F
100
AcDbEntity
  8
0
  6
Continuous
 62
     7
370
    25
100
AcDbSpline
210
0.0
220
0.0
230
1.0
 70
     8
 71
     3
 72
    10
 73
     6
 74
     0
 42
0.000000001
 43
0.00000001
 40
0.0
 40
0.0
 40
0.0
 40
0.0
 40
0.4984982470945969
 40
0.7492571451420821
 40
1.0
 40
1.0
 40
1.0
 40
1.0
 10
163.9565514604369
 20
103.3750849061371
 30
0.0
 10
164.1230780763035
 20
102.758239154379
 30
0.0
 10
164.3733723501983
 20
101.8311023195977
 30
0.0
 10
164.6177618259498
 20
100.5725675653363
 30
0.0
 10
164.7059455934239
 20
99.93604453023814
 30
0.0
 10
164.7500360666485
 20
99.61779319396922
 30
0.0
  0
SPLINE
  5
D1
330
1F
100
AcDbEntity
  8
0
  6
Continuous
 62
     7
370
    25
100
AcDbSpline
210
0.0
220
0.0
230
1.0
 70
     8
 71
     3
 72
    10
 73
     6
 74
     0
 42
0.000000001
 43
0.00000001
 40
0.0
 40
0.0
 40
0.0
 40
0.0
 40
0.3258684952272098
 40
0.6527960511516884
 40
1.0
 40
1.0
 40
1.0
 40
1.0
 10
164.7500360666484
 20
95.00802096532277
 30
0.0
 10
164.6910191110572
 20
94.59460135816292
 30
0.0
 10
164.5727933969264
 20
93.76641854523263
 30
0.0
 10
164.3033293362852
 20
92.51263924979783
 30
0.0
 10
164.0744389257559
 20
91.67971674435789
 30
0.0
 10
163.9565514604369
 20
91.25072925315489
 30
0.0
  0
LINE
  5
D2
330
1F
100
AcDbEntity
  8
0
  6
Continuous
 62
     7
370
    25
100
AcDbLine
 10
164.7500360666
 20
89.3720833971
 30
0.0
 11
164.7500360666
 21
95.0080209653
 31
0.0
  0
SPLINE
  5
D3
330
1F
100
AcDbEntity
  8
0
  6
Continuous
 62
     7
370
    25
100
AcDbSpline
210
0.0
220
0.0
230
1.0
 70
     8
 71
     3
 72
    10
 73
     6
 74
     0
 42
0.000000001
 43
0.00000001
 40
0.0
 40
0.0
 40
0.0
 40
0.0
 40
0.4984982470945959
 40
0.7492571451420811
 40
1.0
 40
1.0
 40
1.0
 40
1.0
 10
163.9565514604369
 20
91.25072925315489
 30
0.0
 10
164.1230780763035
 20
90.94230637727586
 30
0.0
 10
164.3733723501983
 20
90.47873795988524
 30
0.0
 10
164.6177618259497
 20
89.84947058275453
 30
0.0
 10
164.7059455934238
 20
89.53120906520545
 30
0.0
 10
164.7500360666484
 20
89.37208339707098
 30
0.0
  0
SPLINE
  5
D4
330
1F
100
AcDbEntity
  8
0
  6
Continuous
 62
     7
370
    25
100
AcDbSpline
210
0.0
220
0.0
230
1.0
 70
     8
 71
     3
 72
    16
 73
    12
 74
     0
 42
0.000000001
 43
0.00000001
 40
0.0
 40
0.0
 40
0.0
 40
0.0
 40
0.1151108105905589
 40
0.2406803956034897
 40
0.366217666915262
 40
0.494847722290026
 40
0.6234766707927398
 40
0.7171032364566066
 40
0.810739512423133
 40
0.9053651295077384
 40
1.0
 40
1.0
 40
1.0
 40
1.0
 10
152.6208709420496
 20
91.25072925315489
 30
0.0
 10
152.4957465124712
 20
91.70620635602998
 30
0.0
 10
152.2341290583322
 20
92.658544444398
 30
0.0
 10
151.9375841320146
 20
94.13285333959124
 30
0.0
 10
151.7337950420749
 20
95.67878340592453
 30
0.0
 10
151.6611771275519
 20
97.24958327715859
 30
0.0
 10
151.7179841563036
 20
98.689824035007
 30
0.0
 10
151.8645047797588
 20
99.97824010367196
 30
0.0
 10
152.0595535956328
 20
101.1186210219513
 30
0.0
 10
152.3097296736676
 20
102.2525451215614
 30
0.0
 10
152.5171538054314
 20
103.0008927817633
 30
0.0
 10
152.6208709420496
 20
103.3750849061371
 30
0.0
  0
SPLINE
  5
D5
330
1F
100
AcDbEntity
  8
0
  6
Continuous
 62
     7
370
    25
100
AcDbSpline
210
0.0
220
0.0
230
1.0
 70
     8
 71
     3
 72
    15
 73
    11
 74
     0
 42
0.000000001
 43
0.00000001
 40
0.0
 40
0.0
 40
0.0
 40
0.0
 40
0.132306064994714
 40
0.2645747216258911
 40
0.3998023269484416
 40
0.5350055300348283
 40
0.6501955637891816
 40
0.7654035659406111
 40
0.8826904433746947
 40
1.0
 40
1.0
 40
1.0
 40
1.0
 10
152.6208709420496
 20
85.18855142666388
 30
0.0
 10
152.4781071930224
 20
85.45046327267085
 30
0.0
 10
152.1926200601486
 20
85.97421291143904
 30
0.0
 10
151.8854476734581
 20
86.78074117774207
 30
0.0
 10
151.7007549615094
 20
87.60247275083528
 30
0.0
 10
151.6641806611766
 20
88.39443496955853
 30
0.0
 10
151.7590804810025
 20
89.14360798580697
 30
0.0
 10
151.9535279166694
 20
89.85063925930834
 30
0.0
 10
152.2387590844939
 20
90.55447378748157
 30
0.0
 10
152.4934921142442
 20
91.01862914080056
 30
0.0
 10
152.6208709420496
 20
91.25072925315489
 30
0.0
  0
LINE
  5
D6
330
1F
100
AcDbEntity
  8
0
  6
Continuous
 62
     7
370
    25
100
AcDbLine
 10
151.5387112012
 20
97.3129070796
 30
0.0
 11
151.5387112012
 21
107.5629070796
 31
0.0
  0
LINE
  5
D7
330
1F
100
AcDbEntity
  8
0
  6
Continuous
 62
     7
370
    25
100
AcDbLine
 10
151.5387112012
 20
87.0629070796
 30
0.0
 11
151.5387112012
 21
97.3129070796
 31
0.0
  0
LINE
  5
D8
330
1F
100
AcDbEntity
  8
0
  6
Continuous
 62
     7
370
    25
100
AcDbLine
 10
163.9565514604
 20
91.2507292532
 30
0.0
 11
152.620870942
 21
91.2507292532
 31
0.0
  0
ARC
  5
D9
330
1F
100
AcDbEntity
  8
0
  6
Continuous
 62
     7
370
    25
100
AcDbCircle
 10
165.5731954286
 20
105.9838715575
 30
0.0
 40
1.100316734466037
100
AcDbArc
 50
221.5729649515
 51
272.2326889081
  0
LINE
  5
DA
330
1F
100
AcDbEntity
  8
0
  6
Continuous
 62
     7
370
    25
100
AcDbLine
 10
165.6160614704
 20
104.8843901258
 30
0.0
 11
165.6160614704
 21
99.5105891887
 31
0.0
  0
LINE
  5
DB
330
1F
100
AcDbEntity
  8
0
  6
Continuous
 62
     7
370
    25
100
AcDbLine
 10
165.6160614704
 20
95.1152249706
 30
0.0
 11
165.6160614704
 21
89.7414240335
 31
0.0
  0
ARC
  5
DC
330
1F
100
AcDbEntity
  8
0
  6
Continuous
 62
     7
370
    25
100
AcDbCircle
 10
165.5731954286
 20
88.6419426018
 30
0.0
 40
1.100316734466056
100
AcDbArc
 50
87.7673110919
 51
138.4270350485
  0
SPLINE
  5
DD
330
1F
100
AcDbEntity
  8
0
  6
Continuous
 62
     7
370
    25
100
AcDbSpline
210
0.0
220
0.0
230
1.0
 70
     8
 71
     3
 72
    11
 73
     7
 74
     0
 42
0.000000001
 43
0.00000001
 40
0.0
 40
0.0
 40
0.0
 40
0.0
 40
0.2958382525912817
 40
0.5932610319616778
 40
0.796374459846219
 40
1.0
 40
1.0
 40
1.0
 40
1.0
 10
164.7500360666484
 20
89.37208339707098
 30
0.0
 10
164.7971382024794
 20
89.14535596757288
 30
0.0
 10
164.891594755903
 20
88.69068674336039
 30
0.0
 10
164.9030107161635
 20
88.07654314636265
 30
0.0
 10
164.8529532486663
 20
87.53456408340676
 30
0.0
 10
164.7843705774174
 20
87.22311692741391
 30
0.0
 10
164.7500360666484
 20
87.06719728274778
 30
0.0
  0
SPLINE
  5
DE
330
1F
100
AcDbEntity
  8
0
  6
Continuous
 62
     7
370
    25
100
AcDbSpline
210
0.0
220
0.0
230
1.0
 70
     8
 71
     3
 72
    10
 73
     6
 74
     0
 42
0.000000001
 43
0.00000001
 40
0.0
 40
0.0
 40
0.0
 40
0.0
 40
0.2491816704414485
 40
0.4983789884270787
 40
1.0
 40
1.0
 40
1.0
 40
1.0
 10
164.7500360666484
 20
87.06719728274778
 30
0.0
 10
164.7062482888677
 20
86.90906094967052
 30
0.0
 10
164.6186699836208
 20
86.59277835322996
 30
0.0
 10
164.3748011375728
 20
85.9634645336324
 30
0.0
 10
164.1240668196602
 20
85.49891591605103
 30
0.0
 10
163.9565514604369
 20
85.18855142666388
 30
0.0
  0
LINE
  5
DF
330
1F
100
AcDbEntity
  8
0
  6
Continuous
 62
     7
370
    25
100
AcDbLine
 10
163.9565514604
 20
85.1885514267
 30
0.0
 11
152.620870942
 21
85.1885514267
 31
0.0
  0
LINE
  5
E0
330
1F
100
AcDbEntity
  8
0
  6
Continuous
 62
     7
370
    25
100
AcDbLine
 10
166.3387112012
 20
87.0629070796
 30
0.0
 11
166.3387112012
 21
107.5629070796
 31
0.0
  0
SPLINE
  5
E1
330
1F
100
AcDbEntity
  8
0
  6
Continuous
 62
     7
370
    25
100
AcDbSpline
210
0.0
220
0.0
230
1.0
 70
     8
 71
     3
 72
    13
 73
     9
 74
     0
 42
0.000000001
 43
0.00000001
 40
0.0
 40
0.0
 40
0.0
 40
0.0
 40
0.1365245485709984
 40
0.2730742214951827
 40
0.411538241799082
 40
0.5499846193304023
 40
0.7739370356102826
 40
1.0
 40
1.0
 40
1.0
 40
1.0
 10
165.6160614704329
 20
89.74142403346981
 30
0.0
 10
165.6133318815308
 20
89.60804773257317
 30
0.0
 10
165.6078722014055
 20
89.3412705857927
 30
0.0
 10
165.5790329485815
 20
88.97457211481587
 30
0.0
 10
165.557979950719
 20
88.63339984519236
 30
0.0
 10
165.5517333179315
 20
88.25880078007145
 30
0.0
 10
165.5934324810434
 20
87.87277844463742
 30
0.0
 10
165.6084949266146
 20
87.65376315452772
 30
0.0
 10
165.6160614704329
 20
87.54374192446399
 30
0.0
  0
SPLINE
  5
E2
330
1F
100
AcDbEntity
  8
0
  6
Continuous
 62
     7
370
    25
100
AcDbSpline
210
0.0
220
0.0
230
1.0
 70
     8
 71
     3
 72
    13
 73
     9
 74
     0
 42
0.000000001
 43
0.00000001
 40
0.0
 40
0.0
 40
0.0
 40
0.0
 40
0.136524548570992
 40
0.2730742214951701
 40
0.411538241799063
 40
0.5499846193303763
 40
0.773937035610269
 40
1.0
 40
1.0
 40
1.0
 40
1.0
 10
165.6160614704329
 20
107.082072234828
 30
0.0
 10
165.6133318815308
 20
107.0177526871591
 30
0.0
 10
165.6078722014055
 20
106.8891017552172
 30
0.0
 10
165.5790329485815
 20
106.6528325848151
 30
0.0
 10
165.557979950719
 20
106.3848871474945
 30
0.0
 10
165.5517333179315
 20
106.0193895454221
 30
0.0
 10
165.5934324810434
 20
105.5367071095637
 30
0.0
 10
165.6084949266146
 20
105.1025079107565
 30
0.0
 10
165.6160614704329
 20
104.8843901258222
 30
0.0
  0
LINE
  5
E3
330
1F
100
AcDbEntity
  8
0
  6
Continuous
 62
     7
370
    25
100
AcDbLine
 10
166.5387112012
 20
107.3629070796
 30
0.0
 11
166.5387112012
 21
87.2629070796
 31
0.0
  0
ARC
  5
E4
330
1F
100
AcDbEntity
  8
0
  6
Continuous
 62
     7
370
    25
100
AcDbCircle
 10
165.6074174251
 20
108.0915504511
 30
0.0
 40
1.009515224607484
100
AcDbArc
 50
211.8643766323
 51
270.4906051505
  0
ARC
  5
E5
330
1F
100
AcDbEntity
  8
0
  6
Continuous
 62
     7
370
    25
100
AcDbCircle
 10
165.6074174251
 20
86.5342637082
 30
0.0
 40
1.009515224614148
100
AcDbArc
 50
89.5093948497
 51
148.1356233675
  0
SPLINE
  5
E6
330
1F
100
AcDbEntity
  8
0
  6
Continuous
 62
     7
370
    25
100
AcDbSpline
210
0.0
220
0.0
230
1.0
 70
     8
 71
     3
 72
    10
 73
     6
 74
     0
 42
0.000000001
 43
0.00000001
 40
0.0
 40
0.0
 40
0.0
 40
0.0
 40
0.5
 40
0.5
 40
1.0
 40
1.0
 40
1.0
 40
1.0
 10
144.7528757090151
 20
92.40542979153415
 30
0.0
 10
144.9152769745544
 20
92.96800427778966
 30
0.0
 10
145.0594456064966
 20
93.54033522573542
 30
0.0
 10
145.2934694107178
 20
94.6917893039186
 30
0.0
 10
145.3830683308631
 20
95.26957433213919
 30
0.0
 10
145.4398963039212
 20
95.84981959080602
 30
0.0
  0
LINE
  5
E7
330
1F
100
AcDbEntity
  8
0
  6
Continuous
 62
     7
370
    25
100
AcDbLine
 10
145.4398963039
 20
90.6832348919
 30
0.0
 11
145.4398963039
 21
95.8498195908
 31
0.0
  0
SPLINE
  5
E8
330
1F
100
AcDbEntity
  8
0
  6
Continuous
 62
     7
370
    25
100
AcDbSpline
210
0.0
220
0.0
230
1.0
 70
     8
 71
     3
 72
     8
 73
     4
 74
     0
 42
0.000000001
 43
0.00000001
 40
0.0
 40
0.0
 40
0.0
 40
0.0
 40
1.0
 40
1.0
 40
1.0
 40
1.0
 10
144.7528757090154
 20
92.40542979153419
 30
0.0
 10
145.0802338246265
 20
91.8384289030257
 30
0.0
 10
145.3258338009357
 20
91.26555573661122
 30
0.0
 10
145.4398963039212
 20
90.68323489189824
 30
0.0
  0
SPLINE
  5
E9
330
1F
100
AcDbEntity
  8
0
  6
Continuous
 62
     7
370
    25
100
AcDbSpline
210
0.0
220
0.0
230
1.0
 70
     8
 71
     3
 72
     8
 73
     4
 74
     0
 42
0.000000001
 43
0.00000001
 40
0.0
 40
0.0
 40
0.0
 40
0.0
 40
1.0
 40
1.0
 40
1.0
 40
1.0
 10
145.4398963039212
 20
103.9425792673938
 30
0.0
 10
145.3255901715984
 20
103.3590146270622
 30
0.0
 10
145.0796379099533
 20
102.7863531017756
 30
0.0
 10
144.7528757090152
 20
102.2203843677578
 30
0.0
  0
LINE
  5
EA
330
1F
100
AcDbEntity
  8
0
  6
Continuous
 62
     7
370
    25
100
AcDbLine
 10
145.4398963039
 20
98.7759945685
 30
0.0
 11
145.4398963039
 21
103.9425792674
 31
0.0
  0
SPLINE
  5
EB
330
1F
100
AcDbEntity
  8
0
  6
Continuous
 62
     7
370
    25
100
AcDbSpline
210
0.0
220
0.0
230
1.0
 70
     8
 71
     3
 72
     8
 73
     4
 74
     0
 42
0.000000001
 43
0.00000001
 40
0.0
 40
0.0
 40
0.0
 40
0.0
 40
1.0
 40
1.0
 40
1.0
 40
1.0
 10
145.4398963039212
 20
98.77599456848596
 30
0.0
 10
145.3244262472193
 20
99.95500816537758
 30
0.0
 10
145.0768546965298
 20
101.0980882338373
 30
0.0
 10
144.752875709015
 20
102.2203843677578
 30
0.0
  0
SPLINE
  5
EC
330
1F
100
AcDbEntity
  8
0
  6
Continuous
 62
     7
370
    25
100
AcDbSpline
210
0.0
220
0.0
230
1.0
 70
     8
 71
     3
 72
    10
 73
     6
 74
     0
 42
0.000000001
 43
0.00000001
 40
0.0
 40
0.0
 40
0.0
 40
0.0
 40
0.5
 40
0.5
 40
1.0
 40
1.0
 40
1.0
 40
1.0
 10
145.4398963039212
 20
105.4056667562337
 30
0.0
 10
145.487204067219
 20
105.1641474491519
 30
0.0
 10
145.5119330963354
 20
104.9210064246116
 30
0.0
 10
145.51219601831
 20
104.4311909351396
 30
0.0
 10
145.4874507766503
 20
104.1853580948322
 30
0.0
 10
145.4398963039212
 20
103.9425792673938
 30
0.0
  0
LINE
  5
ED
330
1F
100
AcDbEntity
  8
0
  6
Continuous
 62
     7
370
    25
100
AcDbLine
 10
144.752875709
 20
102.2203843678
 30
0.0
 11
140.5599296007
 21
102.2203843678
 31
0.0
  0
SPLINE
  5
EE
330
1F
100
AcDbEntity
  8
0
  6
Continuous
 62
     7
370
    25
100
AcDbSpline
210
0.0
220
0.0
230
1.0
 70
     8
 71
     3
 72
     8
 73
     4
 74
     0
 42
0.000000001
 43
0.00000001
 40
0.0
 40
0.0
 40
0.0
 40
0.0
 40
1.0
 40
1.0
 40
1.0
 40
1.0
 10
139.8729090058134
 20
103.9425792673938
 30
0.0
 10
139.9872151381361
 20
103.3590146270622
 30
0.0
 10
140.2331673997812
 20
102.7863531017756
 30
0.0
 10
140.5599296007193
 20
102.2203843677578
 30
0.0
  0
SPLINE
  5
EF
330
1F
100
AcDbEntity
  8
0
  6
Continuous
 62
     7
370
    25
100
AcDbSpline
210
0.0
220
0.0
230
1.0
 70
     8
 71
     3
 72
    10
 73
     6
 74
     0
 42
0.000000001
 43
0.00000001
 40
0.0
 40
0.0
 40
0.0
 40
0.0
 40
0.5
 40
0.5
 40
1.0
 40
1.0
 40
1.0
 40
1.0
 10
139.8729090058134
 20
105.4056667562337
 30
0.0
 10
139.8256012425155
 20
105.1641474491519
 30
0.0
 10
139.8008722133991
 20
104.9210064246116
 30
0.0
 10
139.8006092914245
 20
104.4311909351396
 30
0.0
 10
139.8253545330842
 20
104.1853580948322
 30
0.0
 10
139.8729090058134
 20
103.9425792673938
 30
0.0
  0
SPLINE
  5
F0
330
1F
100
AcDbEntity
  8
0
  6
Continuous
 62
     7
370
    25
100
AcDbSpline
210
0.0
220
0.0
230
1.0
 70
     8
 71
     3
 72
     8
 73
     4
 74
     0
 42
0.000000001
 43
0.00000001
 40
0.0
 40
0.0
 40
0.0
 40
0.0
 40
1.0
 40
1.0
 40
1.0
 40
1.0
 10
140.5599296007191
 20
107.1278616558697
 30
0.0
 10
140.232571485108
 20
106.5608607673612
 30
0.0
 10
139.9869715087989
 20
105.9879876009467
 30
0.0
 10
139.8729090058134
 20
105.4056667562337
 30
0.0
  0
LINE
  5
F1
330
1F
100
AcDbEntity
  8
0
  6
Continuous
 62
     7
370
    25
100
AcDbLine
 10
144.752875709
 20
107.1278616559
 30
0.0
 11
140.5599296007
 21
107.1278616559
 31
0.0
  0
SPLINE
  5
F2
330
1F
100
AcDbEntity
  8
0
  6
Continuous
 62
     7
370
    25
100
AcDbSpline
210
0.0
220
0.0
230
1.0
 70
     8
 71
     3
 72
     8
 73
     4
 74
     0
 42
0.000000001
 43
0.00000001
 40
0.0
 40
0.0
 40
0.0
 40
0.0
 40
1.0
 40
1.0
 40
1.0
 40
1.0
 10
144.7528757090154
 20
107.1278616558697
 30
0.0
 10
145.0802338246265
 20
106.5608607673612
 30
0.0
 10
145.3258338009357
 20
105.9879876009467
 30
0.0
 10
145.4398963039212
 20
105.4056667562337
 30
0.0
  0
SPLINE
  5
F3
330
1F
100
AcDbEntity
  8
0
  6
Continuous
 62
     7
370
    25
100
AcDbSpline
210
0.0
220
0.0
230
1.0
 70
     8
 71
     3
 72
    10
 73
     6
 74
     0
 42
0.000000001
 43
0.00000001
 40
0.0
 40
0.0
 40
0.0
 40
0.0
 40
0.5
 40
0.5
 40
1.0
 40
1.0
 40
1.0
 40
1.0
 10
146.0894153567595
 20
98.71238206897118
 30
0.0
 10
146.0894153567595
 20
98.24944665759502
 30
0.0
 10
146.0710731361304
 20
97.78012886626775
 30
0.0
 10
146.0710910368258
 20
96.8447377641357
 30
0.0
 10
146.0894153567635
 20
96.37627252915911
 30
0.0
 10
146.0894153567632
 20
95.91343209032087
 30
0.0
  0
ARC
  5
F4
330
1F
100
AcDbEntity
  8
0
  6
Continuous
 62
     7
370
    25
100
AcDbCircle
 10
146.0206920925
 20
93.2673529895
 30
0.0
 40
2.646971381583636
100
AcDbArc
 50
88.5122636654
 51
102.674909816
  0
SPLINE
  5
F5
330
1F
100
AcDbEntity
  8
0
  6
Continuous
 62
     7
370
    25
100
AcDbSpline
210
0.0
220
0.0
230
1.0
 70
     8
 71
     3
 72
    10
 73
     6
 74
     0
 42
0.000000001
 43
0.00000001
 40
0.0
 40
0.0
 40
0.0
 40
0.0
 40
0.5
 40
0.5
 40
1.0
 40
1.0
 40
1.0
 40
1.0
 10
145.4398963039212
 20
95.84981959080602
 30
0.0
 10
145.4873142893435
 20
96.33398363425549
 30
0.0
 10
145.5118874302338
 20
96.8198627206638
 30
0.0
 10
145.5122408125597
 20
97.79528394833446
 30
0.0
 10
145.4878849488861
 20
98.28600377324337
 30
0.0
 10
145.4398963039212
 20
98.77599456848596
 30
0.0
  0
ARC
  5
F6
330
1F
100
AcDbEntity
  8
0
  6
Continuous
 62
     7
370
    25
100
AcDbCircle
 10
146.0206920925
 20
101.3584611698
 30
0.0
 40
2.646971381582347
100
AcDbArc
 50
257.325090184
 51
271.4877363346
  0
SPLINE
  5
F7
330
1F
100
AcDbEntity
  8
0
  6
Continuous
 62
     7
370
    25
100
AcDbSpline
210
0.0
220
0.0
230
1.0
 70
     8
 71
     3
 72
    10
 73
     6
 74
     0
 42
0.000000001
 43
0.00000001
 40
0.0
 40
0.0
 40
0.0
 40
0.0
 40
0.5
 40
0.5
 40
1.0
 40
1.0
 40
1.0
 40
1.0
 10
139.8729090058134
 20
95.84981959080602
 30
0.0
 10
139.825491020391
 20
96.33398363425549
 30
0.0
 10
139.8009178795007
 20
96.8198627206638
 30
0.0
 10
139.8005644971748
 20
97.79528394833446
 30
0.0
 10
139.8249203608484
 20
98.28600377324337
 30
0.0
 10
139.8729090058134
 20
98.77599456848596
 30
0.0
  0
ARC
  5
F8
330
1F
100
AcDbEntity
  8
0
  6
Continuous
 62
     7
370
    25
100
AcDbCircle
 10
139.2921132173
 20
93.2673529895
 30
0.0
 40
2.646971381583934
100
AcDbArc
 50
77.325090184
 51
91.4877363346
  0
SPLINE
  5
F9
330
1F
100
AcDbEntity
  8
0
  6
Continuous
 62
     7
370
    25
100
AcDbSpline
210
0.0
220
0.0
230
1.0
 70
     8
 71
     3
 72
    10
 73
     6
 74
     0
 42
0.000000001
 43
0.00000001
 40
0.0
 40
0.0
 40
0.0
 40
0.0
 40
0.5
 40
0.5
 40
1.0
 40
1.0
 40
1.0
 40
1.0
 10
139.223389952975
 20
98.71238206897118
 30
0.0
 10
139.223389952975
 20
98.24944665759502
 30
0.0
 10
139.2417321736041
 20
97.78012886626775
 30
0.0
 10
139.2417142729087
 20
96.8447377641357
 30
0.0
 10
139.223389952971
 20
96.37627252915911
 30
0.0
 10
139.2233899529713
 20
95.91343209032087
 30
0.0
  0
ARC
  5
FA
330
1F
100
AcDbEntity
  8
0
  6
Continuous
 62
     7
370
    25
100
AcDbCircle
 10
139.2921132173
 20
101.3584611698
 30
0.0
 40
2.646971381582436
100
AcDbArc
 50
268.5122636654
 51
282.674909816
  0
LINE
  5
FB
330
1F
100
AcDbEntity
  8
0
  6
Continuous
 62
     7
370
    25
100
AcDbLine
 10
144.752875709
 20
92.4054297915
 30
0.0
 11
140.5599296007
 21
92.4054297915
 31
0.0
  0
SPLINE
  5
FC
330
1F
100
AcDbEntity
  8
0
  6
Continuous
 62
     7
370
    25
100
AcDbSpline
210
0.0
220
0.0
230
1.0
 70
     8
 71
     3
 72
    10
 73
     6
 74
     0
 42
0.000000001
 43
0.00000001
 40
0.0
 40
0.0
 40
0.0
 40
0.0
 40
0.5
 40
0.5
 40
1.0
 40
1.0
 40
1.0
 40
1.0
 10
140.5599296007195
 20
92.40542979153415
 30
0.0
 10
140.3975283351801
 20
92.96800427778966
 30
0.0
 10
140.2533597032379
 20
93.54033522573542
 30
0.0
 10
140.0193358990167
 20
94.6917893039186
 30
0.0
 10
139.9297369788714
 20
95.26957433213919
 30
0.0
 10
139.8729090058134
 20
95.84981959080602
 30
0.0
  0
SPLINE
  5
FD
330
1F
100
AcDbEntity
  8
0
  6
Continuous
 62
     7
370
    25
100
AcDbSpline
210
0.0
220
0.0
230
1.0
 70
     8
 71
     3
 72
     8
 73
     4
 74
     0
 42
0.000000001
 43
0.00000001
 40
0.0
 40
0.0
 40
0.0
 40
0.0
 40
1.0
 40
1.0
 40
1.0
 40
1.0
 10
139.8729090058134
 20
98.77599456848596
 30
0.0
 10
139.9883790625152
 20
99.95500816537758
 30
0.0
 10
140.2359506132047
 20
101.0980882338373
 30
0.0
 10
140.5599296007195
 20
102.2203843677578
 30
0.0
  0
LINE
  5
FE
330
1F
100
AcDbEntity
  8
0
  6
Continuous
 62
     7
370
    25
100
AcDbLine
 10
139.8729090058
 20
90.6832348919
 30
0.0
 11
139.8729090058
 21
95.8498195908
 31
0.0
  0
SPLINE
  5
FF
330
1F
100
AcDbEntity
  8
0
  6
Continuous
 62
     7
370
    25
100
AcDbSpline
210
0.0
220
0.0
230
1.0
 70
     8
 71
     3
 72
     8
 73
     4
 74
     0
 42
0.000000001
 43
0.00000001
 40
0.0
 40
0.0
 40
0.0
 40
0.0
 40
1.0
 40
1.0
 40
1.0
 40
1.0
 10
140.5599296007191
 20
92.40542979153419
 30
0.0
 10
140.232571485108
 20
91.8384289030257
 30
0.0
 10
139.9869715087989
 20
91.26555573661122
 30
0.0
 10
139.8729090058134
 20
90.68323489189824
 30
0.0
  0
LINE
  5
100
330
1F
100
AcDbEntity
  8
0
  6
Continuous
 62
     7
370
    25
100
AcDbLine
 10
139.8729090058
 20
98.7759945685
 30
0.0
 11
139.8729090058
 21
103.9425792674
 31
0.0
  0
LINE
  5
101
330
1F
100
AcDbEntity
  8
0
  6
Continuous
 62
     7
370
    25
100
AcDbLine
 10
139.223389953
 20
103.6543326505
 30
0.0
 11
139.223389953
 21
98.712382069
 31
0.0
  0
ARC
  5
102
330
1F
100
AcDbEntity
  8
0
  6
Continuous
 62
     7
370
    25
100
AcDbCircle
 10
139.2523422526
 20
104.465011674
 30
0.0
 40
0.8111958547051328
100
AcDbArc
 50
267.9546284054
 51
319.9072030665
  0
ARC
  5
103
330
1F
100
AcDbEntity
  8
0
  6
Continuous
 62
     7
370
    25
100
AcDbCircle
 10
146.0604630572
 20
104.465011674
 30
0.0
 40
0.8111958547051087
100
AcDbArc
 50
220.0927969335
 51
272.0453715946
  0
LINE
  5
104
330
1F
100
AcDbEntity
  8
0
  6
Continuous
 62
     7
370
    25
100
AcDbLine
 10
146.0894153568
 20
103.6543326505
 30
0.0
 11
146.0894153568
 21
98.712382069
 31
0.0
  0
ARC
  5
105
330
1F
100
AcDbEntity
  8
0
  6
Continuous
 62
     7
370
    25
100
AcDbCircle
 10
139.2523422526
 20
90.1608024853
 30
0.0
 40
0.8111958547051419
100
AcDbArc
 50
40.0927969335
 51
92.0453715946
  0
LINE
  5
106
330
1F
100
AcDbEntity
  8
0
  6
Continuous
 62
     7
370
    25
100
AcDbLine
 10
139.223389953
 20
95.9134320903
 30
0.0
 11
139.223389953
 21
90.9714815088
 31
0.0
  0
LINE
  5
107
330
1F
100
AcDbEntity
  8
0
  6
Continuous
 62
     7
370
    25
100
AcDbLine
 10
146.0894153568
 20
95.9134320903
 30
0.0
 11
146.0894153568
 21
90.9714815088
 31
0.0
  0
ARC
  5
108
330
1F
100
AcDbEntity
  8
0
  6
Continuous
 62
     7
370
    25
100
AcDbCircle
 10
146.0604630572
 20
90.1608024853
 30
0.0
 40
0.8111958547051328
100
AcDbArc
 50
87.9546284054
 51
139.9072030665
  0
SPLINE
  5
109
330
1F
100
AcDbEntity
  8
0
  6
Continuous
 62
     7
370
    25
100
AcDbSpline
210
0.0
220
0.0
230
1.0
 70
     8
 71
     3
 72
    10
 73
     6
 74
     0
 42
0.000000001
 43
0.00000001
 40
0.0
 40
0.0
 40
0.0
 40
0.0
 40
0.5
 40
0.5
 40
1.0
 40
1.0
 40
1.0
 40
1.0
 10
145.4398963039212
 20
90.68323489189824
 30
0.0
 10
145.487204067219
 20
90.44171558481641
 30
0.0
 10
145.5119330963354
 20
90.1985745602761
 30
0.0
 10
145.51219601831
 20
89.70875907080413
 30
0.0
 10
145.4874507766503
 20
89.46292623049678
 30
0.0
 10
145.4398963039212
 20
89.22014740305829
 30
0.0
  0
SPLINE
  5
10A
330
1F
100
AcDbEntity
  8
0
  6
Continuous
 62
     7
370
    25
100
AcDbSpline
210
0.0
220
0.0
230
1.0
 70
     8
 71
     3
 72
     8
 73
     4
 74
     0
 42
0.000000001
 43
0.00000001
 40
0.0
 40
0.0
 40
0.0
 40
0.0
 40
1.0
 40
1.0
 40
1.0
 40
1.0
 10
145.4398963039212
 20
89.22014740305829
 30
0.0
 10
145.3255901715984
 20
88.6365827627267
 30
0.0
 10
145.0796379099533
 20
88.06392123744016
 30
0.0
 10
144.7528757090152
 20
87.49795250342235
 30
0.0
  0
LINE
  5
10B
330
1F
100
AcDbEntity
  8
0
  6
Continuous
 62
     7
370
    25
100
AcDbLine
 10
144.752875709
 20
87.4979525034
 30
0.0
 11
140.5599296007
 21
87.4979525034
 31
0.0
  0
SPLINE
  5
10C
330
1F
100
AcDbEntity
  8
0
  6
Continuous
 62
     7
370
    25
100
AcDbSpline
210
0.0
220
0.0
230
1.0
 70
     8
 71
     3
 72
     8
 73
     4
 74
     0
 42
0.000000001
 43
0.00000001
 40
0.0
 40
0.0
 40
0.0
 40
0.0
 40
1.0
 40
1.0
 40
1.0
 40
1.0
 10
139.8729090058134
 20
89.22014740305829
 30
0.0
 10
139.9872151381361
 20
88.6365827627267
 30
0.0
 10
140.2331673997812
 20
88.06392123744016
 30
0.0
 10
140.5599296007193
 20
87.49795250342235
 30
0.0
  0
SPLINE
  5
10D
330
1F
100
AcDbEntity
  8
0
  6
Continuous
 62
     7
370
    25
100
AcDbSpline
210
0.0
220
0.0
230
1.0
 70
     8
 71
     3
 72
    10
 73
     6
 74
     0
 42
0.000000001
 43
0.00000001
 40
0.0
 40
0.0
 40
0.0
 40
0.0
 40
0.5
 40
0.5
 40
1.0
 40
1.0
 40
1.0
 40
1.0
 10
139.8729090058134
 20
90.68323489189824
 30
0.0
 10
139.8256012425155
 20
90.44171558481641
 30
0.0
 10
139.8008722133991
 20
90.1985745602761
 30
0.0
 10
139.8006092914245
 20
89.70875907080413
 30
0.0
 10
139.8253545330842
 20
89.46292623049678
 30
0.0
 10
139.8729090058134
 20
89.22014740305829
 30
0.0
  0
LINE
  5
10E
330
1F
100
AcDbEntity
  8
0
  6
Continuous
 62
     7
370
    25
100
AcDbLine
 10
149.6564026549
 20
105.6439070796
 30
0.0
 11
149.6564026549
 21
88.9819070796
 31
0.0
  0
LINE
  5
10F
330
1F
100
AcDbEntity
  8
0
  6
Continuous
 62
     7
370
    25
100
AcDbLine
 10
135.6564026549
 20
105.6439070796
 30
0.0
 11
135.6564026549
 21
88.9819070796
 31
0.0
  0
LINE
  5
110
330
1F
100
AcDbEntity
  8
0
  6
Continuous
 62
     7
370
    25
100
AcDbLine
 10
148.6564026549
 20
89.9819070796
 30
0.0
 11
148.6564026549
 21
104.6439070796
 31
0.0
  0
LINE
  5
111
330
1F
100
AcDbEntity
  8
0
  6
Continuous
 62
     7
370
    25
100
AcDbLine
 10
136.6564026549
 20
89.9819070796
 30
0.0
 11
136.6564026549
 21
104.6439070796
 31
0.0
  0
LINE
  5
112
330
1F
100
AcDbEntity
  8
0
  6
Continuous
 62
     7
370
    25
100
AcDbLine
 10
146.6564026549
 20
105.3629070796
 30
0.0
 11
146.6564026549
 21
89.2629070796
 31
0.0
  0
LINE
  5
113
330
1F
100
AcDbEntity
  8
0
  6
Continuous
 62
     7
370
    25
100
AcDbLine
 10
146.4564026549
 20
89.0629070796
 30
0.0
 11
146.4564026549
 21
105.5629070796
 31
0.0
  0
LINE
  5
114
330
1F
100
AcDbEntity
  8
0
  6
Continuous
 62
     7
370
    25
100
AcDbLine
 10
138.6564026549
 20
105.3629070796
 30
0.0
 11
138.6564026549
 21
89.2629070796
 31
0.0
  0
LINE
  5
115
330
1F
100
AcDbEntity
  8
0
  6
Continuous
 62
     7
370
    25
100
AcDbLine
 10
138.8564026549
 20
89.0629070796
 30
0.0
 11
138.8564026549
 21
105.5629070796
 31
0.0
  0
SPLINE
  5
116
330
1F
100
AcDbEntity
  8
0
  6
Continuous
 62
     7
370
    25
100
AcDbSpline
210
0.0
220
0.0
230
1.0
 70
     8
 71
     3
 72
    10
 73
     6
 74
     0
 42
0.000000001
 43
0.00000001
 40
0.0
 40
0.0
 40
0.0
 40
0.0
 40
0.5000000000000002
 40
0.5000000000000002
 40
1.0
 40
1.0
 40
1.0
 40
1.0
 10
146.0894153567595
 20
90.97148150875684
 30
0.0
 10
146.0894153567595
 20
90.67100533203964
 30
0.0
 10
146.0710731361304
 20
90.4017851439082
 30
0.0
 10
146.0710910368258
 20
89.93413611205771
 30
0.0
 10
146.0894153567635
 20
89.73443242510902
 30
0.0
 10
146.0894153567632
 20
89.5720065194317
 30
0.0
  0
SPLINE
  5
117
330
1F
100
AcDbEntity
  8
0
  6
Continuous
 62
     7
370
    25
100
AcDbSpline
210
0.0
220
0.0
230
1.0
 70
     8
 71
     3
 72
    10
 73
     6
 74
     0
 42
0.000000001
 43
0.00000001
 40
0.0
 40
0.0
 40
0.0
 40
0.0
 40
0.5
 40
0.5
 40
1.0
 40
1.0
 40
1.0
 40
1.0
 10
146.0894153567595
 20
105.0538076398603
 30
0.0
 10
146.0894153567595
 20
104.8913484052014
 30
0.0
 10
146.0710731361304
 20
104.6912508020056
 30
0.0
 10
146.0710910368258
 20
104.223508731724
 30
0.0
 10
146.0894153567635
 20
103.9547471836961
 30
0.0
 10
146.0894153567632
 20
103.6543326505352
 30
0.0
  0
SPLINE
  5
118
330
1F
100
AcDbEntity
  8
0
  6
Continuous
 62
     7
370
    25
100
AcDbSpline
210
0.0
220
0.0
230
1.0
 70
     8
 71
     3
 72
    10
 73
     6
 74
     0
 42
0.000000001
 43
0.00000001
 40
0.0
 40
0.0
 40
0.0
 40
0.0
 40
0.5
 40
0.5
 40
1.0
 40
1.0
 40
1.0
 40
1.0
 10
139.223389952975
 20
105.0538076398603
 30
0.0
 10
139.223389952975
 20
104.8913484052014
 30
0.0
 10
139.2417321736041
 20
104.6912508020056
 30
0.0
 10
139.2417142729087
 20
104.223508731724
 30
0.0
 10
139.223389952971
 20
103.9547471836961
 30
0.0
 10
139.2233899529713
 20
103.6543326505352
 30
0.0
  0
SPLINE
  5
119
330
1F
100
AcDbEntity
  8
0
  6
Continuous
 62
     7
370
    25
100
AcDbSpline
210
0.0
220
0.0
230
1.0
 70
     8
 71
     3
 72
    10
 73
     6
 74
     0
 42
0.000000001
 43
0.00000001
 40
0.0
 40
0.0
 40
0.0
 40
0.0
 40
0.5000000000000002
 40
0.5000000000000002
 40
1.0
 40
1.0
 40
1.0
 40
1.0
 10
139.223389952975
 20
90.97148150875684
 30
0.0
 10
139.223389952975
 20
90.67100533203964
 30
0.0
 10
139.2417321736041
 20
90.4017851439082
 30
0.0
 10
139.2417142729087
 20
89.93413611205771
 30
0.0
 10
139.223389952971
 20
89.73443242510902
 30
0.0
 10
139.2233899529713
 20
89.5720065194317
 30
0.0
  0
ARC
  5
11A
330
1F
100
AcDbEntity
  8
0
  6
Continuous
 62
     7
370
    25
100
AcDbCircle
 10
139.2318534877
 20
105.8136080241
 30
0.0
 40
0.759847521115819
100
AcDbArc
 50
269.3617997903
 51
327.5290082721
  0
ARC
  5
11B
330
1F
100
AcDbEntity
  8
0
  6
Continuous
 62
     7
370
    25
100
AcDbCircle
 10
146.080951822
 20
105.8136080241
 30
0.0
 40
0.7598475211158063
100
AcDbArc
 50
212.4709917279
 51
270.6382002097
  0
ARC
  5
11C
330
1F
100
AcDbEntity
  8
0
  6
Continuous
 62
     7
370
    25
100
AcDbCircle
 10
139.2318534877
 20
88.8122061352
 30
0.0
 40
0.7598475211239302
100
AcDbArc
 50
32.4709917283
 51
90.6382002094
  0
ARC
  5
11D
330
1F
100
AcDbEntity
  8
0
  6
Continuous
 62
     7
370
    25
100
AcDbCircle
 10
146.080951822
 20
88.8122061352
 30
0.0
 40
0.7598475211238572
100
AcDbArc
 50
89.3617997906
 51
147.5290082717
  0
LINE
  5
11E
330
1F
100
AcDbEntity
  8
0
  6
Continuous
 62
     1
370
    25
100
AcDbLine
 10
119.6967438393
 20
107.0820722348
 30
0.0
 11
119.6967438393
 21
107.5629070796
 31
0.0
  0
LINE
  5
11F
330
1F
100
AcDbEntity
  8
0
  6
Continuous
 62
     1
370
    25
100
AcDbLine
 10
119.6967438393
 20
87.0629070796
 30
0.0
 11
119.6967438393
 21
87.5437419245
 31
0.0
  0
LINE
  5
120
330
1F
100
AcDbEntity
  8
0
  6
Continuous
 62
     1
370
    25
100
AcDbLine
 10
120.5627692431
 20
108.0629070796
 30
0.0
 11
120.5627692431
 21
107.5586168765
 31
0.0
  0
LINE
  5
121
330
1F
100
AcDbEntity
  8
0
  6
Continuous
 62
     1
370
    25
100
AcDbLine
 10
120.5627692431
 20
87.0671972827
 30
0.0
 11
120.5627692431
 21
86.5629070796
 31
0.0
  0
LINE
  5
122
330
1F
100
AcDbEntity
  8
0
  6
Continuous
 62
     1
370
    25
100
AcDbLine
 10
165.6160614704
 20
87.5437419245
 30
0.0
 11
165.6160614704
 21
87.0629070796
 31
0.0
  0
LINE
  5
123
330
1F
100
AcDbEntity
  8
0
  6
Continuous
 62
     1
370
    25
100
AcDbLine
 10
165.6160614704
 20
107.5629070796
 30
0.0
 11
165.6160614704
 21
107.0820722348
 31
0.0
  0
LINE
  5
124
330
1F
100
AcDbEntity
  8
0
  6
Continuous
 62
     1
370
    25
100
AcDbLine
 10
164.7500360666
 20
107.5586168765
 30
0.0
 11
164.7500360666
 21
108.0629070796
 31
0.0
  0
LINE
  5
125
330
1F
100
AcDbEntity
  8
0
  6
Continuous
 62
     1
370
    25
100
AcDbLine
 10
164.7500360666
 20
86.5629070796
 30
0.0
 11
164.7500360666
 21
87.0671972827
 31
0.0
  0
LINE
  5
126
330
1F
100
AcDbEntity
  8
0
  6
Continuous
 62
     1
370
    25
100
AcDbLine
 10
146.0894153568
 20
89.5720065194
 30
0.0
 11
146.0894153568
 21
89.0629070796
 31
0.0
  0
LINE
  5
127
330
1F
100
AcDbEntity
  8
0
  6
Continuous
 62
     1
370
    25
100
AcDbLine
 10
146.0894153568
 20
105.5629070796
 30
0.0
 11
146.0894153568
 21
105.0538076399
 31
0.0
  0
LINE
  5
128
330
1F
100
AcDbEntity
  8
0
  6
Continuous
 62
     1
370
    25
100
AcDbLine
 10
139.223389953
 20
105.5629070796
 30
0.0
 11
139.223389953
 21
105.0538076399
 31
0.0
  0
LINE
  5
129
330
1F
100
AcDbEntity
  8
0
  6
Continuous
 62
     1
370
    25
100
AcDbLine
 10
139.223389953
 20
89.5720065194
 30
0.0
 11
139.223389953
 21
89.0629070796
 31
0.0
  0
LINE
  5
12A
330
1F
100
AcDbEntity
  8
0
  6
Continuous
 62
     1
370
    25
100
AcDbLine
 10
145.4398963039
 20
105.4056667562
 30
0.0
 11
145.4398963039
 21
105.9379070796
 31
0.0
  0
LINE
  5
12B
330
1F
100
AcDbEntity
  8
0
  6
Continuous
 62
     1
370
    25
100
AcDbLine
 10
139.8729090058
 20
105.4056667562
 30
0.0
 11
139.8729090058
 21
105.9379070796
 31
0.0
  0
LINE
  5
12C
330
1F
100
AcDbEntity
  8
0
  6
Continuous
 62
     1
370
    25
100
AcDbLine
 10
139.8729090058
 20
88.6879070796
 30
0.0
 11
139.8729090058
 21
89.2201474031
 31
0.0
  0
LINE
  5
12D
330
1F
100
AcDbEntity
  8
0
  6
Continuous
 62
     1
370
    25
100
AcDbLine
 10
145.4398963039
 20
88.6879070796
 30
0.0
 11
145.4398963039
 21
89.2201474031
 31
0.0
  0
MTEXT
  5
12F
330
1F
100
AcDbEntity
  8
0
  6
Continuous
 62
     7
370
     0
100
AcDbMText
 10
163.1191371681
 20
122.0886770157
 30
0.0
 40
5.2916666667
 41
0.0
 71
     1
 72
     1
  1
5R-RS2310
  7
SLDTEXTSTYLE0
 73
     1
 44
1.0
  0
LINE
  5
130
330
1F
100
AcDbEntity
  8
0
  6
Continuous
 62
     7
370
    25
100
AcDbLine
 10
133.6260964219
 20
130.6552843812
 30
0.0
 11
133.7740941085
 21
130.9116238938
 31
0.0
  0
LINE
  5
131
330
1F
100
AcDbEntity
  8
0
  6
Continuous
 62
     7
370
    25
100
AcDbLine
 10
133.7740941085
 20
151.4116238938
 30
0.0
 11
133.6260964219
 21
151.6679634064
 31
0.0
  0
LINE
  5
132
330
1F
100
AcDbEntity
  8
0
  6
Continuous
 62
     7
370
    25
100
AcDbLine
 10
118.9740941085
 20
130.9116238938
 30
0.0
 11
119.7545379773
 21
130.9116238938
 31
0.0
  0
LINE
  5
133
330
1F
100
AcDbEntity
  8
0
  6
Continuous
 62
     7
370
    25
100
AcDbLine
 10
119.7545379773
 20
151.4116238938
 30
0.0
 11
118.9740941085
 21
151.4116238938
 31
0.0
  0
LINE
  5
134
330
1F
100
AcDbEntity
  8
0
  6
Continuous
 62
     7
370
    25
100
AcDbLine
 10
118.9740941085
 20
151.4116238938
 30
0.0
 11
118.7740941085
 21
151.2116238938
 31
0.0
  0
LINE
  5
135
330
1F
100
AcDbEntity
  8
0
  6
Continuous
 62
     7
370
    25
100
AcDbLine
 10
118.7740941085
 20
131.1116238938
 30
0.0
 11
118.9740941085
 21
130.9116238938
 31
0.0
  0
SPLINE
  5
136
330
1F
100
AcDbEntity
  8
0
  6
Continuous
 62
     7
370
    25
100
AcDbSpline
210
0.0
220
0.0
230
1.0
 70
     8
 71
     3
 72
    12
 73
     8
 74
     0
 42
0.000000001
 43
0.00000001
 40
0.0
 40
0.0
 40
0.0
 40
0.0
 40
0.158433468267367
 40
0.3504120426298645
 40
0.5589611695205442
 40
0.7838674011536703
 40
0.9999999999999999
 40
0.9999999999999999
 40
0.9999999999999999
 40
0.9999999999999999
 10
120.4249859291667
 20
151.6696272657659
 30
0.0
 10
120.3973571138844
 20
151.6460022312783
 30
0.0
 10
120.3362496363774
 20
151.5937500355615
 30
0.0
 10
120.2185123047659
 20
151.5213901804025
 30
0.0
 10
120.0761017191169
 20
151.4602815834278
 30
0.0
 10
119.9183802180859
 20
151.4188560793262
 30
0.0
 10
119.8081299383205
 20
151.4149546957646
 30
0.0
 10
119.7541014087614
 20
151.4130428093047
 30
0.0
  0
SPLINE
  5
137
330
1F
100
AcDbEntity
  8
0
  6
Continuous
 62
     7
370
    25
100
AcDbSpline
210
0.0
220
0.0
230
1.0
 70
     8
 71
     3
 72
    13
 73
     9
 74
     0
 42
0.000000001
 43
0.00000001
 40
0.0
 40
0.0
 40
0.0
 40
0.0
 40
0.1618784517359826
 40
0.3696796004657862
 40
0.564151408488902
 40
0.7443121893013539
 40
0.9076478643647318
 40
0.9999999999999999
 40
0.9999999999999999
 40
0.9999999999999999
 40
0.9999999999999999
 10
119.7542445260744
 20
130.9088291014734
 30
0.0
 10
119.7947567557725
 20
130.9085431036089
 30
0.0
 10
119.8872739792087
 20
130.9078899742075
 30
0.0
 10
120.0256438231947
 20
130.8777381856885
 30
0.0
 10
120.1623069692384
 20
130.8287272047316
 30
0.0
 10
120.2791079593506
 20
130.7661637323642
 30
0.0
 10
120.3668797589172
 20
130.7054116608104
 30
0.0
 10
120.4089472228958
 20
130.6670975274366
 30
0.0
 10
120.4241416122122
 20
130.6532588073489
 30
0.0
  0
LINE
  5
138
330
1F
100
AcDbEntity
  8
0
  6
Continuous
 62
     7
370
    25
100
AcDbLine
 10
151.6830487685
 20
151.6616238938
 30
0.0
 11
151.5387112012
 21
151.4116238938
 31
0.0
  0
LINE
  5
139
330
1F
100
AcDbEntity
  8
0
  6
Continuous
 62
     7
370
    25
100
AcDbLine
 10
151.5387112012
 20
130.9116238938
 30
0.0
 11
151.6830487685
 21
130.6616238938
 31
0.0
  0
LINE
  5
13A
330
1F
100
AcDbEntity
  8
0
  6
Continuous
 62
     7
370
    25
100
AcDbLine
 10
166.3387112012
 20
130.9116238938
 30
0.0
 11
166.5387112012
 21
131.1116238938
 31
0.0
  0
LINE
  5
13B
330
1F
100
AcDbEntity
  8
0
  6
Continuous
 62
     7
370
    25
100
AcDbLine
 10
166.5387112012
 20
151.2116238938
 30
0.0
 11
166.3387112012
 21
151.4116238938
 31
0.0
  0
LINE
  5
13C
330
1F
100
AcDbEntity
  8
0
  6
Continuous
 62
     7
370
    25
100
AcDbLine
 10
166.3387112012
 20
151.4116238938
 30
0.0
 11
165.5584454285
 21
151.4116238938
 31
0.0
  0
LINE
  5
13D
330
1F
100
AcDbEntity
  8
0
  6
Continuous
 62
     7
370
    25
100
AcDbLine
 10
165.5584454285
 20
130.9116238938
 30
0.0
 11
166.3387112012
 21
130.9116238938
 31
0.0
  0
SPLINE
  5
13E
330
1F
100
AcDbEntity
  8
0
  6
Continuous
 62
     7
370
    25
100
AcDbSpline
210
0.0
220
0.0
230
1.0
 70
     8
 71
     3
 72
    13
 73
     9
 74
     0
 42
0.000000001
 43
0.00000001
 40
0.0
 40
0.0
 40
0.0
 40
0.0
 40
0.1633949573872779
 40
0.3728289534889866
 40
0.5688288704231657
 40
0.7504053078754769
 40
0.9150244323737327
 40
1.0
 40
1.0
 40
1.0
 40
1.0
 10
165.558742399114
 20
151.4144119102904
 30
0.0
 10
165.5181691469665
 20
151.4146973136812
 30
0.0
 10
165.4255905057424
 20
151.4153485372514
 30
0.0
 10
165.2871650636157
 20
151.4455095730202
 30
0.0
 10
165.1504860553821
 20
151.4945173446748
 30
0.0
 10
165.0337379739634
 20
151.5570955227638
 30
0.0
 10
164.9474357683121
 20
151.6166847302496
 30
0.0
 10
164.9066308479451
 20
151.653777168572
 30
0.0
 10
164.89273864038
 20
151.6664054459374
 30
0.0
  0
SPLINE
  5
13F
330
1F
100
AcDbEntity
  8
0
  6
Continuous
 62
     7
370
    25
100
AcDbSpline
210
0.0
220
0.0
230
1.0
 70
     8
 71
     3
 72
    12
 73
     8
 74
     0
 42
0.000000001
 43
0.00000001
 40
0.0
 40
0.0
 40
0.0
 40
0.0
 40
0.1520447077979314
 40
0.3454250932624284
 40
0.5554970280113412
 40
0.7820455056804085
 40
1.0
 40
1.0
 40
1.0
 40
1.0
 10
164.8918611243913
 20
130.6569049899004
 30
0.0
 10
164.9182041110449
 20
130.6794018972876
 30
0.0
 10
164.9780518279001
 20
130.7305118401778
 30
0.0
 10
165.0943193302743
 20
130.8018431250687
 30
0.0
 10
165.2366955688275
 20
130.8629714089683
 30
0.0
 10
165.3944862623079
 20
130.9044024240683
 30
0.0
 10
165.5047959903924
 20
130.90830456353
 30
0.0
 10
165.558884494898
 20
130.9102179114416
 30
0.0
  0
LINE
  5
140
330
1F
100
AcDbEntity
  8
0
  6
Continuous
 62
     7
370
    25
100
AcDbLine
 10
149.6564026549
 20
132.8306238938
 30
0.0
 11
151.5387112012
 21
132.8306238938
 31
0.0
  0
LINE
  5
141
330
1F
100
AcDbEntity
  8
0
  6
Continuous
 62
     7
370
    25
100
AcDbLine
 10
151.5387112012
 20
149.4926238938
 30
0.0
 11
149.6564026549
 21
149.4926238938
 31
0.0
  0
LINE
  5
142
330
1F
100
AcDbEntity
  8
0
  6
Continuous
 62
     7
370
    25
100
AcDbLine
 10
135.6564026549
 20
132.8306238938
 30
0.0
 11
136.6564026549
 21
133.8306238938
 31
0.0
  0
LINE
  5
143
330
1F
100
AcDbEntity
  8
0
  6
Continuous
 62
     7
370
    25
100
AcDbLine
 10
136.6564026549
 20
148.4926238938
 30
0.0
 11
135.6564026549
 21
149.4926238938
 31
0.0
  0
LINE
  5
144
330
1F
100
AcDbEntity
  8
0
  6
Continuous
 62
     7
370
    25
100
AcDbLine
 10
149.6564026549
 20
149.4926238938
 30
0.0
 11
148.6564026549
 21
148.4926238938
 31
0.0
  0
LINE
  5
145
330
1F
100
AcDbEntity
  8
0
  6
Continuous
 62
     7
370
    25
100
AcDbLine
 10
148.6564026549
 20
133.8306238938
 30
0.0
 11
149.6564026549
 21
132.8306238938
 31
0.0
  0
LINE
  5
146
330
1F
100
AcDbEntity
  8
0
  6
Continuous
 62
     7
370
    25
100
AcDbLine
 10
135.6564026549
 20
149.4926238938
 30
0.0
 11
133.7740941085
 21
149.4926238938
 31
0.0
  0
LINE
  5
147
330
1F
100
AcDbEntity
  8
0
  6
Continuous
 62
     7
370
    25
100
AcDbLine
 10
133.7740941085
 20
132.8306238938
 30
0.0
 11
135.6564026549
 21
132.8306238938
 31
0.0
  0
LINE
  5
148
330
1F
100
AcDbEntity
  8
0
  6
Continuous
 62
     7
370
    25
100
AcDbLine
 10
146.4564026549
 20
132.9116238938
 30
0.0
 11
146.6564026549
 21
133.1116238938
 31
0.0
  0
LINE
  5
149
330
1F
100
AcDbEntity
  8
0
  6
Continuous
 62
     7
370
    25
100
AcDbLine
 10
146.6564026549
 20
149.2116238938
 30
0.0
 11
146.4564026549
 21
149.4116238938
 31
0.0
  0
LINE
  5
14A
330
1F
100
AcDbEntity
  8
0
  6
Continuous
 62
     7
370
    25
100
AcDbLine
 10
138.8564026549
 20
149.4116238938
 30
0.0
 11
138.6564026549
 21
149.2116238938
 31
0.0
  0
LINE
  5
14B
330
1F
100
AcDbEntity
  8
0
  6
Continuous
 62
     7
370
    25
100
AcDbLine
 10
138.6564026549
 20
133.1116238938
 30
0.0
 11
138.8564026549
 21
132.9116238938
 31
0.0
  0
LINE
  5
14C
330
1F
100
AcDbEntity
  8
0
  6
Continuous
 62
     7
370
    25
100
AcDbLine
 10
138.8564026549
 20
132.9116238938
 30
0.0
 11
139.2400868604
 21
132.9116238938
 31
0.0
  0
LINE
  5
14D
330
1F
100
AcDbEntity
  8
0
  6
Continuous
 62
     7
370
    25
100
AcDbLine
 10
139.2400868604
 20
149.4116238938
 30
0.0
 11
138.8564026549
 21
149.4116238938
 31
0.0
  0
LINE
  5
14E
330
1F
100
AcDbEntity
  8
0
  6
Continuous
 62
     7
370
    25
100
AcDbLine
 10
146.4564026549
 20
149.4116238938
 30
0.0
 11
146.0727184493
 21
149.4116238938
 31
0.0
  0
LINE
  5
14F
330
1F
100
AcDbEntity
  8
0
  6
Continuous
 62
     7
370
    25
100
AcDbLine
 10
146.0727184493
 20
132.9116238938
 30
0.0
 11
146.4564026549
 21
132.9116238938
 31
0.0
  0
LINE
  5
150
330
1F
100
AcDbEntity
  8
0
  6
Continuous
 62
     7
370
    25
100
AcDbLine
 10
138.6564026549
 20
148.1616238938
 30
0.0
 11
136.6564026549
 21
148.1616238938
 31
0.0
  0
LINE
  5
151
330
1F
100
AcDbEntity
  8
0
  6
Continuous
 62
     7
370
    25
100
AcDbLine
 10
136.6564026549
 20
134.1616238938
 30
0.0
 11
138.6564026549
 21
134.1616238938
 31
0.0
  0
LINE
  5
152
330
1F
100
AcDbEntity
  8
0
  6
Continuous
 62
     7
370
    25
100
AcDbLine
 10
146.6564026549
 20
134.1616238938
 30
0.0
 11
148.6564026549
 21
134.1616238938
 31
0.0
  0
LINE
  5
153
330
1F
100
AcDbEntity
  8
0
  6
Continuous
 62
     7
370
    25
100
AcDbLine
 10
148.6564026549
 20
148.1616238938
 30
0.0
 11
146.6564026549
 21
148.1616238938
 31
0.0
  0
SPLINE
  5
154
330
1F
100
AcDbEntity
  8
0
  6
Continuous
 62
     7
370
    25
100
AcDbSpline
210
0.0
220
0.0
230
1.0
 70
     8
 71
     3
 72
    12
 73
     8
 74
     0
 42
0.000000001
 43
0.00000001
 40
0.0
 40
0.0
 40
0.0
 40
0.0
 40
0.1539438706589151
 40
0.352882611208734
 40
0.5708889804628898
 40
0.8067793498472315
 40
1.0
 40
1.0
 40
1.0
 40
1.0
 10
139.8026877559553
 20
149.6668467160885
 30
0.0
 10
139.7814516886622
 20
149.643822575157
 30
0.0
 10
139.7327726548943
 20
149.5910447741445
 30
0.0
 10
139.6338285748116
 20
149.5186372391208
 30
0.0
 10
139.5086056707787
 20
149.456649846089
 30
0.0
 10
139.3737189889139
 20
149.4171336137308
 30
0.0
 10
139.2812748575526
 20
149.4153787907563
 30
0.0
 10
139.2396489976907
 20
149.4145886268579
 30
0.0
  0
SPLINE
  5
155
330
1F
100
AcDbEntity
  8
0
  6
Continuous
 62
     7
370
    25
100
AcDbSpline
210
0.0
220
0.0
230
1.0
 70
     8
 71
     3
 72
    13
 73
     9
 74
     0
 42
0.000000001
 43
0.00000001
 40
0.0
 40
0.0
 40
0.0
 40
0.0
 40
0.118545648617183
 40
0.3406932130593233
 40
0.546366559547158
 40
0.7362973086341973
 40
0.9098314811418975
 40
0.9999999999999999
 40
0.9999999999999999
 40
0.9999999999999999
 40
0.9999999999999999
 10
146.0726442856684
 20
149.4157406750054
 30
0.0
 10
146.0471351919844
 20
149.4149079785244
 30
0.0
 10
145.9738235589485
 20
149.412514857875
 30
0.0
 10
145.8582196120643
 20
149.4393813827813
 30
0.0
 10
145.734606062064
 20
149.4876877789808
 30
0.0
 10
145.6314399119298
 20
149.5517886249643
 30
0.0
 10
145.556771306981
 20
149.6134593117299
 30
0.0
 10
145.5224464205099
 20
149.6533156835179
 30
0.0
 10
145.5107096264824
 20
149.6669438721137
 30
0.0
  0
SPLINE
  5
156
330
1F
100
AcDbEntity
  8
0
  6
Continuous
 62
     7
370
    25
100
AcDbSpline
210
0.0
220
0.0
230
1.0
 70
     8
 71
     3
 72
    12
 73
     8
 74
     0
 42
0.000000001
 43
0.00000001
 40
0.0
 40
0.0
 40
0.0
 40
0.0
 40
0.1490867407007561
 40
0.3491675701661243
 40
0.5684254938285837
 40
0.8056700880100356
 40
1.0
 40
1.0
 40
1.0
 40
1.0
 10
145.5125678863458
 20
132.6589056329155
 30
0.0
 10
145.5330317784109
 20
132.6810662575355
 30
0.0
 10
145.5809590953201
 20
132.7329673951921
 30
0.0
 10
145.678997566418
 20
132.8045971616866
 30
0.0
 10
145.8041933020393
 20
132.8666020138024
 30
0.0
 10
145.9390876172606
 20
132.9061133407708
 30
0.0
 10
146.0315308547032
 20
132.9078687381906
 30
0.0
 10
146.0731563120446
 20
132.9086591607509
 30
0.0
  0
SPLINE
  5
157
330
1F
100
AcDbEntity
  8
0
  6
Continuous
 62
     7
370
    25
100
AcDbSpline
210
0.0
220
0.0
230
1.0
 70
     8
 71
     3
 72
    13
 73
     9
 74
     0
 42
0.000000001
 43
0.00000001
 40
0.0
 40
0.0
 40
0.0
 40
0.0
 40
0.1192061943132771
 40
0.3425915824067187
 40
0.5494109569111326
 40
0.7404000150289635
 40
0.9149011335547437
 40
0.9999999999999999
 40
0.9999999999999999
 40
0.9999999999999999
 40
0.9999999999999999
 10
139.2401610240649
 20
132.9075071126052
 30
0.0
 10
139.265670198862
 20
132.9083398448682
 30
0.0
 10
139.3389820649942
 20
132.9107330683525
 30
0.0
 10
139.4545831628531
 20
132.883865286462
 30
0.0
 10
139.5782075267592
 20
132.8355636613009
 30
0.0
 10
139.6813381069942
 20
132.7714471220526
 30
0.0
 10
139.755194458059
 20
132.7105737987892
 30
0.0
 10
139.7888380090458
 20
132.6715725510543
 30
0.0
 10
139.7998666231364
 20
132.6587876428711
 30
0.0
  0
SPLINE
  5
158
330
1F
100
AcDbEntity
  8
0
  6
Continuous
 62
     7
370
    25
100
AcDbSpline
210
0.0
220
0.0
230
1.0
 70
     8
 71
     3
 72
    15
 73
    11
 74
     0
 42
0.000000001
 43
0.00000001
 40
0.0
 40
0.0
 40
0.0
 40
0.0
 40
0.132306064994714
 40
0.2645747216258912
 40
0.3998023269484416
 40
0.5350055300348283
 40
0.6501955637891815
 40
0.7654035659406108
 40
0.8826904433746945
 40
1.0
 40
1.0
 40
1.0
 40
1.0
 10
132.6919343676849
 20
141.1616238938051
 30
0.0
 10
132.8346981167121
 20
140.7079792694169
 30
0.0
 10
133.1201852495859
 20
139.8008182846245
 30
0.0
 10
133.4273576362764
 20
138.4038703496472
 30
0.0
 10
133.6120503482251
 20
136.9805895148663
 30
0.0
 10
133.6486246485579
 20
135.6088707143626
 30
0.0
 10
133.553724828732
 20
134.3112649865607
 30
0.0
 10
133.3592773930651
 20
133.0866508983162
 30
0.0
 10
133.0740462252407
 20
131.8675737353989
 30
0.0
 10
132.8193131954904
 20
131.0636330808453
 30
0.0
 10
132.6919343676849
 20
130.6616238938052
 30
0.0
  0
SPLINE
  5
159
330
1F
100
AcDbEntity
  8
0
  6
Continuous
 62
     7
370
    25
100
AcDbSpline
210
0.0
220
0.0
230
1.0
 70
     8
 71
     3
 72
    16
 73
    12
 74
     0
 42
0.000000001
 43
0.00000001
 40
0.0
 40
0.0
 40
0.0
 40
0.0
 40
0.1151108105905589
 40
0.2406803956034895
 40
0.3662176669152619
 40
0.4948477222900259
 40
0.6234766707927397
 40
0.7171032364566066
 40
0.810739512423133
 40
0.9053651295077382
 40
1.0
 40
1.0
 40
1.0
 40
1.0
 10
132.6919343676849
 20
151.6616238938052
 30
0.0
 10
132.8170587972633
 20
151.2671691518733
 30
0.0
 10
133.0786762514024
 20
150.442420174355
 30
0.0
 10
133.3752211777199
 20
149.1656312180923
 30
0.0
 10
133.5790102676596
 20
147.8268165081735
 30
0.0
 10
133.6516281821826
 20
146.4664639154235
 30
0.0
 10
133.5948211534309
 20
145.219178831561
 30
0.0
 10
133.4483005299757
 20
144.103377785453
 30
0.0
 10
133.2532517141017
 20
143.1157789402321
 30
0.0
 10
133.0030756360669
 20
142.1337718640064
 30
0.0
 10
132.7956515043031
 20
141.4856837794088
 30
0.0
 10
132.6919343676849
 20
141.1616238938051
 30
0.0
  0
SPLINE
  5
15A
330
1F
100
AcDbEntity
  8
0
  6
Continuous
 62
     7
370
    25
100
AcDbSpline
210
0.0
220
0.0
230
1.0
 70
    24
 71
     3
 72
    12
 73
     8
 74
     0
 42
0.000000001
 43
0.00000001
 40
0.0
 40
0.0
 40
0.0
 40
0.0
 40
0.0700351434766485
 40
0.2997972551584475
 40
0.5308210123809638
 40
0.7650204359794452
 40
1.0
 40
1.0
 40
1.0
 40
1.0
 10
133.6151160639744
 20
151.6616238938053
 30
0.0
 10
133.6195684661239
 20
151.6616238938053
 30
0.0
 10
133.6386277251902
 20
151.6616238938053
 30
0.0
 10
133.5482854239901
 20
151.6616238938053
 30
0.0
 10
133.3611349925263
 20
151.6616238938053
 30
0.0
 10
133.0738705242107
 20
151.6616238938053
 30
0.0
 10
132.8193874694546
 20
151.6616238938052
 30
0.0
 10
132.6919343676849
 20
151.6616238938052
 30
0.0
  0
SPLINE
  5
15B
330
1F
100
AcDbEntity
  8
0
  6
Continuous
 62
     7
370
    25
100
AcDbSpline
210
0.0
220
0.0
230
1.0
 70
    24
 71
     3
 72
    11
 73
     7
 74
     0
 42
0.000000001
 43
0.00000001
 40
0.0
 40
0.0
 40
0.0
 40
0.0
 40
0.2640647431966017
 40
0.5291584905455365
 40
0.798572587542045
 40
1.0
 40
1.0
 40
1.0
 40
1.0
 10
132.6919343676849
 20
130.6616238938052
 30
0.0
 10
132.8347265080982
 20
130.6616238938052
 30
0.0
 10
133.120867219532
 20
130.6616238938052
 30
0.0
 10
133.4233730385343
 20
130.6616238938052
 30
0.0
 10
133.6075212394267
 20
130.6616238938052
 30
0.0
 10
133.6128404778111
 20
130.6616238938053
 30
0.0
 10
133.6151160639744
 20
130.6616238938053
 30
0.0
  0
LINE
  5
15C
330
1F
100
AcDbEntity
  8
0
  6
Continuous
 62
     7
370
    25
100
AcDbLine
 10
133.7740941085
 20
146.2866238938
 30
0.0
 11
133.7740941085
 21
130.9116238938
 31
0.0
  0
LINE
  5
15D
330
1F
100
AcDbEntity
  8
0
  6
Continuous
 62
     7
370
    25
100
AcDbLine
 10
133.7740941085
 20
151.4116238938
 30
0.0
 11
133.7740941085
 21
146.2866238938
 31
0.0
  0
SPLINE
  5
15E
330
1F
100
AcDbEntity
  8
0
  6
Continuous
 62
     7
370
    25
100
AcDbSpline
210
0.0
220
0.0
230
1.0
 70
     8
 71
     3
 72
    11
 73
     7
 74
     0
 42
0.000000001
 43
0.00000001
 40
0.0
 40
0.0
 40
0.0
 40
0.0
 40
0.295838252591282
 40
0.5932610319616775
 40
0.7963744598462189
 40
1.0
 40
1.0
 40
1.0
 40
1.0
 10
120.5627692430861
 20
133.9155339659713
 30
0.0
 10
120.5156671072551
 20
134.3082373933314
 30
0.0
 10
120.4212105538315
 20
135.0957475903054
 30
0.0
 10
120.409794593571
 20
136.1594755034486
 30
0.0
 10
120.4598520610682
 20
137.0982107771268
 30
0.0
 10
120.5284347323171
 20
137.6376530751792
 30
0.0
 10
120.5627692430861
 20
137.907713821639
 30
0.0
  0
SPLINE
  5
15F
330
1F
100
AcDbEntity
  8
0
  6
Continuous
 62
     7
370
    25
100
AcDbSpline
210
0.0
220
0.0
230
1.0
 70
     8
 71
     3
 72
    10
 73
     6
 74
     0
 42
0.000000001
 43
0.00000001
 40
0.0
 40
0.0
 40
0.0
 40
0.0
 40
0.2489414949512298
 40
0.4983791688283653
 40
1.0
 40
1.0
 40
1.0
 40
1.0
 10
120.5627692430861
 20
137.907713821639
 30
0.0
 10
120.6064952371635
 20
138.1813525804721
 30
0.0
 10
120.6940343779916
 20
138.7291755025333
 30
0.0
 10
120.9379515192681
 20
139.8191729069112
 30
0.0
 10
121.1887495595697
 20
140.6240550520577
 30
0.0
 10
121.3562538492976
 20
141.1616238938051
 30
0.0
  0
LINE
  5
160
330
1F
100
AcDbEntity
  8
0
  6
Continuous
 62
     7
370
    25
100
AcDbLine
 10
121.3562538493
 20
141.1616238938
 30
0.0
 11
132.6919343677
 21
141.1616238938
 31
0.0
  0
LINE
  5
161
330
1F
100
AcDbEntity
  8
0
  6
Continuous
 62
     7
370
    25
100
AcDbLine
 10
121.3562538493
 20
130.6616238938
 30
0.0
 11
132.6919343677
 21
130.6616238938
 31
0.0
  0
SPLINE
  5
162
330
1F
100
AcDbEntity
  8
0
  6
Continuous
 62
     7
370
    25
100
AcDbSpline
210
0.0
220
0.0
230
1.0
 70
     8
 71
     3
 72
    10
 73
     6
 74
     0
 42
0.000000001
 43
0.00000001
 40
0.0
 40
0.0
 40
0.0
 40
0.0
 40
0.4984980708560559
 40
0.7490126232556625
 40
1.0
 40
1.0
 40
1.0
 40
1.0
 10
121.3562538492976
 20
130.6616238938052
 30
0.0
 10
121.189737478944
 20
131.1958296299963
 30
0.0
 10
120.9395401950119
 20
131.998494400866
 30
0.0
 10
120.695049310263
 20
133.088400315883
 30
0.0
 10
120.6068903047364
 20
133.6396495069788
 30
0.0
 10
120.5627692430861
 20
133.9155339659713
 30
0.0
  0
LINE
  5
163
330
1F
100
AcDbEntity
  8
0
  6
Continuous
 62
     7
370
    25
100
AcDbLine
 10
118.9740941085
 20
151.4116238938
 30
0.0
 11
118.9740941085
 21
130.9116238938
 31
0.0
  0
LINE
  5
164
330
1F
100
AcDbEntity
  8
0
  6
Continuous
 62
     7
370
    25
100
AcDbLine
 10
119.6967438393
 20
148.0706863831
 30
0.0
 11
119.6967438393
 21
151.1732518008
 31
0.0
  0
SPLINE
  5
165
330
1F
100
AcDbEntity
  8
0
  6
Continuous
 62
     7
370
    25
100
AcDbSpline
210
0.0
220
0.0
230
1.0
 70
     8
 71
     3
 72
    13
 73
     9
 74
     0
 42
0.000000001
 43
0.00000001
 40
0.0
 40
0.0
 40
0.0
 40
0.0
 40
0.1365245485709983
 40
0.273074221495182
 40
0.4115382417990807
 40
0.5499846193304001
 40
0.7739370356102814
 40
1.0
 40
1.0
 40
1.0
 40
1.0
 10
119.6967438393016
 20
144.2641893114519
 30
0.0
 10
119.6994734282037
 20
144.4553339060651
 30
0.0
 10
119.704933108329
 20
144.837658271268
 30
0.0
 10
119.733772361153
 20
145.3974952622606
 30
0.0
 10
119.7548253590155
 20
145.9461454360402
 30
0.0
 10
119.761071991803
 20
146.5897153171563
 30
0.0
 10
119.7193728286911
 20
147.3141323499843
 30
0.0
 10
119.70431038312
 20
147.8177144477006
 30
0.0
 10
119.6967438393016
 20
148.0706863831352
 30
0.0
  0
LINE
  5
166
330
1F
100
AcDbEntity
  8
0
  6
Continuous
 62
     7
370
    25
100
AcDbLine
 10
119.6967438393
 20
138.0590584762
 30
0.0
 11
119.6967438393
 21
144.2641893115
 31
0.0
  0
SPLINE
  5
167
330
1F
100
AcDbEntity
  8
0
  6
Continuous
 62
     7
370
    25
100
AcDbSpline
210
0.0
220
0.0
230
1.0
 70
     8
 71
     3
 72
    13
 73
     9
 74
     0
 42
0.000000001
 43
0.00000001
 40
0.0
 40
0.0
 40
0.0
 40
0.0
 40
0.1365245485709919
 40
0.2730742214951699
 40
0.4115382417990631
 40
0.5499846193303767
 40
0.7739370356102689
 40
1.0
 40
1.0
 40
1.0
 40
1.0
 10
119.6967438393016
 20
134.2525614044752
 30
0.0
 10
119.6994734282037
 20
134.403836064023
 30
0.0
 10
119.704933108329
 20
134.7064132219067
 30
0.0
 10
119.733772361153
 20
135.1909468211022
 30
0.0
 10
119.7548253590155
 20
135.6973194635397
 30
0.0
 10
119.7610719918031
 20
136.3356346125148
 30
0.0
 10
119.7193728286911
 20
137.1158583803427
 30
0.0
 10
119.70431038312
 20
137.7436769656708
 30
0.0
 10
119.6967438393016
 20
138.0590584761584
 30
0.0
  0
LINE
  5
168
330
1F
100
AcDbEntity
  8
0
  6
Continuous
 62
     7
370
    25
100
AcDbLine
 10
119.6967438393
 20
131.1499959868
 30
0.0
 11
119.6967438393
 21
134.2525614045
 31
0.0
  0
LINE
  5
169
330
1F
100
AcDbEntity
  8
0
  6
Continuous
 62
     7
370
    25
100
AcDbLine
 10
118.7740941085
 20
131.1116238938
 30
0.0
 11
118.7740941085
 21
151.2116238938
 31
0.0
  0
LINE
  5
16A
330
1F
100
AcDbEntity
  8
0
  6
Continuous
 62
     7
370
    25
100
AcDbLine
 10
120.5627692431
 20
144.415533966
 30
0.0
 11
120.5627692431
 21
137.9077138216
 31
0.0
  0
SPLINE
  5
16B
330
1F
100
AcDbEntity
  8
0
  6
Continuous
 62
     7
370
    25
100
AcDbSpline
210
0.0
220
0.0
230
1.0
 70
     8
 71
     3
 72
    10
 73
     6
 74
     0
 42
0.000000001
 43
0.00000001
 40
0.0
 40
0.0
 40
0.0
 40
0.0
 40
0.4984980708560578
 40
0.7490126232556642
 40
0.9999999999999999
 40
0.9999999999999999
 40
0.9999999999999999
 40
0.9999999999999999
 10
121.3562538492976
 20
141.1616238938051
 30
0.0
 10
121.189737478944
 20
141.6958296299962
 30
0.0
 10
120.9395401950119
 20
142.498494400866
 30
0.0
 10
120.695049310263
 20
143.588400315883
 30
0.0
 10
120.6068903047363
 20
144.1396495069787
 30
0.0
 10
120.562769243086
 20
144.4155339659712
 30
0.0
  0
ARC
  5
16C
330
1F
100
AcDbEntity
  8
0
  6
Continuous
 62
     7
370
    25
100
AcDbCircle
 10
119.7824456594
 20
135.9960014763
 30
0.0
 40
2.064836309839202
100
AcDbArc
 50
67.7956780275
 51
92.378766539
  0
ARC
  5
16D
330
1F
100
AcDbEntity
  8
0
  6
Continuous
 62
     7
370
    25
100
AcDbCircle
 10
119.7824456594
 20
146.3272463113
 30
0.0
 40
2.064836309838753
100
AcDbArc
 50
267.621233461
 51
292.2043219725
  0
SPLINE
  5
16E
330
1F
100
AcDbEntity
  8
0
  6
Continuous
 62
     7
370
    25
100
AcDbSpline
210
0.0
220
0.0
230
1.0
 70
     8
 71
     3
 72
    12
 73
     8
 74
     0
 42
0.000000001
 43
0.00000001
 40
0.0
 40
0.0
 40
0.0
 40
0.0
 40
0.1850707909523944
 40
0.387478023998128
 40
0.5904107204321917
 40
0.794943692944095
 40
1.0
 40
1.0
 40
1.0
 40
1.0
 10
120.562769243086
 20
144.4155339659712
 30
0.0
 10
120.5312803661029
 20
144.6609540577496
 30
0.0
 10
120.4653529025168
 20
145.1747838832037
 30
0.0
 10
120.4181766722691
 20
145.9618695955183
 30
0.0
 10
120.4155588488227
 20
146.7756856966779
 30
0.0
 10
120.4593738351308
 20
147.5924915710009
 30
0.0
 10
120.528274762066
 20
148.13574170017
 30
0.0
 10
120.5627692430861
 20
148.4077138216391
 30
0.0
  0
SPLINE
  5
16F
330
1F
100
AcDbEntity
  8
0
  6
Continuous
 62
     7
370
    25
100
AcDbSpline
210
0.0
220
0.0
230
1.0
 70
     8
 71
     3
 72
    10
 73
     6
 74
     0
 42
0.000000001
 43
0.00000001
 40
0.0
 40
0.0
 40
0.0
 40
0.0
 40
0.3258684952272104
 40
0.6527960511516889
 40
1.0
 40
1.0
 40
1.0
 40
1.0
 10
120.5627692430861
 20
148.4077138216391
 30
0.0
 10
120.6217861986773
 20
148.7657457038621
 30
0.0
 10
120.7400119128081
 20
149.4829730588374
 30
0.0
 10
121.0094759734493
 20
150.5687777794229
 30
0.0
 10
121.2383663839786
 20
151.2901098285177
 30
0.0
 10
121.3562538492976
 20
151.6616238938052
 30
0.0
  0
LINE
  5
170
330
1F
100
AcDbEntity
  8
0
  6
Continuous
 62
     7
370
    25
100
AcDbLine
 10
121.3562538493
 20
151.6616238938
 30
0.0
 11
132.6919343677
 21
151.6616238938
 31
0.0
  0
ARC
  5
171
330
1F
100
AcDbEntity
  8
0
  6
Continuous
 62
     7
370
    25
100
AcDbCircle
 10
119.7482236629
 20
133.1036611433
 30
0.0
 40
1.150053034573194
100
AcDbArc
 50
44.9058436705
 51
92.5655882364
  0
ARC
  5
172
330
1F
100
AcDbEntity
  8
0
  6
Continuous
 62
     7
370
    25
100
AcDbCircle
 10
119.7482236629
 20
149.2195866443
 30
0.0
 40
1.150053034580735
100
AcDbArc
 50
267.4344117638
 51
315.0941563294
  0
SPLINE
  5
173
330
1F
100
AcDbEntity
  8
0
  6
Continuous
 62
     7
370
    25
100
AcDbSpline
210
0.0
220
0.0
230
1.0
 70
    24
 71
     3
 72
    10
 73
     6
 74
     0
 42
0.000000001
 43
0.00000001
 40
0.0
 40
0.0
 40
0.0
 40
0.0
 40
0.2489414949512299
 40
0.4983791688283657
 40
1.0
 40
1.0
 40
1.0
 40
1.0
 10
120.5627692430861
 20
130.6616238938052
 30
0.0
 10
120.6064952371635
 20
130.6616238938052
 30
0.0
 10
120.6940343779916
 20
130.6616238938052
 30
0.0
 10
120.9379515192681
 20
130.6616238938052
 30
0.0
 10
121.1887495595697
 20
130.6616238938052
 30
0.0
 10
121.3562538492976
 20
130.6616238938052
 30
0.0
  0
LINE
  5
174
330
1F
100
AcDbEntity
  8
0
  6
Continuous
 62
     7
370
    25
100
AcDbLine
 10
120.5627692431
 20
133.915533966
 30
0.0
 11
120.5627692431
 21
130.6616238938
 31
0.0
  0
ARC
  5
175
330
1F
100
AcDbEntity
  8
0
  6
Continuous
 62
     7
370
    25
100
AcDbCircle
 10
119.7010809937
 20
130.1456438305
 30
0.0
 40
1.00436152093656
100
AcDbArc
 50
30.9132304404
 51
90.2474222794
  0
ARC
  5
176
330
1F
100
AcDbEntity
  8
0
  6
Continuous
 62
     7
370
    25
100
AcDbCircle
 10
119.7010809937
 20
152.1776039571
 30
0.0
 40
1.004361520936671
100
AcDbArc
 50
269.7525777206
 51
329.0867695596
  0
LINE
  5
177
330
1F
100
AcDbEntity
  8
0
  6
Continuous
 62
     7
370
    25
100
AcDbLine
 10
120.5627692431
 20
151.6616238938
 30
0.0
 11
120.5627692431
 21
148.4077138216
 31
0.0
  0
SPLINE
  5
178
330
1F
100
AcDbEntity
  8
0
  6
Continuous
 62
     7
370
    25
100
AcDbSpline
210
0.0
220
0.0
230
1.0
 70
    24
 71
     3
 72
    10
 73
     6
 74
     0
 42
0.000000001
 43
0.00000001
 40
0.0
 40
0.0
 40
0.0
 40
0.0
 40
0.4984980708560563
 40
0.7490126232556633
 40
0.9999999999999999
 40
0.9999999999999999
 40
0.9999999999999999
 40
0.9999999999999999
 10
121.3562538492976
 20
151.6616238938052
 30
0.0
 10
121.189737478944
 20
151.6616238938052
 30
0.0
 10
120.9395401950119
 20
151.6616238938053
 30
0.0
 10
120.695049310263
 20
151.6616238938053
 30
0.0
 10
120.6068903047364
 20
151.6616238938053
 30
0.0
 10
120.5627692430861
 20
151.6616238938053
 30
0.0
  0
SPLINE
  5
179
330
1F
100
AcDbEntity
  8
0
  6
Continuous
 62
     7
370
    25
100
AcDbSpline
210
0.0
220
0.0
230
1.0
 70
    24
 71
     3
 72
     9
 73
     5
 74
     0
 42
0.000000001
 43
0.00000001
 40
0.0
 40
0.0
 40
0.0
 40
0.0
 40
0.6294708789357493
 40
1.0
 40
1.0
 40
1.0
 40
1.0
 10
120.5627692430861
 20
151.6616238938053
 30
0.0
 10
120.5122228593999
 20
151.6616238938053
 30
0.0
 10
120.4319230625744
 20
151.6616238938053
 30
0.0
 10
120.4316421377783
 20
151.6616238938053
 30
0.0
 10
120.4315380469605
 20
151.6616238938053
 30
0.0
  0
SPLINE
  5
17A
330
1F
100
AcDbEntity
  8
0
  6
Continuous
 62
     7
370
    25
100
AcDbSpline
210
0.0
220
0.0
230
1.0
 70
    24
 71
     3
 72
    10
 73
     6
 74
     0
 42
0.000000001
 43
0.00000001
 40
0.0
 40
0.0
 40
0.0
 40
0.0
 40
0.2332160008641852
 40
0.6161252835981142
 40
1.0
 40
1.0
 40
1.0
 40
1.0
 10
120.4315657609169
 20
130.6616238938053
 30
0.0
 10
120.4269035466055
 20
130.6616238938053
 30
0.0
 10
120.4145866039251
 20
130.6616238938053
 30
0.0
 10
120.4621154516457
 20
130.6616238938052
 30
0.0
 10
120.5291898288582
 20
130.6616238938052
 30
0.0
 10
120.5627692430861
 20
130.6616238938052
 30
0.0
  0
SPLINE
  5
17B
330
1F
100
AcDbEntity
  8
0
  6
Continuous
 62
     7
370
    25
100
AcDbSpline
210
0.0
220
0.0
230
1.0
 70
     8
 71
     3
 72
    15
 73
    11
 74
     0
 42
0.000000001
 43
0.00000001
 40
0.0
 40
0.0
 40
0.0
 40
0.0
 40
0.132306064994714
 40
0.2645747216258911
 40
0.3998023269484416
 40
0.5350055300348283
 40
0.6501955637891818
 40
0.7654035659406109
 40
0.8826904433746946
 40
1.0
 40
1.0
 40
1.0
 40
1.0
 10
152.6208709420496
 20
130.6616238938053
 30
0.0
 10
152.4781071930224
 20
131.1152685181935
 30
0.0
 10
152.1926200601486
 20
132.0224295029859
 30
0.0
 10
151.8854476734581
 20
133.4193774379632
 30
0.0
 10
151.7007549615094
 20
134.8426582727441
 30
0.0
 10
151.6641806611766
 20
136.2143770732478
 30
0.0
 10
151.7590804810025
 20
137.5119828010497
 30
0.0
 10
151.9535279166694
 20
138.7365968892942
 30
0.0
 10
152.2387590844939
 20
139.9556740522116
 30
0.0
 10
152.4934921142442
 20
140.7596147067651
 30
0.0
 10
152.6208709420496
 20
141.1616238938053
 30
0.0
  0
SPLINE
  5
17C
330
1F
100
AcDbEntity
  8
0
  6
Continuous
 62
     7
370
    25
100
AcDbSpline
210
0.0
220
0.0
230
1.0
 70
    24
 71
     3
 72
    12
 73
     8
 74
     0
 42
0.000000001
 43
0.00000001
 40
0.0
 40
0.0
 40
0.0
 40
0.0
 40
0.2470075138821485
 40
0.4342471746870809
 40
0.621506254700263
 40
0.810743874608142
 40
1.0
 40
1.0
 40
1.0
 40
1.0
 10
151.6862697059539
 20
130.6616238938053
 30
0.0
 10
151.6969569326591
 20
130.6616238938053
 30
0.0
 10
151.7157454218394
 20
130.6616238938053
 30
0.0
 10
151.8655930110998
 20
130.6616238938053
 30
0.0
 10
152.0592599628534
 20
130.6616238938053
 30
0.0
 10
152.3098034114645
 20
130.6616238938053
 30
0.0
 10
152.5171783854982
 20
130.6616238938053
 30
0.0
 10
152.6208709420496
 20
130.6616238938053
 30
0.0
  0
SPLINE
  5
17D
330
1F
100
AcDbEntity
  8
0
  6
Continuous
 62
     7
370
    25
100
AcDbSpline
210
0.0
220
0.0
230
1.0
 70
    24
 71
     3
 72
    12
 73
     8
 74
     0
 42
0.000000001
 43
0.00000001
 40
0.0
 40
0.0
 40
0.0
 40
0.0
 40
0.1873885710858095
 40
0.3747593871015941
 40
0.5638848817517841
 40
0.7529901493097392
 40
1.0
 40
1.0
 40
1.0
 40
1.0
 10
152.6208709420496
 20
151.6616238938052
 30
0.0
 10
152.5181613116805
 20
151.6616238938052
 30
0.0
 10
152.3127517826814
 20
151.6616238938053
 30
0.0
 10
152.0622723792329
 20
151.6616238938053
 30
0.0
 10
151.8669525429907
 20
151.6616238938053
 30
0.0
 10
151.716186445796
 20
151.6616238938053
 30
0.0
 10
151.6960091289415
 20
151.6616238938053
 30
0.0
 10
151.6845809628106
 20
151.6616238938053
 30
0.0
  0
SPLINE
  5
17E
330
1F
100
AcDbEntity
  8
0
  6
Continuous
 62
     7
370
    25
100
AcDbSpline
210
0.0
220
0.0
230
1.0
 70
     8
 71
     3
 72
    15
 73
    11
 74
     0
 42
0.000000001
 43
0.00000001
 40
0.0
 40
0.0
 40
0.0
 40
0.0
 40
0.1320293249347609
 40
0.2645731400734886
 40
0.3992770801896979
 40
0.5350068422104607
 40
0.6498905489461354
 40
0.7654050930084833
 40
0.8825075068982637
 40
1.0
 40
1.0
 40
1.0
 40
1.0
 10
152.6208709420496
 20
141.1616238938053
 30
0.0
 10
152.4783348833933
 20
141.6143101849829
 30
0.0
 10
152.1927073333696
 20
142.5214467895537
 30
0.0
 10
151.8863203069725
 20
143.916605377582
 30
0.0
 10
151.6996779898428
 20
145.3407173945172
 30
0.0
 10
151.66450471442
 20
146.711418145977
 30
0.0
 10
151.7583632464397
 20
148.0109363393222
 30
0.0
 10
151.9533409716354
 20
149.2348644937673
 30
0.0
 10
152.2385131167973
 20
150.4550467174955
 30
0.0
 10
152.4932771283149
 20
151.2589859109443
 30
0.0
 10
152.6208709420496
 20
151.6616238938052
 30
0.0
  0
LINE
  5
17F
330
1F
100
AcDbEntity
  8
0
  6
Continuous
 62
     7
370
    25
100
AcDbLine
 10
151.5387112012
 20
130.9116238938
 30
0.0
 11
151.5387112012
 21
151.4116238938
 31
0.0
  0
SPLINE
  5
180
330
1F
100
AcDbEntity
  8
0
  6
Continuous
 62
     7
370
    25
100
AcDbSpline
210
0.0
220
0.0
230
1.0
 70
     8
 71
     3
 72
    11
 73
     7
 74
     0
 42
0.000000001
 43
0.00000001
 40
0.0
 40
0.0
 40
0.0
 40
0.0
 40
0.2958382525912943
 40
0.5932610319617024
 40
0.7963744598462313
 40
1.0
 40
1.0
 40
1.0
 40
1.0
 10
164.7500360666484
 20
148.407713821639
 30
0.0
 10
164.7971382024794
 20
148.0150103942788
 30
0.0
 10
164.891594755903
 20
147.2275001973049
 30
0.0
 10
164.9030107161635
 20
146.1637722841618
 30
0.0
 10
164.8529532486663
 20
145.2250370104837
 30
0.0
 10
164.7843705774174
 20
144.6855947124313
 30
0.0
 10
164.7500360666484
 20
144.4155339659715
 30
0.0
  0
SPLINE
  5
181
330
1F
100
AcDbEntity
  8
0
  6
Continuous
 62
     7
370
    25
100
AcDbSpline
210
0.0
220
0.0
230
1.0
 70
     8
 71
     3
 72
    10
 73
     6
 74
     0
 42
0.000000001
 43
0.00000001
 40
0.0
 40
0.0
 40
0.0
 40
0.0
 40
0.2489414949512301
 40
0.4983791688283655
 40
1.0
 40
1.0
 40
1.0
 40
1.0
 10
164.7500360666484
 20
144.4155339659715
 30
0.0
 10
164.7063100725711
 20
144.1418952071384
 30
0.0
 10
164.618770931743
 20
143.5940722850772
 30
0.0
 10
164.3748537904665
 20
142.5040748806993
 30
0.0
 10
164.1240557501649
 20
141.6991927355527
 30
0.0
 10
163.9565514604369
 20
141.1616238938053
 30
0.0
  0
LINE
  5
182
330
1F
100
AcDbEntity
  8
0
  6
Continuous
 62
     7
370
    25
100
AcDbLine
 10
163.9565514604
 20
141.1616238938
 30
0.0
 11
152.620870942
 21
141.1616238938
 31
0.0
  0
LINE
  5
183
330
1F
100
AcDbEntity
  8
0
  6
Continuous
 62
     7
370
    25
100
AcDbLine
 10
163.9565514604
 20
151.6616238938
 30
0.0
 11
152.620870942
 21
151.6616238938
 31
0.0
  0
SPLINE
  5
184
330
1F
100
AcDbEntity
  8
0
  6
Continuous
 62
     7
370
    25
100
AcDbSpline
210
0.0
220
0.0
230
1.0
 70
     8
 71
     3
 72
    10
 73
     6
 74
     0
 42
0.000000001
 43
0.00000001
 40
0.0
 40
0.0
 40
0.0
 40
0.0
 40
0.4984980708560558
 40
0.7490126232556629
 40
1.0
 40
1.0
 40
1.0
 40
1.0
 10
163.9565514604369
 20
151.6616238938052
 30
0.0
 10
164.1230678307905
 20
151.1274181576141
 30
0.0
 10
164.3732651147226
 20
150.3247533867443
 30
0.0
 10
164.6177559994715
 20
149.2348474717273
 30
0.0
 10
164.7059150049982
 20
148.6835982806315
 30
0.0
 10
164.7500360666484
 20
148.407713821639
 30
0.0
  0
LINE
  5
185
330
1F
100
AcDbEntity
  8
0
  6
Continuous
 62
     7
370
    25
100
AcDbLine
 10
164.7500360666
 20
137.9077138216
 30
0.0
 11
164.7500360666
 21
144.415533966
 31
0.0
  0
SPLINE
  5
186
330
1F
100
AcDbEntity
  8
0
  6
Continuous
 62
     7
370
    25
100
AcDbSpline
210
0.0
220
0.0
230
1.0
 70
     8
 71
     3
 72
    10
 73
     6
 74
     0
 42
0.000000001
 43
0.00000001
 40
0.0
 40
0.0
 40
0.0
 40
0.0
 40
0.498498070856056
 40
0.7490126232556626
 40
1.0
 40
1.0
 40
1.0
 40
1.0
 10
163.9565514604369
 20
141.1616238938053
 30
0.0
 10
164.1230678307905
 20
140.6274181576142
 30
0.0
 10
164.3732651147226
 20
139.8247533867444
 30
0.0
 10
164.6177559994715
 20
138.7348474717274
 30
0.0
 10
164.7059150049982
 20
138.1835982806317
 30
0.0
 10
164.7500360666484
 20
137.9077138216392
 30
0.0
  0
SPLINE
  5
187
330
1F
100
AcDbEntity
  8
0
  6
Continuous
 62
     7
370
    25
100
AcDbSpline
210
0.0
220
0.0
230
1.0
 70
     8
 71
     3
 72
    11
 73
     7
 74
     0
 42
0.000000001
 43
0.00000001
 40
0.0
 40
0.0
 40
0.0
 40
0.0
 40
0.295838252591282
 40
0.5932610319616777
 40
0.7963744598462189
 40
1.0
 40
1.0
 40
1.0
 40
1.0
 10
164.7500360666484
 20
137.9077138216392
 30
0.0
 10
164.7971382024794
 20
137.515010394279
 30
0.0
 10
164.891594755903
 20
136.727500197305
 30
0.0
 10
164.9030107161635
 20
135.6637722841618
 30
0.0
 10
164.8529532486663
 20
134.7250370104837
 30
0.0
 10
164.7843705774174
 20
134.1855947124312
 30
0.0
 10
164.7500360666484
 20
133.9155339659714
 30
0.0
  0
SPLINE
  5
188
330
1F
100
AcDbEntity
  8
0
  6
Continuous
 62
     7
370
    25
100
AcDbSpline
210
0.0
220
0.0
230
1.0
 70
     8
 71
     3
 72
    10
 73
     6
 74
     0
 42
0.000000001
 43
0.00000001
 40
0.0
 40
0.0
 40
0.0
 40
0.0
 40
0.24894149495123
 40
0.4983791688283653
 40
1.0
 40
1.0
 40
1.0
 40
1.0
 10
164.7500360666484
 20
133.9155339659714
 30
0.0
 10
164.7063100725711
 20
133.6418952071383
 30
0.0
 10
164.618770931743
 20
133.0940722850771
 30
0.0
 10
164.3748537904664
 20
132.0040748806992
 30
0.0
 10
164.1240557501649
 20
131.1991927355527
 30
0.0
 10
163.9565514604369
 20
130.6616238938053
 30
0.0
  0
LINE
  5
189
330
1F
100
AcDbEntity
  8
0
  6
Continuous
 62
     7
370
    25
100
AcDbLine
 10
163.9565514604
 20
130.6616238938
 30
0.0
 11
152.620870942
 21
130.6616238938
 31
0.0
  0
ARC
  5
18A
330
1F
100
AcDbEntity
  8
0
  6
Continuous
 62
     7
370
    25
100
AcDbCircle
 10
165.5303596504
 20
146.3272463113
 30
0.0
 40
2.064836309839316
100
AcDbArc
 50
247.7956780275
 51
272.378766539
  0
LINE
  5
18B
330
1F
100
AcDbEntity
  8
0
  6
Continuous
 62
     7
370
    25
100
AcDbLine
 10
165.6160614704
 20
144.2641893115
 30
0.0
 11
165.6160614704
 21
138.0590584762
 31
0.0
  0
ARC
  5
18C
330
1F
100
AcDbEntity
  8
0
  6
Continuous
 62
     7
370
    25
100
AcDbCircle
 10
165.5303596504
 20
135.9960014764
 30
0.0
 40
2.064836309822569
100
AcDbArc
 50
87.6212334609
 51
112.2043219726
  0
LINE
  5
18D
330
1F
100
AcDbEntity
  8
0
  6
Continuous
 62
     7
370
    25
100
AcDbLine
 10
166.5387112012
 20
151.2116238938
 30
0.0
 11
166.5387112012
 21
131.1116238938
 31
0.0
  0
LINE
  5
18E
330
1F
100
AcDbEntity
  8
0
  6
Continuous
 62
     7
370
    25
100
AcDbLine
 10
166.3387112012
 20
130.9116238938
 30
0.0
 11
166.3387112012
 21
151.4116238938
 31
0.0
  0
LINE
  5
18F
330
1F
100
AcDbEntity
  8
0
  6
Continuous
 62
     7
370
    25
100
AcDbLine
 10
165.6160614704
 20
134.2525614045
 30
0.0
 11
165.6160614704
 21
131.1499959868
 31
0.0
  0
SPLINE
  5
190
330
1F
100
AcDbEntity
  8
0
  6
Continuous
 62
     7
370
    25
100
AcDbSpline
210
0.0
220
0.0
230
1.0
 70
     8
 71
     3
 72
    13
 73
     9
 74
     0
 42
0.000000001
 43
0.00000001
 40
0.0
 40
0.0
 40
0.0
 40
0.0
 40
0.1365245485709918
 40
0.2730742214951698
 40
0.4115382417990631
 40
0.5499846193303766
 40
0.7739370356102689
 40
1.0
 40
1.0
 40
1.0
 40
1.0
 10
165.6160614704329
 20
138.0590584761586
 30
0.0
 10
165.6133318815308
 20
137.8679138815453
 30
0.0
 10
165.6078722014055
 20
137.4855895163425
 30
0.0
 10
165.5790329485815
 20
136.9257525253499
 30
0.0
 10
165.557979950719
 20
136.3771023515704
 30
0.0
 10
165.5517333179315
 20
135.7335324704542
 30
0.0
 10
165.5934324810435
 20
135.0091154376262
 30
0.0
 10
165.6084949266146
 20
134.5055333399099
 30
0.0
 10
165.6160614704329
 20
134.2525614044753
 30
0.0
  0
SPLINE
  5
191
330
1F
100
AcDbEntity
  8
0
  6
Continuous
 62
     7
370
    25
100
AcDbSpline
210
0.0
220
0.0
230
1.0
 70
     8
 71
     3
 72
    13
 73
     9
 74
     0
 42
0.000000001
 43
0.00000001
 40
0.0
 40
0.0
 40
0.0
 40
0.0
 40
0.1362575360246058
 40
0.2730736341287687
 40
0.4112388738103724
 40
0.5499864097964863
 40
0.77393793504192
 40
1.0
 40
1.0
 40
1.0
 40
1.0
 10
165.6160614704329
 20
148.0706863831351
 30
0.0
 10
165.6133540551694
 20
147.9197165580403
 30
0.0
 10
165.6079281261039
 20
147.617158035516
 30
0.0
 10
165.5792736538083
 20
147.1329647113025
 30
0.0
 10
165.5571210351541
 20
146.6263392743275
 30
0.0
 10
165.552108903767
 20
145.9880004911248
 30
0.0
 10
165.5933132673246
 20
145.2073932250948
 30
0.0
 10
165.6084550646564
 20
144.5795720985215
 30
0.0
 10
165.6160614704329
 20
144.2641893114522
 30
0.0
  0
LINE
  5
192
330
1F
100
AcDbEntity
  8
0
  6
Continuous
 62
     7
370
    25
100
AcDbLine
 10
165.6160614704
 20
151.1732518008
 30
0.0
 11
165.6160614704
 21
148.0706863831
 31
0.0
  0
ARC
  5
193
330
1F
100
AcDbEntity
  8
0
  6
Continuous
 62
     7
370
    25
100
AcDbCircle
 10
165.5645816468
 20
133.1036611433
 30
0.0
 40
1.150053034581316
100
AcDbArc
 50
87.4344117638
 51
135.0941563294
  0
ARC
  5
194
330
1F
100
AcDbEntity
  8
0
  6
Continuous
 62
     7
370
    25
100
AcDbCircle
 10
165.5645816468
 20
149.2195866443
 30
0.0
 40
1.150053034573445
100
AcDbArc
 50
224.9058436705
 51
272.5655882364
  0
LINE
  5
195
330
1F
100
AcDbEntity
  8
0
  6
Continuous
 62
     7
370
    25
100
AcDbLine
 10
164.7500360666
 20
148.4077138216
 30
0.0
 11
164.7500360666
 21
151.6616238938
 31
0.0
  0
ARC
  5
196
330
1F
100
AcDbEntity
  8
0
  6
Continuous
 62
     7
370
    25
100
AcDbCircle
 10
165.611724316
 20
152.1776039571
 30
0.0
 40
1.004361520936738
100
AcDbArc
 50
210.9132304404
 51
270.2474222794
  0
SPLINE
  5
197
330
1F
100
AcDbEntity
  8
0
  6
Continuous
 62
     7
370
    25
100
AcDbSpline
210
0.0
220
0.0
230
1.0
 70
    24
 71
     3
 72
    10
 73
     6
 74
     0
 42
0.000000001
 43
0.00000001
 40
0.0
 40
0.0
 40
0.0
 40
0.0
 40
0.2489414949512299
 40
0.4983791688283651
 40
0.9999999999999999
 40
0.9999999999999999
 40
0.9999999999999999
 40
0.9999999999999999
 10
164.7500360666484
 20
151.6616238938053
 30
0.0
 10
164.7063100725711
 20
151.6616238938053
 30
0.0
 10
164.618770931743
 20
151.6616238938053
 30
0.0
 10
164.3748537904664
 20
151.6616238938053
 30
0.0
 10
164.1240557501648
 20
151.6616238938052
 30
0.0
 10
163.9565514604369
 20
151.6616238938052
 30
0.0
  0
LINE
  5
198
330
1F
100
AcDbEntity
  8
0
  6
Continuous
 62
     7
370
    25
100
AcDbLine
 10
164.7500360666
 20
130.6616238938
 30
0.0
 11
164.7500360666
 21
133.915533966
 31
0.0
  0
ARC
  5
199
330
1F
100
AcDbEntity
  8
0
  6
Continuous
 62
     7
370
    25
100
AcDbCircle
 10
165.611724316
 20
130.1456438305
 30
0.0
 40
1.004361520936758
100
AcDbArc
 50
89.7525777206
 51
149.0867695596
  0
SPLINE
  5
19A
330
1F
100
AcDbEntity
  8
0
  6
Continuous
 62
     7
370
    25
100
AcDbSpline
210
0.0
220
0.0
230
1.0
 70
    24
 71
     3
 72
    10
 73
     6
 74
     0
 42
0.000000001
 43
0.00000001
 40
0.0
 40
0.0
 40
0.0
 40
0.0
 40
0.4984980708560576
 40
0.7490126232556641
 40
0.9999999999999999
 40
0.9999999999999999
 40
0.9999999999999999
 40
0.9999999999999999
 10
163.9565514604369
 20
130.6616238938053
 30
0.0
 10
164.1230678307905
 20
130.6616238938053
 30
0.0
 10
164.3732651147226
 20
130.6616238938053
 30
0.0
 10
164.6177559994715
 20
130.6616238938053
 30
0.0
 10
164.7059150049982
 20
130.6616238938053
 30
0.0
 10
164.7500360666485
 20
130.6616238938053
 30
0.0
  0
SPLINE
  5
19B
330
1F
100
AcDbEntity
  8
0
  6
Continuous
 62
     7
370
    25
100
AcDbSpline
210
0.0
220
0.0
230
1.0
 70
    24
 71
     3
 72
    10
 73
     6
 74
     0
 42
0.000000001
 43
0.00000001
 40
0.0
 40
0.0
 40
0.0
 40
0.0
 40
0.2637045622377056
 40
0.6507086577769245
 40
1.0
 40
1.0
 40
1.0
 40
1.0
 10
164.888538997
 20
151.6616238938053
 30
0.0
 10
164.8899740298516
 20
151.6616238938053
 30
0.0
 10
164.8935150694634
 20
151.6616238938053
 30
0.0
 10
164.8469799057325
 20
151.6616238938053
 30
0.0
 10
164.7812280858387
 20
151.6616238938053
 30
0.0
 10
164.7500360666484
 20
151.6616238938053
 30
0.0
  0
SPLINE
  5
19C
330
1F
100
AcDbEntity
  8
0
  6
Continuous
 62
     7
370
    25
100
AcDbSpline
210
0.0
220
0.0
230
1.0
 70
    24
 71
     3
 72
    10
 73
     6
 74
     0
 42
0.000000001
 43
0.00000001
 40
0.0
 40
0.0
 40
0.0
 40
0.0
 40
0.3933729367079876
 40
0.8235949466988526
 40
0.9999999999999999
 40
0.9999999999999999
 40
0.9999999999999999
 40
0.9999999999999999
 10
164.7500360666485
 20
130.6616238938053
 30
0.0
 10
164.7810498993211
 20
130.6616238938053
 30
0.0
 10
164.8459827746753
 20
130.6616238938053
 30
0.0
 10
164.8899528386135
 20
130.6616238938053
 30
0.0
 10
164.8884559926773
 20
130.6616238938053
 30
0.0
 10
164.8880207150527
 20
130.6616238938053
 30
0.0
  0
SPLINE
  5
19D
330
1F
100
AcDbEntity
  8
0
  6
Continuous
 62
     7
370
    25
100
AcDbSpline
210
0.0
220
0.0
230
1.0
 70
     8
 71
     3
 72
    10
 73
     6
 74
     0
 42
0.000000001
 43
0.00000001
 40
0.0
 40
0.0
 40
0.0
 40
0.0
 40
0.5
 40
0.5
 40
1.0
 40
1.0
 40
1.0
 40
1.0
 10
145.4398963039212
 20
146.6786948270997
 30
0.0
 10
145.487204067219
 20
146.2603711162252
 30
0.0
 10
145.5119330963353
 20
145.8392385083171
 30
0.0
 10
145.5121960183099
 20
144.9908531942175
 30
0.0
 10
145.4874507766503
 20
144.5650582246363
 30
0.0
 10
145.4398963039212
 20
144.1445529605109
 30
0.0
  0
SPLINE
  5
19E
330
1F
100
AcDbEntity
  8
0
  6
Continuous
 62
     7
370
    25
100
AcDbSpline
210
0.0
220
0.0
230
1.0
 70
     8
 71
     3
 72
     8
 73
     4
 74
     0
 42
0.000000001
 43
0.00000001
 40
0.0
 40
0.0
 40
0.0
 40
0.0
 40
1.0
 40
1.0
 40
1.0
 40
1.0
 10
145.4398963039212
 20
144.1445529605109
 30
0.0
 10
145.3255901715984
 20
143.1337893539558
 30
0.0
 10
145.0796379099533
 20
142.1419104966196
 30
0.0
 10
144.7528757090152
 20
141.1616238938053
 30
0.0
  0
LINE
  5
19F
330
1F
100
AcDbEntity
  8
0
  6
Continuous
 62
     7
370
    25
100
AcDbLine
 10
144.752875709
 20
141.1616238938
 30
0.0
 11
140.5599296007
 21
141.1616238938
 31
0.0
  0
SPLINE
  5
1A0
330
1F
100
AcDbEntity
  8
0
  6
Continuous
 62
     7
370
    25
100
AcDbSpline
210
0.0
220
0.0
230
1.0
 70
     8
 71
     3
 72
     8
 73
     4
 74
     0
 42
0.000000001
 43
0.00000001
 40
0.0
 40
0.0
 40
0.0
 40
0.0
 40
1.0
 40
1.0
 40
1.0
 40
1.0
 10
139.8729090058134
 20
144.1445529605109
 30
0.0
 10
139.9872151381361
 20
143.1337893539558
 30
0.0
 10
140.2331673997812
 20
142.1419104966196
 30
0.0
 10
140.5599296007193
 20
141.1616238938053
 30
0.0
  0
SPLINE
  5
1A1
330
1F
100
AcDbEntity
  8
0
  6
Continuous
 62
     7
370
    25
100
AcDbSpline
210
0.0
220
0.0
230
1.0
 70
     8
 71
     3
 72
    10
 73
     6
 74
     0
 42
0.000000001
 43
0.00000001
 40
0.0
 40
0.0
 40
0.0
 40
0.0
 40
0.5
 40
0.5
 40
1.0
 40
1.0
 40
1.0
 40
1.0
 10
139.8729090058134
 20
146.6786948270997
 30
0.0
 10
139.8256012425155
 20
146.2603711162252
 30
0.0
 10
139.8008722133992
 20
145.8392385083171
 30
0.0
 10
139.8006092914246
 20
144.9908531942175
 30
0.0
 10
139.8253545330842
 20
144.5650582246363
 30
0.0
 10
139.8729090058134
 20
144.1445529605109
 30
0.0
  0
SPLINE
  5
1A2
330
1F
100
AcDbEntity
  8
0
  6
Continuous
 62
     7
370
    25
100
AcDbSpline
210
0.0
220
0.0
230
1.0
 70
     8
 71
     3
 72
     8
 73
     4
 74
     0
 42
0.000000001
 43
0.00000001
 40
0.0
 40
0.0
 40
0.0
 40
0.0
 40
1.0
 40
1.0
 40
1.0
 40
1.0
 10
140.5599296007191
 20
149.6616238938053
 30
0.0
 10
140.232571485108
 20
148.6795495469719
 30
0.0
 10
139.9869715087989
 20
147.6873041164491
 30
0.0
 10
139.8729090058134
 20
146.6786948270997
 30
0.0
  0
LINE
  5
1A3
330
1F
100
AcDbEntity
  8
0
  6
Continuous
 62
     7
370
    25
100
AcDbLine
 10
144.752875709
 20
149.6616238938
 30
0.0
 11
140.5599296007
 21
149.6616238938
 31
0.0
  0
SPLINE
  5
1A4
330
1F
100
AcDbEntity
  8
0
  6
Continuous
 62
     7
370
    25
100
AcDbSpline
210
0.0
220
0.0
230
1.0
 70
     8
 71
     3
 72
     8
 73
     4
 74
     0
 42
0.000000001
 43
0.00000001
 40
0.0
 40
0.0
 40
0.0
 40
0.0
 40
1.0
 40
1.0
 40
1.0
 40
1.0
 10
144.7528757090154
 20
149.6616238938053
 30
0.0
 10
145.0802338246266
 20
148.6795495469719
 30
0.0
 10
145.3258338009357
 20
147.6873041164491
 30
0.0
 10
145.4398963039212
 20
146.6786948270997
 30
0.0
  0
LINE
  5
1A5
330
1F
100
AcDbEntity
  8
0
  6
Continuous
 62
     7
370
    25
100
AcDbLine
 10
139.8729090058
 20
138.1786948271
 30
0.0
 11
139.8729090058
 21
144.1445529605
 31
0.0
  0
SPLINE
  5
1A6
330
1F
100
AcDbEntity
  8
0
  6
Continuous
 62
     7
370
    25
100
AcDbSpline
210
0.0
220
0.0
230
1.0
 70
     8
 71
     3
 72
     8
 73
     4
 74
     0
 42
0.000000001
 43
0.00000001
 40
0.0
 40
0.0
 40
0.0
 40
0.0
 40
1.0
 40
1.0
 40
1.0
 40
1.0
 10
140.5599296007191
 20
141.1616238938053
 30
0.0
 10
140.232571485108
 20
140.1795495469719
 30
0.0
 10
139.9869715087989
 20
139.1873041164492
 30
0.0
 10
139.8729090058134
 20
138.1786948270999
 30
0.0
  0
LINE
  5
1A7
330
1F
100
AcDbEntity
  8
0
  6
Continuous
 62
     7
370
    25
100
AcDbLine
 10
145.4398963039
 20
138.1786948271
 30
0.0
 11
145.4398963039
 21
144.1445529605
 31
0.0
  0
SPLINE
  5
1A8
330
1F
100
AcDbEntity
  8
0
  6
Continuous
 62
     7
370
    25
100
AcDbSpline
210
0.0
220
0.0
230
1.0
 70
     8
 71
     3
 72
     8
 73
     4
 74
     0
 42
0.000000001
 43
0.00000001
 40
0.0
 40
0.0
 40
0.0
 40
0.0
 40
1.0
 40
1.0
 40
1.0
 40
1.0
 10
144.7528757090154
 20
141.1616238938053
 30
0.0
 10
145.0802338246265
 20
140.1795495469719
 30
0.0
 10
145.3258338009357
 20
139.1873041164492
 30
0.0
 10
145.4398963039212
 20
138.1786948270999
 30
0.0
  0
SPLINE
  5
1A9
330
1F
100
AcDbEntity
  8
0
  6
Continuous
 62
     7
370
    25
100
AcDbSpline
210
0.0
220
0.0
230
1.0
 70
     8
 71
     3
 72
    10
 73
     6
 74
     0
 42
0.000000001
 43
0.00000001
 40
0.0
 40
0.0
 40
0.0
 40
0.0
 40
0.5
 40
0.5
 40
1.0
 40
1.0
 40
1.0
 40
1.0
 10
145.4398963039212
 20
138.1786948270999
 30
0.0
 10
145.487204067219
 20
137.7603711162253
 30
0.0
 10
145.5119330963354
 20
137.3392385083172
 30
0.0
 10
145.51219601831
 20
136.4908531942175
 30
0.0
 10
145.4874507766503
 20
136.0650582246361
 30
0.0
 10
145.4398963039212
 20
135.6445529605107
 30
0.0
  0
SPLINE
  5
1AA
330
1F
100
AcDbEntity
  8
0
  6
Continuous
 62
     7
370
    25
100
AcDbSpline
210
0.0
220
0.0
230
1.0
 70
     8
 71
     3
 72
     8
 73
     4
 74
     0
 42
0.000000001
 43
0.00000001
 40
0.0
 40
0.0
 40
0.0
 40
0.0
 40
1.0
 40
1.0
 40
1.0
 40
1.0
 10
145.4398963039212
 20
135.6445529605107
 30
0.0
 10
145.3255901715984
 20
134.6337893539557
 30
0.0
 10
145.0796379099533
 20
133.6419104966195
 30
0.0
 10
144.7528757090152
 20
132.6616238938053
 30
0.0
  0
LINE
  5
1AB
330
1F
100
AcDbEntity
  8
0
  6
Continuous
 62
     7
370
    25
100
AcDbLine
 10
144.752875709
 20
132.6616238938
 30
0.0
 11
140.5599296007
 21
132.6616238938
 31
0.0
  0
SPLINE
  5
1AC
330
1F
100
AcDbEntity
  8
0
  6
Continuous
 62
     7
370
    25
100
AcDbSpline
210
0.0
220
0.0
230
1.0
 70
     8
 71
     3
 72
     8
 73
     4
 74
     0
 42
0.000000001
 43
0.00000001
 40
0.0
 40
0.0
 40
0.0
 40
0.0
 40
1.0
 40
1.0
 40
1.0
 40
1.0
 10
139.8729090058134
 20
135.6445529605107
 30
0.0
 10
139.9872151381361
 20
134.6337893539557
 30
0.0
 10
140.2331673997812
 20
133.6419104966195
 30
0.0
 10
140.5599296007193
 20
132.6616238938053
 30
0.0
  0
SPLINE
  5
1AD
330
1F
100
AcDbEntity
  8
0
  6
Continuous
 62
     7
370
    25
100
AcDbSpline
210
0.0
220
0.0
230
1.0
 70
     8
 71
     3
 72
    10
 73
     6
 74
     0
 42
0.000000001
 43
0.00000001
 40
0.0
 40
0.0
 40
0.0
 40
0.0
 40
0.5
 40
0.5
 40
1.0
 40
1.0
 40
1.0
 40
1.0
 10
139.8729090058134
 20
138.1786948270999
 30
0.0
 10
139.8256012425155
 20
137.7603711162253
 30
0.0
 10
139.8008722133991
 20
137.3392385083172
 30
0.0
 10
139.8006092914245
 20
136.4908531942175
 30
0.0
 10
139.8253545330842
 20
136.0650582246361
 30
0.0
 10
139.8729090058134
 20
135.6445529605107
 30
0.0
  0
ARC
  5
1AE
330
1F
100
AcDbEntity
  8
0
  6
Continuous
 62
     7
370
    25
100
AcDbCircle
 10
146.0271194924
 20
145.3941624828
 30
0.0
 40
1.380708162956317
100
AcDbArc
 50
244.8299789717
 51
272.5859934179
  0
LINE
  5
1AF
330
1F
100
AcDbEntity
  8
0
  6
Continuous
 62
     7
370
    25
100
AcDbLine
 10
146.0894153568
 20
144.0148603924
 30
0.0
 11
146.0894153568
 21
138.3083873952
 31
0.0
  0
ARC
  5
1B0
330
1F
100
AcDbEntity
  8
0
  6
Continuous
 62
     7
370
    25
100
AcDbCircle
 10
146.0271194924
 20
136.9290853048
 30
0.0
 40
1.38070816295736
100
AcDbArc
 50
87.4140065821
 51
115.1700210283
  0
LINE
  5
1B1
330
1F
100
AcDbEntity
  8
0
  6
Continuous
 62
     7
370
    25
100
AcDbLine
 10
139.223389953
 20
144.0148603924
 30
0.0
 11
139.223389953
 21
138.3083873952
 31
0.0
  0
ARC
  5
1B2
330
1F
100
AcDbEntity
  8
0
  6
Continuous
 62
     7
370
    25
100
AcDbCircle
 10
139.2856858173
 20
145.3941624828
 30
0.0
 40
1.380708162956346
100
AcDbArc
 50
267.4140065821
 51
295.1700210283
  0
ARC
  5
1B3
330
1F
100
AcDbEntity
  8
0
  6
Continuous
 62
     7
370
    25
100
AcDbCircle
 10
139.2856858173
 20
136.9290853048
 30
0.0
 40
1.38070816295739
100
AcDbArc
 50
64.8299789717
 51
92.5859934179
  0
LINE
  5
1B4
330
1F
100
AcDbEntity
  8
0
  6
Continuous
 62
     7
370
    25
100
AcDbLine
 10
149.6564026549
 20
149.4926238938
 30
0.0
 11
149.6564026549
 21
132.8306238938
 31
0.0
  0
LINE
  5
1B5
330
1F
100
AcDbEntity
  8
0
  6
Continuous
 62
     7
370
    25
100
AcDbLine
 10
135.6564026549
 20
149.4926238938
 30
0.0
 11
135.6564026549
 21
132.8306238938
 31
0.0
  0
LINE
  5
1B6
330
1F
100
AcDbEntity
  8
0
  6
Continuous
 62
     7
370
    25
100
AcDbLine
 10
136.6564026549
 20
133.8306238938
 30
0.0
 11
136.6564026549
 21
148.4926238938
 31
0.0
  0
LINE
  5
1B7
330
1F
100
AcDbEntity
  8
0
  6
Continuous
 62
     7
370
    25
100
AcDbLine
 10
148.6564026549
 20
133.8306238938
 30
0.0
 11
148.6564026549
 21
148.4926238938
 31
0.0
  0
LINE
  5
1B8
330
1F
100
AcDbEntity
  8
0
  6
Continuous
 62
     7
370
    25
100
AcDbLine
 10
146.6564026549
 20
149.2116238938
 30
0.0
 11
146.6564026549
 21
133.1116238938
 31
0.0
  0
LINE
  5
1B9
330
1F
100
AcDbEntity
  8
0
  6
Continuous
 62
     7
370
    25
100
AcDbLine
 10
146.4564026549
 20
132.9116238938
 30
0.0
 11
146.4564026549
 21
149.4116238938
 31
0.0
  0
LINE
  5
1BA
330
1F
100
AcDbEntity
  8
0
  6
Continuous
 62
     7
370
    25
100
AcDbLine
 10
138.6564026549
 20
149.2116238938
 30
0.0
 11
138.6564026549
 21
133.1116238938
 31
0.0
  0
LINE
  5
1BB
330
1F
100
AcDbEntity
  8
0
  6
Continuous
 62
     7
370
    25
100
AcDbLine
 10
138.8564026549
 20
132.9116238938
 30
0.0
 11
138.8564026549
 21
149.4116238938
 31
0.0
  0
LINE
  5
1BC
330
1F
100
AcDbEntity
  8
0
  6
Continuous
 62
     7
370
    25
100
AcDbLine
 10
139.223389953
 20
149.2920586764
 30
0.0
 11
139.223389953
 21
146.4388221778
 31
0.0
  0
SPLINE
  5
1BD
330
1F
100
AcDbEntity
  8
0
  6
Continuous
 62
     7
370
    25
100
AcDbSpline
210
0.0
220
0.0
230
1.0
 70
     8
 71
     3
 72
    10
 73
     6
 74
     0
 42
0.000000001
 43
0.00000001
 40
0.0
 40
0.0
 40
0.0
 40
0.0
 40
0.4999999999999998
 40
0.4999999999999998
 40
1.0
 40
1.0
 40
1.0
 40
1.0
 10
139.223389952975
 20
146.438822177826
 30
0.0
 10
139.223389952975
 20
146.0777504105879
 30
0.0
 10
139.2417321736041
 20
145.6912632523604
 30
0.0
 10
139.2417142729087
 20
144.8811639375586
 30
0.0
 10
139.223389952971
 20
144.4555258559373
 30
0.0
 10
139.2233899529713
 20
144.0148603923933
 30
0.0
  0
SPLINE
  5
1BE
330
1F
100
AcDbEntity
  8
0
  6
Continuous
 62
     7
370
    25
100
AcDbSpline
210
0.0
220
0.0
230
1.0
 70
     8
 71
     3
 72
    10
 73
     6
 74
     0
 42
0.000000001
 43
0.00000001
 40
0.0
 40
0.0
 40
0.0
 40
0.0
 40
0.5
 40
0.5
 40
1.0
 40
1.0
 40
1.0
 40
1.0
 10
139.223389952975
 20
138.3083873952175
 30
0.0
 10
139.223389952975
 20
137.8676315093293
 30
0.0
 10
139.2417321736041
 20
137.4412364080821
 30
0.0
 10
139.2417142729087
 20
136.6311908090434
 30
0.0
 10
139.223389952971
 20
136.2454233021057
 30
0.0
 10
139.2233899529713
 20
135.8844256097844
 30
0.0
  0
LINE
  5
1BF
330
1F
100
AcDbEntity
  8
0
  6
Continuous
 62
     7
370
    25
100
AcDbLine
 10
139.223389953
 20
135.8844256098
 30
0.0
 11
139.223389953
 21
133.0311891112
 31
0.0
  0
LINE
  5
1C0
330
1F
100
AcDbEntity
  8
0
  6
Continuous
 62
     7
370
    25
100
AcDbLine
 10
146.0894153568
 20
135.8844256098
 30
0.0
 11
146.0894153568
 21
133.0311891112
 31
0.0
  0
SPLINE
  5
1C1
330
1F
100
AcDbEntity
  8
0
  6
Continuous
 62
     7
370
    25
100
AcDbSpline
210
0.0
220
0.0
230
1.0
 70
     8
 71
     3
 72
    10
 73
     6
 74
     0
 42
0.000000001
 43
0.00000001
 40
0.0
 40
0.0
 40
0.0
 40
0.0
 40
0.5
 40
0.5
 40
1.0
 40
1.0
 40
1.0
 40
1.0
 10
146.0894153567595
 20
138.3083873952175
 30
0.0
 10
146.0894153567595
 20
137.8676315093293
 30
0.0
 10
146.0710731361304
 20
137.4412364080821
 30
0.0
 10
146.0710910368258
 20
136.6311908090434
 30
0.0
 10
146.0894153567635
 20
136.2454233021057
 30
0.0
 10
146.0894153567632
 20
135.8844256097844
 30
0.0
  0
SPLINE
  5
1C2
330
1F
100
AcDbEntity
  8
0
  6
Continuous
 62
     7
370
    25
100
AcDbSpline
210
0.0
220
0.0
230
1.0
 70
     8
 71
     3
 72
    10
 73
     6
 74
     0
 42
0.000000001
 43
0.00000001
 40
0.0
 40
0.0
 40
0.0
 40
0.0
 40
0.4999999999999998
 40
0.4999999999999998
 40
1.0
 40
1.0
 40
1.0
 40
1.0
 10
146.0894153567595
 20
146.438822177826
 30
0.0
 10
146.0894153567595
 20
146.0777504105879
 30
0.0
 10
146.0710731361304
 20
145.6912632523604
 30
0.0
 10
146.0710910368258
 20
144.8811639375586
 30
0.0
 10
146.0894153567635
 20
144.4555258559373
 30
0.0
 10
146.0894153567632
 20
144.0148603923933
 30
0.0
  0
LINE
  5
1C3
330
1F
100
AcDbEntity
  8
0
  6
Continuous
 62
     7
370
    25
100
AcDbLine
 10
146.0894153568
 20
149.2920586764
 30
0.0
 11
146.0894153568
 21
146.4388221778
 31
0.0
  0
ARC
  5
1C4
330
1F
100
AcDbEntity
  8
0
  6
Continuous
 62
     7
370
    25
100
AcDbCircle
 10
146.0476082573
 20
134.9983202663
 30
0.0
 40
0.8870910400314365
100
AcDbArc
 50
87.2987462947
 51
133.2404470554
  0
ARC
  5
1C5
330
1F
100
AcDbEntity
  8
0
  6
Continuous
 62
     7
370
    25
100
AcDbCircle
 10
139.2651970525
 20
134.9983202663
 30
0.0
 40
0.887091040031514
100
AcDbArc
 50
46.7595529446
 51
92.7012537053
  0
ARC
  5
1C6
330
1F
100
AcDbEntity
  8
0
  6
Continuous
 62
     7
370
    25
100
AcDbCircle
 10
146.0476082573
 20
147.3249275213
 30
0.0
 40
0.8870910400314542
100
AcDbArc
 50
226.7595529446
 51
272.7012537053
  0
ARC
  5
1C7
330
1F
100
AcDbEntity
  8
0
  6
Continuous
 62
     7
370
    25
100
AcDbCircle
 10
139.2651970525
 20
147.3249275213
 30
0.0
 40
0.8870910400315346
100
AcDbArc
 50
267.2987462947
 51
313.2404470554
  0
SPLINE
  5
1C8
330
1F
100
AcDbEntity
  8
0
  6
Continuous
 62
     7
370
    25
100
AcDbSpline
210
0.0
220
0.0
230
1.0
 70
    24
 71
     3
 72
     8
 73
     4
 74
     0
 42
0.000000001
 43
0.00000001
 40
0.0
 40
0.0
 40
0.0
 40
0.0
 40
1.0
 40
1.0
 40
1.0
 40
1.0
 10
145.4398963039212
 20
149.6616238938053
 30
0.0
 10
145.3244262472193
 20
149.6616238938053
 30
0.0
 10
145.0768546965298
 20
149.6616238938053
 30
0.0
 10
144.752875709015
 20
149.6616238938053
 30
0.0
  0
LINE
  5
1C9
330
1F
100
AcDbEntity
  8
0
  6
Continuous
 62
     7
370
    25
100
AcDbLine
 10
145.4398963039
 20
146.6786948271
 30
0.0
 11
145.4398963039
 21
149.6616238938
 31
0.0
  0
LINE
  5
1CA
330
1F
100
AcDbEntity
  8
0
  6
Continuous
 62
     7
370
    25
100
AcDbLine
 10
139.8729090058
 20
146.6786948271
 30
0.0
 11
139.8729090058
 21
149.6616238938
 31
0.0
  0
SPLINE
  5
1CB
330
1F
100
AcDbEntity
  8
0
  6
Continuous
 62
     7
370
    25
100
AcDbSpline
210
0.0
220
0.0
230
1.0
 70
    24
 71
     3
 72
     8
 73
     4
 74
     0
 42
0.000000001
 43
0.00000001
 40
0.0
 40
0.0
 40
0.0
 40
0.0
 40
1.0
 40
1.0
 40
1.0
 40
1.0
 10
139.8729090058134
 20
149.6616238938053
 30
0.0
 10
139.9883790625152
 20
149.6616238938053
 30
0.0
 10
140.2359506132047
 20
149.6616238938053
 30
0.0
 10
140.5599296007195
 20
149.6616238938053
 30
0.0
  0
ARC
  5
1CC
330
1F
100
AcDbEntity
  8
0
  6
Continuous
 62
     7
370
    25
100
AcDbCircle
 10
139.2254260878
 20
150.044034792
 30
0.0
 40
0.7519788721912051
100
AcDbArc
 50
269.8448599075
 51
329.433409991
  0
ARC
  5
1CD
330
1F
100
AcDbEntity
  8
0
  6
Continuous
 62
     7
370
    25
100
AcDbCircle
 10
146.087379222
 20
150.044034792
 30
0.0
 40
0.751978872191205
100
AcDbArc
 50
210.566590009
 51
270.1551400925
  0
LINE
  5
1CE
330
1F
100
AcDbEntity
  8
0
  6
Continuous
 62
     7
370
    25
100
AcDbLine
 10
139.8729090058
 20
132.6616238938
 30
0.0
 11
139.8729090058
 21
135.6445529605
 31
0.0
  0
ARC
  5
1CF
330
1F
100
AcDbEntity
  8
0
  6
Continuous
 62
     7
370
    25
100
AcDbCircle
 10
139.2254260878
 20
132.2792129956
 30
0.0
 40
0.751978872191244
100
AcDbArc
 50
30.566590009
 51
90.1551400925
  0
LINE
  5
1D0
330
1F
100
AcDbEntity
  8
0
  6
Continuous
 62
     7
370
    25
100
AcDbLine
 10
145.4398963039
 20
132.6616238938
 30
0.0
 11
145.4398963039
 21
135.6445529605
 31
0.0
  0
ARC
  5
1D1
330
1F
100
AcDbEntity
  8
0
  6
Continuous
 62
     7
370
    25
100
AcDbCircle
 10
146.087379222
 20
132.2792129956
 30
0.0
 40
0.7519788721912052
100
AcDbArc
 50
89.8448599075
 51
149.433409991
  0
SPLINE
  5
1D2
330
1F
100
AcDbEntity
  8
0
  6
Continuous
 62
     7
370
    25
100
AcDbSpline
210
0.0
220
0.0
230
1.0
 70
    24
 71
     3
 72
     8
 73
     4
 74
     0
 42
0.000000001
 43
0.00000001
 40
0.0
 40
0.0
 40
0.0
 40
0.0
 40
1.0
 40
1.0
 40
1.0
 40
1.0
 10
139.8729090058134
 20
132.6616238938053
 30
0.0
 10
139.9883790625152
 20
132.6616238938053
 30
0.0
 10
140.2359506132047
 20
132.6616238938053
 30
0.0
 10
140.5599296007195
 20
132.6616238938053
 30
0.0
  0
SPLINE
  5
1D3
330
1F
100
AcDbEntity
  8
0
  6
Continuous
 62
     7
370
    25
100
AcDbSpline
210
0.0
220
0.0
230
1.0
 70
    24
 71
     3
 72
     8
 73
     4
 74
     0
 42
0.000000001
 43
0.00000001
 40
0.0
 40
0.0
 40
0.0
 40
0.0
 40
1.0
 40
1.0
 40
1.0
 40
1.0
 10
145.4398963039212
 20
132.6616238938053
 30
0.0
 10
145.3244262472193
 20
132.6616238938053
 30
0.0
 10
145.0768546965298
 20
132.6616238938053
 30
0.0
 10
144.752875709015
 20
132.6616238938053
 30
0.0
  0
SPLINE
  5
1D4
330
1F
100
AcDbEntity
  8
0
  6
Continuous
 62
     7
370
    25
100
AcDbSpline
210
0.0
220
0.0
230
1.0
 70
    24
 71
     3
 72
     9
 73
     5
 74
     0
 42
0.000000001
 43
0.00000001
 40
0.0
 40
0.0
 40
0.0
 40
0.0
 40
0.9092064277472457
 40
1.0
 40
1.0
 40
1.0
 40
1.0
 10
139.8081357980474
 20
149.6616238938053
 30
0.0
 10
139.816349867863
 20
149.6616238938053
 30
0.0
 10
139.8253841966633
 20
149.6616238938053
 30
0.0
 10
139.8689532186661
 20
149.6616238938053
 30
0.0
 10
139.8729090058134
 20
149.6616238938053
 30
0.0
  0
SPLINE
  5
1D5
330
1F
100
AcDbEntity
  8
0
  6
Continuous
 62
     7
370
    25
100
AcDbSpline
210
0.0
220
0.0
230
1.0
 70
    24
 71
     3
 72
     9
 73
     5
 74
     0
 42
0.000000001
 43
0.00000001
 40
0.0
 40
0.0
 40
0.0
 40
0.0
 40
0.9091459280916182
 40
1.0
 40
1.0
 40
1.0
 40
1.0
 10
145.5046305551501
 20
149.6616238938053
 30
0.0
 10
145.4964218685379
 20
149.6616238938053
 30
0.0
 10
145.4873928597082
 20
149.6616238938053
 30
0.0
 10
145.4438521543011
 20
149.6616238938053
 30
0.0
 10
145.4398963039212
 20
149.6616238938053
 30
0.0
  0
SPLINE
  5
1D6
330
1F
100
AcDbEntity
  8
0
  6
Continuous
 62
     7
370
    25
100
AcDbSpline
210
0.0
220
0.0
230
1.0
 70
    24
 71
     3
 72
    10
 73
     6
 74
     0
 42
0.000000001
 43
0.00000001
 40
0.0
 40
0.0
 40
0.0
 40
0.0
 40
0.079178381674505
 40
0.972017671785064
 40
0.9999999999999999
 40
0.9999999999999999
 40
0.9999999999999999
 40
0.9999999999999999
 10
145.4398963039212
 20
132.6616238938053
 30
0.0
 10
145.4437667667187
 20
132.6616238938053
 30
0.0
 10
145.4912817342847
 20
132.6616238938053
 30
0.0
 10
145.5357127558061
 20
132.6616238938053
 30
0.0
 10
145.5104876759805
 20
132.6616238938053
 30
0.0
 10
145.5097211252731
 20
132.6616238938053
 30
0.0
  0
SPLINE
  5
1D7
330
1F
100
AcDbEntity
  8
0
  6
Continuous
 62
     7
370
    25
100
AcDbSpline
210
0.0
220
0.0
230
1.0
 70
    24
 71
     3
 72
    10
 73
     6
 74
     0
 42
0.000000001
 43
0.00000001
 40
0.0
 40
0.0
 40
0.0
 40
0.0
 40
0.0791393766201271
 40
0.971538833984361
 40
0.9999999999999999
 40
0.9999999999999999
 40
0.9999999999999999
 40
0.9999999999999999
 10
139.8729090058134
 20
132.6616238938053
 30
0.0
 10
139.8690384915045
 20
132.6616238938053
 30
0.0
 10
139.8215228915691
 20
132.6616238938053
 30
0.0
 10
139.7770932923775
 20
132.6616238938053
 30
0.0
 10
139.8023432108099
 20
132.6616238938053
 30
0.0
 10
139.8031236135137
 20
132.6616238938053
 30
0.0
  0
SPLINE
  5
1D8
330
1F
100
AcDbEntity
  8
0
  6
Continuous
 62
     1
370
    25
100
AcDbSpline
210
0.0
220
0.0
230
1.0
 70
     8
 71
     3
 72
    11
 73
     7
 74
     0
 42
0.000000001
 43
0.00000001
 40
0.0
 40
0.0
 40
0.0
 40
0.0
 40
0.272480067422313
 40
0.5460771155088736
 40
0.8223721001551922
 40
1.0
 40
1.0
 40
1.0
 40
1.0
 10
119.6967438393016
 20
151.173251800782
 30
0.0
 10
119.6994973759488
 20
151.2131316448557
 30
0.0
 10
119.7050157368475
 20
151.2930548129052
 30
0.0
 10
119.7329725025361
 20
151.3671874344218
 30
0.0
 10
119.7548109746386
 20
151.4082096142134
 30
0.0
 10
119.7546147596349
 20
151.4076113520306
 30
0.0
 10
119.7545379772998
 20
151.4073772416591
 30
0.0
  0
SPLINE
  5
1D9
330
1F
100
AcDbEntity
  8
0
  6
Continuous
 62
     1
370
    25
100
AcDbSpline
210
0.0
220
0.0
230
1.0
 70
     8
 71
     3
 72
    10
 73
     6
 74
     0
 42
0.000000001
 43
0.00000001
 40
0.0
 40
0.0
 40
0.0
 40
0.0
 40
0.0998571811765418
 40
0.5478177797066249
 40
0.9999999999999999
 40
0.9999999999999999
 40
0.9999999999999999
 40
0.9999999999999999
 10
119.7545379772997
 20
130.9158705459514
 30
0.0
 10
119.7551775419508
 20
130.9148446856724
 30
0.0
 10
119.7586862018489
 20
130.9092168029934
 30
0.0
 10
119.7179205759372
 20
130.9658611295959
 30
0.0
 10
119.7038247876783
 20
131.0884260933721
 30
0.0
 10
119.6967438393016
 20
131.1499959868285
 30
0.0
  0
SPLINE
  5
1DA
330
1F
100
AcDbEntity
  8
0
  6
Continuous
 62
     1
370
    25
100
AcDbSpline
210
0.0
220
0.0
230
1.0
 70
     8
 71
     3
 72
    11
 73
     7
 74
     0
 42
0.000000001
 43
0.00000001
 40
0.0
 40
0.0
 40
0.0
 40
0.0
 40
0.2730152397279399
 40
0.5460807219315359
 40
0.8229744241458626
 40
1.0
 40
1.0
 40
1.0
 40
1.0
 10
165.6160614704329
 20
131.1499959868285
 30
0.0
 10
165.6132861701921
 20
131.1100527071099
 30
0.0
 10
165.6077350589774
 20
131.0301587969868
 30
0.0
 10
165.5795848412499
 20
130.9559609742174
 30
0.0
 10
165.5587404928438
 20
130.9150442573094
 30
0.0
 10
165.5585282153567
 20
130.9156339002407
 30
0.0
 10
165.558445428513
 20
130.9158638571615
 30
0.0
  0
SPLINE
  5
1DB
330
1F
100
AcDbEntity
  8
0
  6
Continuous
 62
     1
370
    25
100
AcDbSpline
210
0.0
220
0.0
230
1.0
 70
     8
 71
     3
 72
    10
 73
     6
 74
     0
 42
0.000000001
 43
0.00000001
 40
0.0
 40
0.0
 40
0.0
 40
0.0
 40
0.0998576094651714
 40
0.5478179948556606
 40
1.0
 40
1.0
 40
1.0
 40
1.0
 10
165.5584454285143
 20
151.4073839304471
 30
0.0
 10
165.5577404727973
 20
151.4084073380827
 30
0.0
 10
165.5538730917394
 20
151.4140217436534
 30
0.0
 10
165.5949766393241
 20
151.3573901205331
 30
0.0
 10
165.6090112528672
 20
151.2348228520142
 30
0.0
 10
165.6160614704329
 20
151.173251800782
 30
0.0
  0
SPLINE
  5
1DC
330
1F
100
AcDbEntity
  8
0
  6
Continuous
 62
     1
370
    25
100
AcDbSpline
210
0.0
220
0.0
230
1.0
 70
     8
 71
     3
 72
    10
 73
     6
 74
     0
 42
0.000000001
 43
0.00000001
 40
0.0
 40
0.0
 40
0.0
 40
0.0
 40
0.1054683351678737
 40
0.6440627664277302
 40
0.9999999999999999
 40
0.9999999999999999
 40
0.9999999999999999
 40
0.9999999999999999
 10
139.2400868604123
 20
149.4062101507592
 30
0.0
 10
139.2406018026885
 20
149.4078872097964
 30
0.0
 10
139.2437463971912
 20
149.4181284948348
 30
0.0
 10
139.2283677565429
 20
149.3789221636511
 30
0.0
 10
139.2248068499754
 20
149.3167837610483
 30
0.0
 10
139.223389952975
 20
149.292058676414
 30
0.0
  0
SPLINE
  5
1DD
330
1F
100
AcDbEntity
  8
0
  6
Continuous
 62
     1
370
    25
100
AcDbSpline
210
0.0
220
0.0
230
1.0
 70
     8
 71
     3
 72
     9
 73
     5
 74
     0
 42
0.000000001
 43
0.00000001
 40
0.0
 40
0.0
 40
0.0
 40
0.0
 40
0.571635057593927
 40
1.0
 40
1.0
 40
1.0
 40
1.0
 10
139.223389952975
 20
133.0311891111966
 30
0.0
 10
139.2278493610604
 20
132.9914707054542
 30
0.0
 10
139.2356505062598
 20
132.9219886028175
 30
0.0
 10
139.2387564030933
 20
132.9185224256411
 30
0.0
 10
139.2400868604114
 20
132.9170376368545
 30
0.0
  0
SPLINE
  5
1DE
330
1F
100
AcDbEntity
  8
0
  6
Continuous
 62
     1
370
    25
100
AcDbSpline
210
0.0
220
0.0
230
1.0
 70
     8
 71
     3
 72
     9
 73
     5
 74
     0
 42
0.000000001
 43
0.00000001
 40
0.0
 40
0.0
 40
0.0
 40
0.0
 40
0.571635057593927
 40
1.0
 40
1.0
 40
1.0
 40
1.0
 10
146.0894153567595
 20
133.0311891111966
 30
0.0
 10
146.0849559486741
 20
132.9914707054542
 30
0.0
 10
146.0771548034747
 20
132.9219886028175
 30
0.0
 10
146.0740489066413
 20
132.9185224256411
 30
0.0
 10
146.0727184493231
 20
132.9170376368545
 30
0.0
  0
SPLINE
  5
1DF
330
1F
100
AcDbEntity
  8
0
  6
Continuous
 62
     1
370
    25
100
AcDbSpline
210
0.0
220
0.0
230
1.0
 70
     8
 71
     3
 72
    10
 73
     6
 74
     0
 42
0.000000001
 43
0.00000001
 40
0.0
 40
0.0
 40
0.0
 40
0.0
 40
0.1054683351678737
 40
0.6440627664277302
 40
0.9999999999999999
 40
0.9999999999999999
 40
0.9999999999999999
 40
0.9999999999999999
 10
146.0727184493222
 20
149.4062101507592
 30
0.0
 10
146.072203507046
 20
149.4078872097964
 30
0.0
 10
146.0690589125433
 20
149.4181284948348
 30
0.0
 10
146.0844375531916
 20
149.3789221636511
 30
0.0
 10
146.0879984597591
 20
149.3167837610483
 30
0.0
 10
146.0894153567595
 20
149.292058676414
 30
0.0
  0
CIRCLE
  5
1E0
330
1F
100
AcDbEntity
  8
0
  6
Continuous
 62
     7
370
    25
100
AcDbCircle
 10
196.8988893805
 20
97.3129070796
 30
0.0
 40
10.05000000000001
  0
CIRCLE
  5
1E1
330
1F
100
AcDbEntity
  8
0
  6
Continuous
 62
     7
370
    25
100
AcDbCircle
 10
196.8988893805
 20
97.3129070796
 30
0.0
 40
5.175000000000011
  0
CIRCLE
  5
1E2
330
1F
100
AcDbEntity
  8
0
  6
Continuous
 62
     7
370
    25
100
AcDbCircle
 10
196.8988893805
 20
97.3129070796
 30
0.0
 40
5.074999999999989
  0
CIRCLE
  5
1E3
330
1F
100
AcDbEntity
  8
0
  6
Continuous
 62
     7
370
    25
100
AcDbCircle
 10
196.8988893805
 20
97.3129070796
 30
0.0
 40
10.25
  0
LINE
  5
1E4
330
1F
100
AcDbEntity
  8
0
  6
Continuous
 62
     7
370
    25
100
AcDbLine
 10
207.3988893805
 20
99.617793194
 30
0.0
 11
206.9105172875
 21
99.5105891887
 31
0.0
  0
SPLINE
  5
1E5
330
1F
100
AcDbEntity
  8
0
  6
Continuous
 62
     7
370
    25
100
AcDbSpline
210
0.0
220
0.0
230
1.0
 70
    24
 71
     3
 72
    12
 73
     8
 74
     0
 42
0.000000001
 43
0.00000001
 40
0.0
 40
0.0
 40
0.0
 40
0.0
 40
0.2024401144251289
 40
0.4053721074661993
 40
0.6098764258919305
 40
0.8149291984652179
 40
1.0
 40
1.0
 40
1.0
 40
1.0
 10
207.398889380531
 20
95.00802096532288
 30
0.0
 10
207.398889380531
 20
95.3180531234732
 30
0.0
 10
207.398889380531
 20
95.93887074002403
 30
0.0
 10
207.398889380531
 20
96.8779118740602
 30
0.0
 10
207.398889380531
 20
97.8216656463253
 30
0.0
 10
207.398889380531
 20
98.73703541465783
 30
0.0
 10
207.398889380531
 20
99.3344062988993
 30
0.0
 10
207.398889380531
 20
99.61779319396932
 30
0.0
  0
LINE
  5
1E6
330
1F
100
AcDbEntity
  8
0
  6
Continuous
 62
     7
370
    25
100
AcDbLine
 10
206.9105172875
 20
95.1152249706
 30
0.0
 11
207.3988893805
 21
95.0080209653
 31
0.0
  0
LINE
  5
1E7
330
1F
100
AcDbEntity
  8
0
  6
Continuous
 62
     7
370
    25
100
AcDbLine
 10
193.7963239629
 20
87.5437419245
 30
0.0
 11
193.6449793084
 21
87.0671972827
 31
0.0
  0
SPLINE
  5
1E8
330
1F
100
AcDbEntity
  8
0
  6
Continuous
 62
     7
370
    25
100
AcDbSpline
210
0.0
220
0.0
230
1.0
 70
    24
 71
     3
 72
    11
 73
     7
 74
     0
 42
0.000000001
 43
0.00000001
 40
0.0
 40
0.0
 40
0.0
 40
0.0
 40
0.295838252591282
 40
0.5932610319616782
 40
0.7963744598462188
 40
1.0
 40
1.0
 40
1.0
 40
1.0
 10
189.6527994526971
 20
89.37208339707097
 30
0.0
 10
190.0455028800573
 20
89.14535596757287
 30
0.0
 10
190.8330130770313
 20
88.69068674336037
 30
0.0
 10
191.8967409901745
 20
88.07654314636264
 30
0.0
 10
192.8354762638527
 20
87.53456408340675
 30
0.0
 10
193.3749185619051
 20
87.2231169274139
 30
0.0
 10
193.644979308365
 20
87.06719728274777
 30
0.0
  0
LINE
  5
1E9
330
1F
100
AcDbEntity
  8
0
  6
Continuous
 62
     7
370
    25
100
AcDbLine
 10
189.9898268912
 20
89.7414240335
 30
0.0
 11
189.6527994527
 21
89.3720833971
 31
0.0
  0
SPLINE
  5
1EA
330
1F
100
AcDbEntity
  8
0
  6
Continuous
 62
     7
370
    25
100
AcDbSpline
210
0.0
220
0.0
230
1.0
 70
    24
 71
     3
 72
    11
 73
     7
 74
     0
 42
0.000000001
 43
0.00000001
 40
0.0
 40
0.0
 40
0.0
 40
0.0
 40
0.2958382525912941
 40
0.5932610319617027
 40
0.7963744598462315
 40
1.0
 40
1.0
 40
1.0
 40
1.0
 10
204.1449793083647
 20
105.2537307622212
 30
0.0
 10
203.7522758810045
 20
105.4804581917193
 30
0.0
 10
202.9647656840306
 20
105.9351274159317
 30
0.0
 10
201.9010377708875
 20
106.5492710129294
 30
0.0
 10
200.9623024972094
 20
107.0912500758853
 30
0.0
 10
200.422860199157
 20
107.4026972318781
 30
0.0
 10
200.1527994526972
 20
107.5586168765442
 30
0.0
  0
LINE
  5
1EB
330
1F
100
AcDbEntity
  8
0
  6
Continuous
 62
     7
370
    25
100
AcDbLine
 10
204.1449793084
 20
105.2537307622
 30
0.0
 11
203.8079518699
 21
104.8843901258
 31
0.0
  0
LINE
  5
1EC
330
1F
100
AcDbEntity
  8
0
  6
Continuous
 62
     7
370
    25
100
AcDbLine
 10
200.1527994527
 20
107.5586168765
 30
0.0
 11
200.0014547982
 21
107.0820722348
 31
0.0
  0
LINE
  5
1ED
330
1F
100
AcDbEntity
  8
0
  6
Continuous
 62
     7
370
    25
100
AcDbLine
 10
186.8872614736
 20
95.1152249706
 30
0.0
 11
186.3988893805
 21
95.0080209653
 31
0.0
  0
SPLINE
  5
1EE
330
1F
100
AcDbEntity
  8
0
  6
Continuous
 62
     7
370
    25
100
AcDbSpline
210
0.0
220
0.0
230
1.0
 70
    24
 71
     3
 72
    12
 73
     8
 74
     0
 42
0.000000001
 43
0.00000001
 40
0.0
 40
0.0
 40
0.0
 40
0.0
 40
0.1850707909523943
 40
0.3874780239981278
 40
0.5904107204321914
 40
0.7949436929440946
 40
0.9999999999999999
 40
0.9999999999999999
 40
0.9999999999999999
 40
0.9999999999999999
 10
186.398889380531
 20
99.6177931939692
 30
0.0
 10
186.398889380531
 20
99.33440648186365
 30
0.0
 10
186.398889380531
 20
98.7410869057765
 30
0.0
 10
186.398889380531
 20
97.83223861001623
 30
0.0
 10
186.398889380531
 20
96.8925247198655
 30
0.0
 10
186.398889380531
 20
95.94935853703338
 30
0.0
 10
186.398889380531
 20
95.32206732040726
 30
0.0
 10
186.398889380531
 20
95.00802096532276
 30
0.0
  0
LINE
  5
1EF
330
1F
100
AcDbEntity
  8
0
  6
Continuous
 62
     7
370
    25
100
AcDbLine
 10
186.3988893805
 20
99.617793194
 30
0.0
 11
186.8872614736
 21
99.5105891887
 31
0.0
  0
LINE
  5
1F0
330
1F
100
AcDbEntity
  8
0
  6
Continuous
 62
     7
370
    25
100
AcDbLine
 10
203.8079518699
 20
89.7414240335
 30
0.0
 11
204.1449793084
 21
89.3720833971
 31
0.0
  0
SPLINE
  5
1F1
330
1F
100
AcDbEntity
  8
0
  6
Continuous
 62
     7
370
    25
100
AcDbSpline
210
0.0
220
0.0
230
1.0
 70
    24
 71
     3
 72
    11
 73
     7
 74
     0
 42
0.000000001
 43
0.00000001
 40
0.0
 40
0.0
 40
0.0
 40
0.0
 40
0.2958382525912819
 40
0.593261031961678
 40
0.7963744598462187
 40
1.0
 40
1.0
 40
1.0
 40
1.0
 10
200.1527994526972
 20
87.06719728274781
 30
0.0
 10
200.5455028800573
 20
87.29392471224591
 30
0.0
 10
201.3330130770313
 20
87.74859393645842
 30
0.0
 10
202.3967409901745
 20
88.36273753345618
 30
0.0
 10
203.3354762638527
 20
88.90471659641207
 30
0.0
 10
203.8749185619052
 20
89.21616375240492
 30
0.0
 10
204.144979308365
 20
89.37208339707107
 30
0.0
  0
LINE
  5
1F2
330
1F
100
AcDbEntity
  8
0
  6
Continuous
 62
     7
370
    25
100
AcDbLine
 10
200.0014547982
 20
87.5437419245
 30
0.0
 11
200.1527994527
 21
87.0671972827
 31
0.0
  0
SPLINE
  5
1F3
330
1F
100
AcDbEntity
  8
0
  6
Continuous
 62
     7
370
    25
100
AcDbSpline
210
0.0
220
0.0
230
1.0
 70
    24
 71
     3
 72
    11
 73
     7
 74
     0
 42
0.000000001
 43
0.00000001
 40
0.0
 40
0.0
 40
0.0
 40
0.0
 40
0.295838252591282
 40
0.5932610319616771
 40
0.7963744598462188
 40
1.0
 40
1.0
 40
1.0
 40
1.0
 10
193.6449793083649
 20
107.5586168765442
 30
0.0
 10
193.2522758810047
 20
107.3318894470461
 30
0.0
 10
192.4647656840307
 20
106.8772202228336
 30
0.0
 10
191.4010377708875
 20
106.2630766258359
 30
0.0
 10
190.4623024972094
 20
105.72109756288
 30
0.0
 10
189.9228601991569
 20
105.4096504068871
 30
0.0
 10
189.6527994526971
 20
105.253730762221
 30
0.0
  0
LINE
  5
1F4
330
1F
100
AcDbEntity
  8
0
  6
Continuous
 62
     7
370
    25
100
AcDbLine
 10
193.6449793084
 20
107.5586168765
 30
0.0
 11
193.7963239629
 21
107.0820722348
 31
0.0
  0
LINE
  5
1F5
330
1F
100
AcDbEntity
  8
0
  6
Continuous
 62
     7
370
    25
100
AcDbLine
 10
189.6527994527
 20
105.2537307622
 30
0.0
 11
189.9898268912
 21
104.8843901258
 31
0.0
  0
ARC
  5
1F6
330
1F
100
AcDbEntity
  8
0
  6
Continuous
 62
     7
370
    25
100
AcDbCircle
 10
196.8988893805
 20
97.3129070796
 30
0.0
 40
10.75
100
AcDbArc
 50
132.3807989171
 51
167.6192010829
  0
ARC
  5
1F7
330
1F
100
AcDbEntity
  8
0
  6
Continuous
 62
     7
370
    25
100
AcDbCircle
 10
196.8988893805
 20
97.3129070796
 30
0.0
 40
10.75
100
AcDbArc
 50
12.3807989171
 51
47.6192010829
  0
ARC
  5
1F8
330
1F
100
AcDbEntity
  8
0
  6
Continuous
 62
     7
370
    25
100
AcDbCircle
 10
196.8988893805
 20
97.3129070796
 30
0.0
 40
10.75
100
AcDbArc
 50
72.3807989171
 51
107.6192010829
  0
ARC
  5
1F9
330
1F
100
AcDbEntity
  8
0
  6
Continuous
 62
     7
370
    25
100
AcDbCircle
 10
196.8988893805
 20
97.3129070796
 30
0.0
 40
10.75
100
AcDbArc
 50
312.3807989171
 51
347.6192010829
  0
ARC
  5
1FA
330
1F
100
AcDbEntity
  8
0
  6
Continuous
 62
     7
370
    25
100
AcDbCircle
 10
196.8988893805
 20
97.3129070796
 30
0.0
 40
10.74999999999999
100
AcDbArc
 50
252.3807989171
 51
287.6192010829
  0
ARC
  5
1FB
330
1F
100
AcDbEntity
  8
0
  6
Continuous
 62
     7
370
    25
100
AcDbCircle
 10
196.8988893805
 20
97.3129070796
 30
0.0
 40
10.74999999999998
100
AcDbArc
 50
192.3807989171
 51
227.6192010829
  0
SPLINE
  5
1FC
330
1F
100
AcDbEntity
  8
0
  6
Continuous
 62
     7
370
    25
100
AcDbSpline
210
0.0
220
0.0
230
1.0
 70
    24
 71
     3
 72
    10
 73
     6
 74
     0
 42
0.000000001
 43
0.00000001
 40
0.0
 40
0.0
 40
0.0
 40
0.0
 40
0.4984980708560579
 40
0.7490126232556642
 40
1.0
 40
1.0
 40
1.0
 40
1.0
 10
186.398889380531
 20
103.3750849061371
 30
0.0
 10
186.398889380531
 20
102.7582372549519
 30
0.0
 10
186.398889380531
 20
101.8313998118905
 30
0.0
 10
186.398889380531
 20
100.5728848650377
 30
0.0
 10
186.398889380531
 20
99.9363571272983
 30
0.0
 10
186.398889380531
 20
99.6177931939692
 30
0.0
  0
SPLINE
  5
1FD
330
1F
100
AcDbEntity
  8
0
  6
Continuous
 62
     7
370
    25
100
AcDbSpline
210
0.0
220
0.0
230
1.0
 70
    24
 71
     3
 72
    10
 73
     6
 74
     0
 42
0.000000001
 43
0.00000001
 40
0.0
 40
0.0
 40
0.0
 40
0.0
 40
0.2489414949512298
 40
0.4983791688283649
 40
1.0
 40
1.0
 40
1.0
 40
1.0
 10
189.6527994526971
 20
105.253730762221
 30
0.0
 10
189.379160693864
 20
105.095745351148
 30
0.0
 10
188.8313377718028
 20
104.7794596396277
 30
0.0
 10
187.7413403674249
 20
104.1501493447941
 30
0.0
 10
186.9364582222784
 20
103.6854504216279
 30
0.0
 10
186.398889380531
 20
103.3750849061371
 30
0.0
  0
SPLINE
  5
1FE
330
1F
100
AcDbEntity
  8
0
  6
Continuous
 62
     7
370
    25
100
AcDbSpline
210
0.0
220
0.0
230
1.0
 70
    24
 71
     3
 72
    10
 73
     6
 74
     0
 42
0.000000001
 43
0.00000001
 40
0.0
 40
0.0
 40
0.0
 40
0.0
 40
0.3258684952272104
 40
0.652796051151689
 40
1.0
 40
1.0
 40
1.0
 40
1.0
 10
186.398889380531
 20
95.00802096532276
 30
0.0
 10
186.398889380531
 20
94.5946013581629
 30
0.0
 10
186.398889380531
 20
93.76641854523263
 30
0.0
 10
186.398889380531
 20
92.51263924979781
 30
0.0
 10
186.398889380531
 20
91.67971674435788
 30
0.0
 10
186.398889380531
 20
91.25072925315489
 30
0.0
  0
SPLINE
  5
1FF
330
1F
100
AcDbEntity
  8
0
  6
Continuous
 62
     7
370
    25
100
AcDbSpline
210
0.0
220
0.0
230
1.0
 70
    24
 71
     3
 72
    10
 73
     6
 74
     0
 42
0.000000001
 43
0.00000001
 40
0.0
 40
0.0
 40
0.0
 40
0.0
 40
0.4984980708560565
 40
0.7490126232556633
 40
1.0
 40
1.0
 40
1.0
 40
1.0
 10
186.398889380531
 20
91.25072925315489
 30
0.0
 10
186.9330951167221
 20
90.94230542756232
 30
0.0
 10
187.7357598875919
 20
90.47888670603163
 30
0.0
 10
188.8256658026089
 20
89.84962923260522
 30
0.0
 10
189.3769149937046
 20
89.53136536373552
 30
0.0
 10
189.6527994526971
 20
89.37208339707097
 30
0.0
  0
SPLINE
  5
200
330
1F
100
AcDbEntity
  8
0
  6
Continuous
 62
     7
370
    25
100
AcDbSpline
210
0.0
220
0.0
230
1.0
 70
    24
 71
     3
 72
    10
 73
     6
 74
     0
 42
0.000000001
 43
0.00000001
 40
0.0
 40
0.0
 40
0.0
 40
0.0
 40
0.4984980708560558
 40
0.749012623255663
 40
1.0
 40
1.0
 40
1.0
 40
1.0
 10
207.3988893805309
 20
103.3750849061372
 30
0.0
 10
206.8646836443398
 20
103.6835087317298
 30
0.0
 10
206.06201887347
 20
104.1469274532605
 30
0.0
 10
204.972112958453
 20
104.7761849266869
 30
0.0
 10
204.4208637673572
 20
105.0944487955566
 30
0.0
 10
204.1449793083647
 20
105.2537307622212
 30
0.0
  0
SPLINE
  5
201
330
1F
100
AcDbEntity
  8
0
  6
Continuous
 62
     7
370
    25
100
AcDbSpline
210
0.0
220
0.0
230
1.0
 70
    24
 71
     3
 72
    10
 73
     6
 74
     0
 42
0.000000001
 43
0.00000001
 40
0.0
 40
0.0
 40
0.0
 40
0.0
 40
0.2489414949512298
 40
0.4983791688283651
 40
1.0
 40
1.0
 40
1.0
 40
1.0
 10
207.398889380531
 20
99.61779319396932
 30
0.0
 10
207.398889380531
 20
99.93376401611533
 30
0.0
 10
207.3988893805309
 20
100.5663354391559
 30
0.0
 10
207.3988893805309
 20
101.824956028823
 30
0.0
 10
207.3988893805309
 20
102.7543538751556
 30
0.0
 10
207.3988893805309
 20
103.3750849061372
 30
0.0
  0
SPLINE
  5
202
330
1F
100
AcDbEntity
  8
0
  6
Continuous
 62
     7
370
    25
100
AcDbSpline
210
0.0
220
0.0
230
1.0
 70
    24
 71
     3
 72
    10
 73
     6
 74
     0
 42
0.000000001
 43
0.00000001
 40
0.0
 40
0.0
 40
0.0
 40
0.0
 40
0.24894149495123
 40
0.4983791688283659
 40
1.0
 40
1.0
 40
1.0
 40
1.0
 10
200.1527994526972
 20
107.5586168765442
 30
0.0
 10
199.8791606938641
 20
107.7166022876172
 30
0.0
 10
199.3313377718029
 20
108.0328879991375
 30
0.0
 10
198.241340367425
 20
108.662198293971
 30
0.0
 10
197.4364582222784
 20
109.1268972171373
 30
0.0
 10
196.898889380531
 20
109.4372627326281
 30
0.0
  0
SPLINE
  5
203
330
1F
100
AcDbEntity
  8
0
  6
Continuous
 62
     7
370
    25
100
AcDbSpline
210
0.0
220
0.0
230
1.0
 70
    24
 71
     3
 72
    10
 73
     6
 74
     0
 42
0.000000001
 43
0.00000001
 40
0.0
 40
0.0
 40
0.0
 40
0.0
 40
0.4984980708560559
 40
0.7490126232556624
 40
1.0
 40
1.0
 40
1.0
 40
1.0
 10
196.898889380531
 20
109.4372627326281
 30
0.0
 10
196.3646836443399
 20
109.1288389070356
 30
0.0
 10
195.5620188734701
 20
108.6654201855049
 30
0.0
 10
194.4721129584532
 20
108.0361627120785
 30
0.0
 10
193.9208637673574
 20
107.7178988432088
 30
0.0
 10
193.6449793083649
 20
107.5586168765442
 30
0.0
  0
SPLINE
  5
204
330
1F
100
AcDbEntity
  8
0
  6
Continuous
 62
     7
370
    25
100
AcDbSpline
210
0.0
220
0.0
230
1.0
 70
    24
 71
     3
 72
    10
 73
     6
 74
     0
 42
0.000000001
 43
0.00000001
 40
0.0
 40
0.0
 40
0.0
 40
0.0
 40
0.2489414949512302
 40
0.4983791688283657
 40
1.0
 40
1.0
 40
1.0
 40
1.0
 10
204.144979308365
 20
89.37208339707107
 30
0.0
 10
204.4186180671981
 20
89.53006880814407
 30
0.0
 10
204.9664409892592
 20
89.84635451966436
 30
0.0
 10
206.0564383936371
 20
90.47566481449792
 30
0.0
 10
206.8613205387836
 20
90.9403637376642
 30
0.0
 10
207.398889380531
 20
91.25072925315503
 30
0.0
  0
SPLINE
  5
205
330
1F
100
AcDbEntity
  8
0
  6
Continuous
 62
     7
370
    25
100
AcDbSpline
210
0.0
220
0.0
230
1.0
 70
    24
 71
     3
 72
    10
 73
     6
 74
     0
 42
0.000000001
 43
0.00000001
 40
0.0
 40
0.0
 40
0.0
 40
0.0
 40
0.347203973793914
 40
0.6731184750787439
 40
1.0
 40
1.0
 40
1.0
 40
1.0
 10
207.398889380531
 20
91.25072925315503
 30
0.0
 10
207.398889380531
 20
91.67971668200471
 30
0.0
 10
207.398889380531
 20
92.51138735898446
 30
0.0
 10
207.398889380531
 20
93.76514003436296
 30
0.0
 10
207.398889380531
 20
94.59331837921157
 30
0.0
 10
207.398889380531
 20
95.0080209653229
 30
0.0
  0
SPLINE
  5
206
330
1F
100
AcDbEntity
  8
0
  6
Continuous
 62
     7
370
    25
100
AcDbSpline
210
0.0
220
0.0
230
1.0
 70
    24
 71
     3
 72
    10
 73
     6
 74
     0
 42
0.000000001
 43
0.00000001
 40
0.0
 40
0.0
 40
0.0
 40
0.0
 40
0.4984980708560563
 40
0.7490126232556623
 40
1.0
 40
1.0
 40
1.0
 40
1.0
 10
196.8988893805311
 20
85.18855142666386
 30
0.0
 10
197.4330951167222
 20
85.49697525225643
 30
0.0
 10
198.2357598875919
 20
85.96039397378713
 30
0.0
 10
199.3256658026089
 20
86.58965144721354
 30
0.0
 10
199.8769149937047
 20
86.90791531608326
 30
0.0
 10
200.1527994526972
 20
87.06719728274781
 30
0.0
  0
SPLINE
  5
207
330
1F
100
AcDbEntity
  8
0
  6
Continuous
 62
     7
370
    25
100
AcDbSpline
210
0.0
220
0.0
230
1.0
 70
    24
 71
     3
 72
    10
 73
     6
 74
     0
 42
0.000000001
 43
0.00000001
 40
0.0
 40
0.0
 40
0.0
 40
0.0
 40
0.2489414949512303
 40
0.498379168828366
 40
1.0
 40
1.0
 40
1.0
 40
1.0
 10
193.644979308365
 20
87.06719728274777
 30
0.0
 10
193.9186180671981
 20
86.90921187167477
 30
0.0
 10
194.4664409892592
 20
86.5929261601545
 30
0.0
 10
195.5564383936371
 20
85.96361586532093
 30
0.0
 10
196.3613205387837
 20
85.49891694215466
 30
0.0
 10
196.8988893805311
 20
85.18855142666386
 30
0.0
  0
CIRCLE
  5
208
330
1F
100
AcDbEntity
  8
0
  6
Continuous
 62
     7
370
    25
100
AcDbCircle
 10
196.8988893805
 20
97.3129070796
 30
0.0
 40
5.050000000000011
  0
CIRCLE
  5
209
330
1F
100
AcDbEntity
  8
0
  6
Continuous
 62
     7
370
    25
100
AcDbCircle
 10
196.8988893805
 20
97.3129070796
 30
0.0
 40
4.0
  0
ENDSEC
  0
SECTION
  2
OBJECTS
  0
DICTIONARY
  5
C
330
0
100
AcDbDictionary
281
     1
  3
ACAD_GROUP
350
D
  3
ACAD_LAYOUT
350
1A
  3
ACAD_MLINESTYLE
350
17
  3
ACAD_PLOTSETTINGS
350
19
  3
ACAD_PLOTSTYLENAME
350
E
  3
ACAD_SCALELIST
350
47
  0
DICTIONARY
  5
D
102
{ACAD_REACTORS
330
C
102
}
330
C
100
AcDbDictionary
281
     1
  0
DICTIONARY
  5
1A
102
{ACAD_REACTORS
330
C
102
}
330
C
100
AcDbDictionary
281
     1
  3
Layout1
350
1E
  3
Layout2
350
26
  3
Model
350
22
  0
DICTIONARY
  5
17
102
{ACAD_REACTORS
330
C
102
}
330
C
100
AcDbDictionary
281
     1
  3
Standard
350
18
  0
DICTIONARY
  5
19
102
{ACAD_REACTORS
330
C
102
}
330
C
100
AcDbDictionary
281
     1
  0
ACDBDICTIONARYWDFLT
  5
E
102
{ACAD_REACTORS
330
C
102
}
330
C
100
AcDbDictionary
281
     1
  3
Normal
350
F
100
AcDbDictionaryWithDefault
340
F
  0
DICTIONARY
  5
47
102
{ACAD_REACTORS
330
C
102
}
330
C
100
AcDbDictionary
281
     1
  3
A0
350
48
  3
A1
350
49
  3
A2
350
4A
  3
A3
350
4B
  3
A4
350
4C
  3
A5
350
4D
  3
A6
350
4E
  3
A7
350
4F
  3
A8
350
50
  3
A9
350
51
  3
B0
350
52
  3
B1
350
53
  3
B2
350
54
  3
B3
350
55
  3
B4
350
56
  3
B5
350
57
  3
B6
350
58
  3
B7
350
59
  3
B8
350
5A
  3
B9
350
5B
  3
C0
350
5C
  3
C1
350
5D
  3
C2
350
5E
  3
C3
350
5F
  3
C4
350
60
  3
C5
350
61
  3
C6
350
62
  3
C7
350
63
  3
C8
350
64
  3
C9
350
65
  3
D0
350
66
  3
D1
350
67
  3
D2
350
68
  0
LAYOUT
  5
1E
102
{ACAD_REACTORS
330
1A
102
}
330
1A
100
AcDbPlotSettings
  1

  2
none_device
  4

  6

 40
0.0
 41
0.0
 42
0.0
 43
0.0
 44
0.0
 45
0.0
 46
0.0
 47
0.0
 48
0.0
 49
0.0
140
0.0
141
0.0
142
1.0
143
1.0
 70
   688
 72
     1
 73
     0
 74
     5
  7

 75
    16
147
1.0
148
0.0
149
0.0
100
AcDbLayout
  1
Layout1
 70
     1
 71
     1
 10
0.0
 20
0.0
 11
420.0
 21
297.0
 12
0.0
 22
0.0
 32
0.0
 14
1.0000000000E+20
 24
1.0000000000E+20
 34
1.0000000000E+20
 15
-1.0000000000E+20
 25
-1.0000000000E+20
 35
-1.0000000000E+20
146
0.0
 13
0.0
 23
0.0
 33
0.0
 16
1.0
 26
0.0
 36
0.0
 17
0.0
 27
1.0
 37
0.0
 76
     0
330
1B
  0
LAYOUT
  5
26
102
{ACAD_REACTORS
330
1A
102
}
330
1A
100
AcDbPlotSettings
  1

  2
none_device
  4

  6

 40
0.0
 41
0.0
 42
0.0
 43
0.0
 44
0.0
 45
0.0
 46
0.0
 47
0.0
 48
0.0
 49
0.0
140
0.0
141
0.0
142
1.0
143
1.0
 70
   688
 72
     1
 73
     0
 74
     5
  7

 75
    16
147
1.0
148
0.0
149
0.0
100
AcDbLayout
  1
Layout2
 70
     1
 71
     2
 10
0.0
 20
0.0
 11
0.0
 21
0.0
 12
0.0
 22
0.0
 32
0.0
 14
0.0
 24
0.0
 34
0.0
 15
0.0
 25
0.0
 35
0.0
146
0.0
 13
0.0
 23
0.0
 33
0.0
 16
1.0
 26
0.0
 36
0.0
 17
0.0
 27
1.0
 37
0.0
 76
     0
330
23
  0
LAYOUT
  5
22
102
{ACAD_REACTORS
330
1A
102
}
330
1A
100
AcDbPlotSettings
  1

  2
none_device
  4
Letter_(8.50_x_11.00_Inches)
  6

 40
6.35
 41
6.35
 42
6.35000508
 43
6.35000508
 44
215.9
 45
279.4
 46
0.0
 47
0.0
 48
0.0
 49
0.0
140
0.0
141
0.0
142
1.0
143
1.0
 70
  1712
 72
     1
 73
     0
 74
     0
  7

 75
     0
147
1.0
148
0.0
149
0.0
100
AcDbLayout
  1
Model
 70
     1
 71
     0
 10
0.0
 20
0.0
 11
431.8
 21
279.4
 12
0.0
 22
0.0
 32
0.0
 14
0.0
 24
0.0
 34
0.0
 15
431.8
 25
279.4
 35
0.0
146
0.0
 13
0.0
 23
0.0
 33
0.0
 16
1.0
 26
0.0
 36
0.0
 17
0.0
 27
1.0
 37
0.0
 76
     0
330
1F
331
29
  0
MLINESTYLE
  5
18
102
{ACAD_REACTORS
330
17
102
}
330
17
100
AcDbMlineStyle
  2
Standard
 70
     0
  3

 62
   256
 51
90.0
 52
90.0
 71
     2
 49
0.5
 62
   256
  6
BYLAYER
 49
-0.5
 62
   256
  6
BYLAYER
  0
ACDBPLACEHOLDER
  5
F
102
{ACAD_REACTORS
330
E
102
}
330
E
  0
SCALE
  5
48
102
{ACAD_REACTORS
330
47
102
}
330
47
100
AcDbScale
 70
     0
300
1:1
140
1.0
141
1.0
290
     1
  0
SCALE
  5
49
102
{ACAD_REACTORS
330
47
102
}
330
47
100
AcDbScale
 70
     0
300
1:2
140
1.0
141
2.0
290
     0
  0
SCALE
  5
4A
102
{ACAD_REACTORS
330
47
102
}
330
47
100
AcDbScale
 70
     0
300
1:4
140
1.0
141
4.0
290
     0
  0
SCALE
  5
4B
102
{ACAD_REACTORS
330
47
102
}
330
47
100
AcDbScale
 70
     0
300
1:5
140
1.0
141
5.0
290
     0
  0
SCALE
  5
4C
102
{ACAD_REACTORS
330
47
102
}
330
47
100
AcDbScale
 70
     0
300
1:8
140
1.0
141
8.0
290
     0
  0
SCALE
  5
4D
102
{ACAD_REACTORS
330
47
102
}
330
47
100
AcDbScale
 70
     0
300
1:10
140
1.0
141
10.0
290
     0
  0
SCALE
  5
4E
102
{ACAD_REACTORS
330
47
102
}
330
47
100
AcDbScale
 70
     0
300
1:16
140
1.0
141
16.0
290
     0
  0
SCALE
  5
4F
102
{ACAD_REACTORS
330
47
102
}
330
47
100
AcDbScale
 70
     0
300
1:20
140
1.0
141
20.0
290
     0
  0
SCALE
  5
50
102
{ACAD_REACTORS
330
47
102
}
330
47
100
AcDbScale
 70
     0
300
1:30
140
1.0
141
30.0
290
     0
  0
SCALE
  5
51
102
{ACAD_REACTORS
330
47
102
}
330
47
100
AcDbScale
 70
     0
300
1:40
140
1.0
141
40.0
290
     0
  0
SCALE
  5
52
102
{ACAD_REACTORS
330
47
102
}
330
47
100
AcDbScale
 70
     0
300
1:50
140
1.0
141
50.0
290
     0
  0
SCALE
  5
53
102
{ACAD_REACTORS
330
47
102
}
330
47
100
AcDbScale
 70
     0
300
1:100
140
1.0
141
100.0
290
     0
  0
SCALE
  5
54
102
{ACAD_REACTORS
330
47
102
}
330
47
100
AcDbScale
 70
     0
300
2:1
140
2.0
141
1.0
290
     0
  0
SCALE
  5
55
102
{ACAD_REACTORS
330
47
102
}
330
47
100
AcDbScale
 70
     0
300
4:1
140
4.0
141
1.0
290
     0
  0
SCALE
  5
56
102
{ACAD_REACTORS
330
47
102
}
330
47
100
AcDbScale
 70
     0
300
8:1
140
8.0
141
1.0
290
     0
  0
SCALE
  5
57
102
{ACAD_REACTORS
330
47
102
}
330
47
100
AcDbScale
 70
     0
300
10:1
140
10.0
141
1.0
290
     0
  0
SCALE
  5
58
102
{ACAD_REACTORS
330
47
102
}
330
47
100
AcDbScale
 70
     0
300
100:1
140
100.0
141
1.0
290
     0
  0
SCALE
  5
59
102
{ACAD_REACTORS
330
47
102
}
330
47
100
AcDbScale
 70
     0
300
1/128" = 1'-0"
140
0.0078125
141
12.0
290
     0
  0
SCALE
  5
5A
102
{ACAD_REACTORS
330
47
102
}
330
47
100
AcDbScale
 70
     0
300
1/64" = 1'-0"
140
0.015625
141
12.0
290
     0
  0
SCALE
  5
5B
102
{ACAD_REACTORS
330
47
102
}
330
47
100
AcDbScale
 70
     0
300
1/32" = 1'-0"
140
0.03125
141
12.0
290
     0
  0
SCALE
  5
5C
102
{ACAD_REACTORS
330
47
102
}
330
47
100
AcDbScale
 70
     0
300
1/16" = 1'-0"
140
0.0625
141
12.0
290
     0
  0
SCALE
  5
5D
102
{ACAD_REACTORS
330
47
102
}
330
47
100
AcDbScale
 70
     0
300
3/32" = 1'-0"
140
0.09375
141
12.0
290
     0
  0
SCALE
  5
5E
102
{ACAD_REACTORS
330
47
102
}
330
47
100
AcDbScale
 70
     0
300
1/8" = 1'-0"
140
0.125
141
12.0
290
     0
  0
SCALE
  5
5F
102
{ACAD_REACTORS
330
47
102
}
330
47
100
AcDbScale
 70
     0
300
3/16" = 1'-0"
140
0.1875
141
12.0
290
     0
  0
SCALE
  5
60
102
{ACAD_REACTORS
330
47
102
}
330
47
100
AcDbScale
 70
     0
300
1/4" = 1'-0"
140
0.25
141
12.0
290
     0
  0
SCALE
  5
61
102
{ACAD_REACTORS
330
47
102
}
330
47
100
AcDbScale
 70
     0
300
3/8" = 1'-0"
140
0.375
141
12.0
290
     0
  0
SCALE
  5
62
102
{ACAD_REACTORS
330
47
102
}
330
47
100
AcDbScale
 70
     0
300
1/2" = 1'-0"
140
0.5
141
12.0
290
     0
  0
SCALE
  5
63
102
{ACAD_REACTORS
330
47
102
}
330
47
100
AcDbScale
 70
     0
300
3/4" = 1'-0"
140
0.75
141
12.0
290
     0
  0
SCALE
  5
64
102
{ACAD_REACTORS
330
47
102
}
330
47
100
AcDbScale
 70
     0
300
1" = 1'-0"
140
1.0
141
12.0
290
     0
  0
SCALE
  5
65
102
{ACAD_REACTORS
330
47
102
}
330
47
100
AcDbScale
 70
     0
300
1-1/2" = 1'-0"
140
1.5
141
12.0
290
     0
  0
SCALE
  5
66
102
{ACAD_REACTORS
330
47
102
}
330
47
100
AcDbScale
 70
     0
300
3" = 1'-0"
140
3.0
141
12.0
290
     0
  0
SCALE
  5
67
102
{ACAD_REACTORS
330
47
102
}
330
47
100
AcDbScale
 70
     0
300
6" = 1'-0"
140
6.0
141
12.0
290
     0
  0
SCALE
  5
68
102
{ACAD_REACTORS
330
47
102
}
330
47
100
AcDbScale
 70
     0
300
1'-0" = 1'-0"
140
12.0
141
12.0
290
     0
  0
ENDSEC
  0
EOF
