  0
SECTION
  2
HEADER
  9
$ACADVER
  1
AC1015
  9
$ACADMAINTVER
 70
     6
  9
$DWGCODEPAGE
  3
DOS932
  9
$INSBASE
 10
0.0
 20
0.0
 30
0.0
  9
$EXTMIN
 10
0.0
 20
0.0
 30
0.0
  9
$EXTMAX
 10
215.9
 20
139.7
 30
0.0
  9
$LIMMIN
 10
0.0
 20
0.0
  9
$LIMMAX
 10
215.9
 20
139.7
  9
$ORTHOMODE
 70
     0
  9
$REGENMODE
 70
     1
  9
$FILLMODE
 70
     1
  9
$QTEXTMODE
 70
     0
  9
$MIRRTEXT
 70
     1
  9
$LTSCALE
 40
0.5
  9
$ATTMODE
 70
     1
  9
$TEXTSIZE
 40
1.75
  9
$TRACEWID
 40
1.0
  9
$TEXTSTYLE
  7
Standard
  9
$CLAYER
  8
0
  9
$CELTYPE
  6
ByLayer
  9
$CECOLOR
 62
   256
  9
$CELTSCALE
 40
1.0
  9
$DISPSILH
 70
     0
  9
$DIMSCALE
 40
1.0
  9
$DIMASZ
 40
1.778
  9
$DIMEXO
 40
0.5
  9
$DIMDLI
 40
3.75
  9
$DIMRND
 40
0.0
  9
$DIMDLE
 40
0.0
  9
$DIMEXE
 40
0.5
  9
$DIMTP
 40
0.0
  9
$DIMTM
 40
0.0
  9
$DIMTXT
 40
1.75
  9
$DIMCEN
 40
2.5
  9
$DIMTSZ
 40
0.0
  9
$DIMTOL
 70
     0
  9
$DIMLIM
 70
     0
  9
$DIMTIH
 70
     1
  9
$DIMTOH
 70
     1
  9
$DIMSE1
 70
     0
  9
$DIMSE2
 70
     0
  9
$DIMTAD
 70
     1
  9
$DIMZIN
 70
     1
  9
$DIMBLK
  1

  9
$DIMASO
 70
     1
  9
$DIMSHO
 70
     1
  9
$DIMPOST
  1

  9
$DIMAPOST
  1

  9
$DIMALT
 70
     0
  9
$DIMALTD
 70
     3
  9
$DIMALTF
 40
0.0393700787
  9
$DIMLFAC
 40
1.0
  9
$DIMTOFL
 70
     1
  9
$DIMTVP
 40
0.0
  9
$DIMTIX
 70
     0
  9
$DIMSOXD
 70
     0
  9
$DIMSAH
 70
     0
  9
$DIMBLK1
  1

  9
$DIMBLK2
  1

  9
$DIMSTYLE
  2
ISO-25
  9
$DIMCLRD
 70
     0
  9
$DIMCLRE
 70
     0
  9
$DIMCLRT
 70
     0
  9
$DIMTFAC
 40
1.0
  9
$DIMGAP
 40
0.762
  9
$DIMJUST
 70
     0
  9
$DIMSD1
 70
     0
  9
$DIMSD2
 70
     0
  9
$DIMTOLJ
 70
     0
  9
$DIMTZIN
 70
     1
  9
$DIMALTZ
 70
     0
  9
$DIMALTTZ
 70
     0
  9
$DIMUPT
 70
     0
  9
$DIMDEC
 70
     2
  9
$DIMTDEC
 70
     2
  9
$DIMALTU
 70
     2
  9
$DIMALTTD
 70
     3
  9
$DIMTXSTY
  7
Standard
  9
$DIMAUNIT
 70
     0
  9
$DIMADEC
 70
     2
  9
$DIMALTRND
 40
0.0
  9
$DIMAZIN
 70
     0
  9
$DIMDSEP
 70
    44
  9
$DIMATFIT
 70
     3
  9
$DIMFRAC
 70
     0
  9
$DIMLDRBLK
  1

  9
$DIMLUNIT
 70
     2
  9
$DIMLWD
 70
    -2
  9
$DIMLWE
 70
    -2
  9
$DIMTMOVE
 70
     0
  9
$LUNITS
 70
     2
  9
$LUPREC
 70
     2
  9
$SKETCHINC
 40
1.0
  9
$FILLETRAD
 40
10.0
  9
$AUNITS
 70
     0
  9
$AUPREC
 70
     2
  9
$MENU
  1
.
  9
$ELEVATION
 40
0.0
  9
$PELEVATION
 40
0.0
  9
$THICKNESS
 40
0.0
  9
$LIMCHECK
 70
     0
  9
$CHAMFERA
 40
0.0
  9
$CHAMFERB
 40
0.0
  9
$CHAMFERC
 40
0.0
  9
$CHAMFERD
 40
0.0
  9
$SKPOLY
 70
     0
  9
$TDCREATE
 40
2459375.493756238
  9
$TDUCREATE
 40
2459375.118756238
  9
$TDUPDATE
 40
2459375.493756794
  9
$TDUUPDATE
 40
2459375.118756794
  9
$TDINDWG
 40
0.0000000116
  9
$TDUSRTIMER
 40
0.0000000116
  9
$USRTIMER
 70
     1
  9
$ANGBASE
 50
0.0
  9
$ANGDIR
 70
     0
  9
$PDMODE
 70
     0
  9
$PDSIZE
 40
-1.0
  9
$PLINEWID
 40
0.0
  9
$SPLFRAME
 70
     0
  9
$SPLINETYPE
 70
     6
  9
$SPLINESEGS
 70
     8
  9
$HANDSEED
  5
168
  9
$SURFTAB1
 70
     6
  9
$SURFTAB2
 70
     6
  9
$SURFTYPE
 70
     6
  9
$SURFU
 70
     6
  9
$SURFV
 70
     6
  9
$UCSBASE
  2

  9
$UCSNAME
  2

  9
$UCSORG
 10
0.0
 20
0.0
 30
0.0
  9
$UCSXDIR
 10
1.0
 20
0.0
 30
0.0
  9
$UCSYDIR
 10
0.0
 20
1.0
 30
0.0
  9
$UCSORTHOREF
  2

  9
$UCSORTHOVIEW
 70
     0
  9
$UCSORGTOP
 10
0.0
 20
0.0
 30
0.0
  9
$UCSORGBOTTOM
 10
0.0
 20
0.0
 30
0.0
  9
$UCSORGLEFT
 10
0.0
 20
0.0
 30
0.0
  9
$UCSORGRIGHT
 10
0.0
 20
0.0
 30
0.0
  9
$UCSORGFRONT
 10
0.0
 20
0.0
 30
0.0
  9
$UCSORGBACK
 10
0.0
 20
0.0
 30
0.0
  9
$PUCSBASE
  2

  9
$PUCSNAME
  2

  9
$PUCSORG
 10
0.0
 20
0.0
 30
0.0
  9
$PUCSXDIR
 10
1.0
 20
0.0
 30
0.0
  9
$PUCSYDIR
 10
0.0
 20
1.0
 30
0.0
  9
$PUCSORTHOREF
  2

  9
$PUCSORTHOVIEW
 70
     0
  9
$PUCSORGTOP
 10
0.0
 20
0.0
 30
0.0
  9
$PUCSORGBOTTOM
 10
0.0
 20
0.0
 30
0.0
  9
$PUCSORGLEFT
 10
0.0
 20
0.0
 30
0.0
  9
$PUCSORGRIGHT
 10
0.0
 20
0.0
 30
0.0
  9
$PUCSORGFRONT
 10
0.0
 20
0.0
 30
0.0
  9
$PUCSORGBACK
 10
0.0
 20
0.0
 30
0.0
  9
$USERI1
 70
     0
  9
$USERI2
 70
     0
  9
$USERI3
 70
     0
  9
$USERI4
 70
     0
  9
$USERI5
 70
     0
  9
$USERR1
 40
0.0
  9
$USERR2
 40
0.0
  9
$USERR3
 40
0.0
  9
$USERR4
 40
0.0
  9
$USERR5
 40
0.0
  9
$WORLDVIEW
 70
     1
  9
$SHADEDGE
 70
     3
  9
$SHADEDIF
 70
    70
  9
$TILEMODE
 70
     1
  9
$MAXACTVP
 70
    64
  9
$PINSBASE
 10
0.0
 20
0.0
 30
0.0
  9
$PLIMCHECK
 70
     0
  9
$PEXTMIN
 10
1.0000000000E+20
 20
1.0000000000E+20
 30
1.0000000000E+20
  9
$PEXTMAX
 10
-1.0000000000E+20
 20
-1.0000000000E+20
 30
-1.0000000000E+20
  9
$PLIMMIN
 10
0.0
 20
0.0
  9
$PLIMMAX
 10
420.0
 20
297.0
  9
$UNITMODE
 70
     0
  9
$VISRETAIN
 70
     1
  9
$PLINEGEN
 70
     0
  9
$PSLTSCALE
 70
     1
  9
$TREEDEPTH
 70
  3020
  9
$CMLSTYLE
  2
Standard
  9
$CMLJUST
 70
     0
  9
$CMLSCALE
 40
20.0
  9
$PROXYGRAPHICS
 70
     1
  9
$MEASUREMENT
 70
     1
  9
$CELWEIGHT
370
    -1
  9
$ENDCAPS
280
     0
  9
$JOINSTYLE
280
     0
  9
$LWDISPLAY
290
     1
  9
$INSUNITS
 70
     4
  9
$HYPERLINKBASE
  1

  9
$STYLESHEET
  1

  9
$XEDIT
290
     1
  9
$CEPSNTYPE
380
     0
  9
$PSTYLEMODE
290
     1
  9
$FINGERPRINTGUID
  2
{0430EFBA-13AD-4F49-8C97-DED1ABCB04D8}
  9
$VERSIONGUID
  2
{FAEB1C32-E019-11D5-929B-00C0DF256EC4}
  9
$EXTNAMES
290
     1
  9
$PSVPSCALE
 40
0.0
  9
$OLESTARTUP
290
     0
  0
ENDSEC
  0
SECTION
  2
CLASSES
  0
CLASS
  1
ACDBDICTIONARYWDFLT
  2
AcDbDictionaryWithDefault
  3
ObjectDBX Classes
 90
        0
280
     0
281
     0
  0
CLASS
  1
VISUALSTYLE
  2
AcDbVisualStyle
  3
ObjectDBX Classes
 90
     4095
280
     0
281
     0
  0
CLASS
  1
MATERIAL
  2
AcDbMaterial
  3
ObjectDBX Classes
 90
     1153
280
     0
281
     0
  0
CLASS
  1
SCALE
  2
AcDbScale
  3
ObjectDBX Classes
 90
     1153
280
     0
281
     0
  0
CLASS
  1
TABLESTYLE
  2
AcDbTableStyle
  3
ObjectDBX Classes
 90
     4095
280
     0
281
     0
  0
CLASS
  1
MLEADERSTYLE
  2
AcDbMLeaderStyle
  3
ACDB_MLEADERSTYLE_CLASS
 90
     4095
280
     0
281
     0
  0
CLASS
  1
SUN
  2
AcDbSun
  3
SCENEOE
 90
     1153
280
     0
281
     0
  0
CLASS
  1
ACDBPLACEHOLDER
  2
AcDbPlaceHolder
  3
ObjectDBX Classes
 90
        0
280
     0
281
     0
  0
CLASS
  1
LAYOUT
  2
AcDbLayout
  3
ObjectDBX Classes
 90
        0
280
     0
281
     0
  0
ENDSEC
  0
SECTION
  2
TABLES
  0
TABLE
  2
VPORT
  5
8
330
0
100
AcDbSymbolTable
 70
     1
  0
VPORT
  5
29
330
8
100
AcDbSymbolTableRecord
100
AcDbViewportTableRecord
  2
*Active
 70
     0
 10
0.0
 20
0.0
 11
1.0
 21
1.0
 12
107.95
 22
69.85
 13
0.0
 23
0.0
 14
10.0
 24
10.0
 15
10.0
 25
10.0
 16
0.0
 26
0.0
 36
1.0
 17
0.0
 27
0.0
 37
0.0
 40
139.7
 41
1.5454545455
 42
50.0
 43
0.0
 44
0.0
 50
0.0
 51
0.0
 71
     0
 72
  2000
 73
     1
 74
     3
 75
     0
 76
     0
 77
     0
 78
     0
281
     0
 65
     1
110
0.0
120
0.0
130
0.0
111
1.0
121
0.0
131
0.0
112
0.0
122
1.0
132
0.0
 79
     0
146
0.0
  0
ENDTAB
  0
TABLE
  2
LTYPE
  5
5
330
0
100
AcDbSymbolTable
 70
     6
  0
LTYPE
  5
14
330
5
100
AcDbSymbolTableRecord
100
AcDbLinetypeTableRecord
  2
ByBlock
 70
     0
  3

 72
    65
 73
     0
 40
0.0
  0
LTYPE
  5
15
330
5
100
AcDbSymbolTableRecord
100
AcDbLinetypeTableRecord
  2
ByLayer
 70
     0
  3

 72
    65
 73
     0
 40
0.0
  0
LTYPE
  5
16
330
5
100
AcDbSymbolTableRecord
100
AcDbLinetypeTableRecord
  2
Continuous
 70
     0
  3
Solid line
 72
    65
 73
     0
 40
0.0
  0
LTYPE
  5
6E
330
5
100
AcDbSymbolTableRecord
100
AcDbLinetypeTableRecord
  2
HIDDEN
 70
     0
  3
Hidden __ __ __ __ __ __ __ __ __ __ __ __ __ __
 72
    65
 73
     2
 40
1.905
 49
1.27
 74
     0
 49
-0.635
 74
     0
  0
LTYPE
  5
6F
330
5
100
AcDbSymbolTableRecord
100
AcDbLinetypeTableRecord
  2
PHANTOM
 70
     0
  3
Phantom ______  __  __  ______  __  __  ______
 72
    65
 73
     6
 40
12.7
 49
6.35
 74
     0
 49
-1.27
 74
     0
 49
1.27
 74
     0
 49
-1.27
 74
     0
 49
1.27
 74
     0
 49
-1.27
 74
     0
  0
LTYPE
  5
70
330
5
100
AcDbSymbolTableRecord
100
AcDbLinetypeTableRecord
  2
CENTER
 70
     0
  3
Center ____ _ ____ _ ____ _ ____ _ ____ _ ____
 72
    65
 73
     4
 40
10.16
 49
6.35
 74
     0
 49
-1.27
 74
     0
 49
1.27
 74
     0
 49
-1.27
 74
     0
  0
LTYPE
  5
71
330
5
100
AcDbSymbolTableRecord
100
AcDbLinetypeTableRecord
  2
CENTERX2
 70
     0
  3
Center (2x) ________  __  ________  __  _____
 72
    65
 73
     4
 40
20.32
 49
12.7
 74
     0
 49
-2.54
 74
     0
 49
2.54
 74
     0
 49
-2.54
 74
     0
  0
LTYPE
  5
72
330
5
100
AcDbSymbolTableRecord
100
AcDbLinetypeTableRecord
  2
DOT2
 70
     0
  3
Dot (.5x) ........................................
 72
    65
 73
     2
 40
0.635
 49
0.0
 74
     0
 49
-0.635
 74
     0
  0
ENDTAB
  0
TABLE
  2
LAYER
  5
2
330
0
100
AcDbSymbolTable
 70
     1
  0
LAYER
  5
10
330
2
100
AcDbSymbolTableRecord
100
AcDbLayerTableRecord
  2
0
 70
     0
 62
     7
  6
Continuous
370
    -3
390
F
  0
ENDTAB
  0
TABLE
  2
STYLE
  5
3
330
0
100
AcDbSymbolTable
 70
     2
  0
STYLE
  5
11
330
3
100
AcDbSymbolTableRecord
100
AcDbTextStyleTableRecord
  2
Standard
 70
     0
 40
0.0
 41
1.0
 50
0.0
 71
     0
 42
1.75
  3
txt
  4
bigfont
  0
STYLE
  5
73
330
3
100
AcDbSymbolTableRecord
100
AcDbTextStyleTableRecord
  2
SLDTEXTSTYLE0
 70
     0
 40
0.0
 41
0.75
 50
0.0
 71
     0
 42
1.75
  3
TXT
  4
bigfont
  0
ENDTAB
  0
TABLE
  2
VIEW
  5
6
330
0
100
AcDbSymbolTable
 70
     0
  0
ENDTAB
  0
TABLE
  2
UCS
  5
7
330
0
100
AcDbSymbolTable
 70
     0
  0
ENDTAB
  0
TABLE
  2
APPID
  5
9
330
0
100
AcDbSymbolTable
 70
     1
  0
APPID
  5
12
330
9
100
AcDbSymbolTableRecord
100
AcDbRegAppTableRecord
  2
ACAD
 70
     0
  0
ENDTAB
  0
TABLE
  2
DIMSTYLE
  5
A
330
0
100
AcDbSymbolTable
 70
     1
100
AcDbDimStyleTable
  0
DIMSTYLE
105
27
330
A
100
AcDbSymbolTableRecord
100
AcDbDimStyleTableRecord
  2
ISO-25
 70
     0
 41
2.5
 42
0.625
 43
3.75
 44
1.25
 73
     0
 74
     0
 77
     1
 78
     8
140
2.5
141
2.5
143
0.0393700787
147
0.625
171
     3
172
     1
178
     0
271
     2
272
     2
274
     3
278
    44
283
     0
284
     8
340
11
  0
ENDTAB
  0
TABLE
  2
BLOCK_RECORD
  5
1
330
0
100
AcDbSymbolTable
 70
     1
  0
BLOCK_RECORD
  5
1F
330
1
100
AcDbSymbolTableRecord
100
AcDbBlockTableRecord
  2
*Model_Space
340
22
  0
BLOCK_RECORD
  5
1B
330
1
100
AcDbSymbolTableRecord
100
AcDbBlockTableRecord
  2
*Paper_Space
340
1E
  0
BLOCK_RECORD
  5
23
330
1
100
AcDbSymbolTableRecord
100
AcDbBlockTableRecord
  2
*Paper_Space0
340
26
  0
ENDTAB
  0
ENDSEC
  0
SECTION
  2
BLOCKS
  0
BLOCK
  5
20
330
1F
100
AcDbEntity
  8
0
100
AcDbBlockBegin
  2
*Model_Space
 70
     0
 10
0.0
 20
0.0
 30
0.0
  3
*Model_Space
  1

  0
ENDBLK
  5
21
330
1F
100
AcDbEntity
  8
0
100
AcDbBlockEnd
  0
BLOCK
  5
1C
330
1B
100
AcDbEntity
 67
     1
  8
0
100
AcDbBlockBegin
  2
*Paper_Space
 70
     0
 10
0.0
 20
0.0
 30
0.0
  3
*Paper_Space
  1

  0
ENDBLK
  5
1D
330
1B
100
AcDbEntity
 67
     1
  8
0
100
AcDbBlockEnd
  0
BLOCK
  5
24
330
23
100
AcDbEntity
  8
0
100
AcDbBlockBegin
  2
*Paper_Space0
 70
     0
 10
0.0
 20
0.0
 30
0.0
  3
*Paper_Space0
  1

  0
ENDBLK
  5
25
330
23
100
AcDbEntity
  8
0
100
AcDbBlockEnd
  0
ENDSEC
  0
SECTION
  2
ENTITIES
  0
MTEXT
  5
74
330
1F
100
AcDbEntity
  8
0
  6
Continuous
 62
     7
370
     0
100
AcDbMText
 10
100.8011320896
 20
62.7483544821
 30
0.0
 40
2.6458333333
 41
0.0
 71
     1
 72
     1
  1
5R-RS1412
  7
SLDTEXTSTYLE0
 73
     1
 44
1.0
  0
LINE
  5
75
330
1F
100
AcDbEntity
  8
0
  6
Continuous
 62
     7
370
    25
100
AcDbLine
 10
67.5937841673
 20
29.4363067164
 30
0.0
 11
67.7937841673
 21
29.6363067164
 31
0.0
  0
LINE
  5
76
330
1F
100
AcDbEntity
  8
0
  6
Continuous
 62
     7
370
    25
100
AcDbLine
 10
67.7937841673
 20
50.7363067164
 30
0.0
 11
67.5937841673
 21
50.9363067164
 31
0.0
  0
LINE
  5
77
330
1F
100
AcDbEntity
  8
0
  6
Continuous
 62
     7
370
    25
100
AcDbLine
 10
67.5937841673
 20
50.9363067164
 30
0.0
 11
66.8711344365
 21
50.9363067164
 31
0.0
  0
LINE
  5
78
330
1F
100
AcDbEntity
  8
0
  6
Continuous
 62
     7
370
    25
100
AcDbLine
 10
66.8711344365
 20
29.4363067164
 30
0.0
 11
67.5937841673
 21
29.4363067164
 31
0.0
  0
LINE
  5
79
330
1F
100
AcDbEntity
  8
0
  6
Continuous
 62
     7
370
    25
100
AcDbLine
 10
59.2937841673
 20
50.9088067164
 30
0.0
 11
45.9901754403
 21
50.4930689437
 31
0.0
  0
LINE
  5
7A
330
1F
100
AcDbEntity
  8
0
  6
Continuous
 62
     7
370
    25
100
AcDbLine
 10
45.9901754403
 20
29.8795444891
 30
0.0
 11
59.2937841673
 21
29.4638067164
 31
0.0
  0
LINE
  5
7B
330
1F
100
AcDbEntity
  8
0
  6
Continuous
 62
     7
370
    25
100
AcDbLine
 10
71.4937841673
 20
29.7088067164
 30
0.0
 11
74.2430800118
 21
29.7088067164
 31
0.0
  0
LINE
  5
7C
330
1F
100
AcDbEntity
  8
0
  6
Continuous
 62
     7
370
    25
100
AcDbLine
 10
74.2430800118
 20
50.6638067164
 30
0.0
 11
71.4937841673
 21
50.6638067164
 31
0.0
  0
LINE
  5
7D
330
1F
100
AcDbEntity
  8
0
  6
Continuous
 62
     7
370
    25
100
AcDbLine
 10
71.4937841673
 20
50.6638067164
 30
0.0
 11
70.2937841673
 21
49.4638067164
 31
0.0
  0
LINE
  5
7E
330
1F
100
AcDbEntity
  8
0
  6
Continuous
 62
     7
370
    25
100
AcDbLine
 10
70.2937841673
 20
30.9088067164
 30
0.0
 11
71.4937841673
 21
29.7088067164
 31
0.0
  0
LINE
  5
7F
330
1F
100
AcDbEntity
  8
0
  6
Continuous
 62
     7
370
    25
100
AcDbLine
 10
45.9901754403
 20
50.4930689437
 30
0.0
 11
43.2937841673
 21
48.9363067164
 31
0.0
  0
LINE
  5
80
330
1F
100
AcDbEntity
  8
0
  6
Continuous
 62
     7
370
    25
100
AcDbLine
 10
43.2937841673
 20
31.4363067164
 30
0.0
 11
45.9901754403
 21
29.8795444891
 31
0.0
  0
LINE
  5
81
330
1F
100
AcDbEntity
  8
0
  6
Continuous
 62
     7
370
    25
100
AcDbLine
 10
67.7937841673
 20
30.9363067164
 30
0.0
 11
70.2937841673
 21
30.9363067164
 31
0.0
  0
LINE
  5
82
330
1F
100
AcDbEntity
  8
0
  6
Continuous
 62
     7
370
    25
100
AcDbLine
 10
70.2937841673
 20
49.4363067164
 30
0.0
 11
67.7937841673
 21
49.4363067164
 31
0.0
  0
ARC
  5
83
330
1F
100
AcDbEntity
  8
0
  6
Continuous
 62
     7
370
    25
100
AcDbCircle
 10
66.8711344365
 20
51.9363067164
 30
0.0
 40
1.0
100
AcDbArc
 50
210.0
 51
270.0
  0
LINE
  5
84
330
1F
100
AcDbEntity
  8
0
  6
Continuous
 62
     7
370
    25
100
AcDbLine
 10
66.0051090327
 20
51.4363067164
 30
0.0
 11
65.1669662278
 21
52.8880126386
 31
0.0
  0
LINE
  5
85
330
1F
100
AcDbEntity
  8
0
  6
Continuous
 62
     7
370
    25
100
AcDbLine
 10
65.1669662278
 20
27.4846007942
 30
0.0
 11
66.0051090327
 21
28.9363067164
 31
0.0
  0
ARC
  5
86
330
1F
100
AcDbEntity
  8
0
  6
Continuous
 62
     7
370
    25
100
AcDbCircle
 10
66.8711344365
 20
28.4363067164
 30
0.0
 40
1.0
100
AcDbArc
 50
90.0
 51
150.0
  0
LINE
  5
87
330
1F
100
AcDbEntity
  8
0
  6
Continuous
 62
     7
370
    25
100
AcDbLine
 10
75.4592143488
 20
54.042713177
 30
0.0
 11
74.2430800118
 21
51.9363067164
 31
0.0
  0
LINE
  5
88
330
1F
100
AcDbEntity
  8
0
  6
Continuous
 62
     7
370
    25
100
AcDbLine
 10
74.2430800118
 20
28.4363067164
 30
0.0
 11
75.4592143488
 21
26.3299002559
 31
0.0
  0
LINE
  5
89
330
1F
100
AcDbEntity
  8
0
  6
Continuous
 62
     7
370
    25
100
AcDbLine
 10
92.0430800118
 20
28.4363067164
 30
0.0
 11
92.2430800118
 21
28.6363067164
 31
0.0
  0
LINE
  5
8A
330
1F
100
AcDbEntity
  8
0
  6
Continuous
 62
     7
370
    25
100
AcDbLine
 10
92.2430800118
 20
51.7363067164
 30
0.0
 11
92.0430800118
 21
51.9363067164
 31
0.0
  0
LINE
  5
8B
330
1F
100
AcDbEntity
  8
0
  6
Continuous
 62
     7
370
    25
100
AcDbLine
 10
92.0430800118
 20
51.9363067164
 30
0.0
 11
90.9647678483
 21
51.9363067164
 31
0.0
  0
LINE
  5
8C
330
1F
100
AcDbEntity
  8
0
  6
Continuous
 62
     7
370
    25
100
AcDbLine
 10
90.9647678483
 20
28.4363067164
 30
0.0
 11
92.0430800118
 21
28.4363067164
 31
0.0
  0
ARC
  5
8D
330
1F
100
AcDbEntity
  8
0
  6
Continuous
 62
     7
370
    25
100
AcDbCircle
 10
90.9647678483
 20
53.1863067164
 30
0.0
 40
1.250000000000004
100
AcDbArc
 50
210.0
 51
270.0
  0
LINE
  5
8E
330
1F
100
AcDbEntity
  8
0
  6
Continuous
 62
     7
370
    25
100
AcDbLine
 10
89.8822360936
 20
52.5613067164
 30
0.0
 11
89.0269456748
 21
54.042713177
 31
0.0
  0
ARC
  5
8F
330
1F
100
AcDbEntity
  8
0
  6
Continuous
 62
     7
370
    25
100
AcDbCircle
 10
90.9647678483
 20
27.1863067164
 30
0.0
 40
1.250000000000004
100
AcDbArc
 50
90.0
 51
150.0
  0
LINE
  5
90
330
1F
100
AcDbEntity
  8
0
  6
Continuous
 62
     7
370
    25
100
AcDbLine
 10
89.0269456748
 20
26.3299002559
 30
0.0
 11
89.8822360936
 21
27.8113067164
 31
0.0
  0
SPLINE
  5
91
330
1F
100
AcDbEntity
  8
0
  6
Continuous
 62
     7
370
    25
100
AcDbSpline
210
0.0
220
0.0
230
1.0
 70
     8
 71
     3
 72
     8
 73
     4
 74
     0
 42
0.000000001
 43
0.00000001
 40
0.0
 40
0.0
 40
0.0
 40
0.0
 40
1.0
 40
1.0
 40
1.0
 40
1.0
 10
65.16696622776578
 20
46.53715967750377
 30
0.0
 10
65.54695891793783
 20
47.19532632338651
 30
0.0
 10
65.8420115297156
 20
47.85959367317446
 30
0.0
 10
66.00510903271552
 20
48.53333851653967
 30
0.0
  0
LINE
  5
92
330
1F
100
AcDbEntity
  8
0
  6
Continuous
 62
     7
370
    25
100
AcDbLine
 10
66.0051090327
 20
42.5448019994
 30
0.0
 11
66.0051090327
 21
48.5333385165
 31
0.0
  0
SPLINE
  5
93
330
1F
100
AcDbEntity
  8
0
  6
Continuous
 62
     7
370
    25
100
AcDbSpline
210
0.0
220
0.0
230
1.0
 70
     8
 71
     3
 72
     8
 73
     4
 74
     0
 42
0.000000001
 43
0.00000001
 40
0.0
 40
0.0
 40
0.0
 40
0.0
 40
1.0
 40
1.0
 40
1.0
 40
1.0
 10
66.00510903271552
 20
42.54480199943205
 30
0.0
 10
65.84037251532837
 20
43.90583300312058
 30
0.0
 10
65.54371569786086
 20
45.2320612296441
 30
0.0
 10
65.16696622776547
 20
46.53715967750379
 30
0.0
  0
SPLINE
  5
94
330
1F
100
AcDbEntity
  8
0
  6
Continuous
 62
     7
370
    25
100
AcDbSpline
210
0.0
220
0.0
230
1.0
 70
     8
 71
     3
 72
    10
 73
     6
 74
     0
 42
0.000000001
 43
0.00000001
 40
0.0
 40
0.0
 40
0.0
 40
0.0
 40
0.5
 40
0.5
 40
1.0
 40
1.0
 40
1.0
 40
1.0
 10
65.1669662277655
 20
33.83545375533198
 30
0.0
 10
65.35561523043846
 20
34.48895307018552
 30
0.0
 10
65.52526511752714
 20
35.15266625547495
 30
0.0
 10
65.80939895688599
 20
36.48648611139195
 30
0.0
 10
65.92376372506686
 20
37.15574741584164
 30
0.0
 10
66.00510903271552
 20
37.82781143340374
 30
0.0
  0
LINE
  5
95
330
1F
100
AcDbEntity
  8
0
  6
Continuous
 62
     7
370
    25
100
AcDbLine
 10
66.0051090327
 20
31.8392749163
 30
0.0
 11
66.0051090327
 21
37.8278114334
 31
0.0
  0
SPLINE
  5
96
330
1F
100
AcDbEntity
  8
0
  6
Continuous
 62
     7
370
    25
100
AcDbSpline
210
0.0
220
0.0
230
1.0
 70
     8
 71
     3
 72
     8
 73
     4
 74
     0
 42
0.000000001
 43
0.00000001
 40
0.0
 40
0.0
 40
0.0
 40
0.0
 40
1.0
 40
1.0
 40
1.0
 40
1.0
 10
66.00510903271552
 20
31.83927491629614
 30
0.0
 10
65.84170803556621
 20
32.51427347363233
 30
0.0
 10
65.54634923452517
 20
33.17834311209626
 30
0.0
 10
65.16696622776563
 20
33.835453755332
 30
0.0
  0
SPLINE
  5
97
330
1F
100
AcDbEntity
  8
0
  6
Continuous
 62
     7
370
    25
100
AcDbSpline
210
0.0
220
0.0
230
1.0
 70
     8
 71
     3
 72
    12
 73
     8
 74
     0
 42
0.000000001
 43
0.00000001
 40
0.0
 40
0.0
 40
0.0
 40
0.0
 40
0.5
 40
0.5
 40
0.75
 40
0.75
 40
1.0
 40
1.0
 40
1.0
 40
1.0
 10
66.00510903271552
 20
37.82781143340374
 30
0.0
 10
66.09940841233268
 20
38.60690025550107
 30
0.0
 10
66.14905314588755
 20
39.38977939276501
 30
0.0
 10
66.1496397986653
 20
40.57036911871318
 30
0.0
 10
66.13760816436154
 20
40.96493687873321
 30
0.0
 10
66.08912040506894
 20
41.75614556530002
 30
0.0
 10
66.05257798193891
 20
42.15261990993383
 30
0.0
 10
66.00510903271552
 20
42.54480199943205
 30
0.0
  0
ARC
  5
98
330
1F
100
AcDbEntity
  8
0
  6
Continuous
 62
     7
370
    25
100
AcDbCircle
 10
66.7809351301
 20
45.3246692709
 30
0.0
 40
2.886099128623286
100
AcDbArc
 50
254.4062485716
 51
271.7909576304
  0
SPLINE
  5
99
330
1F
100
AcDbEntity
  8
0
  6
Continuous
 62
     7
370
    25
100
AcDbSpline
210
0.0
220
0.0
230
1.0
 70
     8
 71
     3
 72
    14
 73
    10
 74
     0
 42
0.000000001
 43
0.00000001
 40
0.0
 40
0.0
 40
0.0
 40
0.0
 40
0.2499999999999999
 40
0.2499999999999999
 40
0.5
 40
0.5
 40
0.75
 40
0.75
 40
1.0
 40
1.0
 40
1.0
 40
1.0
 10
66.87113443649996
 20
42.43997998685364
 30
0.0
 10
66.87113443649996
 20
42.06804174864586
 30
0.0
 10
66.85509606853441
 20
41.69411421056149
 30
0.0
 10
66.82427503582014
 20
40.94137611919087
 30
0.0
 10
66.8108000410943
 20
40.56090695132658
 30
0.0
 10
66.81096973233154
 20
39.80351294506542
 30
0.0
 10
66.82444880508616
 20
39.42689350928432
 30
0.0
 10
66.85515098813345
 20
38.67725854148422
 30
0.0
 10
66.87113443649994
 20
38.30421571261369
 30
0.0
 10
66.87113443649996
 20
37.93263344598215
 30
0.0
  0
ARC
  5
9A
330
1F
100
AcDbEntity
  8
0
  6
Continuous
 62
     7
370
    25
100
AcDbCircle
 10
66.7809351301
 20
35.0479441619
 30
0.0
 40
2.886099128651565
100
AcDbArc
 50
88.2090423697
 51
105.5937514283
  0
LINE
  5
9B
330
1F
100
AcDbEntity
  8
0
  6
Continuous
 62
     7
370
    25
100
AcDbLine
 10
65.1669662278
 20
52.8880126386
 30
0.0
 11
59.2937841673
 21
52.8880126386
 31
0.0
  0
SPLINE
  5
9C
330
1F
100
AcDbEntity
  8
0
  6
Continuous
 62
     7
370
    25
100
AcDbSpline
210
0.0
220
0.0
230
1.0
 70
     8
 71
     3
 72
     8
 73
     4
 74
     0
 42
0.000000001
 43
0.00000001
 40
0.0
 40
0.0
 40
0.0
 40
0.0
 40
1.0
 40
1.0
 40
1.0
 40
1.0
 10
66.00510903271552
 20
50.89183379955382
 30
0.0
 10
65.84170803556621
 20
51.56683235689002
 30
0.0
 10
65.54634923452517
 20
52.23090199535396
 30
0.0
 10
65.16696622776563
 20
52.88801263858972
 30
0.0
  0
SPLINE
  5
9D
330
1F
100
AcDbEntity
  8
0
  6
Continuous
 62
     7
370
    25
100
AcDbSpline
210
0.0
220
0.0
230
1.0
 70
     8
 71
     3
 72
    12
 73
     8
 74
     0
 42
0.000000001
 43
0.00000001
 40
0.0
 40
0.0
 40
0.0
 40
0.0
 40
0.5
 40
0.5
 40
0.75
 40
0.75
 40
1.0
 40
1.0
 40
1.0
 40
1.0
 10
66.00510903271552
 20
48.53333851653967
 30
0.0
 10
66.0992118536771
 20
48.92207095696844
 30
0.0
 10
66.1491848014704
 20
49.31397296463406
 30
0.0
 10
66.14957594613072
 20
49.90718173971876
 30
0.0
 10
66.13724785533016
 20
50.10598078476907
 30
0.0
 10
66.08862927622238
 20
50.50035259303595
 30
0.0
 10
66.05238260887138
 20
50.69654982783992
 30
0.0
 10
66.00510903271552
 20
50.89183379955382
 30
0.0
  0
LINE
  5
9E
330
1F
100
AcDbEntity
  8
0
  6
Continuous
 62
     7
370
    25
100
AcDbLine
 10
65.1669662278
 20
46.5371596775
 30
0.0
 11
59.2937841673
 21
46.5371596775
 31
0.0
  0
LINE
  5
9F
330
1F
100
AcDbEntity
  8
0
  6
Continuous
 62
     7
370
    25
100
AcDbLine
 10
59.2937841673
 20
52.8880126386
 30
0.0
 11
59.2937841673
 21
46.5371596775
 31
0.0
  0
LINE
  5
A0
330
1F
100
AcDbEntity
  8
0
  6
Continuous
 62
     7
370
    25
100
AcDbLine
 10
65.1669662278
 20
33.8354537553
 30
0.0
 11
59.2937841673
 21
33.8354537553
 31
0.0
  0
LINE
  5
A1
330
1F
100
AcDbEntity
  8
0
  6
Continuous
 62
     7
370
    25
100
AcDbLine
 10
59.2937841673
 20
46.5371596775
 30
0.0
 11
59.2937841673
 21
33.8354537553
 31
0.0
  0
ARC
  5
A2
330
1F
100
AcDbEntity
  8
0
  6
Continuous
 62
     7
370
    25
100
AcDbCircle
 10
66.8287261814
 20
49.2596881343
 30
0.0
 40
1.098147974908782
100
AcDbArc
 50
221.4091356063
 51
272.2131975323
  0
LINE
  5
A3
330
1F
100
AcDbEntity
  8
0
  6
Continuous
 62
     7
370
    25
100
AcDbLine
 10
66.8711344365
 20
48.1623593254
 30
0.0
 11
66.8711344365
 21
42.4399799869
 31
0.0
  0
LINE
  5
A4
330
1F
100
AcDbEntity
  8
0
  6
Continuous
 62
     7
370
    25
100
AcDbLine
 10
66.8711344365
 20
37.932633446
 30
0.0
 11
66.8711344365
 21
32.2102541074
 31
0.0
  0
ARC
  5
A5
330
1F
100
AcDbEntity
  8
0
  6
Continuous
 62
     7
370
    25
100
AcDbCircle
 10
66.8287261814
 20
31.1129252986
 30
0.0
 40
1.098147974908779
100
AcDbArc
 50
87.7868024677
 51
138.5908643937
  0
SPLINE
  5
A6
330
1F
100
AcDbEntity
  8
0
  6
Continuous
 62
     7
370
    25
100
AcDbSpline
210
0.0
220
0.0
230
1.0
 70
     8
 71
     3
 72
    12
 73
     8
 74
     0
 42
0.000000001
 43
0.00000001
 40
0.0
 40
0.0
 40
0.0
 40
0.0
 40
0.5
 40
0.5
 40
0.75
 40
0.75
 40
1.0
 40
1.0
 40
1.0
 40
1.0
 10
66.00510903271552
 20
29.48077963328201
 30
0.0
 10
66.0992118536771
 20
29.86951207371077
 30
0.0
 10
66.1491848014704
 20
30.26141408137639
 30
0.0
 10
66.14957594613072
 20
30.85462285646108
 30
0.0
 10
66.13724785533016
 20
31.05342190151138
 30
0.0
 10
66.08862927622238
 20
31.44779370977827
 30
0.0
 10
66.05238260887138
 20
31.64399094458223
 30
0.0
 10
66.00510903271552
 20
31.83927491629614
 30
0.0
  0
SPLINE
  5
A7
330
1F
100
AcDbEntity
  8
0
  6
Continuous
 62
     7
370
    25
100
AcDbSpline
210
0.0
220
0.0
230
1.0
 70
     8
 71
     3
 72
     8
 73
     4
 74
     0
 42
0.000000001
 43
0.00000001
 40
0.0
 40
0.0
 40
0.0
 40
0.0
 40
1.0
 40
1.0
 40
1.0
 40
1.0
 10
65.16696622776578
 20
27.48460079424613
 30
0.0
 10
65.54695891793783
 20
28.14276744012886
 30
0.0
 10
65.8420115297156
 20
28.8070347899168
 30
0.0
 10
66.00510903271552
 20
29.48077963328201
 30
0.0
  0
LINE
  5
A8
330
1F
100
AcDbEntity
  8
0
  6
Continuous
 62
     7
370
    25
100
AcDbLine
 10
65.1669662278
 20
27.4846007942
 30
0.0
 11
59.2937841673
 21
27.4846007942
 31
0.0
  0
LINE
  5
A9
330
1F
100
AcDbEntity
  8
0
  6
Continuous
 62
     7
370
    25
100
AcDbLine
 10
59.2937841673
 20
33.8354537553
 30
0.0
 11
59.2937841673
 21
27.4846007942
 31
0.0
  0
LINE
  5
AA
330
1F
100
AcDbEntity
  8
0
  6
Continuous
 62
     7
370
    25
100
AcDbLine
 10
67.7937841673
 20
50.7363067164
 30
0.0
 11
67.7937841673
 21
29.6363067164
 31
0.0
  0
LINE
  5
AB
330
1F
100
AcDbEntity
  8
0
  6
Continuous
 62
     7
370
    25
100
AcDbLine
 10
67.5937841673
 20
29.4363067164
 30
0.0
 11
67.5937841673
 21
50.9363067164
 31
0.0
  0
SPLINE
  5
AC
330
1F
100
AcDbEntity
  8
0
  6
Continuous
 62
     7
370
    25
100
AcDbSpline
210
0.0
220
0.0
230
1.0
 70
     8
 71
     3
 72
    14
 73
    10
 74
     0
 42
0.000000001
 43
0.00000001
 40
0.0
 40
0.0
 40
0.0
 40
0.0
 40
0.25
 40
0.25
 40
0.5
 40
0.5
 40
0.75
 40
0.75
 40
1.0
 40
1.0
 40
1.0
 40
1.0
 10
66.87113443649996
 20
32.21025410741267
 30
0.0
 10
66.87113443649996
 20
31.95522225092853
 30
0.0
 10
66.85509606853444
 20
31.71664321798487
 30
0.0
 10
66.8242750358202
 20
31.27127944816258
 30
0.0
 10
66.81080004109434
 20
31.06370943493499
 30
0.0
 10
66.81096973233151
 20
30.68526240040318
 30
0.0
 10
66.82444880508613
 20
30.51435087114913
 30
0.0
 10
66.85515098813345
 20
30.20841515884618
 30
0.0
 10
66.87113443649996
 20
30.07337533090645
 30
0.0
 10
66.87113443649996
 20
29.95658083697694
 30
0.0
  0
SPLINE
  5
AD
330
1F
100
AcDbEntity
  8
0
  6
Continuous
 62
     7
370
    25
100
AcDbSpline
210
0.0
220
0.0
230
1.0
 70
     8
 71
     3
 72
    14
 73
    10
 74
     0
 42
0.000000001
 43
0.00000001
 40
0.0
 40
0.0
 40
0.0
 40
0.0
 40
0.25
 40
0.25
 40
0.5
 40
0.5
 40
0.75
 40
0.75
 40
1.0
 40
1.0
 40
1.0
 40
1.0
 10
66.87113443649996
 20
50.41603259585889
 30
0.0
 10
66.87113443649996
 20
50.29912621413543
 30
0.0
 10
66.85509606853444
 20
50.16377770899505
 30
0.0
 10
66.8242750358202
 20
49.85640338744773
 30
0.0
 10
66.81080004109434
 20
49.68350423281181
 30
0.0
 10
66.81096973233151
 20
49.30455726108119
 30
0.0
 10
66.82444880508613
 20
49.09884935455371
 30
0.0
 10
66.85515098813345
 20
48.65515009905604
 30
0.0
 10
66.87113443649996
 20
48.41714709812515
 30
0.0
 10
66.87113443649996
 20
48.16235932542315
 30
0.0
  0
LINE
  5
AE
330
1F
100
AcDbEntity
  8
0
  6
Continuous
 62
     7
370
    25
100
AcDbLine
 10
45.9901754403
 20
29.8795444891
 30
0.0
 11
45.9901754403
 21
50.4930689437
 31
0.0
  0
LINE
  5
AF
330
1F
100
AcDbEntity
  8
0
  6
Continuous
 62
     7
370
    25
100
AcDbLine
 10
71.4937841673
 20
50.6638067164
 30
0.0
 11
71.4937841673
 21
29.7088067164
 31
0.0
  0
LINE
  5
B0
330
1F
100
AcDbEntity
  8
0
  6
Continuous
 62
     7
370
    25
100
AcDbLine
 10
70.2937841673
 20
30.9088067164
 30
0.0
 11
70.2937841673
 21
49.4638067164
 31
0.0
  0
LINE
  5
B1
330
1F
100
AcDbEntity
  8
0
  6
Continuous
 62
     7
370
    25
100
AcDbLine
 10
43.2937841673
 20
40.1863067164
 30
0.0
 11
43.2937841673
 21
48.9363067164
 31
0.0
  0
LINE
  5
B2
330
1F
100
AcDbEntity
  8
0
  6
Continuous
 62
     7
370
    25
100
AcDbLine
 10
43.2937841673
 20
31.4363067164
 30
0.0
 11
43.2937841673
 21
40.1863067164
 31
0.0
  0
ARC
  5
B3
330
1F
100
AcDbEntity
  8
0
  6
Continuous
 62
     7
370
    25
100
AcDbCircle
 10
66.8622231998
 20
51.4258577742
 30
0.0
 40
1.009864496374245
100
AcDbArc
 50
211.9249214423
 51
270.5055954326
  0
ARC
  5
B4
330
1F
100
AcDbEntity
  8
0
  6
Continuous
 62
     7
370
    25
100
AcDbCircle
 10
66.8622231998
 20
28.9467556586
 30
0.0
 40
1.009864496382917
100
AcDbArc
 50
89.4944045677
 51
148.0750785575
  0
SPLINE
  5
B5
330
1F
100
AcDbEntity
  8
0
  6
Continuous
 62
     7
370
    25
100
AcDbSpline
210
0.0
220
0.0
230
1.0
 70
     8
 71
     3
 72
    15
 73
    11
 74
     0
 42
0.000000001
 43
0.00000001
 40
0.0
 40
0.0
 40
0.0
 40
0.0
 40
0.1109312571803502
 40
0.2218878685177186
 40
0.3342489325822944
 40
0.4465909975319765
 40
0.583572016406219
 40
0.7205960260518425
 40
0.8603243244461249
 40
1.0
 40
1.0
 40
1.0
 40
1.0
 10
90.96476784828117
 20
43.05695909649393
 30
0.0
 10
90.96150774069255
 20
42.84797430122432
 30
0.0
 10
90.9549867803937
 20
42.42995694566875
 30
0.0
 10
90.9162137372496
 20
41.79221961757393
 30
0.0
 10
90.87561502308117
 20
41.14779324581916
 30
0.0
 10
90.84454651742355
 20
40.44918900240385
 30
0.0
 10
90.85218568552548
 20
39.7007096492232
 30
0.0
 10
90.89375724853134
 20
38.90311151650823
 30
0.0
 10
90.94915400445133
 20
38.10601336377216
 30
0.0
 10
90.95956388720236
 20
37.57907426431408
 30
0.0
 10
90.96476784828117
 20
37.31565433634193
 30
0.0
  0
ARC
  5
B6
330
1F
100
AcDbEntity
  8
0
  6
Continuous
 62
     7
370
    25
100
AcDbCircle
 10
90.8538746364
 20
34.188164154
 30
0.0
 40
3.129455566919713
100
AcDbArc
 50
87.9692814554
 51
108.0882596308
  0
SPLINE
  5
B7
330
1F
100
AcDbEntity
  8
0
  6
Continuous
 62
     7
370
    25
100
AcDbSpline
210
0.0
220
0.0
230
1.0
 70
     8
 71
     3
 72
    12
 73
     8
 74
     0
 42
0.000000001
 43
0.00000001
 40
0.0
 40
0.0
 40
0.0
 40
0.0
 40
0.2129684305533259
 40
0.4081624072255345
 40
0.6039782819844952
 40
0.8016837761222428
 40
1.0
 40
1.0
 40
1.0
 40
1.0
 10
89.88223609355062
 20
43.20965337202988
 30
0.0
 10
89.93562344569553
 20
42.78220649599223
 30
0.0
 10
90.03794241433444
 20
41.96298767829581
 30
0.0
 10
90.1020315794289
 20
40.74234487190886
 30
0.0
 10
90.09994060647429
 20
39.55149754661009
 30
0.0
 10
90.03242404223668
 20
38.35564581832546
 30
0.0
 10
89.93235018648652
 20
37.56093050662773
 30
0.0
 10
89.88223609355062
 20
37.16296006080597
 30
0.0
  0
ARC
  5
B8
330
1F
100
AcDbEntity
  8
0
  6
Continuous
 62
     7
370
    25
100
AcDbCircle
 10
90.8538746364
 20
46.1844492789
 30
0.0
 40
3.129455566915811
100
AcDbArc
 50
251.9117403692
 51
272.0307185446
  0
LINE
  5
B9
330
1F
100
AcDbEntity
  8
0
  6
Continuous
 62
     7
370
    25
100
AcDbLine
 10
90.9647678483
 20
37.3156543363
 30
0.0
 11
90.9647678483
 21
31.7541919421
 31
0.0
  0
ARC
  5
BA
330
1F
100
AcDbEntity
  8
0
  6
Continuous
 62
     7
370
    25
100
AcDbCircle
 10
90.9075692768
 20
30.3615976324
 30
0.0
 40
1.393768484391403
100
AcDbArc
 50
87.647990046
 51
137.3626177873
  0
LINE
  5
BB
330
1F
100
AcDbEntity
  8
0
  6
Continuous
 62
     7
370
    25
100
AcDbLine
 10
89.8822360936
 20
31.3056751988
 30
0.0
 11
89.8822360936
 21
37.1629600608
 31
0.0
  0
LINE
  5
BC
330
1F
100
AcDbEntity
  8
0
  6
Continuous
 62
     7
370
    25
100
AcDbLine
 10
89.8822360936
 20
43.209653372
 30
0.0
 11
89.8822360936
 21
49.066938234
 31
0.0
  0
ARC
  5
BD
330
1F
100
AcDbEntity
  8
0
  6
Continuous
 62
     7
370
    25
100
AcDbCircle
 10
90.9075692768
 20
50.0110158004
 30
0.0
 40
1.393768484391354
100
AcDbArc
 50
222.6373822127
 51
272.352009954
  0
LINE
  5
BE
330
1F
100
AcDbEntity
  8
0
  6
Continuous
 62
     7
370
    25
100
AcDbLine
 10
90.9647678483
 20
48.6184214907
 30
0.0
 11
90.9647678483
 21
43.0569590965
 31
0.0
  0
SPLINE
  5
BF
330
1F
100
AcDbEntity
  8
0
  6
Continuous
 62
     7
370
    25
100
AcDbSpline
210
0.0
220
0.0
230
1.0
 70
     8
 71
     3
 72
    17
 73
    13
 74
     0
 42
0.000000001
 43
0.00000001
 40
0.0
 40
0.0
 40
0.0
 40
0.0
 40
0.1320211167093622
 40
0.2645566956605672
 40
0.3318606956241318
 40
0.399282300722117
 40
0.4670901979962866
 40
0.5350391128103485
 40
0.6499148598950721
 40
0.7654213945554553
 40
0.8825156731200379
 40
1.0
 40
1.0
 40
1.0
 40
1.0
 10
75.45921434881603
 20
47.11450994669345
 30
0.0
 10
75.29628380202475
 20
47.41319520085425
 30
0.0
 10
74.96978779778199
 20
48.01172963120054
 30
0.0
 10
74.67913441761281
 20
48.77705315074028
 30
0.0
 10
74.5133838426893
 20
49.39823194498069
 30
0.0
 10
74.42832906051609
 20
49.87131422038981
 30
0.0
 10
74.38524619653867
 20
50.34732945807527
 30
0.0
 10
74.38610705311727
 20
50.93510067626261
 30
0.0
 10
74.47348527766698
 20
51.63391518168205
 30
0.0
 10
74.69632752759696
 20
52.44146791233142
 30
0.0
 10
75.02223509511363
 20
53.24658338933641
 30
0.0
 10
75.31339322205676
 20
53.77704257202471
 30
0.0
 10
75.45921434881603
 20
54.04271317696896
 30
0.0
  0
SPLINE
  5
C0
330
1F
100
AcDbEntity
  8
0
  6
Continuous
 62
     7
370
    25
100
AcDbSpline
210
0.0
220
0.0
230
1.0
 70
     8
 71
     3
 72
    16
 73
    12
 74
     0
 42
0.000000001
 43
0.00000001
 40
0.0
 40
0.0
 40
0.0
 40
0.0
 40
0.121301252150889
 40
0.2465461112200839
 40
0.3717591011841887
 40
0.5000673345948777
 40
0.6283755856756821
 40
0.7208001477423515
 40
0.8132339918616915
 40
0.9066126185871437
 40
1.0
 40
1.0
 40
1.0
 40
1.0
 10
75.45921434881603
 20
33.25810348614242
 30
0.0
 10
75.30887072739584
 20
33.80675596275878
 30
0.0
 10
75.00329568550113
 20
34.92189807483498
 30
0.0
 10
74.66481444582467
 20
36.63346364531186
 30
0.0
 10
74.4386769512126
 20
38.39652899267531
 30
0.0
 10
74.36241718884119
 20
40.18748582012726
 30
0.0
 10
74.43261390225426
 20
41.82457325965881
 30
0.0
 10
74.60251749212115
 20
43.28386680158494
 30
0.0
 10
74.82477428615293
 20
44.56987569183929
 30
0.0
 10
75.10813417136539
 20
45.84857143235741
 30
0.0
 10
75.34218396595826
 20
46.69251725521494
 30
0.0
 10
75.45921434881603
 20
47.11450994669345
 30
0.0
  0
SPLINE
  5
C1
330
1F
100
AcDbEntity
  8
0
  6
Continuous
 62
     7
370
    25
100
AcDbSpline
210
0.0
220
0.0
230
1.0
 70
     8
 71
     3
 72
    17
 73
    13
 74
     0
 42
0.000000001
 43
0.00000001
 40
0.0
 40
0.0
 40
0.0
 40
0.0
 40
0.132021116709362
 40
0.264556695660567
 40
0.3318606956241316
 40
0.3992823007221167
 40
0.4670901979962865
 40
0.5350391128103484
 40
0.649914859895072
 40
0.7654213945554553
 40
0.882515673120038
 40
1.0
 40
1.0
 40
1.0
 40
1.0
 10
75.45921434881603
 20
26.32990025586691
 30
0.0
 10
75.29628380202475
 20
26.62858551002771
 30
0.0
 10
74.96978779778199
 20
27.227119940374
 30
0.0
 10
74.6791344176128
 20
27.99244345991374
 30
0.0
 10
74.5133838426893
 20
28.61362225415415
 30
0.0
 10
74.42832906051608
 20
29.08670452956327
 30
0.0
 10
74.38524619653867
 20
29.56271976724873
 30
0.0
 10
74.38610705311727
 20
30.15049098543608
 30
0.0
 10
74.47348527766697
 20
30.84930549085551
 30
0.0
 10
74.69632752759696
 20
31.65685822150487
 30
0.0
 10
75.02223509511363
 20
32.46197369850988
 30
0.0
 10
75.31339322205676
 20
32.99243288119817
 30
0.0
 10
75.45921434881603
 20
33.25810348614242
 30
0.0
  0
LINE
  5
C2
330
1F
100
AcDbEntity
  8
0
  6
Continuous
 62
     7
370
    25
100
AcDbLine
 10
74.2430800118
 20
40.1863067164
 30
0.0
 11
74.2430800118
 21
51.9363067164
 31
0.0
  0
LINE
  5
C3
330
1F
100
AcDbEntity
  8
0
  6
Continuous
 62
     7
370
    25
100
AcDbLine
 10
74.2430800118
 20
28.4363067164
 30
0.0
 11
74.2430800118
 21
40.1863067164
 31
0.0
  0
SPLINE
  5
C4
330
1F
100
AcDbEntity
  8
0
  6
Continuous
 62
     7
370
    25
100
AcDbSpline
210
0.0
220
0.0
230
1.0
 70
     8
 71
     3
 72
    10
 73
     6
 74
     0
 42
0.000000001
 43
0.00000001
 40
0.0
 40
0.0
 40
0.0
 40
0.0
 40
0.2966942842518304
 40
0.5940284356736804
 40
1.0
 40
1.0
 40
1.0
 40
1.0
 10
89.88223609355062
 20
37.16296006080597
 30
0.0
 10
89.82107363287075
 20
36.77203159455539
 30
0.0
 10
89.69861680519294
 20
35.98933156427762
 30
0.0
 10
89.41826844372443
 20
34.68480625590763
 30
0.0
 10
89.17016136982133
 20
33.78024593481079
 30
0.0
 10
89.02694567477224
 20
33.25810348614242
 30
0.0
  0
SPLINE
  5
C5
330
1F
100
AcDbEntity
  8
0
  6
Continuous
 62
     7
370
    25
100
AcDbSpline
210
0.0
220
0.0
230
1.0
 70
     8
 71
     3
 72
    10
 73
     6
 74
     0
 42
0.000000001
 43
0.00000001
 40
0.0
 40
0.0
 40
0.0
 40
0.0
 40
0.4987991814870252
 40
0.7492138627281385
 40
1.0
 40
1.0
 40
1.0
 40
1.0
 10
89.02694567477224
 20
33.25810348614242
 30
0.0
 10
89.20134139070224
 20
32.93707391689215
 30
0.0
 10
89.46328987182372
 20
32.45487624585567
 30
0.0
 10
89.72947810776613
 20
31.80122953886293
 30
0.0
 10
89.83129161253586
 20
31.47094157450237
 30
0.0
 10
89.88223609355062
 20
31.30567519881064
 30
0.0
  0
SPLINE
  5
C6
330
1F
100
AcDbEntity
  8
0
  6
Continuous
 62
     7
370
    25
100
AcDbSpline
210
0.0
220
0.0
230
1.0
 70
     8
 71
     3
 72
    10
 73
     6
 74
     0
 42
0.000000001
 43
0.00000001
 40
0.0
 40
0.0
 40
0.0
 40
0.0
 40
0.2491664959407081
 40
0.7491932471384537
 40
1.0
 40
1.0
 40
1.0
 40
1.0
 10
89.88223609355062
 20
49.06693823402523
 30
0.0
 10
89.83151403885039
 20
48.90275157638483
 30
0.0
 10
89.67900308139224
 20
48.4090755116715
 30
0.0
 10
89.38602175894707
 20
47.75769896340046
 30
0.0
 10
89.11685690395844
 20
47.27556192882164
 30
0.0
 10
89.02694567477224
 20
47.11450994669345
 30
0.0
  0
SPLINE
  5
C7
330
1F
100
AcDbEntity
  8
0
  6
Continuous
 62
     7
370
    25
100
AcDbSpline
210
0.0
220
0.0
230
1.0
 70
     8
 71
     3
 72
    10
 73
     6
 74
     0
 42
0.000000001
 43
0.00000001
 40
0.0
 40
0.0
 40
0.0
 40
0.0
 40
0.4987991814870255
 40
0.749213862728139
 40
1.0
 40
1.0
 40
1.0
 40
1.0
 10
89.02694567477224
 20
47.11450994669345
 30
0.0
 10
89.20134139070224
 20
46.4724508081929
 30
0.0
 10
89.46328987182372
 20
45.50805546611993
 30
0.0
 10
89.72947810776613
 20
44.20076205213448
 30
0.0
 10
89.83129161253586
 20
43.54018612341336
 30
0.0
 10
89.88223609355062
 20
43.20965337202988
 30
0.0
  0
SPLINE
  5
C8
330
1F
100
AcDbEntity
  8
0
  6
Continuous
 62
     7
370
    25
100
AcDbSpline
210
0.0
220
0.0
230
1.0
 70
     8
 71
     3
 72
    11
 73
     7
 74
     0
 42
0.000000001
 43
0.00000001
 40
0.0
 40
0.0
 40
0.0
 40
0.0
 40
0.2896312968534326
 40
0.5811875798131635
 40
0.7902304971769967
 40
1.0
 40
1.0
 40
1.0
 40
1.0
 10
89.88223609355062
 20
52.09028488963717
 30
0.0
 10
89.95158293056612
 20
51.79936584938415
 30
0.0
 10
90.09073750678282
 20
51.2155942240001
 30
0.0
 10
90.11262848710963
 20
50.415411530124
 30
0.0
 10
90.04023043608706
 20
49.69769928247123
 30
0.0
 10
89.93496175025423
 20
49.27743495161945
 30
0.0
 10
89.88223609355062
 20
49.06693823402523
 30
0.0
  0
LINE
  5
C9
330
1F
100
AcDbEntity
  8
0
  6
Continuous
 62
     7
370
    25
100
AcDbLine
 10
89.0269456748
 20
47.1145099467
 30
0.0
 11
75.4592143488
 21
47.1145099467
 31
0.0
  0
LINE
  5
CA
330
1F
100
AcDbEntity
  8
0
  6
Continuous
 62
     7
370
    25
100
AcDbLine
 10
89.0269456748
 20
54.042713177
 30
0.0
 11
75.4592143488
 21
54.042713177
 31
0.0
  0
SPLINE
  5
CB
330
1F
100
AcDbEntity
  8
0
  6
Continuous
 62
     7
370
    25
100
AcDbSpline
210
0.0
220
0.0
230
1.0
 70
     8
 71
     3
 72
    10
 73
     6
 74
     0
 42
0.000000001
 43
0.00000001
 40
0.0
 40
0.0
 40
0.0
 40
0.0
 40
0.4987991814870255
 40
0.7492138627281385
 40
1.0
 40
1.0
 40
1.0
 40
1.0
 10
89.02694567477224
 20
54.04271317696895
 30
0.0
 10
89.20134139070224
 20
53.72168360771868
 30
0.0
 10
89.4632898718237
 20
53.23948593668219
 30
0.0
 10
89.72947810776613
 20
52.58583922968947
 30
0.0
 10
89.83129161253586
 20
52.25555126532891
 30
0.0
 10
89.88223609355062
 20
52.09028488963717
 30
0.0
  0
LINE
  5
CC
330
1F
100
AcDbEntity
  8
0
  6
Continuous
 62
     7
370
    25
100
AcDbLine
 10
89.0269456748
 20
33.2581034861
 30
0.0
 11
75.4592143488
 21
33.2581034861
 31
0.0
  0
SPLINE
  5
CD
330
1F
100
AcDbEntity
  8
0
  6
Continuous
 62
     7
370
    25
100
AcDbSpline
210
0.0
220
0.0
230
1.0
 70
     8
 71
     3
 72
    11
 73
     7
 74
     0
 42
0.000000001
 43
0.00000001
 40
0.0
 40
0.0
 40
0.0
 40
0.0
 40
0.2896312968534328
 40
0.5811875798131638
 40
0.7902304971769972
 40
1.0
 40
1.0
 40
1.0
 40
1.0
 10
89.88223609355062
 20
31.30567519881064
 30
0.0
 10
89.95158293056612
 20
31.01475615855762
 30
0.0
 10
90.09073750678282
 20
30.43098453317356
 30
0.0
 10
90.11262848710963
 20
29.63080183929745
 30
0.0
 10
90.04023043608706
 20
28.91308959164469
 30
0.0
 10
89.93496175025423
 20
28.49282526079291
 30
0.0
 10
89.88223609355062
 20
28.28232854319869
 30
0.0
  0
SPLINE
  5
CE
330
1F
100
AcDbEntity
  8
0
  6
Continuous
 62
     7
370
    25
100
AcDbSpline
210
0.0
220
0.0
230
1.0
 70
     8
 71
     3
 72
    10
 73
     6
 74
     0
 42
0.000000001
 43
0.00000001
 40
0.0
 40
0.0
 40
0.0
 40
0.0
 40
0.249162623437082
 40
0.4987154826027844
 40
1.0
 40
1.0
 40
1.0
 40
1.0
 10
89.88223609355062
 20
28.28232854319869
 30
0.0
 10
89.83164724443319
 20
28.11813048656137
 30
0.0
 10
89.73039031450567
 20
27.78947720811731
 30
0.0
 10
89.46462231849605
 20
27.13578965756757
 30
0.0
 10
89.20216865121203
 20
26.65253647982859
 30
0.0
 10
89.02694567477224
 20
26.32990025586691
 30
0.0
  0
LINE
  5
CF
330
1F
100
AcDbEntity
  8
0
  6
Continuous
 62
     7
370
    25
100
AcDbLine
 10
89.0269456748
 20
26.3299002559
 30
0.0
 11
75.4592143488
 21
26.3299002559
 31
0.0
  0
LINE
  5
D0
330
1F
100
AcDbEntity
  8
0
  6
Continuous
 62
     7
370
    25
100
AcDbLine
 10
92.2430800118
 20
51.7363067164
 30
0.0
 11
92.2430800118
 21
28.6363067164
 31
0.0
  0
LINE
  5
D1
330
1F
100
AcDbEntity
  8
0
  6
Continuous
 62
     7
370
    25
100
AcDbLine
 10
92.0430800118
 20
28.4363067164
 30
0.0
 11
92.0430800118
 21
51.9363067164
 31
0.0
  0
SPLINE
  5
D2
330
1F
100
AcDbEntity
  8
0
  6
Continuous
 62
     7
370
    25
100
AcDbSpline
210
0.0
220
0.0
230
1.0
 70
     8
 71
     3
 72
    15
 73
    11
 74
     0
 42
0.000000001
 43
0.00000001
 40
0.0
 40
0.0
 40
0.0
 40
0.0
 40
0.1109312571802459
 40
0.2218878685175098
 40
0.3342489325819776
 40
0.4465909975315517
 40
0.5835720164058967
 40
0.7205960260516229
 40
0.8603243244460155
 40
1.0
 40
1.0
 40
1.0
 40
1.0
 10
90.96476784828117
 20
31.75419194212414
 30
0.0
 10
90.96150774069255
 20
31.6071455910028
 30
0.0
 10
90.95498678039371
 20
31.31301928023202
 30
0.0
 10
90.91621373724968
 20
30.90412615383473
 30
0.0
 10
90.87561502308128
 20
30.5200653758575
 30
0.0
 10
90.84454651742361
 20
30.13807811221822
 30
0.0
 10
90.8521856855254
 20
29.76854279214282
 30
0.0
 10
90.89375724853126
 20
29.42236806396803
 30
0.0
 10
90.9491540044513
 20
29.12077221526274
 30
0.0
 10
90.95956388720236
 20
28.96260718353862
 30
0.0
 10
90.96476784828117
 20
28.88353956204814
 30
0.0
  0
SPLINE
  5
D3
330
1F
100
AcDbEntity
  8
0
  6
Continuous
 62
     7
370
    25
100
AcDbSpline
210
0.0
220
0.0
230
1.0
 70
     8
 71
     3
 72
    15
 73
    11
 74
     0
 42
0.000000001
 43
0.00000001
 40
0.0
 40
0.0
 40
0.0
 40
0.0
 40
0.1109312571802448
 40
0.2218878685175075
 40
0.3342489325819742
 40
0.4465909975315472
 40
0.5835720164058934
 40
0.7205960260516209
 40
0.8603243244460145
 40
1.0
 40
1.0
 40
1.0
 40
1.0
 10
90.96476784828117
 20
51.48907387078771
 30
0.0
 10
90.96150774069255
 20
51.42713542663964
 30
0.0
 10
90.95498678039371
 20
51.30324438185525
 30
0.0
 10
90.91621373724969
 20
51.07440018015834
 30
0.0
 10
90.87561502308128
 20
50.81403458638142
 30
0.0
 10
90.84454651742361
 20
50.49741760660564
 30
0.0
 10
90.85218568552541
 20
50.11847357350018
 30
0.0
 10
90.89375724853127
 20
49.66705016895938
 30
0.0
 10
90.9491540044513
 20
49.17154786492799
 30
0.0
 10
90.95956388720236
 20
48.80277379719362
 30
0.0
 10
90.96476784828117
 20
48.61842149071173
 30
0.0
  0
ARC
  5
D4
330
1F
100
AcDbEntity
  8
0
  6
Continuous
 62
     7
370
    25
100
AcDbCircle
 10
90.955961134
 20
27.6241958824
 30
0.0
 40
1.259374472362072
100
AcDbArc
 50
89.599331506
 51
148.4940606845
  0
ARC
  5
D5
330
1F
100
AcDbEntity
  8
0
  6
Continuous
 62
     7
370
    25
100
AcDbCircle
 10
90.955961134
 20
52.7484175504
 30
0.0
 40
1.259374472359732
100
AcDbArc
 50
211.5059393155
 51
270.400668494
  0
LINE
  5
D6
330
1F
100
AcDbEntity
  8
0
  6
Continuous
 62
     1
370
    25
100
AcDbLine
 10
66.8711344365
 20
29.956580837
 30
0.0
 11
66.8711344365
 21
29.4363067164
 31
0.0
  0
LINE
  5
D7
330
1F
100
AcDbEntity
  8
0
  6
Continuous
 62
     1
370
    25
100
AcDbLine
 10
66.8711344365
 20
50.9363067164
 30
0.0
 11
66.8711344365
 21
50.4160325959
 31
0.0
  0
LINE
  5
D8
330
1F
100
AcDbEntity
  8
0
  6
Continuous
 62
     1
370
    25
100
AcDbLine
 10
66.0051090327
 20
50.8918337996
 30
0.0
 11
66.0051090327
 21
51.4363067164
 31
0.0
  0
LINE
  5
D9
330
1F
100
AcDbEntity
  8
0
  6
Continuous
 62
     1
370
    25
100
AcDbLine
 10
66.0051090327
 20
28.9363067164
 30
0.0
 11
66.0051090327
 21
29.4807796333
 31
0.0
  0
LINE
  5
DA
330
1F
100
AcDbEntity
  8
0
  6
Continuous
 62
     1
370
    25
100
AcDbLine
 10
90.9647678483
 20
28.883539562
 30
0.0
 11
90.9647678483
 21
28.4363067164
 31
0.0
  0
LINE
  5
DB
330
1F
100
AcDbEntity
  8
0
  6
Continuous
 62
     1
370
    25
100
AcDbLine
 10
90.9647678483
 20
51.9363067164
 30
0.0
 11
90.9647678483
 21
51.4890738708
 31
0.0
  0
LINE
  5
DC
330
1F
100
AcDbEntity
  8
0
  6
Continuous
 62
     1
370
    25
100
AcDbLine
 10
89.8822360936
 20
52.0902848896
 30
0.0
 11
89.8822360936
 21
52.5613067164
 31
0.0
  0
LINE
  5
DD
330
1F
100
AcDbEntity
  8
0
  6
Continuous
 62
     1
370
    25
100
AcDbLine
 10
89.8822360936
 20
27.8113067164
 30
0.0
 11
89.8822360936
 21
28.2823285432
 31
0.0
  0
LINE
  5
DE
330
1F
100
AcDbEntity
  8
0
  6
Continuous
 62
     7
370
    25
100
AcDbLine
 10
67.5937841673
 20
73.1512231343
 30
0.0
 11
67.7937841673
 21
73.3512231343
 31
0.0
  0
LINE
  5
DF
330
1F
100
AcDbEntity
  8
0
  6
Continuous
 62
     7
370
    25
100
AcDbLine
 10
67.7937841673
 20
94.4512231343
 30
0.0
 11
67.5937841673
 21
94.6512231343
 31
0.0
  0
LINE
  5
E0
330
1F
100
AcDbEntity
  8
0
  6
Continuous
 62
     7
370
    25
100
AcDbLine
 10
67.5937841673
 20
94.6512231343
 30
0.0
 11
66.8136978
 21
94.6512231343
 31
0.0
  0
LINE
  5
E1
330
1F
100
AcDbEntity
  8
0
  6
Continuous
 62
     7
370
    25
100
AcDbLine
 10
66.8136978
 20
73.1512231343
 30
0.0
 11
67.5937841673
 21
73.1512231343
 31
0.0
  0
LINE
  5
E2
330
1F
100
AcDbEntity
  8
0
  6
Continuous
 62
     7
370
    25
100
AcDbLine
 10
59.2937841673
 20
94.6237231343
 30
0.0
 11
45.9901754403
 21
94.2079853616
 31
0.0
  0
LINE
  5
E3
330
1F
100
AcDbEntity
  8
0
  6
Continuous
 62
     7
370
    25
100
AcDbLine
 10
45.9901754403
 20
73.594460907
 30
0.0
 11
59.2937841673
 21
73.1787231343
 31
0.0
  0
LINE
  5
E4
330
1F
100
AcDbEntity
  8
0
  6
Continuous
 62
     7
370
    25
100
AcDbLine
 10
71.4937841673
 20
94.3787231343
 30
0.0
 11
70.2937841673
 21
93.1787231343
 31
0.0
  0
LINE
  5
E5
330
1F
100
AcDbEntity
  8
0
  6
Continuous
 62
     7
370
    25
100
AcDbLine
 10
70.2937841673
 20
74.6237231343
 30
0.0
 11
71.4937841673
 21
73.4237231343
 31
0.0
  0
LINE
  5
E6
330
1F
100
AcDbEntity
  8
0
  6
Continuous
 62
     7
370
    25
100
AcDbLine
 10
71.4937841673
 20
73.4237231343
 30
0.0
 11
74.2430800118
 21
73.4237231343
 31
0.0
  0
LINE
  5
E7
330
1F
100
AcDbEntity
  8
0
  6
Continuous
 62
     7
370
    25
100
AcDbLine
 10
74.2430800118
 20
94.3787231343
 30
0.0
 11
71.4937841673
 21
94.3787231343
 31
0.0
  0
LINE
  5
E8
330
1F
100
AcDbEntity
  8
0
  6
Continuous
 62
     7
370
    25
100
AcDbLine
 10
45.9901754403
 20
94.2079853616
 30
0.0
 11
43.2937841673
 21
92.6512231343
 31
0.0
  0
LINE
  5
E9
330
1F
100
AcDbEntity
  8
0
  6
Continuous
 62
     7
370
    25
100
AcDbLine
 10
43.2937841673
 20
75.1512231343
 30
0.0
 11
45.9901754403
 21
73.594460907
 31
0.0
  0
LINE
  5
EA
330
1F
100
AcDbEntity
  8
0
  6
Continuous
 62
     7
370
    25
100
AcDbLine
 10
67.7937841673
 20
74.6512231343
 30
0.0
 11
70.2937841673
 21
74.6512231343
 31
0.0
  0
LINE
  5
EB
330
1F
100
AcDbEntity
  8
0
  6
Continuous
 62
     7
370
    25
100
AcDbLine
 10
70.2937841673
 20
93.1512231343
 30
0.0
 11
67.7937841673
 21
93.1512231343
 31
0.0
  0
SPLINE
  5
EC
330
1F
100
AcDbEntity
  8
0
  6
Continuous
 62
     7
370
    25
100
AcDbSpline
210
0.0
220
0.0
230
1.0
 70
     8
 71
     3
 72
    13
 73
     9
 74
     0
 42
0.000000001
 43
0.00000001
 40
0.0
 40
0.0
 40
0.0
 40
0.0
 40
0.0871838771750684
 40
0.297187768474744
 40
0.4950836442433956
 40
0.6803671619329095
 40
0.851378931000642
 40
1.0
 40
1.0
 40
1.0
 40
1.0
 10
66.81353709173185
 20
94.65471002051014
 30
0.0
 10
66.79174107885187
 20
94.65386450961884
 30
0.0
 10
66.71744398815883
 20
94.65098237701416
 30
0.0
 10
66.59482971177171
 20
94.67264778754486
 30
0.0
 10
66.45344603970112
 20
94.71473556749396
 30
0.0
 10
66.33013771806058
 20
94.77322952823329
 30
0.0
 10
66.22663514136997
 20
94.83895205021756
 30
0.0
 10
66.17240498643694
 20
94.88530555859214
 30
0.0
 10
66.14718935575618
 20
94.90685875071144
 30
0.0
  0
SPLINE
  5
ED
330
1F
100
AcDbEntity
  8
0
  6
Continuous
 62
     7
370
    25
100
AcDbSpline
210
0.0
220
0.0
230
1.0
 70
     8
 71
     3
 72
    13
 73
     9
 74
     0
 42
0.000000001
 43
0.00000001
 40
0.0
 40
0.0
 40
0.0
 40
0.0
 40
0.1387621672571625
 40
0.3305643344698865
 40
0.5399950813408834
 40
0.7623567747800717
 40
0.9951212773140354
 40
1.0
 40
1.0
 40
1.0
 40
1.0
 10
66.14847610927144
 20
72.89578995720875
 30
0.0
 10
66.17154958197156
 20
72.91594034943415
 30
0.0
 10
66.22651605660792
 20
72.96394335433789
 30
0.0
 10
66.33782420844011
 20
73.03412324548883
 30
0.0
 10
66.47775579613491
 20
73.09802039918355
 30
0.0
 10
66.6378631039334
 20
73.13815342636973
 30
0.0
 10
66.7529134034428
 20
73.15601775406577
 30
0.0
 10
66.81201560337492
 20
73.15084168920947
 30
0.0
 10
66.813228948478
 20
73.15073542661767
 30
0.0
  0
LINE
  5
EE
330
1F
100
AcDbEntity
  8
0
  6
Continuous
 62
     7
370
    25
100
AcDbLine
 10
74.3874175791
 20
95.9012231343
 30
0.0
 11
74.2430800118
 21
95.6512231343
 31
0.0
  0
LINE
  5
EF
330
1F
100
AcDbEntity
  8
0
  6
Continuous
 62
     7
370
    25
100
AcDbLine
 10
74.2430800118
 20
72.1512231343
 30
0.0
 11
74.3874175791
 21
71.9012231343
 31
0.0
  0
LINE
  5
F0
330
1F
100
AcDbEntity
  8
0
  6
Continuous
 62
     7
370
    25
100
AcDbLine
 10
92.0430800118
 20
72.1512231343
 30
0.0
 11
92.2430800118
 21
72.3512231343
 31
0.0
  0
LINE
  5
F1
330
1F
100
AcDbEntity
  8
0
  6
Continuous
 62
     7
370
    25
100
AcDbLine
 10
92.2430800118
 20
95.4512231343
 30
0.0
 11
92.0430800118
 21
95.6512231343
 31
0.0
  0
LINE
  5
F2
330
1F
100
AcDbEntity
  8
0
  6
Continuous
 62
     7
370
    25
100
AcDbLine
 10
92.0430800118
 20
95.6512231343
 30
0.0
 11
90.8537802815
 21
95.6512231343
 31
0.0
  0
LINE
  5
F3
330
1F
100
AcDbEntity
  8
0
  6
Continuous
 62
     7
370
    25
100
AcDbLine
 10
90.8537802815
 20
72.1512231343
 30
0.0
 11
92.0430800118
 21
72.1512231343
 31
0.0
  0
SPLINE
  5
F4
330
1F
100
AcDbEntity
  8
0
  6
Continuous
 62
     7
370
    25
100
AcDbSpline
210
0.0
220
0.0
230
1.0
 70
     8
 71
     3
 72
    14
 73
    10
 74
     0
 42
0.000000001
 43
0.00000001
 40
0.0
 40
0.0
 40
0.0
 40
0.0
 40
0.0165954238560742
 40
0.2240301548388052
 40
0.4206559521713714
 40
0.6055230352075004
 40
0.7764781905157726
 40
0.9305631731661185
 40
0.9999999999999999
 40
0.9999999999999999
 40
0.9999999999999999
 40
0.9999999999999999
 10
90.85331271410472
 20
95.65216611905291
 30
0.0
 10
90.84867535405279
 20
95.65184979142506
 30
0.0
 10
90.78607324762366
 20
95.64757952221946
 30
0.0
 10
90.66826554637538
 20
95.66254865192852
 30
0.0
 10
90.50760594166033
 20
95.69573585106065
 30
0.0
 10
90.36300174995019
 20
95.74783948646409
 30
0.0
 10
90.23907703927239
 20
95.80968044545793
 30
0.0
 10
90.14943669426744
 20
95.865585882406
 30
0.0
 10
90.10796233901475
 20
95.89817534386991
 30
0.0
 10
90.09507837198544
 20
95.90829922751911
 30
0.0
  0
SPLINE
  5
F5
330
1F
100
AcDbEntity
  8
0
  6
Continuous
 62
     7
370
    25
100
AcDbSpline
210
0.0
220
0.0
230
1.0
 70
     8
 71
     3
 72
    13
 73
     9
 74
     0
 42
0.000000001
 43
0.00000001
 40
0.0
 40
0.0
 40
0.0
 40
0.0
 40
0.1275053320643241
 40
0.3080359656210094
 40
0.5096345194061485
 40
0.7245423974162813
 40
0.9508179135520167
 40
1.0
 40
1.0
 40
1.0
 40
1.0
 10
90.09537608364545
 20
71.8945992114836
 30
0.0
 10
90.12030528503908
 20
71.91327006414917
 30
0.0
 10
90.18053092814841
 20
71.95837636705194
 30
0.0
 10
90.30104818310744
 20
72.02644129428023
 30
0.0
 10
90.45254513300726
 20
72.09025973546026
 30
0.0
 10
90.62607075151594
 20
72.13374221615318
 30
0.0
 10
90.76269171101983
 20
72.15403045448926
 30
0.0
 10
90.83961938290506
 20
72.14947046944329
 30
0.0
 10
90.85335457617406
 20
72.14865629849055
 30
0.0
  0
LINE
  5
F6
330
1F
100
AcDbEntity
  8
0
  6
Continuous
 62
     7
370
    25
100
AcDbLine
 10
65.1669662278
 20
94.9012231343
 30
0.0
 11
59.2937841673
 21
94.9012231343
 31
0.0
  0
SPLINE
  5
F7
330
1F
100
AcDbEntity
  8
0
  6
Continuous
 62
     7
370
    25
100
AcDbSpline
210
0.0
220
0.0
230
1.0
 70
     8
 71
     3
 72
     8
 73
     4
 74
     0
 42
0.000000001
 43
0.00000001
 40
0.0
 40
0.0
 40
0.0
 40
0.0
 40
1.0
 40
1.0
 40
1.0
 40
1.0
 10
66.00510903271552
 20
91.44373996412418
 30
0.0
 10
65.84170803556623
 20
92.61287176046622
 30
0.0
 10
65.54634923452517
 20
93.76307411404969
 30
0.0
 10
65.16696622776563
 20
94.90122313432832
 30
0.0
  0
SPLINE
  5
F8
330
1F
100
AcDbEntity
  8
0
  6
Continuous
 62
     7
370
    25
100
AcDbSpline
210
0.0
220
0.0
230
1.0
 70
     8
 71
     3
 72
    12
 73
     8
 74
     0
 42
0.000000001
 43
0.00000001
 40
0.0
 40
0.0
 40
0.0
 40
0.0
 40
0.5000000000000004
 40
0.5000000000000004
 40
0.7500000000000002
 40
0.7500000000000002
 40
1.0
 40
1.0
 40
1.0
 40
1.0
 10
66.00510903271552
 20
87.35870630453249
 30
0.0
 10
66.09921185367709
 20
88.0320106419053
 30
0.0
 10
66.14918480147037
 20
88.71080483077033
 30
0.0
 10
66.14957594613071
 20
89.73827256871265
 30
0.0
 10
66.13724785533013
 20
90.08260261523591
 30
0.0
 10
66.08862927622236
 20
90.7656746242269
 30
0.0
 10
66.05238260887137
 20
91.10549820321188
 30
0.0
 10
66.00510903271552
 20
91.44373996412418
 30
0.0
  0
SPLINE
  5
F9
330
1F
100
AcDbEntity
  8
0
  6
Continuous
 62
     7
370
    25
100
AcDbSpline
210
0.0
220
0.0
230
1.0
 70
     8
 71
     3
 72
     8
 73
     4
 74
     0
 42
0.000000001
 43
0.00000001
 40
0.0
 40
0.0
 40
0.0
 40
0.0
 40
1.0
 40
1.0
 40
1.0
 40
1.0
 10
65.16696622776578
 20
83.90122313432832
 30
0.0
 10
65.54695891793783
 20
85.04120120484447
 30
0.0
 10
65.84201152971562
 20
86.19174600448638
 30
0.0
 10
66.00510903271552
 20
87.35870630453249
 30
0.0
  0
LINE
  5
FA
330
1F
100
AcDbEntity
  8
0
  6
Continuous
 62
     7
370
    25
100
AcDbLine
 10
65.1669662278
 20
83.9012231343
 30
0.0
 11
59.2937841673
 21
83.9012231343
 31
0.0
  0
LINE
  5
FB
330
1F
100
AcDbEntity
  8
0
  6
Continuous
 62
     7
370
    25
100
AcDbLine
 10
59.2937841673
 20
94.9012231343
 30
0.0
 11
59.2937841673
 21
83.9012231343
 31
0.0
  0
LINE
  5
FC
330
1F
100
AcDbEntity
  8
0
  6
Continuous
 62
     7
370
    25
100
AcDbLine
 10
66.0051090327
 20
80.4437399641
 30
0.0
 11
66.0051090327
 21
87.3587063045
 31
0.0
  0
SPLINE
  5
FD
330
1F
100
AcDbEntity
  8
0
  6
Continuous
 62
     7
370
    25
100
AcDbSpline
210
0.0
220
0.0
230
1.0
 70
     8
 71
     3
 72
     8
 73
     4
 74
     0
 42
0.000000001
 43
0.00000001
 40
0.0
 40
0.0
 40
0.0
 40
0.0
 40
1.0
 40
1.0
 40
1.0
 40
1.0
 10
66.00510903271552
 20
80.44373996412438
 30
0.0
 10
65.84170803556621
 20
81.61287176046638
 30
0.0
 10
65.54634923452517
 20
82.7630741140498
 30
0.0
 10
65.16696622776563
 20
83.90122313432839
 30
0.0
  0
SPLINE
  5
FE
330
1F
100
AcDbEntity
  8
0
  6
Continuous
 62
     7
370
    25
100
AcDbSpline
210
0.0
220
0.0
230
1.0
 70
     8
 71
     3
 72
    12
 73
     8
 74
     0
 42
0.000000001
 43
0.00000001
 40
0.0
 40
0.0
 40
0.0
 40
0.0
 40
0.5
 40
0.5
 40
0.75
 40
0.75
 40
1.0
 40
1.0
 40
1.0
 40
1.0
 10
66.00510903271552
 20
76.35870630453235
 30
0.0
 10
66.0992118536771
 20
77.03201064190519
 30
0.0
 10
66.1491848014704
 20
77.7108048307703
 30
0.0
 10
66.14957594613072
 20
78.7382725687127
 30
0.0
 10
66.13724785533016
 20
79.082602615236
 30
0.0
 10
66.08862927622238
 20
79.76567462422706
 30
0.0
 10
66.05238260887138
 20
80.10549820321204
 30
0.0
 10
66.00510903271552
 20
80.44373996412438
 30
0.0
  0
SPLINE
  5
FF
330
1F
100
AcDbEntity
  8
0
  6
Continuous
 62
     7
370
    25
100
AcDbSpline
210
0.0
220
0.0
230
1.0
 70
     8
 71
     3
 72
     8
 73
     4
 74
     0
 42
0.000000001
 43
0.00000001
 40
0.0
 40
0.0
 40
0.0
 40
0.0
 40
1.0
 40
1.0
 40
1.0
 40
1.0
 10
65.16696622776578
 20
72.90122313432832
 30
0.0
 10
65.54695891793783
 20
74.04120120484441
 30
0.0
 10
65.8420115297156
 20
75.19174600448626
 30
0.0
 10
66.00510903271552
 20
76.35870630453235
 30
0.0
  0
LINE
  5
100
330
1F
100
AcDbEntity
  8
0
  6
Continuous
 62
     7
370
    25
100
AcDbLine
 10
65.1669662278
 20
72.9012231343
 30
0.0
 11
59.2937841673
 21
72.9012231343
 31
0.0
  0
LINE
  5
101
330
1F
100
AcDbEntity
  8
0
  6
Continuous
 62
     7
370
    25
100
AcDbLine
 10
59.2937841673
 20
83.9012231343
 30
0.0
 11
59.2937841673
 21
72.9012231343
 31
0.0
  0
ARC
  5
102
330
1F
100
AcDbEntity
  8
0
  6
Continuous
 62
     7
370
    25
100
AcDbCircle
 10
66.7856998077
 20
89.2407425838
 30
0.0
 40
2.037494175377582
100
AcDbArc
 50
247.4733489604
 51
272.4031868565
  0
LINE
  5
103
330
1F
100
AcDbEntity
  8
0
  6
Continuous
 62
     7
370
    25
100
AcDbLine
 10
66.8711344365
 20
87.2050403859
 30
0.0
 11
66.8711344365
 21
80.5974058828
 31
0.0
  0
ARC
  5
104
330
1F
100
AcDbEntity
  8
0
  6
Continuous
 62
     7
370
    25
100
AcDbCircle
 10
66.7856998077
 20
78.5617036848
 30
0.0
 40
2.037494175370734
100
AcDbArc
 50
87.5968131435
 51
112.5266510396
  0
LINE
  5
105
330
1F
100
AcDbEntity
  8
0
  6
Continuous
 62
     7
370
    25
100
AcDbLine
 10
67.7937841673
 20
94.4512231343
 30
0.0
 11
67.7937841673
 21
73.3512231343
 31
0.0
  0
LINE
  5
106
330
1F
100
AcDbEntity
  8
0
  6
Continuous
 62
     7
370
    25
100
AcDbLine
 10
67.5937841673
 20
73.1512231343
 30
0.0
 11
67.5937841673
 21
94.6512231343
 31
0.0
  0
LINE
  5
107
330
1F
100
AcDbEntity
  8
0
  6
Continuous
 62
     7
370
    25
100
AcDbLine
 10
66.8711344365
 20
76.6939292747
 30
0.0
 11
66.8711344365
 21
73.3901120232
 31
0.0
  0
SPLINE
  5
108
330
1F
100
AcDbEntity
  8
0
  6
Continuous
 62
     7
370
    25
100
AcDbSpline
210
0.0
220
0.0
230
1.0
 70
     8
 71
     3
 72
    14
 73
    10
 74
     0
 42
0.000000001
 43
0.00000001
 40
0.0
 40
0.0
 40
0.0
 40
0.0
 40
0.25
 40
0.25
 40
0.5
 40
0.5
 40
0.75
 40
0.75
 40
1.0
 40
1.0
 40
1.0
 40
1.0
 10
66.87113443649996
 20
80.5974058828001
 30
0.0
 10
66.87113443649996
 20
80.235424529856
 30
0.0
 10
66.85509606853444
 20
79.88179369619273
 30
0.0
 10
66.8242750358202
 20
79.19006926411701
 30
0.0
 10
66.81080004109434
 20
78.85056468462001
 30
0.0
 10
66.81096973233151
 20
78.19478655396082
 30
0.0
 10
66.82444880508613
 20
77.87866940390788
 30
0.0
 10
66.85515098813345
 20
77.2692353876014
 30
0.0
 10
66.87113443649996
 20
76.97589372892138
 30
0.0
 10
66.87113443649996
 20
76.6939292747455
 30
0.0
  0
SPLINE
  5
109
330
1F
100
AcDbEntity
  8
0
  6
Continuous
 62
     7
370
    25
100
AcDbSpline
210
0.0
220
0.0
230
1.0
 70
     8
 71
     3
 72
    14
 73
    10
 74
     0
 42
0.000000001
 43
0.00000001
 40
0.0
 40
0.0
 40
0.0
 40
0.0
 40
0.25
 40
0.25
 40
0.5
 40
0.5
 40
0.75
 40
0.75
 40
1.0
 40
1.0
 40
1.0
 40
1.0
 10
66.87113443649996
 20
91.10851699391104
 30
0.0
 10
66.87113443649996
 20
90.82628242100196
 30
0.0
 10
66.85509606853444
 20
90.53225176035454
 30
0.0
 10
66.82427503582021
 20
89.92019557338574
 30
0.0
 10
66.81080004109437
 20
89.60070822342969
 30
0.0
 10
66.81096973233154
 20
88.94464145389426
 30
0.0
 10
66.82444880508615
 20
88.60843460605571
 30
0.0
 10
66.85515098813345
 20
87.9194627710013
 30
0.0
 10
66.87113443649996
 20
87.56667529667824
 30
0.0
 10
66.87113443649996
 20
87.20504038585676
 30
0.0
  0
LINE
  5
10A
330
1F
100
AcDbEntity
  8
0
  6
Continuous
 62
     7
370
    25
100
AcDbLine
 10
66.8711344365
 20
94.4123342454
 30
0.0
 11
66.8711344365
 21
91.1085169939
 31
0.0
  0
LINE
  5
10B
330
1F
100
AcDbEntity
  8
0
  6
Continuous
 62
     7
370
    25
100
AcDbLine
 10
45.9901754403
 20
73.594460907
 30
0.0
 11
45.9901754403
 21
94.2079853616
 31
0.0
  0
ARC
  5
10C
330
1F
100
AcDbEntity
  8
0
  6
Continuous
 62
     7
370
    25
100
AcDbCircle
 10
66.8191968262
 20
75.5418365955
 30
0.0
 40
1.153262787503913
100
AcDbArc
 50
87.4187906385
 51
134.902270985
  0
ARC
  5
10D
330
1F
100
AcDbEntity
  8
0
  6
Continuous
 62
     7
370
    25
100
AcDbCircle
 10
66.8191968262
 20
92.2606096732
 30
0.0
 40
1.153262787500329
100
AcDbArc
 50
225.0977290149
 51
272.5812093616
  0
LINE
  5
10E
330
1F
100
AcDbEntity
  8
0
  6
Continuous
 62
     7
370
    25
100
AcDbLine
 10
71.4937841673
 20
94.3787231343
 30
0.0
 11
71.4937841673
 21
73.4237231343
 31
0.0
  0
LINE
  5
10F
330
1F
100
AcDbEntity
  8
0
  6
Continuous
 62
     7
370
    25
100
AcDbLine
 10
70.2937841673
 20
74.6237231343
 30
0.0
 11
70.2937841673
 21
93.1787231343
 31
0.0
  0
LINE
  5
110
330
1F
100
AcDbEntity
  8
0
  6
Continuous
 62
     7
370
    25
100
AcDbLine
 10
43.2937841673
 20
75.1512231343
 30
0.0
 11
43.2937841673
 21
92.6512231343
 31
0.0
  0
SPLINE
  5
111
330
1F
100
AcDbEntity
  8
0
  6
Continuous
 62
     7
370
    25
100
AcDbSpline
210
0.0
220
0.0
230
1.0
 70
    24
 71
     3
 72
     8
 73
     4
 74
     0
 42
0.000000001
 43
0.00000001
 40
0.0
 40
0.0
 40
0.0
 40
0.0
 40
1.0
 40
1.0
 40
1.0
 40
1.0
 10
66.00510903271552
 20
94.90122313432835
 30
0.0
 10
65.84037251532837
 20
94.90122313432833
 30
0.0
 10
65.54371569786086
 20
94.90122313432832
 30
0.0
 10
65.16696622776547
 20
94.9012231343283
 30
0.0
  0
LINE
  5
112
330
1F
100
AcDbEntity
  8
0
  6
Continuous
 62
     7
370
    25
100
AcDbLine
 10
66.0051090327
 20
91.4437399641
 30
0.0
 11
66.0051090327
 21
94.9012231343
 31
0.0
  0
ARC
  5
113
330
1F
100
AcDbEntity
  8
0
  6
Continuous
 62
     7
370
    25
100
AcDbCircle
 10
66.8669878775
 20
95.4164788651
 30
0.0
 40
1.004153181110277
100
AcDbArc
 50
210.8721849151
 51
270.2365983709
  0
LINE
  5
114
330
1F
100
AcDbEntity
  8
0
  6
Continuous
 62
     7
370
    25
100
AcDbLine
 10
66.0051090327
 20
72.9012231343
 30
0.0
 11
66.0051090327
 21
76.3587063045
 31
0.0
  0
SPLINE
  5
115
330
1F
100
AcDbEntity
  8
0
  6
Continuous
 62
     7
370
    25
100
AcDbSpline
210
0.0
220
0.0
230
1.0
 70
    24
 71
     3
 72
     8
 73
     4
 74
     0
 42
0.000000001
 43
0.00000001
 40
0.0
 40
0.0
 40
0.0
 40
0.0
 40
1.0
 40
1.0
 40
1.0
 40
1.0
 10
66.00510903271552
 20
72.90122313432836
 30
0.0
 10
65.84037251532837
 20
72.90122313432836
 30
0.0
 10
65.54371569786086
 20
72.90122313432836
 30
0.0
 10
65.16696622776547
 20
72.90122313432835
 30
0.0
  0
ARC
  5
116
330
1F
100
AcDbEntity
  8
0
  6
Continuous
 62
     7
370
    25
100
AcDbCircle
 10
66.8669878775
 20
72.3859674036
 30
0.0
 40
1.004153181107759
100
AcDbArc
 50
89.763401629
 51
149.127815085
  0
SPLINE
  5
117
330
1F
100
AcDbEntity
  8
0
  6
Continuous
 62
     7
370
    25
100
AcDbSpline
210
0.0
220
0.0
230
1.0
 70
    24
 71
     3
 72
    10
 73
     6
 74
     0
 42
0.000000001
 43
0.00000001
 40
0.0
 40
0.0
 40
0.0
 40
0.0
 40
0.3689591364034875
 40
0.8131574808557464
 40
1.0
 40
1.0
 40
1.0
 40
1.0
 10
66.00510903271554
 20
94.90122313432835
 30
0.0
 10
66.03403099513174
 20
94.90122313432835
 30
0.0
 10
66.09777276970608
 20
94.90122313432835
 30
0.0
 10
66.14340995544546
 20
94.90122313432836
 30
0.0
 10
66.14277177746712
 20
94.90122313432836
 30
0.0
 10
66.14258282174649
 20
94.90122313432836
 30
0.0
  0
SPLINE
  5
118
330
1F
100
AcDbEntity
  8
0
  6
Continuous
 62
     7
370
    25
100
AcDbSpline
210
0.0
220
0.0
230
1.0
 70
    24
 71
     3
 72
    10
 73
     6
 74
     0
 42
0.000000001
 43
0.00000001
 40
0.0
 40
0.0
 40
0.0
 40
0.0
 40
0.2926488923367001
 40
0.6812968611672501
 40
0.9999999999999999
 40
0.9999999999999999
 40
0.9999999999999999
 40
0.9999999999999999
 10
66.14396472229531
 20
72.90122313432838
 30
0.0
 10
66.14519980198352
 20
72.90122313432838
 30
0.0
 10
66.14807511071324
 20
72.90122313432838
 30
0.0
 10
66.0988233672612
 20
72.90122313432836
 30
0.0
 10
66.03421768138136
 20
72.90122313432836
 30
0.0
 10
66.00510903271554
 20
72.90122313432836
 30
0.0
  0
SPLINE
  5
119
330
1F
100
AcDbEntity
  8
0
  6
Continuous
 62
     7
370
    25
100
AcDbSpline
210
0.0
220
0.0
230
1.0
 70
     8
 71
     3
 72
    17
 73
    13
 74
     0
 42
0.000000001
 43
0.00000001
 40
0.0
 40
0.0
 40
0.0
 40
0.0
 40
0.1320203315607965
 40
0.2319491673005524
 40
0.3318648221951419
 40
0.399479898225675
 40
0.467093367287512
 40
0.5350418779996063
 40
0.6499169419017429
 40
0.7654227896281545
 40
0.8825163718162242
 40
1.0
 40
1.0
 40
1.0
 40
1.0
 10
75.45921434881603
 20
71.90122313432836
 30
0.0
 10
75.2961156434977
 20
72.41855059478476
 30
0.0
 10
75.00956425827442
 20
73.32745358158958
 30
0.0
 10
74.7060558155775
 20
74.65007098882887
 30
0.0
 10
74.52687065793407
 20
75.72559748640363
 30
0.0
 10
74.4283607604507
 20
76.67693665401194
 30
0.0
 10
74.38522206550473
 20
77.50141866748585
 30
0.0
 10
74.38611897335521
 20
78.51868050387542
 30
0.0
 10
74.47348139720046
 20
79.72906258518474
 30
0.0
 10
74.69632858059309
 20
81.12778499040304
 30
0.0
 10
75.02223482934025
 20
82.52228589025479
 30
0.0
 10
75.31339313336746
 20
83.44106814766145
 30
0.0
 10
75.45921434881603
 20
83.90122313432836
 30
0.0
  0
SPLINE
  5
11A
330
1F
100
AcDbEntity
  8
0
  6
Continuous
 62
     7
370
    25
100
AcDbSpline
210
0.0
220
0.0
230
1.0
 70
    24
 71
     3
 72
    12
 73
     8
 74
     0
 42
0.000000001
 43
0.00000001
 40
0.0
 40
0.0
 40
0.0
 40
0.0
 40
0.2568006991463341
 40
0.4413589124840885
 40
0.626493271286869
 40
0.8130664081225446
 40
0.9999999999999999
 40
0.9999999999999999
 40
0.9999999999999999
 40
0.9999999999999999
 10
74.38764526468813
 20
71.90122313432836
 30
0.0
 10
74.40245404034313
 20
71.90122313432836
 30
0.0
 10
74.42790562649549
 20
71.90122313432836
 30
0.0
 10
74.6033358249774
 20
71.90122313432836
 30
0.0
 10
74.8243173266357
 20
71.90122313432836
 30
0.0
 10
75.10810113085981
 20
71.90122313432836
 30
0.0
 10
75.342101335036
 20
71.90122313432836
 30
0.0
 10
75.45921434881603
 20
71.90122313432836
 30
0.0
  0
SPLINE
  5
11B
330
1F
100
AcDbEntity
  8
0
  6
Continuous
 62
     7
370
    25
100
AcDbSpline
210
0.0
220
0.0
230
1.0
 70
    24
 71
     3
 72
    13
 73
     9
 74
     0
 42
0.000000001
 43
0.00000001
 40
0.0
 40
0.0
 40
0.0
 40
0.0
 40
0.1848233087082689
 40
0.3699619548706424
 40
0.5563259491825644
 40
0.7432430960679047
 40
0.9925520045853872
 40
1.0
 40
1.0
 40
1.0
 40
1.0
 10
75.45921434881603
 20
95.90122313432836
 30
0.0
 10
75.34331582594933
 20
95.90122313432836
 30
0.0
 10
75.11132103922003
 20
95.90122313432836
 30
0.0
 10
74.82882955358217
 20
95.90122313432836
 30
0.0
 10
74.60208404822173
 20
95.90122313432836
 30
0.0
 10
74.44316398134269
 20
95.90122313432836
 30
0.0
 10
74.36428678825364
 20
95.90122313432833
 30
0.0
 10
74.38885018116663
 20
95.90122313432836
 30
0.0
 10
74.38956271522113
 20
95.90122313432836
 30
0.0
  0
SPLINE
  5
11C
330
1F
100
AcDbEntity
  8
0
  6
Continuous
 62
     7
370
    25
100
AcDbSpline
210
0.0
220
0.0
230
1.0
 70
     8
 71
     3
 72
    17
 73
    13
 74
     0
 42
0.000000001
 43
0.00000001
 40
0.0
 40
0.0
 40
0.0
 40
0.0
 40
0.1320203315607964
 40
0.2319491673005523
 40
0.3318648221951421
 40
0.3994798982256751
 40
0.4670933672875122
 40
0.5350418779996067
 40
0.6499169419017432
 40
0.765422789628155
 40
0.8825163718162244
 40
1.0
 40
1.0
 40
1.0
 40
1.0
 10
75.45921434881603
 20
83.90122313432836
 30
0.0
 10
75.2961156434977
 20
84.41855059478476
 30
0.0
 10
75.00956425827442
 20
85.32745358158958
 30
0.0
 10
74.70605581557751
 20
86.65007098882887
 30
0.0
 10
74.52687065793407
 20
87.72559748640363
 30
0.0
 10
74.4283607604507
 20
88.67693665401195
 30
0.0
 10
74.38522206550473
 20
89.50141866748584
 30
0.0
 10
74.38611897335521
 20
90.51868050387543
 30
0.0
 10
74.47348139720046
 20
91.72906258518474
 30
0.0
 10
74.69632858059309
 20
93.12778499040304
 30
0.0
 10
75.02223482934025
 20
94.52228589025479
 30
0.0
 10
75.31339313336746
 20
95.44106814766145
 30
0.0
 10
75.45921434881603
 20
95.90122313432836
 30
0.0
  0
LINE
  5
11D
330
1F
100
AcDbEntity
  8
0
  6
Continuous
 62
     7
370
    25
100
AcDbLine
 10
74.2430800118
 20
72.1512231343
 30
0.0
 11
74.2430800118
 21
95.6512231343
 31
0.0
  0
SPLINE
  5
11E
330
1F
100
AcDbEntity
  8
0
  6
Continuous
 62
     7
370
    25
100
AcDbSpline
210
0.0
220
0.0
230
1.0
 70
     8
 71
     3
 72
    11
 73
     7
 74
     0
 42
0.000000001
 43
0.00000001
 40
0.0
 40
0.0
 40
0.0
 40
0.0
 40
0.2896312968534335
 40
0.5811875798131653
 40
0.7902304971769979
 40
1.0
 40
1.0
 40
1.0
 40
1.0
 10
89.88223609355062
 20
92.51951814253503
 30
0.0
 10
89.95158293056612
 20
92.01563158392763
 30
0.0
 10
90.0907375067828
 20
91.00450946874538
 30
0.0
 10
90.11262848710963
 20
89.61855238761464
 30
0.0
 10
90.04023043608706
 20
88.3754383094656
 30
0.0
 10
89.93496175025423
 20
87.64751913582137
 30
0.0
 10
89.88223609355062
 20
87.28292812612172
 30
0.0
  0
SPLINE
  5
11F
330
1F
100
AcDbEntity
  8
0
  6
Continuous
 62
     7
370
    25
100
AcDbSpline
210
0.0
220
0.0
230
1.0
 70
     8
 71
     3
 72
    10
 73
     6
 74
     0
 42
0.000000001
 43
0.00000001
 40
0.0
 40
0.0
 40
0.0
 40
0.0
 40
0.2491626234370821
 40
0.4987154826027845
 40
1.0
 40
1.0
 40
1.0
 40
1.0
 10
89.88223609355062
 20
87.28292812612172
 30
0.0
 10
89.83164724443319
 20
86.99852874952181
 30
0.0
 10
89.73039031450567
 20
86.42928457318261
 30
0.0
 10
89.46462231849605
 20
85.29706452335522
 30
0.0
 10
89.20216865121203
 20
84.46004546659218
 30
0.0
 10
89.02694567477224
 20
83.90122313432836
 30
0.0
  0
LINE
  5
120
330
1F
100
AcDbEntity
  8
0
  6
Continuous
 62
     7
370
    25
100
AcDbLine
 10
89.0269456748
 20
83.9012231343
 30
0.0
 11
75.4592143488
 21
83.9012231343
 31
0.0
  0
LINE
  5
121
330
1F
100
AcDbEntity
  8
0
  6
Continuous
 62
     7
370
    25
100
AcDbLine
 10
89.0269456748
 20
95.9012231343
 30
0.0
 11
75.4592143488
 21
95.9012231343
 31
0.0
  0
SPLINE
  5
122
330
1F
100
AcDbEntity
  8
0
  6
Continuous
 62
     7
370
    25
100
AcDbSpline
210
0.0
220
0.0
230
1.0
 70
     8
 71
     3
 72
    10
 73
     6
 74
     0
 42
0.000000001
 43
0.00000001
 40
0.0
 40
0.0
 40
0.0
 40
0.0
 40
0.4987991814870253
 40
0.7492138627281391
 40
1.0
 40
1.0
 40
1.0
 40
1.0
 10
89.02694567477224
 20
95.90122313432836
 30
0.0
 10
89.20134139070225
 20
95.34518360965494
 30
0.0
 10
89.46328987182372
 20
94.50999274412835
 30
0.0
 10
89.72947810776611
 20
93.37784343741687
 30
0.0
 10
89.83129161253586
 20
92.80576790201589
 30
0.0
 10
89.88223609355062
 20
92.51951814253503
 30
0.0
  0
LINE
  5
123
330
1F
100
AcDbEntity
  8
0
  6
Continuous
 62
     7
370
    25
100
AcDbLine
 10
89.8822360936
 20
80.5195181425
 30
0.0
 11
89.8822360936
 21
87.2829281261
 31
0.0
  0
SPLINE
  5
124
330
1F
100
AcDbEntity
  8
0
  6
Continuous
 62
     7
370
    25
100
AcDbSpline
210
0.0
220
0.0
230
1.0
 70
     8
 71
     3
 72
    10
 73
     6
 74
     0
 42
0.000000001
 43
0.00000001
 40
0.0
 40
0.0
 40
0.0
 40
0.0
 40
0.4987991814870255
 40
0.7492138627281385
 40
1.0
 40
1.0
 40
1.0
 40
1.0
 10
89.02694567477224
 20
83.90122313432836
 30
0.0
 10
89.20134139070224
 20
83.34518360965494
 30
0.0
 10
89.4632898718237
 20
82.50999274412835
 30
0.0
 10
89.72947810776613
 20
81.37784343741687
 30
0.0
 10
89.83129161253586
 20
80.80576790201587
 30
0.0
 10
89.88223609355062
 20
80.51951814253503
 30
0.0
  0
SPLINE
  5
125
330
1F
100
AcDbEntity
  8
0
  6
Continuous
 62
     7
370
    25
100
AcDbSpline
210
0.0
220
0.0
230
1.0
 70
     8
 71
     3
 72
    11
 73
     7
 74
     0
 42
0.000000001
 43
0.00000001
 40
0.0
 40
0.0
 40
0.0
 40
0.0
 40
0.2896312968534326
 40
0.5811875798131635
 40
0.7902304971769967
 40
1.0
 40
1.0
 40
1.0
 40
1.0
 10
89.88223609355062
 20
80.51951814253503
 30
0.0
 10
89.95158293056612
 20
80.01563158392763
 30
0.0
 10
90.09073750678282
 20
79.00450946874538
 30
0.0
 10
90.11262848710963
 20
77.61855238761464
 30
0.0
 10
90.04023043608706
 20
76.37543830946558
 30
0.0
 10
89.93496175025423
 20
75.64751913582137
 30
0.0
 10
89.88223609355062
 20
75.28292812612169
 30
0.0
  0
SPLINE
  5
126
330
1F
100
AcDbEntity
  8
0
  6
Continuous
 62
     7
370
    25
100
AcDbSpline
210
0.0
220
0.0
230
1.0
 70
     8
 71
     3
 72
    10
 73
     6
 74
     0
 42
0.000000001
 43
0.00000001
 40
0.0
 40
0.0
 40
0.0
 40
0.0
 40
0.2491664959407081
 40
0.7491932471384537
 40
1.0
 40
1.0
 40
1.0
 40
1.0
 10
89.88223609355062
 20
75.28292812612169
 30
0.0
 10
89.83151403885039
 20
74.99854849316363
 30
0.0
 10
89.67900308139224
 20
74.14347646659947
 30
0.0
 10
89.38602175894707
 20
73.0152591901352
 30
0.0
 10
89.11685690395844
 20
72.18017335003408
 30
0.0
 10
89.02694567477224
 20
71.90122313432836
 30
0.0
  0
LINE
  5
127
330
1F
100
AcDbEntity
  8
0
  6
Continuous
 62
     7
370
    25
100
AcDbLine
 10
89.0269456748
 20
71.9012231343
 30
0.0
 11
75.4592143488
 21
71.9012231343
 31
0.0
  0
ARC
  5
128
330
1F
100
AcDbEntity
  8
0
  6
Continuous
 62
     7
370
    25
100
AcDbCircle
 10
90.8556422308
 20
89.9365492759
 30
0.0
 40
2.826521663601385
100
AcDbArc
 50
249.8558609029
 51
272.2126105423
  0
LINE
  5
129
330
1F
100
AcDbEntity
  8
0
  6
Continuous
 62
     7
370
    25
100
AcDbLine
 10
90.9647678483
 20
87.1121349447
 30
0.0
 11
90.9647678483
 21
80.6903113239
 31
0.0
  0
ARC
  5
12A
330
1F
100
AcDbEntity
  8
0
  6
Continuous
 62
     7
370
    25
100
AcDbCircle
 10
90.8556422308
 20
77.8658969927
 30
0.0
 40
2.826521663601399
100
AcDbArc
 50
87.7873894577
 51
110.1441390971
  0
ARC
  5
12B
330
1F
100
AcDbEntity
  8
0
  6
Continuous
 62
     7
370
    25
100
AcDbCircle
 10
90.904034088
 20
93.4969917285
 30
0.0
 40
1.414045880661805
100
AcDbArc
 50
223.7299446481
 51
272.4616308106
  0
SPLINE
  5
12C
330
1F
100
AcDbEntity
  8
0
  6
Continuous
 62
     7
370
    25
100
AcDbSpline
210
0.0
220
0.0
230
1.0
 70
     8
 71
     3
 72
    15
 73
    11
 74
     0
 42
0.000000001
 43
0.00000001
 40
0.0
 40
0.0
 40
0.0
 40
0.0
 40
0.1109312571802452
 40
0.2218878685175086
 40
0.3342489325819754
 40
0.4465909975315487
 40
0.5835720164058945
 40
0.7205960260516214
 40
0.8603243244460148
 40
1.0
 40
1.0
 40
1.0
 40
1.0
 10
90.96476784828117
 20
92.08425071787812
 30
0.0
 10
90.96150774069255
 20
91.92783311267073
 30
0.0
 10
90.95498678039371
 20
91.61496215185856
 30
0.0
 10
90.91621373724968
 20
91.11464107235889
 30
0.0
 10
90.87561502308128
 20
90.59225918749894
 30
0.0
 10
90.84454651742361
 20
90.00612094100268
 30
0.0
 10
90.85218568552541
 20
89.3552027454396
 30
0.0
 10
90.89375724853126
 20
88.634079824681
 30
0.0
 10
90.94915400445129
 20
87.8877966030113
 30
0.0
 10
90.95956388720236
 20
87.3706563648158
 30
0.0
 10
90.96476784828117
 20
87.11213494471801
 30
0.0
  0
SPLINE
  5
12D
330
1F
100
AcDbEntity
  8
0
  6
Continuous
 62
     7
370
    25
100
AcDbSpline
210
0.0
220
0.0
230
1.0
 70
     8
 71
     3
 72
    15
 73
    11
 74
     0
 42
0.000000001
 43
0.00000001
 40
0.0
 40
0.0
 40
0.0
 40
0.0
 40
0.1109312571802448
 40
0.2218878685175075
 40
0.3342489325819742
 40
0.4465909975315472
 40
0.5835720164058934
 40
0.7205960260516209
 40
0.8603243244460145
 40
1.0
 40
1.0
 40
1.0
 40
1.0
 10
90.96476784828117
 20
80.69031132393874
 30
0.0
 10
90.96150774069255
 20
80.48475664573016
 30
0.0
 10
90.95498678039371
 20
80.07360030827518
 30
0.0
 10
90.91621373724969
 20
79.46932793363246
 30
0.0
 10
90.87561502308128
 20
78.87553060087698
 30
0.0
 10
90.84454651742361
 20
78.25165080339514
 30
0.0
 10
90.85218568552541
 20
77.60616473083269
 30
0.0
 10
90.89375724853127
 20
76.94580716170583
 30
0.0
 10
90.9491540044513
 20
76.31147588421628
 30
0.0
 10
90.95956388720236
 20
75.91593082965507
 30
0.0
 10
90.96476784828117
 20
75.7181955507786
 30
0.0
  0
ARC
  5
12E
330
1F
100
AcDbEntity
  8
0
  6
Continuous
 62
     7
370
    25
100
AcDbCircle
 10
90.904034088
 20
74.3054545402
 30
0.0
 40
1.414045880661577
100
AcDbArc
 50
87.5383691894
 51
136.2700553519
  0
LINE
  5
12F
330
1F
100
AcDbEntity
  8
0
  6
Continuous
 62
     7
370
    25
100
AcDbLine
 10
92.2430800118
 20
95.4512231343
 30
0.0
 11
92.2430800118
 21
72.3512231343
 31
0.0
  0
LINE
  5
130
330
1F
100
AcDbEntity
  8
0
  6
Continuous
 62
     7
370
    25
100
AcDbLine
 10
92.0430800118
 20
72.1512231343
 30
0.0
 11
92.0430800118
 21
95.6512231343
 31
0.0
  0
LINE
  5
131
330
1F
100
AcDbEntity
  8
0
  6
Continuous
 62
     7
370
    25
100
AcDbLine
 10
90.9647678483
 20
75.7181955508
 30
0.0
 11
90.9647678483
 21
72.5072837404
 31
0.0
  0
LINE
  5
132
330
1F
100
AcDbEntity
  8
0
  6
Continuous
 62
     7
370
    25
100
AcDbLine
 10
90.9647678483
 20
95.2951625283
 30
0.0
 11
90.9647678483
 21
92.0842507179
 31
0.0
  0
LINE
  5
133
330
1F
100
AcDbEntity
  8
0
  6
Continuous
 62
     7
370
    25
100
AcDbLine
 10
89.8822360936
 20
92.5195181425
 30
0.0
 11
89.8822360936
 21
95.9012231343
 31
0.0
  0
ARC
  5
134
330
1F
100
AcDbEntity
  8
0
  6
Continuous
 62
     7
370
    25
100
AcDbCircle
 10
90.9577287284
 20
96.5524165895
 30
0.0
 40
1.257273766365441
100
AcDbArc
 50
211.1942295043
 51
270.3207845254
  0
SPLINE
  5
135
330
1F
100
AcDbEntity
  8
0
  6
Continuous
 62
     7
370
    25
100
AcDbSpline
210
0.0
220
0.0
230
1.0
 70
    24
 71
     3
 72
    10
 73
     6
 74
     0
 42
0.000000001
 43
0.00000001
 40
0.0
 40
0.0
 40
0.0
 40
0.0
 40
0.2491626234370822
 40
0.4987154826027846
 40
1.0
 40
1.0
 40
1.0
 40
1.0
 10
89.88223609355062
 20
95.90122313432836
 30
0.0
 10
89.83164724443319
 20
95.90122313432836
 30
0.0
 10
89.73039031450567
 20
95.90122313432836
 30
0.0
 10
89.46462231849607
 20
95.90122313432836
 30
0.0
 10
89.20216865121203
 20
95.90122313432836
 30
0.0
 10
89.02694567477224
 20
95.90122313432836
 30
0.0
  0
LINE
  5
136
330
1F
100
AcDbEntity
  8
0
  6
Continuous
 62
     7
370
    25
100
AcDbLine
 10
89.8822360936
 20
71.9012231343
 30
0.0
 11
89.8822360936
 21
75.2829281261
 31
0.0
  0
ARC
  5
137
330
1F
100
AcDbEntity
  8
0
  6
Continuous
 62
     7
370
    25
100
AcDbCircle
 10
90.9577287284
 20
71.2500296792
 30
0.0
 40
1.257273766365426
100
AcDbArc
 50
89.6792154746
 51
148.8057704957
  0
SPLINE
  5
138
330
1F
100
AcDbEntity
  8
0
  6
Continuous
 62
     7
370
    25
100
AcDbSpline
210
0.0
220
0.0
230
1.0
 70
    24
 71
     3
 72
    10
 73
     6
 74
     0
 42
0.000000001
 43
0.00000001
 40
0.0
 40
0.0
 40
0.0
 40
0.0
 40
0.4987991814870255
 40
0.749213862728139
 40
1.0
 40
1.0
 40
1.0
 40
1.0
 10
89.02694567477224
 20
71.90122313432836
 30
0.0
 10
89.20134139070224
 20
71.90122313432836
 30
0.0
 10
89.46328987182372
 20
71.90122313432836
 30
0.0
 10
89.72947810776613
 20
71.90122313432835
 30
0.0
 10
89.83129161253586
 20
71.90122313432836
 30
0.0
 10
89.88223609355062
 20
71.90122313432836
 30
0.0
  0
SPLINE
  5
139
330
1F
100
AcDbEntity
  8
0
  6
Continuous
 62
     7
370
    25
100
AcDbSpline
210
0.0
220
0.0
230
1.0
 70
    24
 71
     3
 72
    10
 73
     6
 74
     0
 42
0.000000001
 43
0.00000001
 40
0.0
 40
0.0
 40
0.0
 40
0.0
 40
0.224632071906867
 40
0.5984987661827993
 40
1.0
 40
1.0
 40
1.0
 40
1.0
 10
90.08964790169075
 20
95.90122313432836
 30
0.0
 10
90.0924882563533
 20
95.90122313432836
 30
0.0
 10
90.10005595916009
 20
95.90122313432836
 30
0.0
 10
90.0368906182099
 20
95.90122313432836
 30
0.0
 10
89.93499810353083
 20
95.90122313432836
 30
0.0
 10
89.88223609355062
 20
95.90122313432836
 30
0.0
  0
SPLINE
  5
13A
330
1F
100
AcDbEntity
  8
0
  6
Continuous
 62
     7
370
    25
100
AcDbSpline
210
0.0
220
0.0
230
1.0
 70
    24
 71
     3
 72
    10
 73
     6
 74
     0
 42
0.000000001
 43
0.00000001
 40
0.0
 40
0.0
 40
0.0
 40
0.0
 40
0.4533467150917548
 40
0.868856882021801
 40
0.9999999999999999
 40
0.9999999999999999
 40
0.9999999999999999
 40
0.9999999999999999
 10
89.88223609355062
 20
71.90122313432836
 30
0.0
 10
89.9346148006663
 20
71.90122313432836
 30
0.0
 10
90.03500066127553
 20
71.90122313432836
 30
0.0
 10
90.0954160593764
 20
71.90122313432836
 30
0.0
 10
90.09154670960393
 20
71.90122313432836
 30
0.0
 10
90.09061844555116
 20
71.90122313432836
 30
0.0
  0
SPLINE
  5
13B
330
1F
100
AcDbEntity
  8
0
  6
Continuous
 62
     1
370
    25
100
AcDbSpline
210
0.0
220
0.0
230
1.0
 70
     8
 71
     3
 72
    10
 73
     6
 74
     0
 42
0.000000001
 43
0.00000001
 40
0.0
 40
0.0
 40
0.0
 40
0.0
 40
0.4208378491401523
 40
0.8451578989674026
 40
1.0
 40
1.0
 40
1.0
 40
1.0
 10
66.87113443649996
 20
73.39011202321726
 30
0.0
 10
66.86493257725873
 20
73.33191712163179
 30
0.0
 10
66.85247754181758
 20
73.21504578780312
 30
0.0
 10
66.81163834619365
 20
73.15318170421149
 30
0.0
 10
66.81326334725058
 20
73.1554756888755
 30
0.0
 10
66.81369779998109
 20
73.15608899795411
 30
0.0
  0
SPLINE
  5
13C
330
1F
100
AcDbEntity
  8
0
  6
Continuous
 62
     1
370
    25
100
AcDbSpline
210
0.0
220
0.0
230
1.0
 70
     8
 71
     3
 72
    11
 73
     7
 74
     0
 42
0.000000001
 43
0.00000001
 40
0.0
 40
0.0
 40
0.0
 40
0.0
 40
0.1309851958082375
 40
0.4181215777434482
 40
0.7084847206601351
 40
0.9999999999999999
 40
0.9999999999999999
 40
0.9999999999999999
 40
0.9999999999999999
 10
66.81369779998094
 20
94.64635727070288
 30
0.0
 10
66.81309943672663
 20
94.6474338365483
 30
0.0
 10
66.81118938432401
 20
94.65087037307487
 30
0.0
 10
66.83159224172982
 20
94.61385925969849
 30
0.0
 10
66.86163407935483
 20
94.53981661231249
 30
0.0
 10
66.86796347332273
 20
94.45488442380916
 30
0.0
 10
66.87113443649996
 20
94.41233424543947
 30
0.0
  0
SPLINE
  5
13D
330
1F
100
AcDbEntity
  8
0
  6
Continuous
 62
     1
370
    25
100
AcDbSpline
210
0.0
220
0.0
230
1.0
 70
     8
 71
     3
 72
    12
 73
     8
 74
     0
 42
0.000000001
 43
0.00000001
 40
0.0
 40
0.0
 40
0.0
 40
0.0
 40
0.2214157654634547
 40
0.443754117854928
 40
0.6680754548911917
 40
0.8931384548904767
 40
1.0
 40
1.0
 40
1.0
 40
1.0
 10
90.96476784828117
 20
72.50728374038898
 30
0.0
 10
90.96159279208825
 20
72.45826334807623
 30
0.0
 10
90.95522944999703
 20
72.360018307114
 30
0.0
 10
90.91599999315103
 20
72.2556011947008
 30
0.0
 10
90.87647897144218
 20
72.18612829523657
 30
0.0
 10
90.84840720534149
 20
72.15075063180736
 30
0.0
 10
90.85247172768072
 20
72.15592560059244
 30
0.0
 10
90.85378028151833
 20
72.15759165743704
 30
0.0
  0
SPLINE
  5
13E
330
1F
100
AcDbEntity
  8
0
  6
Continuous
 62
     1
370
    25
100
AcDbSpline
210
0.0
220
0.0
230
1.0
 70
     8
 71
     3
 72
    11
 73
     7
 74
     0
 42
0.000000001
 43
0.00000001
 40
0.0
 40
0.0
 40
0.0
 40
0.0
 40
0.1662360229812969
 40
0.4411727365363968
 40
0.7198462192821722
 40
1.0
 40
1.0
 40
1.0
 40
1.0
 10
90.85378028151915
 20
95.64485461121869
 30
0.0
 10
90.85340979027026
 20
95.64546042290726
 30
0.0
 10
90.85242654587351
 20
95.64706818273984
 30
0.0
 10
90.89520258003911
 20
95.58816112761392
 30
0.0
 10
90.94910324034933
 20
95.47811222309986
 30
0.0
 10
90.95953709942694
 20
95.35625335867906
 30
0.0
 10
90.96476784828117
 20
95.29516252826775
 30
0.0
  0
CIRCLE
  5
13F
330
1F
100
AcDbEntity
  8
0
  6
Continuous
 62
     7
370
    25
100
AcDbCircle
 10
125.4524007463
 20
40.1863067164
 30
0.0
 40
4.999999999999986
  0
CIRCLE
  5
140
330
1F
100
AcDbEntity
  8
0
  6
Continuous
 62
     7
370
    25
100
AcDbCircle
 10
125.4524007463
 20
40.1863067164
 30
0.0
 40
11.55
  0
CIRCLE
  5
141
330
1F
100
AcDbEntity
  8
0
  6
Continuous
 62
     7
370
    25
100
AcDbCircle
 10
125.4524007463
 20
40.1863067164
 30
0.0
 40
6.175000000000026
  0
CIRCLE
  5
142
330
1F
100
AcDbEntity
  8
0
  6
Continuous
 62
     7
370
    25
100
AcDbCircle
 10
125.4524007463
 20
40.1863067164
 30
0.0
 40
6.075000000000003
  0
CIRCLE
  5
143
330
1F
100
AcDbEntity
  8
0
  6
Continuous
 62
     7
370
    25
100
AcDbCircle
 10
125.4524007463
 20
40.1863067164
 30
0.0
 40
11.75000000000001
  0
LINE
  5
144
330
1F
100
AcDbEntity
  8
0
  6
Continuous
 62
     7
370
    25
100
AcDbLine
 10
137.4524007463
 20
43.209653372
 30
0.0
 11
136.8463401402
 21
43.0569590965
 31
0.0
  0
SPLINE
  5
145
330
1F
100
AcDbEntity
  8
0
  6
Continuous
 62
     7
370
    25
100
AcDbSpline
210
0.0
220
0.0
230
1.0
 70
    24
 71
     3
 72
    12
 73
     8
 74
     0
 42
0.000000001
 43
0.00000001
 40
0.0
 40
0.0
 40
0.0
 40
0.0
 40
0.1952499241818976
 40
0.3910647929541105
 40
0.5887212893264688
 40
0.7870315449024661
 40
1.0
 40
1.0
 40
1.0
 40
1.0
 10
137.4524007462686
 20
37.16296006080593
 30
0.0
 10
137.4524007462686
 20
37.554763143123
 30
0.0
 10
137.4524007462686
 20
38.33950296777135
 30
0.0
 10
137.4524007462686
 20
39.52895403173078
 30
0.0
 10
137.4524007462686
 20
40.72601309513546
 30
0.0
 10
137.4524007462686
 20
41.95673161687424
 30
0.0
 10
137.4524007462686
 20
42.7822059999237
 30
0.0
 10
137.4524007462686
 20
43.20965337202992
 30
0.0
  0
LINE
  5
146
330
1F
100
AcDbEntity
  8
0
  6
Continuous
 62
     7
370
    25
100
AcDbLine
 10
136.8463401402
 20
37.3156543363
 30
0.0
 11
137.4524007463
 21
37.1629600608
 31
0.0
  0
SPLINE
  5
147
330
1F
100
AcDbEntity
  8
0
  6
Continuous
 62
     7
370
    25
100
AcDbSpline
210
0.0
220
0.0
230
1.0
 70
    24
 71
     3
 72
    11
 73
     7
 74
     0
 42
0.000000001
 43
0.00000001
 40
0.0
 40
0.0
 40
0.0
 40
0.0
 40
0.2896312968534326
 40
0.5811875798131635
 40
0.7902304971769967
 40
1.0
 40
1.0
 40
1.0
 40
1.0
 10
122.0706957544753
 20
52.09028488963717
 30
0.0
 10
121.5668091958679
 20
51.79936584938415
 30
0.0
 10
120.5556870806856
 20
51.2155942240001
 30
0.0
 10
119.1697299995549
 20
50.415411530124
 30
0.0
 10
117.9266159214058
 20
49.69769928247123
 30
0.0
 10
117.1986967477616
 20
49.27743495161945
 30
0.0
 10
116.834105738062
 20
49.06693823402523
 30
0.0
  0
LINE
  5
148
330
1F
100
AcDbEntity
  8
0
  6
Continuous
 62
     7
370
    25
100
AcDbLine
 10
122.0706957545
 20
52.0902848896
 30
0.0
 11
122.2414889359
 21
51.4890738708
 31
0.0
  0
LINE
  5
149
330
1F
100
AcDbEntity
  8
0
  6
Continuous
 62
     7
370
    25
100
AcDbLine
 10
116.8341057381
 20
49.066938234
 30
0.0
 11
117.2693731627
 21
48.6184214907
 31
0.0
  0
LINE
  5
14A
330
1F
100
AcDbEntity
  8
0
  6
Continuous
 62
     7
370
    25
100
AcDbLine
 10
133.6354283298
 20
31.7541919421
 30
0.0
 11
134.0706957545
 21
31.3056751988
 31
0.0
  0
SPLINE
  5
14B
330
1F
100
AcDbEntity
  8
0
  6
Continuous
 62
     7
370
    25
100
AcDbSpline
210
0.0
220
0.0
230
1.0
 70
    24
 71
     3
 72
    11
 73
     7
 74
     0
 42
0.000000001
 43
0.00000001
 40
0.0
 40
0.0
 40
0.0
 40
0.0
 40
0.2896312968534324
 40
0.5811875798131629
 40
0.7902304971769964
 40
1.0
 40
1.0
 40
1.0
 40
1.0
 10
128.8341057380619
 20
28.28232854319868
 30
0.0
 10
129.3379922966693
 20
28.5732475834517
 30
0.0
 10
130.3491144118516
 20
29.15701920883575
 30
0.0
 10
131.7350714929824
 20
29.95720190271187
 30
0.0
 10
132.9781855711314
 20
30.67491415036464
 30
0.0
 10
133.7061047447756
 20
31.09517848121642
 30
0.0
 10
134.0706957544753
 20
31.30567519881064
 30
0.0
  0
LINE
  5
14C
330
1F
100
AcDbEntity
  8
0
  6
Continuous
 62
     7
370
    25
100
AcDbLine
 10
128.6633125567
 20
28.883539562
 30
0.0
 11
128.8341057381
 21
28.2823285432
 31
0.0
  0
SPLINE
  5
14D
330
1F
100
AcDbEntity
  8
0
  6
Continuous
 62
     7
370
    25
100
AcDbSpline
210
0.0
220
0.0
230
1.0
 70
    24
 71
     3
 72
    11
 73
     7
 74
     0
 42
0.000000001
 43
0.00000001
 40
0.0
 40
0.0
 40
0.0
 40
0.0
 40
0.2896312968534335
 40
0.5811875798131653
 40
0.7902304971769979
 40
1.0
 40
1.0
 40
1.0
 40
1.0
 10
134.0706957544753
 20
49.06693823402523
 30
0.0
 10
133.5668091958679
 20
49.35785727427825
 30
0.0
 10
132.5556870806856
 20
49.94162889966231
 30
0.0
 10
131.1697299995549
 20
50.74181159353841
 30
0.0
 10
129.9266159214058
 20
51.45952384119116
 30
0.0
 10
129.1986967477616
 20
51.87978817204294
 30
0.0
 10
128.834105738062
 20
52.09028488963716
 30
0.0
  0
LINE
  5
14E
330
1F
100
AcDbEntity
  8
0
  6
Continuous
 62
     7
370
    25
100
AcDbLine
 10
134.0706957545
 20
49.066938234
 30
0.0
 11
133.6354283298
 21
48.6184214907
 31
0.0
  0
LINE
  5
14F
330
1F
100
AcDbEntity
  8
0
  6
Continuous
 62
     7
370
    25
100
AcDbLine
 10
128.8341057381
 20
52.0902848896
 30
0.0
 11
128.6633125567
 21
51.4890738708
 31
0.0
  0
LINE
  5
150
330
1F
100
AcDbEntity
  8
0
  6
Continuous
 62
     7
370
    25
100
AcDbLine
 10
122.2414889359
 20
28.883539562
 30
0.0
 11
122.0706957545
 21
28.2823285432
 31
0.0
  0
SPLINE
  5
151
330
1F
100
AcDbEntity
  8
0
  6
Continuous
 62
     7
370
    25
100
AcDbSpline
210
0.0
220
0.0
230
1.0
 70
    24
 71
     3
 72
    11
 73
     7
 74
     0
 42
0.000000001
 43
0.00000001
 40
0.0
 40
0.0
 40
0.0
 40
0.0
 40
0.2896312968534328
 40
0.5811875798131638
 40
0.7902304971769972
 40
1.0
 40
1.0
 40
1.0
 40
1.0
 10
116.834105738062
 20
31.30567519881064
 30
0.0
 10
117.3379922966694
 20
31.01475615855762
 30
0.0
 10
118.3491144118516
 20
30.43098453317356
 30
0.0
 10
119.7350714929823
 20
29.63080183929745
 30
0.0
 10
120.9781855711314
 20
28.91308959164469
 30
0.0
 10
121.7061047447756
 20
28.49282526079291
 30
0.0
 10
122.0706957544753
 20
28.28232854319869
 30
0.0
  0
LINE
  5
152
330
1F
100
AcDbEntity
  8
0
  6
Continuous
 62
     7
370
    25
100
AcDbLine
 10
117.2693731627
 20
31.7541919421
 30
0.0
 11
116.8341057381
 21
31.3056751988
 31
0.0
  0
LINE
  5
153
330
1F
100
AcDbEntity
  8
0
  6
Continuous
 62
     7
370
    25
100
AcDbLine
 10
114.0584613523
 20
37.3156543363
 30
0.0
 11
113.4524007463
 21
37.1629600608
 31
0.0
  0
SPLINE
  5
154
330
1F
100
AcDbEntity
  8
0
  6
Continuous
 62
     7
370
    25
100
AcDbSpline
210
0.0
220
0.0
230
1.0
 70
    24
 71
     3
 72
    12
 73
     8
 74
     0
 42
0.000000001
 43
0.00000001
 40
0.0
 40
0.0
 40
0.0
 40
0.0
 40
0.2129684305533259
 40
0.4081624072255345
 40
0.6039782819844952
 40
0.8016837761222428
 40
1.0
 40
1.0
 40
1.0
 40
1.0
 10
113.4524007462686
 20
43.20965337202988
 30
0.0
 10
113.4524007462686
 20
42.78220649599223
 30
0.0
 10
113.4524007462686
 20
41.96298767829581
 30
0.0
 10
113.4524007462686
 20
40.74234487190886
 30
0.0
 10
113.4524007462686
 20
39.55149754661009
 30
0.0
 10
113.4524007462686
 20
38.35564581832546
 30
0.0
 10
113.4524007462686
 20
37.56093050662773
 30
0.0
 10
113.4524007462686
 20
37.16296006080597
 30
0.0
  0
LINE
  5
155
330
1F
100
AcDbEntity
  8
0
  6
Continuous
 62
     7
370
    25
100
AcDbLine
 10
113.4524007463
 20
43.209653372
 30
0.0
 11
114.0584613523
 21
43.0569590965
 31
0.0
  0
ARC
  5
156
330
1F
100
AcDbEntity
  8
0
  6
Continuous
 62
     7
370
    25
100
AcDbCircle
 10
125.4524007463
 20
40.1863067164
 30
0.0
 40
12.375
100
AcDbArc
 50
254.1411102339
 51
285.8588897661
  0
ARC
  5
157
330
1F
100
AcDbEntity
  8
0
  6
Continuous
 62
     7
370
    25
100
AcDbCircle
 10
125.4524007463
 20
40.1863067164
 30
0.0
 40
12.37499999999999
100
AcDbArc
 50
74.1411102339
 51
105.8588897661
  0
ARC
  5
158
330
1F
100
AcDbEntity
  8
0
  6
Continuous
 62
     7
370
    25
100
AcDbCircle
 10
125.4524007463
 20
40.1863067164
 30
0.0
 40
12.375
100
AcDbArc
 50
194.1411102339
 51
225.8588897661
  0
ARC
  5
159
330
1F
100
AcDbEntity
  8
0
  6
Continuous
 62
     7
370
    25
100
AcDbCircle
 10
125.4524007463
 20
40.1863067164
 30
0.0
 40
12.37500000000002
100
AcDbArc
 50
14.1411102339
 51
45.8588897661
  0
ARC
  5
15A
330
1F
100
AcDbEntity
  8
0
  6
Continuous
 62
     7
370
    25
100
AcDbCircle
 10
125.4524007463
 20
40.1863067164
 30
0.0
 40
12.37500000000001
100
AcDbArc
 50
134.1411102339
 51
165.8588897661
  0
ARC
  5
15B
330
1F
100
AcDbEntity
  8
0
  6
Continuous
 62
     7
370
    25
100
AcDbCircle
 10
125.4524007463
 20
40.1863067164
 30
0.0
 40
12.37500000000002
100
AcDbArc
 50
314.1411102339
 51
345.8588897661
  0
SPLINE
  5
15C
330
1F
100
AcDbEntity
  8
0
  6
Continuous
 62
     7
370
    25
100
AcDbSpline
210
0.0
220
0.0
230
1.0
 70
    24
 71
     3
 72
    10
 73
     6
 74
     0
 42
0.000000001
 43
0.00000001
 40
0.0
 40
0.0
 40
0.0
 40
0.0
 40
0.249162623437082
 40
0.4987154826027844
 40
1.0
 40
1.0
 40
1.0
 40
1.0
 10
122.0706957544753
 20
28.28232854319869
 30
0.0
 10
122.3550951310752
 20
28.11813048656137
 30
0.0
 10
122.9243393074144
 20
27.78947720811731
 30
0.0
 10
124.0565593572418
 20
27.13578965756757
 30
0.0
 10
124.8935784140048
 20
26.65253647982859
 30
0.0
 10
125.4524007462686
 20
26.32990025586691
 30
0.0
  0
SPLINE
  5
15D
330
1F
100
AcDbEntity
  8
0
  6
Continuous
 62
     7
370
    25
100
AcDbSpline
210
0.0
220
0.0
230
1.0
 70
    24
 71
     3
 72
    10
 73
     6
 74
     0
 42
0.000000001
 43
0.00000001
 40
0.0
 40
0.0
 40
0.0
 40
0.0
 40
0.4987991814870253
 40
0.7492138627281385
 40
1.0
 40
1.0
 40
1.0
 40
1.0
 10
125.4524007462686
 20
26.32990025586691
 30
0.0
 10
126.008440270942
 20
26.65092982511718
 30
0.0
 10
126.8436311364686
 20
27.13312749615367
 30
0.0
 10
127.9757804431801
 20
27.78677420314639
 30
0.0
 10
128.5478559785811
 20
28.11706216750695
 30
0.0
 10
128.8341057380619
 20
28.28232854319868
 30
0.0
  0
SPLINE
  5
15E
330
1F
100
AcDbEntity
  8
0
  6
Continuous
 62
     7
370
    25
100
AcDbSpline
210
0.0
220
0.0
230
1.0
 70
    24
 71
     3
 72
    10
 73
     6
 74
     0
 42
0.000000001
 43
0.00000001
 40
0.0
 40
0.0
 40
0.0
 40
0.0
 40
0.2491626234370821
 40
0.4987154826027845
 40
1.0
 40
1.0
 40
1.0
 40
1.0
 10
128.834105738062
 20
52.09028488963716
 30
0.0
 10
128.5497063614621
 20
52.25448294627448
 30
0.0
 10
127.9804621851229
 20
52.58313622471854
 30
0.0
 10
126.8482421352955
 20
53.23682377526828
 30
0.0
 10
126.0112230785324
 20
53.72007695300727
 30
0.0
 10
125.4524007462686
 20
54.04271317696895
 30
0.0
  0
SPLINE
  5
15F
330
1F
100
AcDbEntity
  8
0
  6
Continuous
 62
     7
370
    25
100
AcDbSpline
210
0.0
220
0.0
230
1.0
 70
    24
 71
     3
 72
    10
 73
     6
 74
     0
 42
0.000000001
 43
0.00000001
 40
0.0
 40
0.0
 40
0.0
 40
0.0
 40
0.4987991814870255
 40
0.7492138627281385
 40
1.0
 40
1.0
 40
1.0
 40
1.0
 10
125.4524007462686
 20
54.04271317696895
 30
0.0
 10
124.8963612215952
 20
53.72168360771868
 30
0.0
 10
124.0611703560686
 20
53.23948593668219
 30
0.0
 10
122.9290210493571
 20
52.58583922968947
 30
0.0
 10
122.3569455139561
 20
52.25555126532891
 30
0.0
 10
122.0706957544753
 20
52.09028488963717
 30
0.0
  0
SPLINE
  5
160
330
1F
100
AcDbEntity
  8
0
  6
Continuous
 62
     7
370
    25
100
AcDbSpline
210
0.0
220
0.0
230
1.0
 70
    24
 71
     3
 72
    10
 73
     6
 74
     0
 42
0.000000001
 43
0.00000001
 40
0.0
 40
0.0
 40
0.0
 40
0.0
 40
0.4987991814870253
 40
0.7492138627281391
 40
1.0
 40
1.0
 40
1.0
 40
1.0
 10
137.4524007462686
 20
47.11450994669345
 30
0.0
 10
136.8963612215952
 20
47.43553951594372
 30
0.0
 10
136.0611703560686
 20
47.91773718698021
 30
0.0
 10
134.9290210493571
 20
48.57138389397294
 30
0.0
 10
134.3569455139561
 20
48.90167185833349
 30
0.0
 10
134.0706957544753
 20
49.06693823402523
 30
0.0
  0
SPLINE
  5
161
330
1F
100
AcDbEntity
  8
0
  6
Continuous
 62
     7
370
    25
100
AcDbSpline
210
0.0
220
0.0
230
1.0
 70
    24
 71
     3
 72
    10
 73
     6
 74
     0
 42
0.000000001
 43
0.00000001
 40
0.0
 40
0.0
 40
0.0
 40
0.0
 40
0.2491626234370822
 40
0.4987154826027846
 40
1.0
 40
1.0
 40
1.0
 40
1.0
 10
137.4524007462686
 20
43.20965337202992
 30
0.0
 10
137.4524007462686
 20
43.53804948530455
 30
0.0
 10
137.4524007462686
 20
44.19535604219266
 30
0.0
 10
137.4524007462686
 20
45.50273114329213
 30
0.0
 10
137.4524007462686
 20
46.46923749877009
 30
0.0
 10
137.4524007462686
 20
47.11450994669345
 30
0.0
  0
SPLINE
  5
162
330
1F
100
AcDbEntity
  8
0
  6
Continuous
 62
     7
370
    25
100
AcDbSpline
210
0.0
220
0.0
230
1.0
 70
    24
 71
     3
 72
    10
 73
     6
 74
     0
 42
0.000000001
 43
0.00000001
 40
0.0
 40
0.0
 40
0.0
 40
0.0
 40
0.2491664959407081
 40
0.7491932471384537
 40
1.0
 40
1.0
 40
1.0
 40
1.0
 10
116.834105738062
 20
49.06693823402523
 30
0.0
 10
116.5497261051039
 20
48.90275157638483
 30
0.0
 10
115.6946540785397
 20
48.4090755116715
 30
0.0
 10
114.5664368020755
 20
47.75769896340046
 30
0.0
 10
113.7313509619743
 20
47.27556192882164
 30
0.0
 10
113.4524007462686
 20
47.11450994669345
 30
0.0
  0
SPLINE
  5
163
330
1F
100
AcDbEntity
  8
0
  6
Continuous
 62
     7
370
    25
100
AcDbSpline
210
0.0
220
0.0
230
1.0
 70
    24
 71
     3
 72
    10
 73
     6
 74
     0
 42
0.000000001
 43
0.00000001
 40
0.0
 40
0.0
 40
0.0
 40
0.0
 40
0.4987991814870255
 40
0.749213862728139
 40
1.0
 40
1.0
 40
1.0
 40
1.0
 10
113.4524007462686
 20
47.11450994669345
 30
0.0
 10
113.4524007462686
 20
46.4724508081929
 30
0.0
 10
113.4524007462686
 20
45.50805546611993
 30
0.0
 10
113.4524007462686
 20
44.20076205213448
 30
0.0
 10
113.4524007462686
 20
43.54018612341336
 30
0.0
 10
113.4524007462686
 20
43.20965337202988
 30
0.0
  0
SPLINE
  5
164
330
1F
100
AcDbEntity
  8
0
  6
Continuous
 62
     7
370
    25
100
AcDbSpline
210
0.0
220
0.0
230
1.0
 70
    24
 71
     3
 72
    10
 73
     6
 74
     0
 42
0.000000001
 43
0.00000001
 40
0.0
 40
0.0
 40
0.0
 40
0.0
 40
0.2491626234370821
 40
0.4987154826027846
 40
1.0
 40
1.0
 40
1.0
 40
1.0
 10
134.0706957544753
 20
31.30567519881064
 30
0.0
 10
134.3550951310752
 20
31.46987325544796
 30
0.0
 10
134.9243393074144
 20
31.79852653389202
 30
0.0
 10
136.0565593572418
 20
32.45221408444175
 30
0.0
 10
136.8935784140048
 20
32.93546726218073
 30
0.0
 10
137.4524007462686
 20
33.25810348614242
 30
0.0
  0
SPLINE
  5
165
330
1F
100
AcDbEntity
  8
0
  6
Continuous
 62
     7
370
    25
100
AcDbSpline
210
0.0
220
0.0
230
1.0
 70
    24
 71
     3
 72
    10
 73
     6
 74
     0
 42
0.000000001
 43
0.00000001
 40
0.0
 40
0.0
 40
0.0
 40
0.0
 40
0.4059715743866129
 40
0.7026896990791633
 40
1.0
 40
1.0
 40
1.0
 40
1.0
 10
137.4524007462686
 20
33.25810348614242
 30
0.0
 10
137.4524007462686
 20
33.78024583560941
 30
0.0
 10
137.4524007462686
 20
34.68401366954659
 30
0.0
 10
137.4524007462686
 20
35.98852387950639
 30
0.0
 10
137.4524007462686
 20
36.77122124807403
 30
0.0
 10
137.4524007462686
 20
37.16296006080593
 30
0.0
  0
SPLINE
  5
166
330
1F
100
AcDbEntity
  8
0
  6
Continuous
 62
     7
370
    25
100
AcDbSpline
210
0.0
220
0.0
230
1.0
 70
    24
 71
     3
 72
    10
 73
     6
 74
     0
 42
0.000000001
 43
0.00000001
 40
0.0
 40
0.0
 40
0.0
 40
0.0
 40
0.4987991814870252
 40
0.7492138627281385
 40
1.0
 40
1.0
 40
1.0
 40
1.0
 10
113.4524007462686
 20
33.25810348614242
 30
0.0
 10
114.008440270942
 20
32.93707391689215
 30
0.0
 10
114.8436311364686
 20
32.45487624585567
 30
0.0
 10
115.9757804431801
 20
31.80122953886293
 30
0.0
 10
116.5478559785811
 20
31.47094157450237
 30
0.0
 10
116.834105738062
 20
31.30567519881064
 30
0.0
  0
SPLINE
  5
167
330
1F
100
AcDbEntity
  8
0
  6
Continuous
 62
     7
370
    25
100
AcDbSpline
210
0.0
220
0.0
230
1.0
 70
    24
 71
     3
 72
    10
 73
     6
 74
     0
 42
0.000000001
 43
0.00000001
 40
0.0
 40
0.0
 40
0.0
 40
0.0
 40
0.2966942842518304
 40
0.5940284356736804
 40
1.0
 40
1.0
 40
1.0
 40
1.0
 10
113.4524007462686
 20
37.16296006080597
 30
0.0
 10
113.4524007462686
 20
36.77203159455539
 30
0.0
 10
113.4524007462686
 20
35.98933156427762
 30
0.0
 10
113.4524007462686
 20
34.68480625590763
 30
0.0
 10
113.4524007462686
 20
33.78024593481079
 30
0.0
 10
113.4524007462686
 20
33.25810348614242
 30
0.0
  0
ENDSEC
  0
SECTION
  2
OBJECTS
  0
DICTIONARY
  5
C
330
0
100
AcDbDictionary
281
     1
  3
ACAD_GROUP
350
D
  3
ACAD_LAYOUT
350
1A
  3
ACAD_MLINESTYLE
350
17
  3
ACAD_PLOTSETTINGS
350
19
  3
ACAD_PLOTSTYLENAME
350
E
  3
ACAD_SCALELIST
350
47
  0
DICTIONARY
  5
D
102
{ACAD_REACTORS
330
C
102
}
330
C
100
AcDbDictionary
281
     1
  0
DICTIONARY
  5
1A
102
{ACAD_REACTORS
330
C
102
}
330
C
100
AcDbDictionary
281
     1
  3
Layout1
350
1E
  3
Layout2
350
26
  3
Model
350
22
  0
DICTIONARY
  5
17
102
{ACAD_REACTORS
330
C
102
}
330
C
100
AcDbDictionary
281
     1
  3
Standard
350
18
  0
DICTIONARY
  5
19
102
{ACAD_REACTORS
330
C
102
}
330
C
100
AcDbDictionary
281
     1
  0
ACDBDICTIONARYWDFLT
  5
E
102
{ACAD_REACTORS
330
C
102
}
330
C
100
AcDbDictionary
281
     1
  3
Normal
350
F
100
AcDbDictionaryWithDefault
340
F
  0
DICTIONARY
  5
47
102
{ACAD_REACTORS
330
C
102
}
330
C
100
AcDbDictionary
281
     1
  3
A0
350
48
  3
A1
350
49
  3
A2
350
4A
  3
A3
350
4B
  3
A4
350
4C
  3
A5
350
4D
  3
A6
350
4E
  3
A7
350
4F
  3
A8
350
50
  3
A9
350
51
  3
B0
350
52
  3
B1
350
53
  3
B2
350
54
  3
B3
350
55
  3
B4
350
56
  3
B5
350
57
  3
B6
350
58
  3
B7
350
59
  3
B8
350
5A
  3
B9
350
5B
  3
C0
350
5C
  3
C1
350
5D
  3
C2
350
5E
  3
C3
350
5F
  3
C4
350
60
  3
C5
350
61
  3
C6
350
62
  3
C7
350
63
  3
C8
350
64
  3
C9
350
65
  3
D0
350
66
  3
D1
350
67
  3
D2
350
68
  0
LAYOUT
  5
1E
102
{ACAD_REACTORS
330
1A
102
}
330
1A
100
AcDbPlotSettings
  1

  2
none_device
  4

  6

 40
0.0
 41
0.0
 42
0.0
 43
0.0
 44
0.0
 45
0.0
 46
0.0
 47
0.0
 48
0.0
 49
0.0
140
0.0
141
0.0
142
1.0
143
1.0
 70
   688
 72
     1
 73
     0
 74
     5
  7

 75
    16
147
1.0
148
0.0
149
0.0
100
AcDbLayout
  1
Layout1
 70
     1
 71
     1
 10
0.0
 20
0.0
 11
420.0
 21
297.0
 12
0.0
 22
0.0
 32
0.0
 14
1.0000000000E+20
 24
1.0000000000E+20
 34
1.0000000000E+20
 15
-1.0000000000E+20
 25
-1.0000000000E+20
 35
-1.0000000000E+20
146
0.0
 13
0.0
 23
0.0
 33
0.0
 16
1.0
 26
0.0
 36
0.0
 17
0.0
 27
1.0
 37
0.0
 76
     0
330
1B
  0
LAYOUT
  5
26
102
{ACAD_REACTORS
330
1A
102
}
330
1A
100
AcDbPlotSettings
  1

  2
none_device
  4

  6

 40
0.0
 41
0.0
 42
0.0
 43
0.0
 44
0.0
 45
0.0
 46
0.0
 47
0.0
 48
0.0
 49
0.0
140
0.0
141
0.0
142
1.0
143
1.0
 70
   688
 72
     1
 73
     0
 74
     5
  7

 75
    16
147
1.0
148
0.0
149
0.0
100
AcDbLayout
  1
Layout2
 70
     1
 71
     2
 10
0.0
 20
0.0
 11
0.0
 21
0.0
 12
0.0
 22
0.0
 32
0.0
 14
0.0
 24
0.0
 34
0.0
 15
0.0
 25
0.0
 35
0.0
146
0.0
 13
0.0
 23
0.0
 33
0.0
 16
1.0
 26
0.0
 36
0.0
 17
0.0
 27
1.0
 37
0.0
 76
     0
330
23
  0
LAYOUT
  5
22
102
{ACAD_REACTORS
330
1A
102
}
330
1A
100
AcDbPlotSettings
  1

  2
none_device
  4
Letter_(8.50_x_11.00_Inches)
  6

 40
6.35
 41
6.35
 42
6.35000508
 43
6.35000508
 44
215.9
 45
279.4
 46
0.0
 47
0.0
 48
0.0
 49
0.0
140
0.0
141
0.0
142
1.0
143
1.0
 70
  1712
 72
     1
 73
     0
 74
     0
  7

 75
     0
147
1.0
148
0.0
149
0.0
100
AcDbLayout
  1
Model
 70
     1
 71
     0
 10
0.0
 20
0.0
 11
215.9
 21
139.7
 12
0.0
 22
0.0
 32
0.0
 14
0.0
 24
0.0
 34
0.0
 15
215.9
 25
139.7
 35
0.0
146
0.0
 13
0.0
 23
0.0
 33
0.0
 16
1.0
 26
0.0
 36
0.0
 17
0.0
 27
1.0
 37
0.0
 76
     0
330
1F
331
29
  0
MLINESTYLE
  5
18
102
{ACAD_REACTORS
330
17
102
}
330
17
100
AcDbMlineStyle
  2
Standard
 70
     0
  3

 62
   256
 51
90.0
 52
90.0
 71
     2
 49
0.5
 62
   256
  6
BYLAYER
 49
-0.5
 62
   256
  6
BYLAYER
  0
ACDBPLACEHOLDER
  5
F
102
{ACAD_REACTORS
330
E
102
}
330
E
  0
SCALE
  5
48
102
{ACAD_REACTORS
330
47
102
}
330
47
100
AcDbScale
 70
     0
300
1:1
140
1.0
141
1.0
290
     1
  0
SCALE
  5
49
102
{ACAD_REACTORS
330
47
102
}
330
47
100
AcDbScale
 70
     0
300
1:2
140
1.0
141
2.0
290
     0
  0
SCALE
  5
4A
102
{ACAD_REACTORS
330
47
102
}
330
47
100
AcDbScale
 70
     0
300
1:4
140
1.0
141
4.0
290
     0
  0
SCALE
  5
4B
102
{ACAD_REACTORS
330
47
102
}
330
47
100
AcDbScale
 70
     0
300
1:5
140
1.0
141
5.0
290
     0
  0
SCALE
  5
4C
102
{ACAD_REACTORS
330
47
102
}
330
47
100
AcDbScale
 70
     0
300
1:8
140
1.0
141
8.0
290
     0
  0
SCALE
  5
4D
102
{ACAD_REACTORS
330
47
102
}
330
47
100
AcDbScale
 70
     0
300
1:10
140
1.0
141
10.0
290
     0
  0
SCALE
  5
4E
102
{ACAD_REACTORS
330
47
102
}
330
47
100
AcDbScale
 70
     0
300
1:16
140
1.0
141
16.0
290
     0
  0
SCALE
  5
4F
102
{ACAD_REACTORS
330
47
102
}
330
47
100
AcDbScale
 70
     0
300
1:20
140
1.0
141
20.0
290
     0
  0
SCALE
  5
50
102
{ACAD_REACTORS
330
47
102
}
330
47
100
AcDbScale
 70
     0
300
1:30
140
1.0
141
30.0
290
     0
  0
SCALE
  5
51
102
{ACAD_REACTORS
330
47
102
}
330
47
100
AcDbScale
 70
     0
300
1:40
140
1.0
141
40.0
290
     0
  0
SCALE
  5
52
102
{ACAD_REACTORS
330
47
102
}
330
47
100
AcDbScale
 70
     0
300
1:50
140
1.0
141
50.0
290
     0
  0
SCALE
  5
53
102
{ACAD_REACTORS
330
47
102
}
330
47
100
AcDbScale
 70
     0
300
1:100
140
1.0
141
100.0
290
     0
  0
SCALE
  5
54
102
{ACAD_REACTORS
330
47
102
}
330
47
100
AcDbScale
 70
     0
300
2:1
140
2.0
141
1.0
290
     0
  0
SCALE
  5
55
102
{ACAD_REACTORS
330
47
102
}
330
47
100
AcDbScale
 70
     0
300
4:1
140
4.0
141
1.0
290
     0
  0
SCALE
  5
56
102
{ACAD_REACTORS
330
47
102
}
330
47
100
AcDbScale
 70
     0
300
8:1
140
8.0
141
1.0
290
     0
  0
SCALE
  5
57
102
{ACAD_REACTORS
330
47
102
}
330
47
100
AcDbScale
 70
     0
300
10:1
140
10.0
141
1.0
290
     0
  0
SCALE
  5
58
102
{ACAD_REACTORS
330
47
102
}
330
47
100
AcDbScale
 70
     0
300
100:1
140
100.0
141
1.0
290
     0
  0
SCALE
  5
59
102
{ACAD_REACTORS
330
47
102
}
330
47
100
AcDbScale
 70
     0
300
1/128" = 1'-0"
140
0.0078125
141
12.0
290
     0
  0
SCALE
  5
5A
102
{ACAD_REACTORS
330
47
102
}
330
47
100
AcDbScale
 70
     0
300
1/64" = 1'-0"
140
0.015625
141
12.0
290
     0
  0
SCALE
  5
5B
102
{ACAD_REACTORS
330
47
102
}
330
47
100
AcDbScale
 70
     0
300
1/32" = 1'-0"
140
0.03125
141
12.0
290
     0
  0
SCALE
  5
5C
102
{ACAD_REACTORS
330
47
102
}
330
47
100
AcDbScale
 70
     0
300
1/16" = 1'-0"
140
0.0625
141
12.0
290
     0
  0
SCALE
  5
5D
102
{ACAD_REACTORS
330
47
102
}
330
47
100
AcDbScale
 70
     0
300
3/32" = 1'-0"
140
0.09375
141
12.0
290
     0
  0
SCALE
  5
5E
102
{ACAD_REACTORS
330
47
102
}
330
47
100
AcDbScale
 70
     0
300
1/8" = 1'-0"
140
0.125
141
12.0
290
     0
  0
SCALE
  5
5F
102
{ACAD_REACTORS
330
47
102
}
330
47
100
AcDbScale
 70
     0
300
3/16" = 1'-0"
140
0.1875
141
12.0
290
     0
  0
SCALE
  5
60
102
{ACAD_REACTORS
330
47
102
}
330
47
100
AcDbScale
 70
     0
300
1/4" = 1'-0"
140
0.25
141
12.0
290
     0
  0
SCALE
  5
61
102
{ACAD_REACTORS
330
47
102
}
330
47
100
AcDbScale
 70
     0
300
3/8" = 1'-0"
140
0.375
141
12.0
290
     0
  0
SCALE
  5
62
102
{ACAD_REACTORS
330
47
102
}
330
47
100
AcDbScale
 70
     0
300
1/2" = 1'-0"
140
0.5
141
12.0
290
     0
  0
SCALE
  5
63
102
{ACAD_REACTORS
330
47
102
}
330
47
100
AcDbScale
 70
     0
300
3/4" = 1'-0"
140
0.75
141
12.0
290
     0
  0
SCALE
  5
64
102
{ACAD_REACTORS
330
47
102
}
330
47
100
AcDbScale
 70
     0
300
1" = 1'-0"
140
1.0
141
12.0
290
     0
  0
SCALE
  5
65
102
{ACAD_REACTORS
330
47
102
}
330
47
100
AcDbScale
 70
     0
300
1-1/2" = 1'-0"
140
1.5
141
12.0
290
     0
  0
SCALE
  5
66
102
{ACAD_REACTORS
330
47
102
}
330
47
100
AcDbScale
 70
     0
300
3" = 1'-0"
140
3.0
141
12.0
290
     0
  0
SCALE
  5
67
102
{ACAD_REACTORS
330
47
102
}
330
47
100
AcDbScale
 70
     0
300
6" = 1'-0"
140
6.0
141
12.0
290
     0
  0
SCALE
  5
68
102
{ACAD_REACTORS
330
47
102
}
330
47
100
AcDbScale
 70
     0
300
1'-0" = 1'-0"
140
12.0
141
12.0
290
     0
  0
ENDSEC
  0
EOF
