  0
SECTION
  2
HEADER
  9
$ACADVER
  1
AC1015
  9
$ACADMAINTVER
 70
     6
  9
$DWGCODEPAGE
  3
DOS932
  9
$INSBASE
 10
0.0
 20
0.0
 30
0.0
  9
$EXTMIN
 10
0.0
 20
0.0
 30
0.0
  9
$EXTMAX
 10
215.9
 20
139.7
 30
0.0
  9
$LIMMIN
 10
0.0
 20
0.0
  9
$LIMMAX
 10
215.9
 20
139.7
  9
$ORTHOMODE
 70
     0
  9
$REGENMODE
 70
     1
  9
$FILLMODE
 70
     1
  9
$QTEXTMODE
 70
     0
  9
$MIRRTEXT
 70
     1
  9
$LTSCALE
 40
0.5
  9
$ATTMODE
 70
     1
  9
$TEXTSIZE
 40
1.75
  9
$TRACEWID
 40
1.0
  9
$TEXTSTYLE
  7
Standard
  9
$CLAYER
  8
0
  9
$CELTYPE
  6
ByLayer
  9
$CECOLOR
 62
   256
  9
$CELTSCALE
 40
1.0
  9
$DISPSILH
 70
     0
  9
$DIMSCALE
 40
1.0
  9
$DIMASZ
 40
1.651
  9
$DIMEXO
 40
0.5
  9
$DIMDLI
 40
3.75
  9
$DIMRND
 40
0.0
  9
$DIMDLE
 40
0.0
  9
$DIMEXE
 40
0.5
  9
$DIMTP
 40
0.0
  9
$DIMTM
 40
0.0
  9
$DIMTXT
 40
1.75
  9
$DIMCEN
 40
2.5
  9
$DIMTSZ
 40
0.0
  9
$DIMTOL
 70
     0
  9
$DIMLIM
 70
     0
  9
$DIMTIH
 70
     1
  9
$DIMTOH
 70
     1
  9
$DIMSE1
 70
     0
  9
$DIMSE2
 70
     0
  9
$DIMTAD
 70
     1
  9
$DIMZIN
 70
     1
  9
$DIMBLK
  1

  9
$DIMASO
 70
     1
  9
$DIMSHO
 70
     1
  9
$DIMPOST
  1

  9
$DIMAPOST
  1

  9
$DIMALT
 70
     0
  9
$DIMALTD
 70
     3
  9
$DIMALTF
 40
0.0393700787
  9
$DIMLFAC
 40
1.0
  9
$DIMTOFL
 70
     1
  9
$DIMTVP
 40
0.0
  9
$DIMTIX
 70
     0
  9
$DIMSOXD
 70
     0
  9
$DIMSAH
 70
     0
  9
$DIMBLK1
  1

  9
$DIMBLK2
  1

  9
$DIMSTYLE
  2
ISO-25
  9
$DIMCLRD
 70
     0
  9
$DIMCLRE
 70
     0
  9
$DIMCLRT
 70
     0
  9
$DIMTFAC
 40
1.0
  9
$DIMGAP
 40
0.762
  9
$DIMJUST
 70
     0
  9
$DIMSD1
 70
     0
  9
$DIMSD2
 70
     0
  9
$DIMTOLJ
 70
     0
  9
$DIMTZIN
 70
     1
  9
$DIMALTZ
 70
     0
  9
$DIMALTTZ
 70
     0
  9
$DIMUPT
 70
     0
  9
$DIMDEC
 70
     2
  9
$DIMTDEC
 70
     2
  9
$DIMALTU
 70
     2
  9
$DIMALTTD
 70
     3
  9
$DIMTXSTY
  7
Standard
  9
$DIMAUNIT
 70
     0
  9
$DIMADEC
 70
     2
  9
$DIMALTRND
 40
0.0
  9
$DIMAZIN
 70
     0
  9
$DIMDSEP
 70
    44
  9
$DIMATFIT
 70
     3
  9
$DIMFRAC
 70
     0
  9
$DIMLDRBLK
  1

  9
$DIMLUNIT
 70
     2
  9
$DIMLWD
 70
    -2
  9
$DIMLWE
 70
    -2
  9
$DIMTMOVE
 70
     0
  9
$LUNITS
 70
     2
  9
$LUPREC
 70
     2
  9
$SKETCHINC
 40
1.0
  9
$FILLETRAD
 40
10.0
  9
$AUNITS
 70
     0
  9
$AUPREC
 70
     2
  9
$MENU
  1
.
  9
$ELEVATION
 40
0.0
  9
$PELEVATION
 40
0.0
  9
$THICKNESS
 40
0.0
  9
$LIMCHECK
 70
     0
  9
$CHAMFERA
 40
0.0
  9
$CHAMFERB
 40
0.0
  9
$CHAMFERC
 40
0.0
  9
$CHAMFERD
 40
0.0
  9
$SKPOLY
 70
     0
  9
$TDCREATE
 40
2460054.683733229
  9
$TDUCREATE
 40
2460054.308733229
  9
$TDUPDATE
 40
2460054.683734178
  9
$TDUUPDATE
 40
2460054.308734178
  9
$TDINDWG
 40
0.0000000116
  9
$TDUSRTIMER
 40
0.0000000116
  9
$USRTIMER
 70
     1
  9
$ANGBASE
 50
0.0
  9
$ANGDIR
 70
     0
  9
$PDMODE
 70
     0
  9
$PDSIZE
 40
-1.0
  9
$PLINEWID
 40
0.0
  9
$SPLFRAME
 70
     0
  9
$SPLINETYPE
 70
     6
  9
$SPLINESEGS
 70
     8
  9
$HANDSEED
  5
177
  9
$SURFTAB1
 70
     6
  9
$SURFTAB2
 70
     6
  9
$SURFTYPE
 70
     6
  9
$SURFU
 70
     6
  9
$SURFV
 70
     6
  9
$UCSBASE
  2

  9
$UCSNAME
  2

  9
$UCSORG
 10
0.0
 20
0.0
 30
0.0
  9
$UCSXDIR
 10
1.0
 20
0.0
 30
0.0
  9
$UCSYDIR
 10
0.0
 20
1.0
 30
0.0
  9
$UCSORTHOREF
  2

  9
$UCSORTHOVIEW
 70
     0
  9
$UCSORGTOP
 10
0.0
 20
0.0
 30
0.0
  9
$UCSORGBOTTOM
 10
0.0
 20
0.0
 30
0.0
  9
$UCSORGLEFT
 10
0.0
 20
0.0
 30
0.0
  9
$UCSORGRIGHT
 10
0.0
 20
0.0
 30
0.0
  9
$UCSORGFRONT
 10
0.0
 20
0.0
 30
0.0
  9
$UCSORGBACK
 10
0.0
 20
0.0
 30
0.0
  9
$PUCSBASE
  2

  9
$PUCSNAME
  2

  9
$PUCSORG
 10
0.0
 20
0.0
 30
0.0
  9
$PUCSXDIR
 10
1.0
 20
0.0
 30
0.0
  9
$PUCSYDIR
 10
0.0
 20
1.0
 30
0.0
  9
$PUCSORTHOREF
  2

  9
$PUCSORTHOVIEW
 70
     0
  9
$PUCSORGTOP
 10
0.0
 20
0.0
 30
0.0
  9
$PUCSORGBOTTOM
 10
0.0
 20
0.0
 30
0.0
  9
$PUCSORGLEFT
 10
0.0
 20
0.0
 30
0.0
  9
$PUCSORGRIGHT
 10
0.0
 20
0.0
 30
0.0
  9
$PUCSORGFRONT
 10
0.0
 20
0.0
 30
0.0
  9
$PUCSORGBACK
 10
0.0
 20
0.0
 30
0.0
  9
$USERI1
 70
     0
  9
$USERI2
 70
     0
  9
$USERI3
 70
     0
  9
$USERI4
 70
     0
  9
$USERI5
 70
     0
  9
$USERR1
 40
0.0
  9
$USERR2
 40
0.0
  9
$USERR3
 40
0.0
  9
$USERR4
 40
0.0
  9
$USERR5
 40
0.0
  9
$WORLDVIEW
 70
     1
  9
$SHADEDGE
 70
     3
  9
$SHADEDIF
 70
    70
  9
$TILEMODE
 70
     1
  9
$MAXACTVP
 70
    64
  9
$PINSBASE
 10
0.0
 20
0.0
 30
0.0
  9
$PLIMCHECK
 70
     0
  9
$PEXTMIN
 10
1.0000000000E+20
 20
1.0000000000E+20
 30
1.0000000000E+20
  9
$PEXTMAX
 10
-1.0000000000E+20
 20
-1.0000000000E+20
 30
-1.0000000000E+20
  9
$PLIMMIN
 10
0.0
 20
0.0
  9
$PLIMMAX
 10
420.0
 20
297.0
  9
$UNITMODE
 70
     0
  9
$VISRETAIN
 70
     1
  9
$PLINEGEN
 70
     0
  9
$PSLTSCALE
 70
     1
  9
$TREEDEPTH
 70
  3020
  9
$CMLSTYLE
  2
Standard
  9
$CMLJUST
 70
     0
  9
$CMLSCALE
 40
20.0
  9
$PROXYGRAPHICS
 70
     1
  9
$MEASUREMENT
 70
     1
  9
$CELWEIGHT
370
    -1
  9
$ENDCAPS
280
     0
  9
$JOINSTYLE
280
     0
  9
$LWDISPLAY
290
     1
  9
$INSUNITS
 70
     4
  9
$HYPERLINKBASE
  1

  9
$STYLESHEET
  1

  9
$XEDIT
290
     1
  9
$CEPSNTYPE
380
     0
  9
$PSTYLEMODE
290
     1
  9
$FINGERPRINTGUID
  2
{40ECAEFC-BE43-4509-86F5-07380CC395C6}
  9
$VERSIONGUID
  2
{FAEB1C32-E019-11D5-929B-00C0DF256EC4}
  9
$EXTNAMES
290
     1
  9
$PSVPSCALE
 40
0.0
  9
$OLESTARTUP
290
     0
  0
ENDSEC
  0
SECTION
  2
CLASSES
  0
CLASS
  1
ACDBDICTIONARYWDFLT
  2
AcDbDictionaryWithDefault
  3
ObjectDBX Classes
 90
        0
280
     0
281
     0
  0
CLASS
  1
VISUALSTYLE
  2
AcDbVisualStyle
  3
ObjectDBX Classes
 90
     4095
280
     0
281
     0
  0
CLASS
  1
MATERIAL
  2
AcDbMaterial
  3
ObjectDBX Classes
 90
     1153
280
     0
281
     0
  0
CLASS
  1
SCALE
  2
AcDbScale
  3
ObjectDBX Classes
 90
     1153
280
     0
281
     0
  0
CLASS
  1
TABLESTYLE
  2
AcDbTableStyle
  3
ObjectDBX Classes
 90
     4095
280
     0
281
     0
  0
CLASS
  1
MLEADERSTYLE
  2
AcDbMLeaderStyle
  3
ACDB_MLEADERSTYLE_CLASS
 90
     4095
280
     0
281
     0
  0
CLASS
  1
SUN
  2
AcDbSun
  3
SCENEOE
 90
     1153
280
     0
281
     0
  0
CLASS
  1
ACDBPLACEHOLDER
  2
AcDbPlaceHolder
  3
ObjectDBX Classes
 90
        0
280
     0
281
     0
  0
CLASS
  1
LAYOUT
  2
AcDbLayout
  3
ObjectDBX Classes
 90
        0
280
     0
281
     0
  0
ENDSEC
  0
SECTION
  2
TABLES
  0
TABLE
  2
VPORT
  5
8
330
0
100
AcDbSymbolTable
 70
     1
  0
VPORT
  5
29
330
8
100
AcDbSymbolTableRecord
100
AcDbViewportTableRecord
  2
*Active
 70
     0
 10
0.0
 20
0.0
 11
1.0
 21
1.0
 12
107.95
 22
69.85
 13
0.0
 23
0.0
 14
10.0
 24
10.0
 15
10.0
 25
10.0
 16
0.0
 26
0.0
 36
1.0
 17
0.0
 27
0.0
 37
0.0
 40
139.7
 41
1.5454545455
 42
50.0
 43
0.0
 44
0.0
 50
0.0
 51
0.0
 71
     0
 72
  2000
 73
     1
 74
     3
 75
     0
 76
     0
 77
     0
 78
     0
281
     0
 65
     1
110
0.0
120
0.0
130
0.0
111
1.0
121
0.0
131
0.0
112
0.0
122
1.0
132
0.0
 79
     0
146
0.0
  0
ENDTAB
  0
TABLE
  2
LTYPE
  5
5
330
0
100
AcDbSymbolTable
 70
     6
  0
LTYPE
  5
14
330
5
100
AcDbSymbolTableRecord
100
AcDbLinetypeTableRecord
  2
ByBlock
 70
     0
  3

 72
    65
 73
     0
 40
0.0
  0
LTYPE
  5
15
330
5
100
AcDbSymbolTableRecord
100
AcDbLinetypeTableRecord
  2
ByLayer
 70
     0
  3

 72
    65
 73
     0
 40
0.0
  0
LTYPE
  5
16
330
5
100
AcDbSymbolTableRecord
100
AcDbLinetypeTableRecord
  2
Continuous
 70
     0
  3
Solid line
 72
    65
 73
     0
 40
0.0
  0
LTYPE
  5
6E
330
5
100
AcDbSymbolTableRecord
100
AcDbLinetypeTableRecord
  2
HIDDEN
 70
     0
  3
Hidden __ __ __ __ __ __ __ __ __ __ __ __ __ __
 72
    65
 73
     2
 40
1.905
 49
1.27
 74
     0
 49
-0.635
 74
     0
  0
LTYPE
  5
6F
330
5
100
AcDbSymbolTableRecord
100
AcDbLinetypeTableRecord
  2
PHANTOM
 70
     0
  3
Phantom ______  __  __  ______  __  __  ______
 72
    65
 73
     6
 40
12.7
 49
6.35
 74
     0
 49
-1.27
 74
     0
 49
1.27
 74
     0
 49
-1.27
 74
     0
 49
1.27
 74
     0
 49
-1.27
 74
     0
  0
LTYPE
  5
70
330
5
100
AcDbSymbolTableRecord
100
AcDbLinetypeTableRecord
  2
CENTER
 70
     0
  3
Center ____ _ ____ _ ____ _ ____ _ ____ _ ____
 72
    65
 73
     4
 40
10.16
 49
6.35
 74
     0
 49
-1.27
 74
     0
 49
1.27
 74
     0
 49
-1.27
 74
     0
  0
LTYPE
  5
71
330
5
100
AcDbSymbolTableRecord
100
AcDbLinetypeTableRecord
  2
CENTERX2
 70
     0
  3
Center (2x) ________  __  ________  __  _____
 72
    65
 73
     4
 40
20.32
 49
12.7
 74
     0
 49
-2.54
 74
     0
 49
2.54
 74
     0
 49
-2.54
 74
     0
  0
LTYPE
  5
72
330
5
100
AcDbSymbolTableRecord
100
AcDbLinetypeTableRecord
  2
DOT2
 70
     0
  3
Dot (.5x) ........................................
 72
    65
 73
     2
 40
0.635
 49
0.0
 74
     0
 49
-0.635
 74
     0
  0
ENDTAB
  0
TABLE
  2
LAYER
  5
2
330
0
100
AcDbSymbolTable
 70
     1
  0
LAYER
  5
10
330
2
100
AcDbSymbolTableRecord
100
AcDbLayerTableRecord
  2
0
 70
     0
 62
     7
  6
Continuous
370
    -3
390
F
  0
ENDTAB
  0
TABLE
  2
STYLE
  5
3
330
0
100
AcDbSymbolTable
 70
     2
  0
STYLE
  5
11
330
3
100
AcDbSymbolTableRecord
100
AcDbTextStyleTableRecord
  2
Standard
 70
     0
 40
0.0
 41
1.0
 50
0.0
 71
     0
 42
1.75
  3
txt
  4
bigfont
  0
STYLE
  5
73
330
3
100
AcDbSymbolTableRecord
100
AcDbTextStyleTableRecord
  2
SLDTEXTSTYLE0
 70
     0
 40
0.0
 41
0.7
 50
0.0
 71
     0
 42
1.75
  3
TXT
  4
bigfont
  0
ENDTAB
  0
TABLE
  2
VIEW
  5
6
330
0
100
AcDbSymbolTable
 70
     0
  0
ENDTAB
  0
TABLE
  2
UCS
  5
7
330
0
100
AcDbSymbolTable
 70
     0
  0
ENDTAB
  0
TABLE
  2
APPID
  5
9
330
0
100
AcDbSymbolTable
 70
     1
  0
APPID
  5
12
330
9
100
AcDbSymbolTableRecord
100
AcDbRegAppTableRecord
  2
ACAD
 70
     0
  0
ENDTAB
  0
TABLE
  2
DIMSTYLE
  5
A
330
0
100
AcDbSymbolTable
 70
     1
100
AcDbDimStyleTable
  0
DIMSTYLE
105
27
330
A
100
AcDbSymbolTableRecord
100
AcDbDimStyleTableRecord
  2
ISO-25
 70
     0
 41
2.5
 42
0.625
 43
3.75
 44
1.25
 73
     0
 74
     0
 77
     1
 78
     8
140
2.5
141
2.5
143
0.0393700787
147
0.625
171
     3
172
     1
178
     0
271
     2
272
     2
274
     3
278
    44
283
     0
284
     8
340
11
  0
ENDTAB
  0
TABLE
  2
BLOCK_RECORD
  5
1
330
0
100
AcDbSymbolTable
 70
     1
  0
BLOCK_RECORD
  5
1F
330
1
100
AcDbSymbolTableRecord
100
AcDbBlockTableRecord
  2
*Model_Space
340
22
  0
BLOCK_RECORD
  5
1B
330
1
100
AcDbSymbolTableRecord
100
AcDbBlockTableRecord
  2
*Paper_Space
340
1E
  0
BLOCK_RECORD
  5
23
330
1
100
AcDbSymbolTableRecord
100
AcDbBlockTableRecord
  2
*Paper_Space0
340
26
  0
ENDTAB
  0
ENDSEC
  0
SECTION
  2
BLOCKS
  0
BLOCK
  5
20
330
1F
100
AcDbEntity
  8
0
100
AcDbBlockBegin
  2
*Model_Space
 70
     0
 10
0.0
 20
0.0
 30
0.0
  3
*Model_Space
  1

  0
ENDBLK
  5
21
330
1F
100
AcDbEntity
  8
0
100
AcDbBlockEnd
  0
BLOCK
  5
1C
330
1B
100
AcDbEntity
 67
     1
  8
0
100
AcDbBlockBegin
  2
*Paper_Space
 70
     0
 10
0.0
 20
0.0
 30
0.0
  3
*Paper_Space
  1

  0
ENDBLK
  5
1D
330
1B
100
AcDbEntity
 67
     1
  8
0
100
AcDbBlockEnd
  0
BLOCK
  5
24
330
23
100
AcDbEntity
  8
0
100
AcDbBlockBegin
  2
*Paper_Space0
 70
     0
 10
0.0
 20
0.0
 30
0.0
  3
*Paper_Space0
  1

  0
ENDBLK
  5
25
330
23
100
AcDbEntity
  8
0
100
AcDbBlockEnd
  0
ENDSEC
  0
SECTION
  2
ENTITIES
  0
MTEXT
  5
74
330
1F
100
AcDbEntity
  8
0
  6
Continuous
 62
     7
370
     0
100
AcDbMText
 10
92.3515443787
 20
50.4245219634
 30
0.0
 40
2.6458333333
 41
0.0
 71
     1
 72
     1
  1
5R-RS1308
  7
SLDTEXTSTYLE0
 73
     1
 44
1.0
  0
LINE
  5
75
330
1F
100
AcDbEntity
  8
0
  6
Continuous
 62
     7
370
    25
100
AcDbLine
 10
71.1304382996
 20
40.4580255821
 30
0.0
 11
70.2269113538
 21
38.8930710059
 31
0.0
  0
LINE
  5
76
330
1F
100
AcDbEntity
  8
0
  6
Continuous
 62
     7
370
    25
100
AcDbLine
 10
70.2269113538
 20
22.3930710059
 30
0.0
 11
71.1304382996
 21
20.8281164297
 31
0.0
  0
LINE
  5
77
330
1F
100
AcDbEntity
  8
0
  6
Continuous
 62
     7
370
    25
100
AcDbLine
 10
83.0269113538
 20
38.8930710059
 30
0.0
 11
82.1599240557
 21
38.8930710059
 31
0.0
  0
LINE
  5
78
330
1F
100
AcDbEntity
  8
0
  6
Continuous
 62
     7
370
    25
100
AcDbLine
 10
82.1599240557
 20
22.3930710059
 30
0.0
 11
83.0269113538
 21
22.3930710059
 31
0.0
  0
LINE
  5
79
330
1F
100
AcDbEntity
  8
0
  6
Continuous
 62
     7
370
    25
100
AcDbLine
 10
83.0269113538
 20
22.3930710059
 30
0.0
 11
83.2269113538
 21
22.5930710059
 31
0.0
  0
LINE
  5
7A
330
1F
100
AcDbEntity
  8
0
  6
Continuous
 62
     7
370
    25
100
AcDbLine
 10
83.2269113538
 20
38.6930710059
 30
0.0
 11
83.0269113538
 21
38.8930710059
 31
0.0
  0
ARC
  5
7B
330
1F
100
AcDbEntity
  8
0
  6
Continuous
 62
     7
370
    25
100
AcDbCircle
 10
82.1599240557
 20
39.6430710059
 30
0.0
 40
0.75
100
AcDbArc
 50
210.0
 51
270.0
  0
ARC
  5
7C
330
1F
100
AcDbEntity
  8
0
  6
Continuous
 62
     7
370
    25
100
AcDbCircle
 10
82.1599240557
 20
21.6430710059
 30
0.0
 40
0.75
100
AcDbArc
 50
90.0
 51
150.0
  0
LINE
  5
7D
330
1F
100
AcDbEntity
  8
0
  6
Continuous
 62
     7
370
    25
100
AcDbLine
 10
81.5104050028
 20
39.2680710059
 30
0.0
 11
80.8233844079
 21
40.4580255821
 31
0.0
  0
LINE
  5
7E
330
1F
100
AcDbEntity
  8
0
  6
Continuous
 62
     7
370
    25
100
AcDbLine
 10
80.8233844079
 20
20.8281164297
 30
0.0
 11
81.5104050028
 21
22.0180710059
 31
0.0
  0
LINE
  5
7F
330
1F
100
AcDbEntity
  8
0
  6
Continuous
 62
     7
370
    25
100
AcDbLine
 10
57.4785774036
 20
39.1818835059
 30
0.0
 11
46.5524868373
 21
38.8404431757
 31
0.0
  0
LINE
  5
80
330
1F
100
AcDbEntity
  8
0
  6
Continuous
 62
     7
370
    25
100
AcDbLine
 10
46.5524868373
 20
22.4456988361
 30
0.0
 11
57.4785774036
 21
22.1042585059
 31
0.0
  0
LINE
  5
81
330
1F
100
AcDbEntity
  8
0
  6
Continuous
 62
     7
370
    25
100
AcDbLine
 10
64.7785774036
 20
38.8930710059
 30
0.0
 11
63.9115901055
 21
38.8930710059
 31
0.0
  0
LINE
  5
82
330
1F
100
AcDbEntity
  8
0
  6
Continuous
 62
     7
370
    25
100
AcDbLine
 10
63.9115901055
 20
22.3930710059
 30
0.0
 11
64.7785774036
 21
22.3930710059
 31
0.0
  0
LINE
  5
83
330
1F
100
AcDbEntity
  8
0
  6
Continuous
 62
     7
370
    25
100
AcDbLine
 10
64.7785774036
 20
22.3930710059
 30
0.0
 11
64.9785774036
 21
22.5930710059
 31
0.0
  0
LINE
  5
84
330
1F
100
AcDbEntity
  8
0
  6
Continuous
 62
     7
370
    25
100
AcDbLine
 10
64.9785774036
 20
38.6930710059
 30
0.0
 11
64.7785774036
 21
38.8930710059
 31
0.0
  0
LINE
  5
85
330
1F
100
AcDbEntity
  8
0
  6
Continuous
 62
     7
370
    25
100
AcDbLine
 10
46.5524868373
 20
38.8404431757
 30
0.0
 11
44.4785774036
 21
37.6430710059
 31
0.0
  0
LINE
  5
86
330
1F
100
AcDbEntity
  8
0
  6
Continuous
 62
     7
370
    25
100
AcDbLine
 10
44.4785774036
 20
23.6430710059
 30
0.0
 11
46.5524868373
 21
22.4456988361
 31
0.0
  0
LINE
  5
87
330
1F
100
AcDbEntity
  8
0
  6
Continuous
 62
     7
370
    25
100
AcDbLine
 10
67.9785774036
 20
24.0645710059
 30
0.0
 11
70.2269113538
 21
24.0645710059
 31
0.0
  0
LINE
  5
88
330
1F
100
AcDbEntity
  8
0
  6
Continuous
 62
     7
370
    25
100
AcDbLine
 10
70.2269113538
 20
37.2215710059
 30
0.0
 11
67.9785774036
 21
37.2215710059
 31
0.0
  0
LINE
  5
89
330
1F
100
AcDbEntity
  8
0
  6
Continuous
 62
     7
370
    25
100
AcDbLine
 10
67.9785774036
 20
37.2215710059
 30
0.0
 11
66.9785774036
 21
36.2215710059
 31
0.0
  0
LINE
  5
8A
330
1F
100
AcDbEntity
  8
0
  6
Continuous
 62
     7
370
    25
100
AcDbLine
 10
66.9785774036
 20
25.0645710059
 30
0.0
 11
67.9785774036
 21
24.0645710059
 31
0.0
  0
LINE
  5
8B
330
1F
100
AcDbEntity
  8
0
  6
Continuous
 62
     7
370
    25
100
AcDbLine
 10
64.9785774036
 20
25.1430710059
 30
0.0
 11
66.9785774036
 21
25.1430710059
 31
0.0
  0
LINE
  5
8C
330
1F
100
AcDbEntity
  8
0
  6
Continuous
 62
     7
370
    25
100
AcDbLine
 10
66.9785774036
 20
36.1430710059
 30
0.0
 11
64.9785774036
 21
36.1430710059
 31
0.0
  0
ARC
  5
8D
330
1F
100
AcDbEntity
  8
0
  6
Continuous
 62
     7
370
    25
100
AcDbCircle
 10
63.9115901055
 20
21.6430710059
 30
0.0
 40
0.75
100
AcDbArc
 50
90.0
 51
150.0
  0
LINE
  5
8E
330
1F
100
AcDbEntity
  8
0
  6
Continuous
 62
     7
370
    25
100
AcDbLine
 10
62.5750504578
 20
20.8281164297
 30
0.0
 11
63.2620710527
 21
22.0180710059
 31
0.0
  0
LINE
  5
8F
330
1F
100
AcDbEntity
  8
0
  6
Continuous
 62
     7
370
    25
100
AcDbLine
 10
63.2620710527
 20
39.2680710059
 30
0.0
 11
62.5750504578
 21
40.4580255821
 31
0.0
  0
ARC
  5
90
330
1F
100
AcDbEntity
  8
0
  6
Continuous
 62
     7
370
    25
100
AcDbCircle
 10
63.9115901055
 20
39.6430710059
 30
0.0
 40
0.75
100
AcDbArc
 50
210.0
 51
270.0
  0
SPLINE
  5
91
330
1F
100
AcDbEntity
  8
0
  6
Continuous
 62
     7
370
    25
100
AcDbSpline
210
0.0
220
0.0
230
1.0
 70
     8
 71
     3
 72
    16
 73
    12
 74
     0
 42
0.000000001
 43
0.00000001
 40
0.0
 40
0.0
 40
0.0
 40
0.0
 40
0.1120102749541304
 40
0.2377440458013614
 40
0.3634452870972627
 40
0.4922378783757058
 40
0.6210287926568644
 40
0.7152556882666299
 40
0.8094925111982041
 40
0.9047415002555058
 40
1.0
 40
1.0
 40
1.0
 40
1.0
 10
71.13043829963071
 20
20.82811642969357
 30
0.0
 10
71.03176160717491
 20
21.00749194521915
 30
0.0
 10
70.82231835654146
 20
21.38822005963743
 30
0.0
 10
70.58216080307898
 20
21.9802467339532
 30
0.0
 10
70.41479133279663
 20
22.60664334210433
 30
0.0
 10
70.35361419776913
 20
23.24319962112563
 30
0.0
 10
70.39771518556026
 20
23.82773258735084
 30
0.0
 10
70.5154372971759
 20
24.35156900469942
 30
0.0
 10
70.67354750035325
 20
24.81621106391142
 30
0.0
 10
70.8769664012923
 20
25.27822873212006
 30
0.0
 10
71.04594485488617
 20
25.58313364866389
 30
0.0
 10
71.13043829963071
 20
25.73559371780534
 30
0.0
  0
SPLINE
  5
92
330
1F
100
AcDbEntity
  8
0
  6
Continuous
 62
     7
370
    25
100
AcDbSpline
210
0.0
220
0.0
230
1.0
 70
     8
 71
     3
 72
    15
 73
    11
 74
     0
 42
0.000000001
 43
0.00000001
 40
0.0
 40
0.0
 40
0.0
 40
0.0
 40
0.1323052378296957
 40
0.2645730682660306
 40
0.3997997819746812
 40
0.5350020935366634
 40
0.6501929590834554
 40
0.7654017933211805
 40
0.8826895567076665
 40
1.0
 40
1.0
 40
1.0
 40
1.0
 10
71.13043829963071
 20
35.55054829402889
 30
0.0
 10
71.01486832779072
 20
35.76257083768539
 30
0.0
 10
70.78376105984955
 20
36.18655597868921
 30
0.0
 10
70.5350984282732
 20
36.83945556434436
 30
0.0
 10
70.38558448111968
 20
37.50466241656725
 30
0.0
 10
70.35597419407131
 20
38.14577306286461
 30
0.0
 10
70.43279559672195
 20
38.75224782772795
 30
0.0
 10
70.59020506784297
 20
39.32461078748036
 30
0.0
 10
70.82110742837395
 20
39.8943859277346
 30
0.0
 10
71.02732136393134
 20
40.27013358880406
 30
0.0
 10
71.13043829963071
 20
40.45802558214084
 30
0.0
  0
SPLINE
  5
93
330
1F
100
AcDbEntity
  8
0
  6
Continuous
 62
     7
370
    25
100
AcDbSpline
210
0.0
220
0.0
230
1.0
 70
     8
 71
     3
 72
    15
 73
    11
 74
     0
 42
0.000000001
 43
0.00000001
 40
0.0
 40
0.0
 40
0.0
 40
0.0
 40
0.1323052378296973
 40
0.2645730682660339
 40
0.3997997819746865
 40
0.5350020935366704
 40
0.6501929590834609
 40
0.7654017933211844
 40
0.8826895567076685
 40
1.0
 40
1.0
 40
1.0
 40
1.0
 10
71.13043829963071
 20
25.73559371780534
 30
0.0
 10
71.01486832779072
 20
26.15963880511833
 30
0.0
 10
70.78376105984957
 20
27.00760908712595
 30
0.0
 10
70.53509842827322
 20
28.31340825843623
 30
0.0
 10
70.38558448111971
 20
29.64382196288195
 30
0.0
 10
70.35597419407134
 20
30.92604325547662
 30
0.0
 10
70.43279559672197
 20
32.13899278520328
 30
0.0
 10
70.590205067843
 20
33.28371870470801
 30
0.0
 10
70.82110742837396
 20
34.42326898521645
 30
0.0
 10
71.02732136393134
 20
35.17476430735535
 30
0.0
 10
71.13043829963071
 20
35.55054829402889
 30
0.0
  0
LINE
  5
94
330
1F
100
AcDbEntity
  8
0
  6
Continuous
 62
     7
370
    25
100
AcDbLine
 10
70.2269113538
 20
23.4983614247
 30
0.0
 11
70.2269113538
 21
38.8930710059
 31
0.0
  0
LINE
  5
95
330
1F
100
AcDbEntity
  8
0
  6
Continuous
 62
     7
370
    25
100
AcDbLine
 10
70.2269113538
 20
22.3930710059
 30
0.0
 11
70.2269113538
 21
23.4983614247
 31
0.0
  0
SPLINE
  5
96
330
1F
100
AcDbEntity
  8
0
  6
Continuous
 62
     7
370
    25
100
AcDbSpline
210
0.0
220
0.0
230
1.0
 70
     8
 71
     3
 72
    10
 73
     6
 74
     0
 42
0.000000001
 43
0.00000001
 40
0.0
 40
0.0
 40
0.0
 40
0.0
 40
0.3089808900030073
 40
0.6190948628358685
 40
1.0
 40
1.0
 40
1.0
 40
1.0
 10
81.51040500283236
 20
32.10615849475687
 30
0.0
 10
81.53455200936905
 20
31.80526257002117
 30
0.0
 10
81.58293457341561
 20
31.20236728659342
 30
0.0
 10
81.59038966613225
 20
30.22434480940144
 30
0.0
 10
81.5388273183327
 20
29.55109423908515
 30
0.0
 10
81.51040500283236
 20
29.17998351707736
 30
0.0
  0
SPLINE
  5
97
330
1F
100
AcDbEntity
  8
0
  6
Continuous
 62
     7
370
    25
100
AcDbSpline
210
0.0
220
0.0
230
1.0
 70
     8
 71
     3
 72
    11
 73
     7
 74
     0
 42
0.000000001
 43
0.00000001
 40
0.0
 40
0.0
 40
0.0
 40
0.0
 40
0.24886177302368
 40
0.4977454583558499
 40
0.7488627517928869
 40
0.9999999999999999
 40
0.9999999999999999
 40
0.9999999999999999
 40
0.9999999999999999
 10
81.51040500283236
 20
29.17998351707736
 30
0.0
 10
81.47725094761601
 20
28.89005875647137
 30
0.0
 10
81.41093991796487
 20
28.31018370734999
 30
0.0
 10
81.25289791187994
 20
27.44610453236105
 30
0.0
 10
81.0600457324332
 20
26.58662839040715
 30
0.0
 10
80.90227360554472
 20
26.01927945567123
 30
0.0
 10
80.8233844079262
 20
25.73559371780534
 30
0.0
  0
LINE
  5
98
330
1F
100
AcDbEntity
  8
0
  6
Continuous
 62
     7
370
    25
100
AcDbLine
 10
71.1304382996
 20
25.7355937178
 30
0.0
 11
80.8233844079
 21
25.7355937178
 31
0.0
  0
LINE
  5
99
330
1F
100
AcDbEntity
  8
0
  6
Continuous
 62
     7
370
    25
100
AcDbLine
 10
71.1304382996
 20
35.550548294
 30
0.0
 11
80.8233844079
 21
35.550548294
 31
0.0
  0
SPLINE
  5
9A
330
1F
100
AcDbEntity
  8
0
  6
Continuous
 62
     7
370
    25
100
AcDbSpline
210
0.0
220
0.0
230
1.0
 70
     8
 71
     3
 72
    11
 73
     7
 74
     0
 42
0.000000001
 43
0.00000001
 40
0.0
 40
0.0
 40
0.0
 40
0.0
 40
0.2490252138763563
 40
0.4980311639765295
 40
0.7490269204800201
 40
0.9999999999999999
 40
0.9999999999999999
 40
0.9999999999999999
 40
0.9999999999999999
 10
80.8233844079262
 20
35.55054829402889
 30
0.0
 10
80.90163328075164
 20
35.26925543276011
 30
0.0
 10
81.05812497332562
 20
34.70669147011843
 30
0.0
 10
81.25090786169201
 20
33.84974715699236
 30
0.0
 10
81.40997374692684
 20
32.98332712105029
 30
0.0
 10
81.47692892578797
 20
32.39853923071347
 30
0.0
 10
81.51040500283236
 20
32.10615849475687
 30
0.0
  0
SPLINE
  5
9B
330
1F
100
AcDbEntity
  8
0
  6
Continuous
 62
     7
370
    25
100
AcDbSpline
210
0.0
220
0.0
230
1.0
 70
     8
 71
     3
 72
    11
 73
     7
 74
     0
 42
0.000000001
 43
0.00000001
 40
0.0
 40
0.0
 40
0.0
 40
0.0
 40
0.2858113857234065
 40
0.552724554521376
 40
0.8220275582229315
 40
1.0
 40
1.0
 40
1.0
 40
1.0
 10
82.15992405567069
 20
24.30164543502802
 30
0.0
 10
82.15598375424817
 20
24.1359531489591
 30
0.0
 10
82.14836368920797
 20
23.81552436417408
 30
0.0
 10
82.136902599557
 20
23.41546196941007
 30
0.0
 10
82.15433998879865
 20
23.11467783210328
 30
0.0
 10
82.15833459005789
 20
22.96265918820681
 30
0.0
 10
82.15992405567069
 20
22.90217044570286
 30
0.0
  0
LINE
  5
9C
330
1F
100
AcDbEntity
  8
0
  6
Continuous
 62
     7
370
    25
100
AcDbLine
 10
82.1599240557
 20
29.2435960166
 30
0.0
 11
82.1599240557
 21
24.301645435
 31
0.0
  0
SPLINE
  5
9D
330
1F
100
AcDbEntity
  8
0
  6
Continuous
 62
     7
370
    25
100
AcDbSpline
210
0.0
220
0.0
230
1.0
 70
     8
 71
     3
 72
    11
 73
     7
 74
     0
 42
0.000000001
 43
0.00000001
 40
0.0
 40
0.0
 40
0.0
 40
0.0
 40
0.2858113857233212
 40
0.5527245545214223
 40
0.8220275582231132
 40
1.0
 40
1.0
 40
1.0
 40
1.0
 10
82.15992405567069
 20
32.04254599524209
 30
0.0
 10
82.15598375424817
 20
31.77718361659243
 30
0.0
 10
82.14836368920797
 20
31.264004961534
 30
0.0
 10
82.13690259955705
 20
30.49220572595927
 30
0.0
 10
82.15433998879865
 20
29.82299189859484
 30
0.0
 10
82.1583345900579
 20
29.40851700549484
 30
0.0
 10
82.15992405567069
 20
29.24359601659214
 30
0.0
  0
LINE
  5
9E
330
1F
100
AcDbEntity
  8
0
  6
Continuous
 62
     7
370
    25
100
AcDbLine
 10
82.1599240557
 20
36.9844965768
 30
0.0
 11
82.1599240557
 21
32.0425459952
 31
0.0
  0
SPLINE
  5
9F
330
1F
100
AcDbEntity
  8
0
  6
Continuous
 62
     7
370
    25
100
AcDbSpline
210
0.0
220
0.0
230
1.0
 70
     8
 71
     3
 72
    11
 73
     7
 74
     0
 42
0.000000001
 43
0.00000001
 40
0.0
 40
0.0
 40
0.0
 40
0.0
 40
0.2858113857233873
 40
0.5527245545213869
 40
0.822027558222975
 40
1.0
 40
1.0
 40
1.0
 40
1.0
 10
82.15992405567069
 20
38.38397156613149
 30
0.0
 10
82.15598375424815
 20
38.28430147355063
 30
0.0
 10
82.14836368920795
 20
38.09155160327718
 30
0.0
 10
82.13690259955703
 20
37.71981476246651
 30
0.0
 10
82.15433998879865
 20
37.35138507240883
 30
0.0
 10
82.15833459005789
 20
37.08892882320521
 30
0.0
 10
82.15992405567069
 20
36.98449657680628
 30
0.0
  0
LINE
  5
A0
330
1F
100
AcDbEntity
  8
0
  6
Continuous
 62
     7
370
    25
100
AcDbLine
 10
83.0269113538
 20
23.4983614247
 30
0.0
 11
83.0269113538
 21
38.8930710059
 31
0.0
  0
LINE
  5
A1
330
1F
100
AcDbEntity
  8
0
  6
Continuous
 62
     7
370
    25
100
AcDbLine
 10
83.0269113538
 20
22.3930710059
 30
0.0
 11
83.0269113538
 21
23.4983614247
 31
0.0
  0
LINE
  5
A2
330
1F
100
AcDbEntity
  8
0
  6
Continuous
 62
     7
370
    25
100
AcDbLine
 10
83.2269113538
 20
23.6715665055
 30
0.0
 11
83.2269113538
 21
22.5930710059
 31
0.0
  0
LINE
  5
A3
330
1F
100
AcDbEntity
  8
0
  6
Continuous
 62
     7
370
    25
100
AcDbLine
 10
83.2269113538
 20
38.6930710059
 30
0.0
 11
83.2269113538
 21
23.6715665055
 31
0.0
  0
SPLINE
  5
A4
330
1F
100
AcDbEntity
  8
0
  6
Continuous
 62
     7
370
    25
100
AcDbSpline
210
0.0
220
0.0
230
1.0
 70
     8
 71
     3
 72
    11
 73
     7
 74
     0
 42
0.000000001
 43
0.00000001
 40
0.0
 40
0.0
 40
0.0
 40
0.0
 40
0.2488617730236807
 40
0.4977454583558505
 40
0.748862751792887
 40
1.0
 40
1.0
 40
1.0
 40
1.0
 10
81.51040500283236
 20
37.27274319366488
 30
0.0
 10
81.47725094761601
 20
37.12778081336188
 30
0.0
 10
81.41093991796485
 20
36.8378432888012
 30
0.0
 10
81.25289791187994
 20
36.40580370130674
 30
0.0
 10
81.0600457324332
 20
35.97606563032979
 30
0.0
 10
80.9022736055447
 20
35.69239116296183
 30
0.0
 10
80.8233844079262
 20
35.55054829402889
 30
0.0
  0
LINE
  5
A5
330
1F
100
AcDbEntity
  8
0
  6
Continuous
 62
     7
370
    25
100
AcDbLine
 10
81.5104050028
 20
32.1061584948
 30
0.0
 11
81.5104050028
 21
37.2727431937
 31
0.0
  0
LINE
  5
A6
330
1F
100
AcDbEntity
  8
0
  6
Continuous
 62
     7
370
    25
100
AcDbLine
 10
81.5104050028
 20
24.0133988182
 30
0.0
 11
81.5104050028
 21
29.1799835171
 31
0.0
  0
SPLINE
  5
A7
330
1F
100
AcDbEntity
  8
0
  6
Continuous
 62
     7
370
    25
100
AcDbSpline
210
0.0
220
0.0
230
1.0
 70
     8
 71
     3
 72
    11
 73
     7
 74
     0
 42
0.000000001
 43
0.00000001
 40
0.0
 40
0.0
 40
0.0
 40
0.0
 40
0.2490252138763565
 40
0.4980311639765296
 40
0.7490269204800198
 40
1.0
 40
1.0
 40
1.0
 40
1.0
 10
80.8233844079262
 20
25.73559371780534
 30
0.0
 10
80.90163328075164
 20
25.59494728717096
 30
0.0
 10
81.05812497332562
 20
25.31366530585014
 30
0.0
 10
81.25090786169201
 20
24.88519314928714
 30
0.0
 10
81.40997374692682
 20
24.45198313131612
 30
0.0
 10
81.47692892578797
 20
24.15958918614772
 30
0.0
 10
81.51040500283236
 20
24.01339881816942
 30
0.0
  0
ARC
  5
A8
330
1F
100
AcDbEntity
  8
0
  6
Continuous
 62
     7
370
    25
100
AcDbCircle
 10
82.0912007914
 20
26.5975169158
 30
0.0
 40
2.646971381583122
100
AcDbArc
 50
88.5122636654
 51
102.674909816
  0
ARC
  5
A9
330
1F
100
AcDbEntity
  8
0
  6
Continuous
 62
     7
370
    25
100
AcDbCircle
 10
82.1309717561
 20
23.4909664116
 30
0.0
 40
0.8111958547050392
100
AcDbArc
 50
87.9546284054
 51
139.9072030665
  0
ARC
  5
AA
330
1F
100
AcDbEntity
  8
0
  6
Continuous
 62
     7
370
    25
100
AcDbCircle
 10
82.0912007914
 20
34.6886250961
 30
0.0
 40
2.646971381584083
100
AcDbArc
 50
257.325090184
 51
271.4877363346
  0
ARC
  5
AB
330
1F
100
AcDbEntity
  8
0
  6
Continuous
 62
     7
370
    25
100
AcDbCircle
 10
82.1309717561
 20
37.7951756002
 30
0.0
 40
0.8111958547050206
100
AcDbArc
 50
220.0927969335
 51
272.0453715946
  0
SPLINE
  5
AC
330
1F
100
AcDbEntity
  8
0
  6
Continuous
 62
     7
370
    25
100
AcDbSpline
210
0.0
220
0.0
230
1.0
 70
     8
 71
     3
 72
    10
 73
     6
 74
     0
 42
0.000000001
 43
0.00000001
 40
0.0
 40
0.0
 40
0.0
 40
0.0
 40
0.3089808900029886
 40
0.6190948628358314
 40
1.0
 40
1.0
 40
1.0
 40
1.0
 10
81.51040500283236
 20
38.73583068250486
 30
0.0
 10
81.53455200936905
 20
38.585382720137
 30
0.0
 10
81.58293457341564
 20
38.2839350784231
 30
0.0
 10
81.5903896661323
 20
37.79492383982703
 30
0.0
 10
81.53882731833271
 20
37.45829855466882
 30
0.0
 10
81.51040500283236
 20
37.27274319366488
 30
0.0
  0
LINE
  5
AD
330
1F
100
AcDbEntity
  8
0
  6
Continuous
 62
     7
370
    25
100
AcDbLine
 10
71.1304382996
 20
40.4580255821
 30
0.0
 11
80.8233844079
 21
40.4580255821
 31
0.0
  0
SPLINE
  5
AE
330
1F
100
AcDbEntity
  8
0
  6
Continuous
 62
     7
370
    25
100
AcDbSpline
210
0.0
220
0.0
230
1.0
 70
     8
 71
     3
 72
    11
 73
     7
 74
     0
 42
0.000000001
 43
0.00000001
 40
0.0
 40
0.0
 40
0.0
 40
0.0
 40
0.2490252138763562
 40
0.4980311639765296
 40
0.7490269204800198
 40
1.0
 40
1.0
 40
1.0
 40
1.0
 10
80.8233844079262
 20
40.45802558214084
 30
0.0
 10
80.90163328075164
 20
40.31737915150645
 30
0.0
 10
81.05812497332562
 20
40.03609717018562
 30
0.0
 10
81.25090786169201
 20
39.6076250136226
 30
0.0
 10
81.40997374692682
 20
39.17441499565157
 30
0.0
 10
81.47692892578797
 20
38.88202105048316
 30
0.0
 10
81.51040500283236
 20
38.73583068250486
 30
0.0
  0
SPLINE
  5
AF
330
1F
100
AcDbEntity
  8
0
  6
Continuous
 62
     7
370
    25
100
AcDbSpline
210
0.0
220
0.0
230
1.0
 70
     8
 71
     3
 72
    10
 73
     6
 74
     0
 42
0.000000001
 43
0.00000001
 40
0.0
 40
0.0
 40
0.0
 40
0.0
 40
0.0789477693778935
 40
0.5375793028234305
 40
1.0
 40
1.0
 40
1.0
 40
1.0
 10
81.51040500283236
 20
24.01339881816942
 30
0.0
 10
81.51753530064592
 20
23.97501399098522
 30
0.0
 10
81.56608766074096
 20
23.71364006238302
 30
0.0
 10
81.60800447561955
 20
23.22455420943346
 30
0.0
 10
81.54302726478159
 20
22.77567451238802
 30
0.0
 10
81.51040500283236
 20
22.55031132932948
 30
0.0
  0
SPLINE
  5
B0
330
1F
100
AcDbEntity
  8
0
  6
Continuous
 62
     7
370
    25
100
AcDbSpline
210
0.0
220
0.0
230
1.0
 70
     8
 71
     3
 72
    10
 73
     6
 74
     0
 42
0.000000001
 43
0.00000001
 40
0.0
 40
0.0
 40
0.0
 40
0.0
 40
0.3355445600395944
 40
0.6726666839999053
 40
1.0
 40
1.0
 40
1.0
 40
1.0
 10
81.51040500283236
 20
22.55031132932948
 30
0.0
 10
81.46327078684793
 20
22.35499654617777
 30
0.0
 10
81.36878075319805
 20
21.96344870673933
 30
0.0
 10
81.13036497518266
 20
21.38882272203192
 30
0.0
 10
80.92470131278498
 20
21.01317383115149
 30
0.0
 10
80.8233844079262
 20
20.82811642969357
 30
0.0
  0
LINE
  5
B1
330
1F
100
AcDbEntity
  8
0
  6
Continuous
 62
     7
370
    25
100
AcDbLine
 10
71.1304382996
 20
20.8281164297
 30
0.0
 11
80.8233844079
 21
20.8281164297
 31
0.0
  0
ARC
  5
B2
330
1F
100
AcDbEntity
  8
0
  6
Continuous
 62
     7
370
    25
100
AcDbCircle
 10
82.1514605209
 20
39.1437719504
 30
0.0
 40
0.7598475211157601
100
AcDbArc
 50
212.4709917279
 51
270.6382002097
  0
ARC
  5
B3
330
1F
100
AcDbEntity
  8
0
  6
Continuous
 62
     7
370
    25
100
AcDbCircle
 10
82.1514605209
 20
22.1423700614
 30
0.0
 40
0.759847521123913
100
AcDbArc
 50
89.3617997906
 51
147.5290082717
  0
LINE
  5
B4
330
1F
100
AcDbEntity
  8
0
  6
Continuous
 62
     7
370
    25
100
AcDbLine
 10
46.5524868373
 20
22.4456988361
 30
0.0
 11
46.5524868373
 21
38.8404431757
 31
0.0
  0
SPLINE
  5
B5
330
1F
100
AcDbEntity
  8
0
  6
Continuous
 62
     7
370
    25
100
AcDbSpline
210
0.0
220
0.0
230
1.0
 70
     8
 71
     3
 72
    22
 73
    18
 74
     0
 42
0.000000001
 43
0.00000001
 40
0.0
 40
0.0
 40
0.0
 40
0.0
 40
0.249999999999999
 40
0.249999999999999
 40
0.3749999999999986
 40
0.3749999999999986
 40
0.4374999999999987
 40
0.4374999999999987
 40
0.4999999999999988
 40
0.4999999999999988
 40
0.5624999999999989
 40
0.5624999999999989
 40
0.6249999999999989
 40
0.6249999999999989
 40
0.7499999999999992
 40
0.7499999999999992
 40
1.0
 40
1.0
 40
1.0
 40
1.0
 10
57.47857740361628
 20
37.59767935387034
 30
0.0
 10
57.23305474653742
 20
37.63796066591356
 30
0.0
 10
56.99065326166927
 20
37.68227653102174
 30
0.0
 10
56.6434312192627
 20
37.76992401623274
 30
0.0
 10
56.53067697091197
 20
37.80229973861396
 30
0.0
 10
56.38041236613103
 20
37.86451020488299
 30
0.0
 10
56.33333413336273
 20
37.88776936971771
 30
0.0
 10
56.26073591871297
 20
37.94157928119787
 30
0.0
 10
56.23588060196042
 20
37.9729757476453
 30
0.0
 10
56.23730562629986
 20
38.03848710917759
 30
0.0
 10
56.26358595350665
 20
38.0698487461915
 30
0.0
 10
56.33766234479497
 20
38.12319420438186
 30
0.0
 10
56.3847894334251
 20
38.14609208696489
 30
0.0
 10
56.53485024875709
 20
38.20753995978562
 30
0.0
 10
56.64818428877203
 20
38.23994637030047
 30
0.0
 10
56.99188589672656
 20
38.32641044551691
 30
0.0
 10
57.23383436575628
 20
38.37074111732932
 30
0.0
 10
57.47857740361788
 20
38.41089452229755
 30
0.0
  0
SPLINE
  5
B6
330
1F
100
AcDbEntity
  8
0
  6
Continuous
 62
     7
370
    25
100
AcDbSpline
210
0.0
220
0.0
230
1.0
 70
     8
 71
     3
 72
    22
 73
    18
 74
     0
 42
0.000000001
 43
0.00000001
 40
0.0
 40
0.0
 40
0.0
 40
0.0
 40
0.2499999999999998
 40
0.2499999999999998
 40
0.3749999999999998
 40
0.3749999999999998
 40
0.4374999999999997
 40
0.4374999999999997
 40
0.4999999999999997
 40
0.4999999999999997
 40
0.5624999999999998
 40
0.5624999999999998
 40
0.6249999999999998
 40
0.6249999999999998
 40
0.7499999999999998
 40
0.7499999999999998
 40
1.0
 40
1.0
 40
1.0
 40
1.0
 10
57.478577403618
 20
29.82985583749224
 30
0.0
 10
57.23776827941126
 20
29.90887182396359
 30
0.0
 10
56.99823342117404
 20
29.99605918934482
 30
0.0
 10
56.65082020824313
 20
30.17021683465162
 30
0.0
 10
56.53891807247056
 20
30.23405244415151
 30
0.0
 10
56.38867034277343
 20
30.35589671555332
 30
0.0
 10
56.34066236697929
 20
30.40189490084273
 30
0.0
 10
56.2650866541668
 20
30.50888259289305
 30
0.0
 10
56.23796337904846
 20
30.57258080392374
 30
0.0
 10
56.23530251214603
 20
30.70269719770016
 30
0.0
 10
56.2602300170098
 20
30.76759311134532
 30
0.0
 10
56.33320460663916
 20
30.87605614950257
 30
0.0
 10
56.3805110596703
 20
30.92271595293889
 30
0.0
 10
56.53075411227559
 20
31.04708972976031
 30
0.0
 10
56.64328988388054
 20
31.11174547897888
 30
0.0
 10
56.99200891245697
 20
31.28773616267134
 30
0.0
 10
57.23398028393501
 20
31.37602724410896
 30
0.0
 10
57.47857740361729
 20
31.45628617434416
 30
0.0
  0
SPLINE
  5
B7
330
1F
100
AcDbEntity
  8
0
  6
Continuous
 62
     7
370
    25
100
AcDbSpline
210
0.0
220
0.0
230
1.0
 70
     8
 71
     3
 72
    22
 73
    18
 74
     0
 42
0.000000001
 43
0.00000001
 40
0.0
 40
0.0
 40
0.0
 40
0.0
 40
0.2500000000000005
 40
0.2500000000000005
 40
0.3750000000000006
 40
0.3750000000000006
 40
0.4375000000000006
 40
0.4375000000000006
 40
0.5000000000000006
 40
0.5000000000000006
 40
0.5625000000000004
 40
0.5625000000000004
 40
0.6250000000000003
 40
0.6250000000000003
 40
0.7500000000000003
 40
0.7500000000000003
 40
1.0
 40
1.0
 40
1.0
 40
1.0
 10
57.47857740361779
 20
22.87524748953442
 30
0.0
 10
57.23305474653859
 20
22.91552880157766
 30
0.0
 10
56.9906532616701
 20
22.95984466668585
 30
0.0
 10
56.643431219263
 20
23.04749215189684
 30
0.0
 10
56.5306769709121
 20
23.07986787427809
 30
0.0
 10
56.38041236613083
 20
23.14207834054709
 30
0.0
 10
56.33333413336241
 20
23.16533750538179
 30
0.0
 10
56.26073591871228
 20
23.21914741686195
 30
0.0
 10
56.23588060195952
 20
23.25054388330937
 30
0.0
 10
56.23730562629854
 20
23.31605524484173
 30
0.0
 10
56.26358595350522
 20
23.34741688185572
 30
0.0
 10
56.33766234479351
 20
23.4007623400462
 30
0.0
 10
56.38478943342367
 20
23.42366022262927
 30
0.0
 10
56.5348502487558
 20
23.48510809545009
 30
0.0
 10
56.64818428877087
 20
23.51751450596499
 30
0.0
 10
56.9918858967258
 20
23.60397858118152
 30
0.0
 10
57.23383436575585
 20
23.64830925299399
 30
0.0
 10
57.47857740361775
 20
23.68846265796224
 30
0.0
  0
LINE
  5
B8
330
1F
100
AcDbEntity
  8
0
  6
Continuous
 62
     7
370
    25
100
AcDbLine
 10
57.4785774036
 20
29.8298558375
 30
0.0
 11
57.4785774036
 21
25.7355937178
 31
0.0
  0
LINE
  5
B9
330
1F
100
AcDbEntity
  8
0
  6
Continuous
 62
     7
370
    25
100
AcDbLine
 10
57.4785774036
 20
35.550548294
 30
0.0
 11
57.4785774036
 21
31.4562861743
 31
0.0
  0
LINE
  5
BA
330
1F
100
AcDbEntity
  8
0
  6
Continuous
 62
     7
370
    25
100
AcDbLine
 10
62.5750504578
 20
35.550548294
 30
0.0
 11
57.4785774036
 21
35.550548294
 31
0.0
  0
SPLINE
  5
BB
330
1F
100
AcDbEntity
  8
0
  6
Continuous
 62
     7
370
    25
100
AcDbSpline
210
0.0
220
0.0
230
1.0
 70
     8
 71
     3
 72
     8
 73
     4
 74
     0
 42
0.000000001
 43
0.00000001
 40
0.0
 40
0.0
 40
0.0
 40
0.0
 40
1.0
 40
1.0
 40
1.0
 40
1.0
 10
63.2620710526719
 20
32.10615849475715
 30
0.0
 10
63.14670255732474
 20
33.28413509364643
 30
0.0
 10
62.8992681920403
 20
34.4274251170722
 30
0.0
 10
62.57505045776573
 20
35.55054829402901
 30
0.0
  0
SPLINE
  5
BC
330
1F
100
AcDbEntity
  8
0
  6
Continuous
 62
     7
370
    25
100
AcDbSpline
210
0.0
220
0.0
230
1.0
 70
     8
 71
     3
 72
    10
 73
     6
 74
     0
 42
0.000000001
 43
0.00000001
 40
0.0
 40
0.0
 40
0.0
 40
0.0
 40
0.5
 40
0.5
 40
1.0
 40
1.0
 40
1.0
 40
1.0
 10
63.26207105267189
 20
29.1799835170772
 30
0.0
 10
63.30944920933854
 20
29.66374088674629
 30
0.0
 10
63.33404720498873
 20
30.1494635168495
 30
0.0
 10
63.33443019899011
 20
31.12511990849585
 30
0.0
 10
63.30995157926407
 20
31.61727164832334
 30
0.0
 10
63.2620710526719
 20
32.10615849475715
 30
0.0
  0
SPLINE
  5
BD
330
1F
100
AcDbEntity
  8
0
  6
Continuous
 62
     7
370
    25
100
AcDbSpline
210
0.0
220
0.0
230
1.0
 70
     8
 71
     3
 72
    10
 73
     6
 74
     0
 42
0.000000001
 43
0.00000001
 40
0.0
 40
0.0
 40
0.0
 40
0.0
 40
0.5
 40
0.5
 40
1.0
 40
1.0
 40
1.0
 40
1.0
 10
62.57505045776576
 20
25.73559371780533
 30
0.0
 10
62.73764643240249
 20
26.29884269615933
 30
0.0
 10
62.88194398045392
 20
26.87195694562745
 30
0.0
 10
63.11566767210663
 20
28.02220363917697
 30
0.0
 10
63.2052375194229
 20
28.59968148576415
 30
0.0
 10
63.26207105267189
 20
29.1799835170772
 30
0.0
  0
LINE
  5
BE
330
1F
100
AcDbEntity
  8
0
  6
Continuous
 62
     7
370
    25
100
AcDbLine
 10
62.5750504578
 20
25.7355937178
 30
0.0
 11
57.4785774036
 21
25.7355937178
 31
0.0
  0
SPLINE
  5
BF
330
1F
100
AcDbEntity
  8
0
  6
Continuous
 62
     7
370
    25
100
AcDbSpline
210
0.0
220
0.0
230
1.0
 70
     8
 71
     3
 72
     8
 73
     4
 74
     0
 42
0.000000001
 43
0.00000001
 40
0.0
 40
0.0
 40
0.0
 40
0.0
 40
1.0
 40
1.0
 40
1.0
 40
1.0
 10
62.57505045776615
 20
35.55054829402898
 30
0.0
 10
62.90240857337729
 20
36.11754918253747
 30
0.0
 10
63.1480085496864
 20
36.69042234895195
 30
0.0
 10
63.26207105267189
 20
37.27274319366494
 30
0.0
  0
LINE
  5
C0
330
1F
100
AcDbEntity
  8
0
  6
Continuous
 62
     7
370
    25
100
AcDbLine
 10
63.2620710527
 20
32.1061584948
 30
0.0
 11
63.2620710527
 21
37.2727431937
 31
0.0
  0
ARC
  5
C1
330
1F
100
AcDbEntity
  8
0
  6
Continuous
 62
     7
370
    25
100
AcDbCircle
 10
63.8428668412
 20
34.688625096
 30
0.0
 40
2.646971381555962
100
AcDbArc
 50
257.3250901839
 51
271.4877363346
  0
SPLINE
  5
C2
330
1F
100
AcDbEntity
  8
0
  6
Continuous
 62
     7
370
    25
100
AcDbSpline
210
0.0
220
0.0
230
1.0
 70
     8
 71
     3
 72
    10
 73
     6
 74
     0
 42
0.000000001
 43
0.00000001
 40
0.0
 40
0.0
 40
0.0
 40
0.0
 40
0.5
 40
0.5
 40
1.0
 40
1.0
 40
1.0
 40
1.0
 10
63.91159010551021
 20
32.04254599524237
 30
0.0
 10
63.91159010551021
 20
31.57884843566477
 30
0.0
 10
63.89330693760659
 20
31.11329817558374
 30
0.0
 10
63.89320700647785
 20
30.17813475357606
 30
0.0
 10
63.91159010551021
 20
29.70747475416605
 30
0.0
 10
63.91159010551021
 20
29.24359601659198
 30
0.0
  0
ARC
  5
C3
330
1F
100
AcDbEntity
  8
0
  6
Continuous
 62
     7
370
    25
100
AcDbCircle
 10
63.8428668412
 20
26.5975169158
 30
0.0
 40
2.646971381582526
100
AcDbArc
 50
88.5122636654
 51
102.674909816
  0
LINE
  5
C4
330
1F
100
AcDbEntity
  8
0
  6
Continuous
 62
     7
370
    25
100
AcDbLine
 10
57.4785774036
 20
37.5976793539
 30
0.0
 11
57.4785774036
 21
35.550548294
 31
0.0
  0
LINE
  5
C5
330
1F
100
AcDbEntity
  8
0
  6
Continuous
 62
     7
370
    25
100
AcDbLine
 10
57.4785774036
 20
40.4580255821
 30
0.0
 11
57.4785774036
 21
38.4108945223
 31
0.0
  0
LINE
  5
C6
330
1F
100
AcDbEntity
  8
0
  6
Continuous
 62
     7
370
    25
100
AcDbLine
 10
62.5750504578
 20
40.4580255821
 30
0.0
 11
57.4785774036
 21
40.4580255821
 31
0.0
  0
SPLINE
  5
C7
330
1F
100
AcDbEntity
  8
0
  6
Continuous
 62
     7
370
    25
100
AcDbSpline
210
0.0
220
0.0
230
1.0
 70
     8
 71
     3
 72
     8
 73
     4
 74
     0
 42
0.000000001
 43
0.00000001
 40
0.0
 40
0.0
 40
0.0
 40
0.0
 40
1.0
 40
1.0
 40
1.0
 40
1.0
 10
63.26207105267189
 20
38.73583068250493
 30
0.0
 10
63.14776492034914
 20
39.31939532283652
 30
0.0
 10
62.90181265870404
 20
39.89205684812307
 30
0.0
 10
62.57505045776594
 20
40.45802558214087
 30
0.0
  0
SPLINE
  5
C8
330
1F
100
AcDbEntity
  8
0
  6
Continuous
 62
     7
370
    25
100
AcDbSpline
210
0.0
220
0.0
230
1.0
 70
     8
 71
     3
 72
    10
 73
     6
 74
     0
 42
0.000000001
 43
0.00000001
 40
0.0
 40
0.0
 40
0.0
 40
0.0
 40
0.5
 40
0.5
 40
1.0
 40
1.0
 40
1.0
 40
1.0
 10
63.26207105267189
 20
37.27274319366494
 30
0.0
 10
63.30937881596971
 20
37.51426250074677
 30
0.0
 10
63.3341078450861
 20
37.75740352528709
 30
0.0
 10
63.3343707670607
 20
38.24721901475907
 30
0.0
 10
63.30962552540102
 20
38.49305185506643
 30
0.0
 10
63.26207105267189
 20
38.73583068250493
 30
0.0
  0
LINE
  5
C9
330
1F
100
AcDbEntity
  8
0
  6
Continuous
 62
     7
370
    25
100
AcDbLine
 10
63.2620710527
 20
24.0133988182
 30
0.0
 11
63.2620710527
 21
29.1799835171
 31
0.0
  0
SPLINE
  5
CA
330
1F
100
AcDbEntity
  8
0
  6
Continuous
 62
     7
370
    25
100
AcDbSpline
210
0.0
220
0.0
230
1.0
 70
     8
 71
     3
 72
     8
 73
     4
 74
     0
 42
0.000000001
 43
0.00000001
 40
0.0
 40
0.0
 40
0.0
 40
0.0
 40
1.0
 40
1.0
 40
1.0
 40
1.0
 10
63.26207105267189
 20
24.01339881816945
 30
0.0
 10
63.14776492034915
 20
24.59696345850103
 30
0.0
 10
62.90181265870404
 20
25.16962498378757
 30
0.0
 10
62.57505045776594
 20
25.73559371780536
 30
0.0
  0
ARC
  5
CB
330
1F
100
AcDbEntity
  8
0
  6
Continuous
 62
     7
370
    25
100
AcDbCircle
 10
63.8826378059
 20
37.7951756002
 30
0.0
 40
0.81119585470506
100
AcDbArc
 50
220.0927969335
 51
272.0453715946
  0
LINE
  5
CC
330
1F
100
AcDbEntity
  8
0
  6
Continuous
 62
     7
370
    25
100
AcDbLine
 10
63.9115901055
 20
36.9844965768
 30
0.0
 11
63.9115901055
 21
32.0425459952
 31
0.0
  0
LINE
  5
CD
330
1F
100
AcDbEntity
  8
0
  6
Continuous
 62
     7
370
    25
100
AcDbLine
 10
63.9115901055
 20
29.2435960166
 30
0.0
 11
63.9115901055
 21
24.301645435
 31
0.0
  0
ARC
  5
CE
330
1F
100
AcDbEntity
  8
0
  6
Continuous
 62
     7
370
    25
100
AcDbCircle
 10
63.8826378059
 20
23.4909664116
 30
0.0
 40
0.8111958547041624
100
AcDbArc
 50
87.9546284054
 51
139.9072030665
  0
LINE
  5
CF
330
1F
100
AcDbEntity
  8
0
  6
Continuous
 62
     7
370
    25
100
AcDbLine
 10
57.4785774036
 20
22.8752474895
 30
0.0
 11
57.4785774036
 21
20.8281164297
 31
0.0
  0
SPLINE
  5
D0
330
1F
100
AcDbEntity
  8
0
  6
Continuous
 62
     7
370
    25
100
AcDbSpline
210
0.0
220
0.0
230
1.0
 70
     8
 71
     3
 72
    10
 73
     6
 74
     0
 42
0.000000001
 43
0.00000001
 40
0.0
 40
0.0
 40
0.0
 40
0.0
 40
0.5
 40
0.5
 40
1.0
 40
1.0
 40
1.0
 40
1.0
 10
63.26207105267189
 20
22.55031132932948
 30
0.0
 10
63.30937881596971
 20
22.79183063641131
 30
0.0
 10
63.3341078450861
 20
23.03497166095161
 30
0.0
 10
63.3343707670607
 20
23.52478715042358
 30
0.0
 10
63.30962552540102
 20
23.77061999073096
 30
0.0
 10
63.26207105267189
 20
24.01339881816945
 30
0.0
  0
SPLINE
  5
D1
330
1F
100
AcDbEntity
  8
0
  6
Continuous
 62
     7
370
    25
100
AcDbSpline
210
0.0
220
0.0
230
1.0
 70
     8
 71
     3
 72
     8
 73
     4
 74
     0
 42
0.000000001
 43
0.00000001
 40
0.0
 40
0.0
 40
0.0
 40
0.0
 40
1.0
 40
1.0
 40
1.0
 40
1.0
 10
62.57505045776615
 20
20.82811642969353
 30
0.0
 10
62.90240857337729
 20
21.39511731820201
 30
0.0
 10
63.1480085496864
 20
21.96799048461649
 30
0.0
 10
63.26207105267189
 20
22.55031132932948
 30
0.0
  0
LINE
  5
D2
330
1F
100
AcDbEntity
  8
0
  6
Continuous
 62
     7
370
    25
100
AcDbLine
 10
62.5750504578
 20
20.8281164297
 30
0.0
 11
57.4785774036
 21
20.8281164297
 31
0.0
  0
LINE
  5
D3
330
1F
100
AcDbEntity
  8
0
  6
Continuous
 62
     7
370
    25
100
AcDbLine
 10
57.4785774036
 20
25.7355937178
 30
0.0
 11
57.4785774036
 21
23.688462658
 31
0.0
  0
SPLINE
  5
D4
330
1F
100
AcDbEntity
  8
0
  6
Continuous
 62
     7
370
    25
100
AcDbSpline
210
0.0
220
0.0
230
1.0
 70
     8
 71
     3
 72
    10
 73
     6
 74
     0
 42
0.000000001
 43
0.00000001
 40
0.0
 40
0.0
 40
0.0
 40
0.0
 40
0.5
 40
0.5
 40
1.0
 40
1.0
 40
1.0
 40
1.0
 10
63.91159010551021
 20
24.30164543502803
 30
0.0
 10
63.91159010551021
 20
24.00067457293548
 30
0.0
 10
63.89330693760659
 20
23.73360522483312
 30
0.0
 10
63.89320700647785
 20
23.26576381786776
 30
0.0
 10
63.91159010551021
 20
23.06496072449546
 30
0.0
 10
63.91159010551021
 20
22.90217044570286
 30
0.0
  0
SPLINE
  5
D5
330
1F
100
AcDbEntity
  8
0
  6
Continuous
 62
     7
370
    25
100
AcDbSpline
210
0.0
220
0.0
230
1.0
 70
     8
 71
     3
 72
    10
 73
     6
 74
     0
 42
0.000000001
 43
0.00000001
 40
0.0
 40
0.0
 40
0.0
 40
0.0
 40
0.4999999999999998
 40
0.4999999999999998
 40
1.0
 40
1.0
 40
1.0
 40
1.0
 10
63.91159010551021
 20
38.38397156613154
 30
0.0
 10
63.91159010551021
 20
38.22124486864621
 30
0.0
 10
63.89330693760659
 20
38.02276395666756
 30
0.0
 10
63.89320700647784
 20
37.55544194162603
 30
0.0
 10
63.91159010551021
 20
37.28558503558809
 30
0.0
 10
63.91159010551021
 20
36.98449657680634
 30
0.0
  0
LINE
  5
D6
330
1F
100
AcDbEntity
  8
0
  6
Continuous
 62
     7
370
    25
100
AcDbLine
 10
64.7785774036
 20
22.3930710059
 30
0.0
 11
64.7785774036
 21
38.8930710059
 31
0.0
  0
LINE
  5
D7
330
1F
100
AcDbEntity
  8
0
  6
Continuous
 62
     7
370
    25
100
AcDbLine
 10
64.9785774036
 20
38.6930710059
 30
0.0
 11
64.9785774036
 21
22.5930710059
 31
0.0
  0
LINE
  5
D8
330
1F
100
AcDbEntity
  8
0
  6
Continuous
 62
     7
370
    25
100
AcDbLine
 10
44.4785774036
 20
30.6430710059
 30
0.0
 11
44.4785774036
 21
37.6430710059
 31
0.0
  0
LINE
  5
D9
330
1F
100
AcDbEntity
  8
0
  6
Continuous
 62
     7
370
    25
100
AcDbLine
 10
44.4785774036
 20
23.6430710059
 30
0.0
 11
44.4785774036
 21
30.6430710059
 31
0.0
  0
LINE
  5
DA
330
1F
100
AcDbEntity
  8
0
  6
Continuous
 62
     7
370
    25
100
AcDbLine
 10
67.9785774036
 20
37.2215710059
 30
0.0
 11
67.9785774036
 21
24.0645710059
 31
0.0
  0
LINE
  5
DB
330
1F
100
AcDbEntity
  8
0
  6
Continuous
 62
     7
370
    25
100
AcDbLine
 10
66.9785774036
 20
25.0645710059
 30
0.0
 11
66.9785774036
 21
36.2215710059
 31
0.0
  0
ARC
  5
DC
330
1F
100
AcDbEntity
  8
0
  6
Continuous
 62
     7
370
    25
100
AcDbCircle
 10
63.9031265708
 20
22.1423700614
 30
0.0
 40
0.7598475211157711
100
AcDbArc
 50
89.3617997903
 51
147.5290082721
  0
ARC
  5
DD
330
1F
100
AcDbEntity
  8
0
  6
Continuous
 62
     7
370
    25
100
AcDbCircle
 10
63.9031265708
 20
39.1437719504
 30
0.0
 40
0.7598475211166473
100
AcDbArc
 50
212.470991728
 51
270.6382002097
  0
LINE
  5
DE
330
1F
100
AcDbEntity
  8
0
  6
Continuous
 62
     8
370
    25
100
AcDbLine
 10
82.1599240557
 20
22.9021704457
 30
0.0
 11
82.1599240557
 21
22.3930710059
 31
0.0
  0
LINE
  5
DF
330
1F
100
AcDbEntity
  8
0
  6
Continuous
 62
     8
370
    25
100
AcDbLine
 10
82.1599240557
 20
38.8930710059
 30
0.0
 11
82.1599240557
 21
38.3839715661
 31
0.0
  0
LINE
  5
E0
330
1F
100
AcDbEntity
  8
0
  6
Continuous
 62
     8
370
    25
100
AcDbLine
 10
81.5104050028
 20
38.7358306825
 30
0.0
 11
81.5104050028
 21
39.2680710059
 31
0.0
  0
LINE
  5
E1
330
1F
100
AcDbEntity
  8
0
  6
Continuous
 62
     8
370
    25
100
AcDbLine
 10
81.5104050028
 20
22.0180710059
 30
0.0
 11
81.5104050028
 21
22.5503113293
 31
0.0
  0
LINE
  5
E2
330
1F
100
AcDbEntity
  8
0
  6
Continuous
 62
     8
370
    25
100
AcDbLine
 10
63.9115901055
 20
22.9021704457
 30
0.0
 11
63.9115901055
 21
22.3930710059
 31
0.0
  0
LINE
  5
E3
330
1F
100
AcDbEntity
  8
0
  6
Continuous
 62
     8
370
    25
100
AcDbLine
 10
63.9115901055
 20
38.8930710059
 30
0.0
 11
63.9115901055
 21
38.3839715661
 31
0.0
  0
LINE
  5
E4
330
1F
100
AcDbEntity
  8
0
  6
Continuous
 62
     8
370
    25
100
AcDbLine
 10
63.2620710527
 20
22.0180710059
 30
0.0
 11
63.2620710527
 21
22.5503113293
 31
0.0
  0
LINE
  5
E5
330
1F
100
AcDbEntity
  8
0
  6
Continuous
 62
     8
370
    25
100
AcDbLine
 10
63.2620710527
 20
38.7358306825
 30
0.0
 11
63.2620710527
 21
39.2680710059
 31
0.0
  0
LINE
  5
E6
330
1F
100
AcDbEntity
  8
0
  6
Continuous
 62
     7
370
    25
100
AcDbLine
 10
70.3742116577
 20
72.3686972908
 30
0.0
 11
70.2269113538
 21
72.1135656805
 31
0.0
  0
LINE
  5
E7
330
1F
100
AcDbEntity
  8
0
  6
Continuous
 62
     7
370
    25
100
AcDbLine
 10
70.2269113538
 20
55.6135656805
 30
0.0
 11
70.3742116577
 21
55.3584340701
 31
0.0
  0
LINE
  5
E8
330
1F
100
AcDbEntity
  8
0
  6
Continuous
 62
     7
370
    25
100
AcDbLine
 10
83.0269113538
 20
55.6135656805
 30
0.0
 11
83.2269113538
 21
55.8135656805
 31
0.0
  0
LINE
  5
E9
330
1F
100
AcDbEntity
  8
0
  6
Continuous
 62
     7
370
    25
100
AcDbLine
 10
83.2269113538
 20
71.9135656805
 30
0.0
 11
83.0269113538
 21
72.1135656805
 31
0.0
  0
LINE
  5
EA
330
1F
100
AcDbEntity
  8
0
  6
Continuous
 62
     7
370
    25
100
AcDbLine
 10
83.0269113538
 20
72.1135656805
 30
0.0
 11
82.1432271482
 21
72.1135656805
 31
0.0
  0
LINE
  5
EB
330
1F
100
AcDbEntity
  8
0
  6
Continuous
 62
     7
370
    25
100
AcDbLine
 10
82.1432271482
 20
55.6135656805
 30
0.0
 11
83.0269113538
 21
55.6135656805
 31
0.0
  0
SPLINE
  5
EC
330
1F
100
AcDbEntity
  8
0
  6
Continuous
 62
     7
370
    25
100
AcDbSpline
210
0.0
220
0.0
230
1.0
 70
     8
 71
     3
 72
    13
 73
     9
 74
     0
 42
0.000000001
 43
0.00000001
 40
0.0
 40
0.0
 40
0.0
 40
0.0
 40
0.1371506078729604
 40
0.3397169349764664
 40
0.5294692499677892
 40
0.7066621490428823
 40
0.8705638881894321
 40
1.0
 40
1.0
 40
1.0
 40
1.0
 10
82.14337863408124
 20
72.1166627612036
 30
0.0
 10
82.11390153444833
 20
72.1164429299534
 30
0.0
 10
82.04088785922958
 20
72.11589841615437
 30
0.0
 10
81.92931260408443
 20
72.14154488899949
 30
0.0
 10
81.81529087305212
 20
72.18531243373975
 30
0.0
 10
81.71769279843153
 20
72.24285623350914
 30
0.0
 10
81.63902508748899
 20
72.30469586427955
 30
0.0
 10
81.59881520233618
 20
72.34850538398366
 30
0.0
 10
81.58107248289663
 20
72.36783645180284
 30
0.0
  0
SPLINE
  5
ED
330
1F
100
AcDbEntity
  8
0
  6
Continuous
 62
     7
370
    25
100
AcDbSpline
210
0.0
220
0.0
230
1.0
 70
     8
 71
     3
 72
    13
 73
     9
 74
     0
 42
0.000000001
 43
0.00000001
 40
0.0
 40
0.0
 40
0.0
 40
0.0
 40
0.0108058615197583
 40
0.1816588944482973
 40
0.369690963568907
 40
0.5723866423178543
 40
0.7876795910343992
 40
1.0
 40
1.0
 40
1.0
 40
1.0
 10
81.58121610294167
 20
55.35989917571329
 30
0.0
 10
81.58250658776991
 20
55.36152455913462
 30
0.0
 10
81.60420111409466
 20
55.38884911394523
 30
0.0
 10
81.66273003342631
 20
55.4424094393671
 30
0.0
 10
81.75852989637846
 20
55.51188263709009
 30
0.0
 10
81.87581196546913
 20
55.56828876993647
 30
0.0
 10
82.00627398985931
 20
55.60657437151119
 30
0.0
 10
82.09810284116662
 20
55.61076586743354
 30
0.0
 10
82.14369809424781
 20
55.61284704687385
 30
0.0
  0
LINE
  5
EE
330
1F
100
AcDbEntity
  8
0
  6
Continuous
 62
     7
370
    25
100
AcDbLine
 10
56.2365774036
 20
72.3635656805
 30
0.0
 11
46.5524868373
 21
72.0609378503
 31
0.0
  0
LINE
  5
EF
330
1F
100
AcDbEntity
  8
0
  6
Continuous
 62
     7
370
    25
100
AcDbLine
 10
46.5524868373
 20
55.6661935107
 30
0.0
 11
56.2365774036
 21
55.3635656805
 31
0.0
  0
LINE
  5
F0
330
1F
100
AcDbEntity
  8
0
  6
Continuous
 62
     7
370
    25
100
AcDbLine
 10
64.7785774036
 20
55.6135656805
 30
0.0
 11
64.9785774036
 21
55.8135656805
 31
0.0
  0
LINE
  5
F1
330
1F
100
AcDbEntity
  8
0
  6
Continuous
 62
     7
370
    25
100
AcDbLine
 10
64.9785774036
 20
71.9135656805
 30
0.0
 11
64.7785774036
 21
72.1135656805
 31
0.0
  0
LINE
  5
F2
330
1F
100
AcDbEntity
  8
0
  6
Continuous
 62
     7
370
    25
100
AcDbLine
 10
64.7785774036
 20
72.1135656805
 30
0.0
 11
63.8977891994
 21
72.1135656805
 31
0.0
  0
LINE
  5
F3
330
1F
100
AcDbEntity
  8
0
  6
Continuous
 62
     7
370
    25
100
AcDbLine
 10
63.8977891994
 20
55.6135656805
 30
0.0
 11
64.7785774036
 21
55.6135656805
 31
0.0
  0
LINE
  5
F4
330
1F
100
AcDbEntity
  8
0
  6
Continuous
 62
     7
370
    25
100
AcDbLine
 10
46.5524868373
 20
72.0609378503
 30
0.0
 11
44.4785774036
 21
70.8635656805
 31
0.0
  0
LINE
  5
F5
330
1F
100
AcDbEntity
  8
0
  6
Continuous
 62
     7
370
    25
100
AcDbLine
 10
44.4785774036
 20
56.8635656805
 30
0.0
 11
46.5524868373
 21
55.6661935107
 31
0.0
  0
LINE
  5
F6
330
1F
100
AcDbEntity
  8
0
  6
Continuous
 62
     7
370
    25
100
AcDbLine
 10
67.9785774036
 20
57.2850656805
 30
0.0
 11
70.2269113538
 21
57.2850656805
 31
0.0
  0
LINE
  5
F7
330
1F
100
AcDbEntity
  8
0
  6
Continuous
 62
     7
370
    25
100
AcDbLine
 10
70.2269113538
 20
70.4420656805
 30
0.0
 11
67.9785774036
 21
70.4420656805
 31
0.0
  0
LINE
  5
F8
330
1F
100
AcDbEntity
  8
0
  6
Continuous
 62
     7
370
    25
100
AcDbLine
 10
67.9785774036
 20
70.4420656805
 30
0.0
 11
66.9785774036
 21
69.4420656805
 31
0.0
  0
LINE
  5
F9
330
1F
100
AcDbEntity
  8
0
  6
Continuous
 62
     7
370
    25
100
AcDbLine
 10
66.9785774036
 20
58.2850656805
 30
0.0
 11
67.9785774036
 21
57.2850656805
 31
0.0
  0
LINE
  5
FA
330
1F
100
AcDbEntity
  8
0
  6
Continuous
 62
     7
370
    25
100
AcDbLine
 10
64.9785774036
 20
58.3635656805
 30
0.0
 11
66.9785774036
 21
58.3635656805
 31
0.0
  0
LINE
  5
FB
330
1F
100
AcDbEntity
  8
0
  6
Continuous
 62
     7
370
    25
100
AcDbLine
 10
66.9785774036
 20
69.3635656805
 30
0.0
 11
64.9785774036
 21
69.3635656805
 31
0.0
  0
SPLINE
  5
FC
330
1F
100
AcDbEntity
  8
0
  6
Continuous
 62
     7
370
    25
100
AcDbSpline
210
0.0
220
0.0
230
1.0
 70
     8
 71
     3
 72
    13
 73
     9
 74
     0
 42
0.000000001
 43
0.00000001
 40
0.0
 40
0.0
 40
0.0
 40
0.0
 40
0.1419837361292856
 40
0.3444657184804965
 40
0.5341390242309325
 40
0.7112581435650117
 40
0.8750916371564537
 40
1.0
 40
1.0
 40
1.0
 40
1.0
 10
63.89819081437374
 20
72.1165874495768
 30
0.0
 10
63.86766060687464
 20
72.11634093000168
 30
0.0
 10
63.79359149059248
 20
72.11574285063796
 30
0.0
 10
63.68097789369936
 20
72.14152226865956
 30
0.0
 10
63.56695338970926
 20
72.18531569703642
 30
0.0
 10
63.46937217568967
 20
72.24286288070648
 30
0.0
 10
63.391397943698
 20
72.30408317531133
 30
0.0
 10
63.35177797003558
 20
72.34721004526561
 30
0.0
 10
63.33463855662605
 20
72.36586652544158
 30
0.0
  0
SPLINE
  5
FD
330
1F
100
AcDbEntity
  8
0
  6
Continuous
 62
     7
370
    25
100
AcDbSpline
210
0.0
220
0.0
230
1.0
 70
     8
 71
     3
 72
    13
 73
     9
 74
     0
 42
0.000000001
 43
0.00000001
 40
0.0
 40
0.0
 40
0.0
 40
0.0
 40
0.0141780786505024
 40
0.1834580255251879
 40
0.3697588369675949
 40
0.5705882465660235
 40
0.7838989399602749
 40
1.0
 40
1.0
 40
1.0
 40
1.0
 10
63.33161866576248
 20
55.35831916127679
 30
0.0
 10
63.33332434585381
 20
55.36047206463847
 30
0.0
 10
63.35539508685116
 20
55.38832967564608
 30
0.0
 10
63.41435603869229
 20
55.44241630260502
 30
0.0
 10
63.51020872802349
 20
55.51187610751063
 30
0.0
 10
63.62747143839602
 20
55.56830917589084
 30
0.0
 10
63.75915128032756
 20
55.60684623739535
 30
0.0
 10
63.85222963814608
 20
55.61104876847621
 30
0.0
 10
63.89907123395825
 20
55.61316368828025
 30
0.0
  0
SPLINE
  5
FE
330
1F
100
AcDbEntity
  8
0
  6
Continuous
 62
     7
370
    25
100
AcDbSpline
210
0.0
220
0.0
230
1.0
 70
    24
 71
     3
 72
    11
 73
     7
 74
     0
 42
0.000000001
 43
0.00000001
 40
0.0
 40
0.0
 40
0.0
 40
0.0
 40
0.2640630999837668
 40
0.5291551825679223
 40
0.7985675187647973
 40
1.0
 40
1.0
 40
1.0
 40
1.0
 10
71.13043829963071
 20
72.36356568047336
 30
0.0
 10
71.01484535354936
 20
72.36356568047336
 30
0.0
 10
70.78320902688729
 20
72.36356568047337
 30
0.0
 10
70.53832389118124
 20
72.3635656804734
 30
0.0
 10
70.38925020556403
 20
72.3635656804734
 30
0.0
 10
70.38494267534733
 20
72.3635656804734
 30
0.0
 10
70.38309986755287
 20
72.36356568047341
 30
0.0
  0
SPLINE
  5
FF
330
1F
100
AcDbEntity
  8
0
  6
Continuous
 62
     7
370
    25
100
AcDbSpline
210
0.0
220
0.0
230
1.0
 70
     8
 71
     3
 72
    16
 73
    12
 74
     0
 42
0.000000001
 43
0.00000001
 40
0.0
 40
0.0
 40
0.0
 40
0.0
 40
0.0943034347978451
 40
0.1885977507141885
 40
0.2837893215986491
 40
0.3789705446812173
 40
0.5045422210106495
 40
0.6301147857408412
 40
0.759034387482324
 40
0.8879898546356781
 40
1.0
 40
1.0
 40
1.0
 40
1.0
 10
71.13043829963071
 20
63.86356568047327
 30
0.0
 10
71.04675999693002
 20
64.12497861398357
 30
0.0
 10
70.87941148298927
 20
64.64777920309602
 30
0.0
 10
70.6760160460457
 20
65.44519678050919
 30
0.0
 10
70.51659944876828
 20
66.25258131569664
 30
0.0
 10
70.39904433143806
 20
67.15612954494983
 30
0.0
 10
70.35432965483493
 20
68.1526760221754
 30
0.0
 10
70.41090983281977
 20
69.24605665546909
 30
0.0
 10
70.5760723488458
 20
70.34068657209946
 30
0.0
 10
70.81950085176277
 20
71.38449793415977
 30
0.0
 10
71.03176821264263
 20
72.05287714694873
 30
0.0
 10
71.13043829963071
 20
72.36356568047336
 30
0.0
  0
SPLINE
  5
100
330
1F
100
AcDbEntity
  8
0
  6
Continuous
 62
     7
370
    25
100
AcDbSpline
210
0.0
220
0.0
230
1.0
 70
     8
 71
     3
 72
    15
 73
    11
 74
     0
 42
0.000000001
 43
0.00000001
 40
0.0
 40
0.0
 40
0.0
 40
0.0
 40
0.1323052378296957
 40
0.2645730682660306
 40
0.3997997819746813
 40
0.5350020935366635
 40
0.6501929590834554
 40
0.7654017933211807
 40
0.8826895567076666
 40
1.0
 40
1.0
 40
1.0
 40
1.0
 10
71.13043829963071
 20
55.36356568047331
 30
0.0
 10
71.01486832779072
 20
55.73079949843635
 30
0.0
 10
70.78376105984955
 20
56.4651633043092
 30
0.0
 10
70.53509842827322
 20
57.59601855890455
 30
0.0
 10
70.38558448111968
 20
58.7481906244975
 30
0.0
 10
70.35597419407131
 20
59.85862683715781
 30
0.0
 10
70.43279559672195
 20
60.90907194340949
 30
0.0
 10
70.59020506784297
 20
61.9004336700711
 30
0.0
 10
70.82110742837395
 20
62.8873131618811
 30
0.0
 10
71.02732136393134
 20
63.53812720167859
 30
0.0
 10
71.13043829963071
 20
63.86356568047327
 30
0.0
  0
SPLINE
  5
101
330
1F
100
AcDbEntity
  8
0
  6
Continuous
 62
     7
370
    25
100
AcDbSpline
210
0.0
220
0.0
230
1.0
 70
    24
 71
     3
 72
    12
 73
     8
 74
     0
 42
0.000000001
 43
0.00000001
 40
0.0
 40
0.0
 40
0.0
 40
0.0
 40
0.0700282682222785
 40
0.2997920284799521
 40
0.5308174660853375
 40
0.7650186527473549
 40
0.9999999999999999
 40
0.9999999999999999
 40
0.9999999999999999
 40
0.9999999999999999
 10
70.38309986755289
 20
55.36356568047336
 30
0.0
 10
70.37949574477055
 20
55.36356568047336
 30
0.0
 10
70.36406644304373
 20
55.36356568047336
 30
0.0
 10
70.43719914060829
 20
55.36356568047334
 30
0.0
 10
70.58870123213444
 20
55.36356568047334
 30
0.0
 10
70.8212496722774
 20
55.36356568047332
 30
0.0
 10
71.02726123793559
 20
55.36356568047332
 30
0.0
 10
71.13043829963071
 20
55.36356568047331
 30
0.0
  0
LINE
  5
102
330
1F
100
AcDbEntity
  8
0
  6
Continuous
 62
     7
370
    25
100
AcDbLine
 10
70.2269113538
 20
55.6135656805
 30
0.0
 11
70.2269113538
 21
72.1135656805
 31
0.0
  0
SPLINE
  5
103
330
1F
100
AcDbEntity
  8
0
  6
Continuous
 62
     7
370
    25
100
AcDbSpline
210
0.0
220
0.0
230
1.0
 70
     8
 71
     3
 72
    10
 73
     6
 74
     0
 42
0.000000001
 43
0.00000001
 40
0.0
 40
0.0
 40
0.0
 40
0.0
 40
0.3089808900029883
 40
0.6190948628358312
 40
1.0
 40
1.0
 40
1.0
 40
1.0
 10
81.51040500283236
 20
60.88063661376785
 30
0.0
 10
81.53455200936905
 20
60.62005309905151
 30
0.0
 10
81.58293457341563
 20
60.09793046778123
 30
0.0
 10
81.5903896661323
 20
59.25093815706069
 30
0.0
 10
81.53882731833271
 20
58.66788606005432
 30
0.0
 10
81.51040500283236
 20
58.34649474717872
 30
0.0
  0
SPLINE
  5
104
330
1F
100
AcDbEntity
  8
0
  6
Continuous
 62
     7
370
    25
100
AcDbSpline
210
0.0
220
0.0
230
1.0
 70
     8
 71
     3
 72
    11
 73
     7
 74
     0
 42
0.000000001
 43
0.00000001
 40
0.0
 40
0.0
 40
0.0
 40
0.0
 40
0.2485331657816015
 40
0.497745853981322
 40
0.7486584446317357
 40
1.0
 40
1.0
 40
1.0
 40
1.0
 10
81.51040500283236
 20
58.34649474717872
 30
0.0
 10
81.47732763294366
 20
58.0957402773268
 30
0.0
 10
81.41108245527924
 20
57.59354574186684
 30
0.0
 10
81.2530043782802
 20
56.84544499982574
 30
0.0
 10
81.06010668938818
 20
56.10078488865655
 30
0.0
 10
80.90233675107713
 20
55.60944529747633
 30
0.0
 10
80.8233844079262
 20
55.36356568047331
 30
0.0
  0
LINE
  5
105
330
1F
100
AcDbEntity
  8
0
  6
Continuous
 62
     7
370
    25
100
AcDbLine
 10
71.1304382996
 20
55.3635656805
 30
0.0
 11
80.8233844079
 21
55.3635656805
 31
0.0
  0
LINE
  5
106
330
1F
100
AcDbEntity
  8
0
  6
Continuous
 62
     7
370
    25
100
AcDbLine
 10
71.1304382996
 20
63.8635656805
 30
0.0
 11
80.8233844079
 21
63.8635656805
 31
0.0
  0
SPLINE
  5
107
330
1F
100
AcDbEntity
  8
0
  6
Continuous
 62
     7
370
    25
100
AcDbSpline
210
0.0
220
0.0
230
1.0
 70
     8
 71
     3
 72
    11
 73
     7
 74
     0
 42
0.000000001
 43
0.00000001
 40
0.0
 40
0.0
 40
0.0
 40
0.0
 40
0.2488261663104052
 40
0.4980307642143799
 40
0.7486902142220283
 40
1.0
 40
1.0
 40
1.0
 40
1.0
 10
80.8233844079262
 20
63.86356568047327
 30
0.0
 10
80.90157355426624
 20
63.62015403953846
 30
0.0
 10
81.05807076226651
 20
63.13296056085016
 30
0.0
 10
81.25075739186929
 20
62.39115707092116
 30
0.0
 10
81.40999694609744
 20
61.64063656269646
 30
0.0
 10
81.47690675516303
 20
61.13418864281556
 30
0.0
 10
81.51040500283236
 20
60.88063661376785
 30
0.0
  0
LINE
  5
108
330
1F
100
AcDbEntity
  8
0
  6
Continuous
 62
     7
370
    25
100
AcDbLine
 10
83.2269113538
 20
71.9135656805
 30
0.0
 11
83.2269113538
 21
55.8135656805
 31
0.0
  0
LINE
  5
109
330
1F
100
AcDbEntity
  8
0
  6
Continuous
 62
     7
370
    25
100
AcDbLine
 10
83.0269113538
 20
55.6135656805
 30
0.0
 11
83.0269113538
 21
72.1135656805
 31
0.0
  0
LINE
  5
10A
330
1F
100
AcDbEntity
  8
0
  6
Continuous
 62
     7
370
    25
100
AcDbLine
 10
82.1599240557
 20
58.5863673965
 30
0.0
 11
82.1599240557
 21
55.7331308979
 31
0.0
  0
SPLINE
  5
10B
330
1F
100
AcDbEntity
  8
0
  6
Continuous
 62
     7
370
    25
100
AcDbSpline
210
0.0
220
0.0
230
1.0
 70
     8
 71
     3
 72
    11
 73
     7
 74
     0
 42
0.000000001
 43
0.00000001
 40
0.0
 40
0.0
 40
0.0
 40
0.0
 40
0.2858113857233872
 40
0.5527245545213869
 40
0.8220275582229749
 40
1.0
 40
1.0
 40
1.0
 40
1.0
 10
82.15992405567069
 20
61.01032918188549
 30
0.0
 10
82.15598375424815
 20
60.76145965517472
 30
0.0
 10
82.14836368920795
 20
60.2801761753826
 30
0.0
 10
82.13690259955702
 20
59.60360154765355
 30
0.0
 10
82.15433998879865
 20
59.04357296163722
 30
0.0
 10
82.15833459005789
 20
58.71650776555808
 30
0.0
 10
82.15992405567069
 20
58.58636739645241
 30
0.0
  0
LINE
  5
10C
330
1F
100
AcDbEntity
  8
0
  6
Continuous
 62
     7
370
    25
100
AcDbLine
 10
82.1599240557
 20
66.7168021791
 30
0.0
 11
82.1599240557
 21
61.0103291819
 31
0.0
  0
SPLINE
  5
10D
330
1F
100
AcDbEntity
  8
0
  6
Continuous
 62
     7
370
    25
100
AcDbSpline
210
0.0
220
0.0
230
1.0
 70
     8
 71
     3
 72
    11
 73
     7
 74
     0
 42
0.000000001
 43
0.00000001
 40
0.0
 40
0.0
 40
0.0
 40
0.0
 40
0.2858113857726346
 40
0.5527245545033771
 40
0.8220275581359244
 40
0.9999999999999999
 40
0.9999999999999999
 40
0.9999999999999999
 40
0.9999999999999999
 10
82.15992405567069
 20
69.14076396449423
 30
0.0
 10
82.15598375424706
 20
68.93001236892923
 30
0.0
 10
82.14836368920628
 20
68.52244434481209
 30
0.0
 10
82.13690259955928
 20
67.86222348335129
 30
0.0
 10
82.15433998879531
 20
67.2631397192919
 30
0.0
 10
82.15833459005643
 20
66.87231334204533
 30
0.0
 10
82.15992405567069
 20
66.71680217906109
 30
0.0
  0
LINE
  5
10E
330
1F
100
AcDbEntity
  8
0
  6
Continuous
 62
     7
370
    25
100
AcDbLine
 10
82.1599240557
 20
71.9940004631
 30
0.0
 11
82.1599240557
 21
69.1407639645
 31
0.0
  0
LINE
  5
10F
330
1F
100
AcDbEntity
  8
0
  6
Continuous
 62
     7
370
    25
100
AcDbLine
 10
81.5104050028
 20
60.8806366138
 30
0.0
 11
81.5104050028
 21
66.8464947472
 31
0.0
  0
ARC
  5
110
330
1F
100
AcDbEntity
  8
0
  6
Continuous
 62
     7
370
    25
100
AcDbCircle
 10
82.0976281913
 20
68.0961042694
 30
0.0
 40
1.380708162956951
100
AcDbArc
 50
244.8299789717
 51
272.5859934179
  0
ARC
  5
111
330
1F
100
AcDbEntity
  8
0
  6
Continuous
 62
     7
370
    25
100
AcDbCircle
 10
82.0976281913
 20
59.6310270915
 30
0.0
 40
1.380708162956436
100
AcDbArc
 50
87.4140065821
 51
115.1700210283
  0
SPLINE
  5
112
330
1F
100
AcDbEntity
  8
0
  6
Continuous
 62
     7
370
    25
100
AcDbSpline
210
0.0
220
0.0
230
1.0
 70
     8
 71
     3
 72
    11
 73
     7
 74
     0
 42
0.000000001
 43
0.00000001
 40
0.0
 40
0.0
 40
0.0
 40
0.0
 40
0.2485331657816018
 40
0.4977458539813224
 40
0.7486584446317365
 40
1.0
 40
1.0
 40
1.0
 40
1.0
 10
81.51040500283236
 20
66.84649474717871
 30
0.0
 10
81.47732763294366
 20
66.59574027732678
 30
0.0
 10
81.41108245527924
 20
66.09354574186682
 30
0.0
 10
81.2530043782802
 20
65.34544499982572
 30
0.0
 10
81.06010668938818
 20
64.60078488865652
 30
0.0
 10
80.90233675107714
 20
64.10944529747628
 30
0.0
 10
80.8233844079262
 20
63.86356568047327
 30
0.0
  0
SPLINE
  5
113
330
1F
100
AcDbEntity
  8
0
  6
Continuous
 62
     7
370
    25
100
AcDbSpline
210
0.0
220
0.0
230
1.0
 70
     8
 71
     3
 72
    10
 73
     6
 74
     0
 42
0.000000001
 43
0.00000001
 40
0.0
 40
0.0
 40
0.0
 40
0.0
 40
0.4586421336634351
 40
0.9210522271454904
 40
1.0
 40
1.0
 40
1.0
 40
1.0
 10
81.51040500283236
 20
69.3806366137679
 30
0.0
 10
81.54284263826213
 20
68.99349627573899
 30
0.0
 10
81.6079843994808
 20
68.21603506058368
 30
0.0
 10
81.56642961793322
 20
67.36887403163533
 30
0.0
 10
81.5175353887386
 20
66.91297920014445
 30
0.0
 10
81.51040500283236
 20
66.84649474717871
 30
0.0
  0
LINE
  5
114
330
1F
100
AcDbEntity
  8
0
  6
Continuous
 62
     7
370
    25
100
AcDbLine
 10
71.1304382996
 20
72.3635656805
 30
0.0
 11
80.8233844079
 21
72.3635656805
 31
0.0
  0
SPLINE
  5
115
330
1F
100
AcDbEntity
  8
0
  6
Continuous
 62
     7
370
    25
100
AcDbSpline
210
0.0
220
0.0
230
1.0
 70
     8
 71
     3
 72
    10
 73
     6
 74
     0
 42
0.000000001
 43
0.00000001
 40
0.0
 40
0.0
 40
0.0
 40
0.0
 40
0.3273333707077128
 40
0.6629523133412112
 40
1.0
 40
1.0
 40
1.0
 40
1.0
 10
80.8233844079262
 20
72.36356568047336
 30
0.0
 10
80.9247020340226
 20
72.04303687118507
 30
0.0
 10
81.12990187190536
 20
71.39386592002062
 30
0.0
 10
81.36846729402814
 20
70.39862084793525
 30
0.0
 10
81.46302548602611
 20
69.72044484047214
 30
0.0
 10
81.51040500283236
 20
69.3806366137679
 30
0.0
  0
ARC
  5
116
330
1F
100
AcDbEntity
  8
0
  6
Continuous
 62
     7
370
    25
100
AcDbCircle
 10
82.1181169562
 20
57.700262053
 30
0.0
 40
0.887091040031503
100
AcDbArc
 50
87.2987462947
 51
133.2404470554
  0
ARC
  5
117
330
1F
100
AcDbEntity
  8
0
  6
Continuous
 62
     7
370
    25
100
AcDbCircle
 10
82.1181169562
 20
70.026869308
 30
0.0
 40
0.8870910400316765
100
AcDbArc
 50
226.7595529446
 51
272.7012537052
  0
LINE
  5
118
330
1F
100
AcDbEntity
  8
0
  6
Continuous
 62
     7
370
    25
100
AcDbLine
 10
81.5104050028
 20
55.3635656805
 30
0.0
 11
81.5104050028
 21
58.3464947472
 31
0.0
  0
SPLINE
  5
119
330
1F
100
AcDbEntity
  8
0
  6
Continuous
 62
     7
370
    25
100
AcDbSpline
210
0.0
220
0.0
230
1.0
 70
    24
 71
     3
 72
    11
 73
     7
 74
     0
 42
0.000000001
 43
0.00000001
 40
0.0
 40
0.0
 40
0.0
 40
0.0
 40
0.2488261663104049
 40
0.4980307642143796
 40
0.7486902142220283
 40
1.0
 40
1.0
 40
1.0
 40
1.0
 10
80.8233844079262
 20
55.36356568047331
 30
0.0
 10
80.90157355426622
 20
55.36356568047332
 30
0.0
 10
81.05807076226651
 20
55.36356568047332
 30
0.0
 10
81.25075739186927
 20
55.36356568047332
 30
0.0
 10
81.40999694609744
 20
55.36356568047334
 30
0.0
 10
81.47690675516303
 20
55.36356568047335
 30
0.0
 10
81.51040500283236
 20
55.36356568047336
 30
0.0
  0
ARC
  5
11A
330
1F
100
AcDbEntity
  8
0
  6
Continuous
 62
     7
370
    25
100
AcDbCircle
 10
82.1578879209
 20
54.9811547823
 30
0.0
 40
0.7519788721912477
100
AcDbArc
 50
89.8448599075
 51
149.433409991
  0
LINE
  5
11B
330
1F
100
AcDbEntity
  8
0
  6
Continuous
 62
     7
370
    25
100
AcDbLine
 10
81.5104050028
 20
69.3806366138
 30
0.0
 11
81.5104050028
 21
72.3635656805
 31
0.0
  0
ARC
  5
11C
330
1F
100
AcDbEntity
  8
0
  6
Continuous
 62
     7
370
    25
100
AcDbCircle
 10
82.1578879209
 20
72.7459765787
 30
0.0
 40
0.7519788722000124
100
AcDbArc
 50
210.5665900094
 51
270.1551400921
  0
SPLINE
  5
11D
330
1F
100
AcDbEntity
  8
0
  6
Continuous
 62
     7
370
    25
100
AcDbSpline
210
0.0
220
0.0
230
1.0
 70
    24
 71
     3
 72
    11
 73
     7
 74
     0
 42
0.000000001
 43
0.00000001
 40
0.0
 40
0.0
 40
0.0
 40
0.0
 40
0.2485331657816018
 40
0.4977458539813225
 40
0.7486584446317363
 40
0.9999999999999999
 40
0.9999999999999999
 40
0.9999999999999999
 40
0.9999999999999999
 10
81.51040500283236
 20
72.36356568047339
 30
0.0
 10
81.47732763294366
 20
72.36356568047339
 30
0.0
 10
81.41108245527923
 20
72.36356568047339
 30
0.0
 10
81.2530043782802
 20
72.36356568047339
 30
0.0
 10
81.06010668938816
 20
72.36356568047337
 30
0.0
 10
80.90233675107713
 20
72.36356568047336
 30
0.0
 10
80.8233844079262
 20
72.36356568047336
 30
0.0
  0
SPLINE
  5
11E
330
1F
100
AcDbEntity
  8
0
  6
Continuous
 62
     7
370
    25
100
AcDbSpline
210
0.0
220
0.0
230
1.0
 70
    24
 71
     3
 72
     9
 73
     5
 74
     0
 42
0.000000001
 43
0.00000001
 40
0.0
 40
0.0
 40
0.0
 40
0.0
 40
0.1823982932365515
 40
1.0
 40
1.0
 40
1.0
 40
1.0
 10
81.57665980402787
 20
72.36356568047341
 30
0.0
 10
81.57776858980222
 20
72.36356568047341
 30
0.0
 10
81.58384751606124
 20
72.3635656804734
 30
0.0
 10
81.54344124170773
 20
72.3635656804734
 30
0.0
 10
81.51040500283236
 20
72.36356568047339
 30
0.0
  0
SPLINE
  5
11F
330
1F
100
AcDbEntity
  8
0
  6
Continuous
 62
     7
370
    25
100
AcDbSpline
210
0.0
220
0.0
230
1.0
 70
    24
 71
     3
 72
     9
 73
     5
 74
     0
 42
0.000000001
 43
0.00000001
 40
0.0
 40
0.0
 40
0.0
 40
0.0
 40
0.5786343653924376
 40
1.0
 40
1.0
 40
1.0
 40
1.0
 10
81.51040500283236
 20
55.36356568047336
 30
0.0
 10
81.53622875147784
 20
55.36356568047336
 30
0.0
 10
81.5808575364066
 20
55.36356568047335
 30
0.0
 10
81.57790222303231
 20
55.36356568047336
 30
0.0
 10
81.57665695553688
 20
55.36356568047336
 30
0.0
  0
LINE
  5
120
330
1F
100
AcDbEntity
  8
0
  6
Continuous
 62
     7
370
    25
100
AcDbLine
 10
57.4785774036
 20
67.4093006859
 30
0.0
 11
57.4785774036
 21
63.8635656805
 31
0.0
  0
SPLINE
  5
121
330
1F
100
AcDbEntity
  8
0
  6
Continuous
 62
     7
370
    25
100
AcDbSpline
210
0.0
220
0.0
230
1.0
 70
     8
 71
     3
 72
    22
 73
    18
 74
     0
 42
0.000000001
 43
0.00000001
 40
0.0
 40
0.0
 40
0.0
 40
0.0
 40
0.2500000000000002
 40
0.2500000000000002
 40
0.3750000000000003
 40
0.3750000000000003
 40
0.4375000000000003
 40
0.4375000000000003
 40
0.5000000000000002
 40
0.5000000000000002
 40
0.5625000000000001
 40
0.5625000000000001
 40
0.6250000000000001
 40
0.6250000000000001
 40
0.7500000000000001
 40
0.7500000000000001
 40
1.0
 40
1.0
 40
1.0
 40
1.0
 10
57.47857740361777
 20
67.40930068587005
 30
0.0
 10
57.23305474653858
 20
67.47906996492448
 30
0.0
 10
56.99065326167009
 20
67.55582729487324
 30
0.0
 10
56.643431219263
 20
67.70763719241432
 30
0.0
 10
56.5306769709121
 20
67.76371358851038
 30
0.0
 10
56.38041236613084
 20
67.87146527685086
 30
0.0
 10
56.33333413336241
 20
67.91175133208615
 30
0.0
 10
56.26073591871229
 20
68.00495283272058
 30
0.0
 10
56.23588060195953
 20
68.05933310778565
 30
0.0
 10
56.23730562629856
 20
68.1728021144327
 30
0.0
 10
56.26358595350523
 20
68.22712206314948
 30
0.0
 10
56.33766234479351
 20
68.3195191070884
 30
0.0
 10
56.3847894334237
 20
68.359179403108
 30
0.0
 10
56.53485024875582
 20
68.4656102408507
 30
0.0
 10
56.64818428877086
 20
68.52173979035342
 30
0.0
 10
56.99188589672576
 20
68.6714999616579
 30
0.0
 10
57.23383436575579
 20
68.74828293757076
 30
0.0
 10
57.47857740361766
 20
68.81783067507266
 30
0.0
  0
LINE
  5
122
330
1F
100
AcDbEntity
  8
0
  6
Continuous
 62
     7
370
    25
100
AcDbLine
 10
57.4785774036
 20
72.3635656805
 30
0.0
 11
57.4785774036
 21
68.8178306751
 31
0.0
  0
LINE
  5
123
330
1F
100
AcDbEntity
  8
0
  6
Continuous
 62
     7
370
    25
100
AcDbLine
 10
62.5750504578
 20
72.3635656805
 30
0.0
 11
57.4785774036
 21
72.3635656805
 31
0.0
  0
SPLINE
  5
124
330
1F
100
AcDbEntity
  8
0
  6
Continuous
 62
     7
370
    25
100
AcDbSpline
210
0.0
220
0.0
230
1.0
 70
     8
 71
     3
 72
     8
 73
     4
 74
     0
 42
0.000000001
 43
0.00000001
 40
0.0
 40
0.0
 40
0.0
 40
0.0
 40
1.0
 40
1.0
 40
1.0
 40
1.0
 10
63.26207105267189
 20
69.38063661376783
 30
0.0
 10
63.14776492034915
 20
70.39140022032285
 30
0.0
 10
62.90181265870404
 20
71.38327907765908
 30
0.0
 10
62.57505045776594
 20
72.36356568047339
 30
0.0
  0
SPLINE
  5
125
330
1F
100
AcDbEntity
  8
0
  6
Continuous
 62
     7
370
    25
100
AcDbSpline
210
0.0
220
0.0
230
1.0
 70
     8
 71
     3
 72
    10
 73
     6
 74
     0
 42
0.000000001
 43
0.00000001
 40
0.0
 40
0.0
 40
0.0
 40
0.0
 40
0.5000000000000002
 40
0.5000000000000002
 40
1.0
 40
1.0
 40
1.0
 40
1.0
 10
63.26207105267189
 20
66.84649474717895
 30
0.0
 10
63.30937881596969
 20
67.26481845805345
 30
0.0
 10
63.33410784508607
 20
67.68595106596158
 30
0.0
 10
63.33437076706068
 20
68.53433638006115
 30
0.0
 10
63.30962552540101
 20
68.96013134964244
 30
0.0
 10
63.26207105267189
 20
69.38063661376783
 30
0.0
  0
SPLINE
  5
126
330
1F
100
AcDbEntity
  8
0
  6
Continuous
 62
     7
370
    25
100
AcDbSpline
210
0.0
220
0.0
230
1.0
 70
     8
 71
     3
 72
     8
 73
     4
 74
     0
 42
0.000000001
 43
0.00000001
 40
0.0
 40
0.0
 40
0.0
 40
0.0
 40
1.0
 40
1.0
 40
1.0
 40
1.0
 10
62.57505045776615
 20
63.86356568047336
 30
0.0
 10
62.90240857337729
 20
64.84564002730679
 30
0.0
 10
63.1480085496864
 20
65.83788545782959
 30
0.0
 10
63.26207105267189
 20
66.84649474717895
 30
0.0
  0
LINE
  5
127
330
1F
100
AcDbEntity
  8
0
  6
Continuous
 62
     7
370
    25
100
AcDbLine
 10
62.5750504578
 20
63.8635656805
 30
0.0
 11
57.4785774036
 21
63.8635656805
 31
0.0
  0
LINE
  5
128
330
1F
100
AcDbEntity
  8
0
  6
Continuous
 62
     7
370
    25
100
AcDbLine
 10
63.2620710527
 20
60.8806366138
 30
0.0
 11
63.2620710527
 21
66.8464947472
 31
0.0
  0
SPLINE
  5
129
330
1F
100
AcDbEntity
  8
0
  6
Continuous
 62
     7
370
    25
100
AcDbSpline
210
0.0
220
0.0
230
1.0
 70
     8
 71
     3
 72
     8
 73
     4
 74
     0
 42
0.000000001
 43
0.00000001
 40
0.0
 40
0.0
 40
0.0
 40
0.0
 40
1.0
 40
1.0
 40
1.0
 40
1.0
 10
63.26207105267189
 20
60.88063661376802
 30
0.0
 10
63.14776492034914
 20
61.89140022032299
 30
0.0
 10
62.90181265870404
 20
62.88327907765917
 30
0.0
 10
62.57505045776594
 20
63.86356568047344
 30
0.0
  0
LINE
  5
12A
330
1F
100
AcDbEntity
  8
0
  6
Continuous
 62
     7
370
    25
100
AcDbLine
 10
57.4785774036
 20
58.9093006859
 30
0.0
 11
57.4785774036
 21
55.3635656805
 31
0.0
  0
SPLINE
  5
12B
330
1F
100
AcDbEntity
  8
0
  6
Continuous
 62
     7
370
    25
100
AcDbSpline
210
0.0
220
0.0
230
1.0
 70
     8
 71
     3
 72
    22
 73
    18
 74
     0
 42
0.000000001
 43
0.00000001
 40
0.0
 40
0.0
 40
0.0
 40
0.0
 40
0.249999999999999
 40
0.249999999999999
 40
0.3749999999999986
 40
0.3749999999999986
 40
0.4374999999999987
 40
0.4374999999999987
 40
0.4999999999999988
 40
0.4999999999999988
 40
0.5624999999999989
 40
0.5624999999999989
 40
0.6249999999999989
 40
0.6249999999999989
 40
0.7499999999999992
 40
0.7499999999999992
 40
1.0
 40
1.0
 40
1.0
 40
1.0
 10
57.47857740361628
 20
58.9093006858708
 30
0.0
 10
57.23305474653742
 20
58.9790699649252
 30
0.0
 10
56.99065326166927
 20
59.05582729487394
 30
0.0
 10
56.6434312192627
 20
59.20763719241502
 30
0.0
 10
56.53067697091197
 20
59.26371358851106
 30
0.0
 10
56.38041236613103
 20
59.37146527685157
 30
0.0
 10
56.33333413336273
 20
59.41175133208693
 30
0.0
 10
56.26073591871297
 20
59.50495283272134
 30
0.0
 10
56.23588060196042
 20
59.55933310778641
 30
0.0
 10
56.23730562629986
 20
59.67280211443336
 30
0.0
 10
56.26358595350665
 20
59.72712206314998
 30
0.0
 10
56.33766234479497
 20
59.81951910708874
 30
0.0
 10
56.3847894334251
 20
59.85917940310829
 30
0.0
 10
56.53485024875709
 20
59.96561024085082
 30
0.0
 10
56.64818428877203
 20
60.02173979035348
 30
0.0
 10
56.99188589672656
 20
60.17149996165782
 30
0.0
 10
57.23383436575628
 20
60.24828293757059
 30
0.0
 10
57.47857740361788
 20
60.31783067507243
 30
0.0
  0
SPLINE
  5
12C
330
1F
100
AcDbEntity
  8
0
  6
Continuous
 62
     7
370
    25
100
AcDbSpline
210
0.0
220
0.0
230
1.0
 70
     8
 71
     3
 72
    10
 73
     6
 74
     0
 42
0.000000001
 43
0.00000001
 40
0.0
 40
0.0
 40
0.0
 40
0.0
 40
0.5
 40
0.5
 40
1.0
 40
1.0
 40
1.0
 40
1.0
 10
63.26207105267189
 20
58.3464947471788
 30
0.0
 10
63.30937881596971
 20
58.76481845805336
 30
0.0
 10
63.3341078450861
 20
59.18595106596153
 30
0.0
 10
63.3343707670607
 20
60.03433638006122
 30
0.0
 10
63.30962552540102
 20
60.46013134964255
 30
0.0
 10
63.26207105267189
 20
60.88063661376802
 30
0.0
  0
SPLINE
  5
12D
330
1F
100
AcDbEntity
  8
0
  6
Continuous
 62
     7
370
    25
100
AcDbSpline
210
0.0
220
0.0
230
1.0
 70
     8
 71
     3
 72
     8
 73
     4
 74
     0
 42
0.000000001
 43
0.00000001
 40
0.0
 40
0.0
 40
0.0
 40
0.0
 40
1.0
 40
1.0
 40
1.0
 40
1.0
 10
62.57505045776615
 20
55.36356568047334
 30
0.0
 10
62.90240857337729
 20
56.34564002730673
 30
0.0
 10
63.1480085496864
 20
57.33788545782948
 30
0.0
 10
63.26207105267189
 20
58.3464947471788
 30
0.0
  0
LINE
  5
12E
330
1F
100
AcDbEntity
  8
0
  6
Continuous
 62
     7
370
    25
100
AcDbLine
 10
62.5750504578
 20
55.3635656805
 30
0.0
 11
57.4785774036
 21
55.3635656805
 31
0.0
  0
LINE
  5
12F
330
1F
100
AcDbEntity
  8
0
  6
Continuous
 62
     7
370
    25
100
AcDbLine
 10
57.4785774036
 20
63.8635656805
 30
0.0
 11
57.4785774036
 21
60.3178306751
 31
0.0
  0
ARC
  5
130
330
1F
100
AcDbEntity
  8
0
  6
Continuous
 62
     7
370
    25
100
AcDbCircle
 10
63.8492942412
 20
68.0961042694
 30
0.0
 40
1.38070816295688
100
AcDbArc
 50
244.8299789717
 51
272.5859934179
  0
LINE
  5
131
330
1F
100
AcDbEntity
  8
0
  6
Continuous
 62
     7
370
    25
100
AcDbLine
 10
63.9115901055
 20
66.7168021791
 30
0.0
 11
63.9115901055
 21
61.0103291819
 31
0.0
  0
ARC
  5
132
330
1F
100
AcDbEntity
  8
0
  6
Continuous
 62
     7
370
    25
100
AcDbCircle
 10
63.8492942412
 20
59.6310270915
 30
0.0
 40
1.380708162954908
100
AcDbArc
 50
87.4140065821
 51
115.1700210283
  0
LINE
  5
133
330
1F
100
AcDbEntity
  8
0
  6
Continuous
 62
     7
370
    25
100
AcDbLine
 10
46.5524868373
 20
55.6661935107
 30
0.0
 11
46.5524868373
 21
72.0609378503
 31
0.0
  0
SPLINE
  5
134
330
1F
100
AcDbEntity
  8
0
  6
Continuous
 62
     7
370
    25
100
AcDbSpline
210
0.0
220
0.0
230
1.0
 70
    24
 71
     3
 72
    14
 73
    10
 74
     0
 42
0.000000001
 43
0.00000001
 40
0.0
 40
0.0
 40
0.0
 40
0.0
 40
0.0378060563439083
 40
0.0963207725197366
 40
0.2019181427650027
 40
0.3457158326568572
 40
0.4934006036227169
 40
0.7458443165067387
 40
1.0
 40
1.0
 40
1.0
 40
1.0
 10
56.24176204227425
 20
55.3635656804734
 30
0.0
 10
56.24098676536725
 20
55.3635656804734
 30
0.0
 10
56.23901154557919
 20
55.3635656804734
 30
0.0
 10
56.28308178342312
 20
55.36356568047341
 30
0.0
 10
56.38433777349258
 20
55.3635656804734
 30
0.0
 10
56.55082125041653
 20
55.36356568047341
 30
0.0
 10
56.79600326917543
 20
55.36356568047341
 30
0.0
 10
57.10685905986828
 20
55.36356568047341
 30
0.0
 10
57.35439245602781
 20
55.3635656804734
 30
0.0
 10
57.47857740361799
 20
55.3635656804734
 30
0.0
  0
SPLINE
  5
135
330
1F
100
AcDbEntity
  8
0
  6
Continuous
 62
     7
370
    25
100
AcDbSpline
210
0.0
220
0.0
230
1.0
 70
    24
 71
     3
 72
    14
 73
    10
 74
     0
 42
0.000000001
 43
0.00000001
 40
0.0
 40
0.0
 40
0.0
 40
0.0
 40
0.2527166869031828
 40
0.5066025576088956
 40
0.6510991772870223
 40
0.7980803092509821
 40
0.9036784890473062
 40
0.9621936538200164
 40
1.0
 40
1.0
 40
1.0
 40
1.0
 10
57.47857740361799
 20
72.3635656804734
 30
0.0
 10
57.35509691171413
 20
72.3635656804734
 30
0.0
 10
57.10756465027205
 20
72.3635656804734
 30
0.0
 10
56.7981532524075
 20
72.3635656804734
 30
0.0
 10
56.55226517237242
 20
72.3635656804734
 30
0.0
 10
56.38539533956378
 20
72.36356568047341
 30
0.0
 10
56.28308045623503
 20
72.3635656804734
 30
0.0
 10
56.23901169302859
 20
72.3635656804734
 30
0.0
 10
56.24098680692851
 20
72.3635656804734
 30
0.0
 10
56.24176204227425
 20
72.3635656804734
 30
0.0
  0
LINE
  5
136
330
1F
100
AcDbEntity
  8
0
  6
Continuous
 62
     7
370
    25
100
AcDbLine
 10
64.9785774036
 20
71.9135656805
 30
0.0
 11
64.9785774036
 21
55.8135656805
 31
0.0
  0
LINE
  5
137
330
1F
100
AcDbEntity
  8
0
  6
Continuous
 62
     7
370
    25
100
AcDbLine
 10
64.7785774036
 20
55.6135656805
 30
0.0
 11
64.7785774036
 21
72.1135656805
 31
0.0
  0
LINE
  5
138
330
1F
100
AcDbEntity
  8
0
  6
Continuous
 62
     7
370
    25
100
AcDbLine
 10
63.9115901055
 20
58.5863673965
 30
0.0
 11
63.9115901055
 21
55.7331308979
 31
0.0
  0
SPLINE
  5
139
330
1F
100
AcDbEntity
  8
0
  6
Continuous
 62
     7
370
    25
100
AcDbSpline
210
0.0
220
0.0
230
1.0
 70
     8
 71
     3
 72
    10
 73
     6
 74
     0
 42
0.000000001
 43
0.00000001
 40
0.0
 40
0.0
 40
0.0
 40
0.0
 40
0.4999999999999998
 40
0.4999999999999998
 40
1.0
 40
1.0
 40
1.0
 40
1.0
 10
63.91159010551021
 20
61.01032918188562
 30
0.0
 10
63.91159010551021
 20
60.5688476627934
 30
0.0
 10
63.89330693760659
 20
60.14586953479512
 30
0.0
 10
63.89320700647784
 20
59.33584431911365
 30
0.0
 10
63.91159010551021
 20
58.94817492174474
 30
0.0
 10
63.91159010551021
 20
58.58636739645248
 30
0.0
  0
SPLINE
  5
13A
330
1F
100
AcDbEntity
  8
0
  6
Continuous
 62
     7
370
    25
100
AcDbSpline
210
0.0
220
0.0
230
1.0
 70
     8
 71
     3
 72
    10
 73
     6
 74
     0
 42
0.000000001
 43
0.00000001
 40
0.0
 40
0.0
 40
0.0
 40
0.0
 40
0.5
 40
0.5
 40
1.0
 40
1.0
 40
1.0
 40
1.0
 10
63.91159010551021
 20
69.14076396449413
 30
0.0
 10
63.91159010551021
 20
68.77909775105184
 30
0.0
 10
63.89330693760662
 20
68.39571917511292
 30
0.0
 10
63.89320700647787
 20
67.5859938304986
 30
0.0
 10
63.91159010551021
 20
67.15845619579868
 30
0.0
 10
63.91159010551021
 20
66.71680217906132
 30
0.0
  0
LINE
  5
13B
330
1F
100
AcDbEntity
  8
0
  6
Continuous
 62
     7
370
    25
100
AcDbLine
 10
63.9115901055
 20
71.9940004631
 30
0.0
 11
63.9115901055
 21
69.1407639645
 31
0.0
  0
LINE
  5
13C
330
1F
100
AcDbEntity
  8
0
  6
Continuous
 62
     7
370
    25
100
AcDbLine
 10
44.4785774036
 20
56.8635656805
 30
0.0
 11
44.4785774036
 21
70.8635656805
 31
0.0
  0
ARC
  5
13D
330
1F
100
AcDbEntity
  8
0
  6
Continuous
 62
     7
370
    25
100
AcDbCircle
 10
63.869783006
 20
57.700262053
 30
0.0
 40
0.8870910400315184
100
AcDbArc
 50
87.2987462947
 51
133.2404470554
  0
ARC
  5
13E
330
1F
100
AcDbEntity
  8
0
  6
Continuous
 62
     7
370
    25
100
AcDbCircle
 10
63.869783006
 20
70.026869308
 30
0.0
 40
0.8870910400331821
100
AcDbArc
 50
226.7595529447
 51
272.7012537052
  0
LINE
  5
13F
330
1F
100
AcDbEntity
  8
0
  6
Continuous
 62
     7
370
    25
100
AcDbLine
 10
63.2620710527
 20
69.3806366138
 30
0.0
 11
63.2620710527
 21
72.3635656805
 31
0.0
  0
ARC
  5
140
330
1F
100
AcDbEntity
  8
0
  6
Continuous
 62
     7
370
    25
100
AcDbCircle
 10
63.9095539707
 20
72.7459765786
 30
0.0
 40
0.7519788721912524
100
AcDbArc
 50
210.566590009
 51
270.1551400925
  0
SPLINE
  5
141
330
1F
100
AcDbEntity
  8
0
  6
Continuous
 62
     7
370
    25
100
AcDbSpline
210
0.0
220
0.0
230
1.0
 70
    24
 71
     3
 72
     8
 73
     4
 74
     0
 42
0.000000001
 43
0.00000001
 40
0.0
 40
0.0
 40
0.0
 40
0.0
 40
1.0
 40
1.0
 40
1.0
 40
1.0
 10
63.2620710526719
 20
72.36356568047339
 30
0.0
 10
63.14670255732421
 20
72.36356568047337
 30
0.0
 10
62.89926819203906
 20
72.36356568047336
 30
0.0
 10
62.57505045776573
 20
72.36356568047336
 30
0.0
  0
LINE
  5
142
330
1F
100
AcDbEntity
  8
0
  6
Continuous
 62
     7
370
    25
100
AcDbLine
 10
63.2620710527
 20
55.3635656805
 30
0.0
 11
63.2620710527
 21
58.3464947472
 31
0.0
  0
ARC
  5
143
330
1F
100
AcDbEntity
  8
0
  6
Continuous
 62
     7
370
    25
100
AcDbCircle
 10
63.9095539707
 20
54.9811547823
 30
0.0
 40
0.7519788721846142
100
AcDbArc
 50
89.8448599072
 51
149.4334099913
  0
SPLINE
  5
144
330
1F
100
AcDbEntity
  8
0
  6
Continuous
 62
     7
370
    25
100
AcDbSpline
210
0.0
220
0.0
230
1.0
 70
    24
 71
     3
 72
     8
 73
     4
 74
     0
 42
0.000000001
 43
0.00000001
 40
0.0
 40
0.0
 40
0.0
 40
0.0
 40
1.0
 40
1.0
 40
1.0
 40
1.0
 10
63.2620710526719
 20
55.3635656804734
 30
0.0
 10
63.14670255732474
 20
55.3635656804734
 30
0.0
 10
62.8992681920403
 20
55.36356568047339
 30
0.0
 10
62.57505045776573
 20
55.36356568047339
 30
0.0
  0
LINE
  5
145
330
1F
100
AcDbEntity
  8
0
  6
Continuous
 62
     7
370
    25
100
AcDbLine
 10
67.9785774036
 20
70.4420656805
 30
0.0
 11
67.9785774036
 21
57.2850656805
 31
0.0
  0
LINE
  5
146
330
1F
100
AcDbEntity
  8
0
  6
Continuous
 62
     7
370
    25
100
AcDbLine
 10
66.9785774036
 20
58.2850656805
 30
0.0
 11
66.9785774036
 21
69.4420656805
 31
0.0
  0
SPLINE
  5
147
330
1F
100
AcDbEntity
  8
0
  6
Continuous
 62
     7
370
    25
100
AcDbSpline
210
0.0
220
0.0
230
1.0
 70
    24
 71
     3
 72
     9
 73
     5
 74
     0
 42
0.000000001
 43
0.00000001
 40
0.0
 40
0.0
 40
0.0
 40
0.0
 40
0.181066039072828
 40
1.0
 40
1.0
 40
1.0
 40
1.0
 10
63.26207105267189
 20
72.36356568047339
 30
0.0
 10
63.27086721870788
 20
72.36356568047339
 30
0.0
 10
63.31944709642009
 20
72.36356568047339
 30
0.0
 10
63.32650942803741
 20
72.3635656804734
 30
0.0
 10
63.33229301124217
 20
72.3635656804734
 30
0.0
  0
SPLINE
  5
148
330
1F
100
AcDbEntity
  8
0
  6
Continuous
 62
     7
370
    25
100
AcDbSpline
210
0.0
220
0.0
230
1.0
 70
    24
 71
     3
 72
     9
 73
     5
 74
     0
 42
0.000000001
 43
0.00000001
 40
0.0
 40
0.0
 40
0.0
 40
0.0
 40
0.7924561595574667
 40
1.0
 40
1.0
 40
1.0
 40
1.0
 10
63.32487043627587
 20
55.3635656804734
 30
0.0
 10
63.31991228237332
 20
55.3635656804734
 30
0.0
 10
63.31365559063999
 20
55.3635656804734
 30
0.0
 10
63.27093702735437
 20
55.3635656804734
 30
0.0
 10
63.26207105267189
 20
55.3635656804734
 30
0.0
  0
SPLINE
  5
149
330
1F
100
AcDbEntity
  8
0
  6
Continuous
 62
     8
370
    25
100
AcDbSpline
210
0.0
220
0.0
230
1.0
 70
     8
 71
     3
 72
    10
 73
     6
 74
     0
 42
0.000000001
 43
0.00000001
 40
0.0
 40
0.0
 40
0.0
 40
0.0
 40
0.10546833520379
 40
0.6440627666016295
 40
1.0
 40
1.0
 40
1.0
 40
1.0
 10
82.14322714823432
 20
72.1081519374242
 30
0.0
 10
82.1427122059578
 20
72.10982899646237
 30
0.0
 10
82.13956761145371
 20
72.12007028150586
 30
0.0
 10
82.15494625210592
 20
72.08086395030958
 30
0.0
 10
82.15850715867164
 20
72.01872554770571
 30
0.0
 10
82.15992405567069
 20
71.99400046308209
 30
0.0
  0
SPLINE
  5
14A
330
1F
100
AcDbEntity
  8
0
  6
Continuous
 62
     8
370
    25
100
AcDbSpline
210
0.0
220
0.0
230
1.0
 70
     8
 71
     3
 72
     9
 73
     5
 74
     0
 42
0.000000001
 43
0.00000001
 40
0.0
 40
0.0
 40
0.0
 40
0.0
 40
0.571635057593803
 40
1.0
 40
1.0
 40
1.0
 40
1.0
 10
82.15992405567069
 20
55.73313089786466
 30
0.0
 10
82.1554646475853
 20
55.69341249212224
 30
0.0
 10
82.14766350238587
 20
55.62393038948564
 30
0.0
 10
82.14455760555248
 20
55.62046421230919
 30
0.0
 10
82.14322714823433
 20
55.61897942352262
 30
0.0
  0
SPLINE
  5
14B
330
1F
100
AcDbEntity
  8
0
  6
Continuous
 62
     8
370
    25
100
AcDbSpline
210
0.0
220
0.0
230
1.0
 70
     8
 71
     3
 72
     9
 73
     5
 74
     0
 42
0.000000001
 43
0.00000001
 40
0.0
 40
0.0
 40
0.0
 40
0.0
 40
0.7089199715473478
 40
1.0
 40
1.0
 40
1.0
 40
1.0
 10
63.91159010551021
 20
55.73313089786471
 30
0.0
 10
63.90437617157706
 20
55.68235777412644
 30
0.0
 10
63.89420022193156
 20
55.61073738568197
 30
0.0
 10
63.89698004765337
 20
55.62450055875848
 30
0.0
 10
63.89778919940358
 20
55.62850674356919
 30
0.0
  0
SPLINE
  5
14C
330
1F
100
AcDbEntity
  8
0
  6
Continuous
 62
     8
370
    25
100
AcDbSpline
210
0.0
220
0.0
230
1.0
 70
     8
 71
     3
 72
     9
 73
     5
 74
     0
 42
0.000000001
 43
0.00000001
 40
0.0
 40
0.0
 40
0.0
 40
0.0
 40
0.4282927988935002
 40
1.0
 40
1.0
 40
1.0
 40
1.0
 10
63.89778919940373
 20
72.09862461737666
 30
0.0
 10
63.89794783519406
 20
72.10099346462552
 30
0.0
 10
63.898318226176
 20
72.10652437071354
 30
0.0
 10
63.9067624703233
 20
72.03493094189153
 30
0.0
 10
63.91159010551021
 20
71.99400046308209
 30
0.0
  0
CIRCLE
  5
14D
330
1F
100
AcDbEntity
  8
0
  6
Continuous
 62
     7
370
    25
100
AcDbCircle
 10
102.4694615385
 20
30.6430710059
 30
0.0
 40
4.074999999999997
  0
CIRCLE
  5
14E
330
1F
100
AcDbEntity
  8
0
  6
Continuous
 62
     7
370
    25
100
AcDbCircle
 10
102.4694615385
 20
30.6430710059
 30
0.0
 40
4.175000000000005
  0
CIRCLE
  5
14F
330
1F
100
AcDbEntity
  8
0
  6
Continuous
 62
     7
370
    25
100
AcDbCircle
 10
102.4694615385
 20
30.6430710059
 30
0.0
 40
8.050000000000008
  0
CIRCLE
  5
150
330
1F
100
AcDbEntity
  8
0
  6
Continuous
 62
     7
370
    25
100
AcDbCircle
 10
102.4694615385
 20
30.6430710059
 30
0.0
 40
8.250000000000002
  0
SPLINE
  5
151
330
1F
100
AcDbEntity
  8
0
  6
Continuous
 62
     7
370
    25
100
AcDbSpline
210
0.0
220
0.0
230
1.0
 70
    24
 71
     3
 72
    10
 73
     6
 74
     0
 42
0.000000001
 43
0.00000001
 40
0.0
 40
0.0
 40
0.0
 40
0.0
 40
0.3089808900030072
 40
0.6190948628358686
 40
1.0
 40
1.0
 40
1.0
 40
1.0
 10
93.96946153846147
 20
32.10615849475687
 30
0.0
 10
93.96946153846147
 20
31.80526257002117
 30
0.0
 10
93.96946153846147
 20
31.20236728659342
 30
0.0
 10
93.9694615384615
 20
30.22434480940144
 30
0.0
 10
93.9694615384615
 20
29.55109423908515
 30
0.0
 10
93.9694615384615
 20
29.17998351707736
 30
0.0
  0
LINE
  5
152
330
1F
100
AcDbEntity
  8
0
  6
Continuous
 62
     7
370
    25
100
AcDbLine
 10
93.9694615385
 20
32.1061584948
 30
0.0
 11
94.3390267559
 21
32.0425459952
 31
0.0
  0
LINE
  5
153
330
1F
100
AcDbEntity
  8
0
  6
Continuous
 62
     7
370
    25
100
AcDbLine
 10
93.9694615385
 20
29.1799835171
 30
0.0
 11
94.3390267559
 21
29.2435960166
 31
0.0
  0
SPLINE
  5
154
330
1F
100
AcDbEntity
  8
0
  6
Continuous
 62
     7
370
    25
100
AcDbSpline
210
0.0
220
0.0
230
1.0
 70
    24
 71
     3
 72
    10
 73
     6
 74
     0
 42
0.000000001
 43
0.00000001
 40
0.0
 40
0.0
 40
0.0
 40
0.0
 40
0.3089808900029885
 40
0.6190948628358313
 40
1.0
 40
1.0
 40
1.0
 40
1.0
 10
99.48653247175598
 20
38.73583068250487
 30
0.0
 10
99.22594895703963
 20
38.58538272013701
 30
0.0
 10
98.70382632576937
 20
38.2839350784231
 30
0.0
 10
97.85683401504882
 20
37.79492383982703
 30
0.0
 10
97.27378191804245
 20
37.45829855466882
 30
0.0
 10
96.95239060516685
 20
37.27274319366488
 30
0.0
  0
LINE
  5
155
330
1F
100
AcDbEntity
  8
0
  6
Continuous
 62
     7
370
    25
100
AcDbLine
 10
99.4865324718
 20
38.7358306825
 30
0.0
 11
99.6162250399
 21
38.3839715661
 31
0.0
  0
LINE
  5
156
330
1F
100
AcDbEntity
  8
0
  6
Continuous
 62
     7
370
    25
100
AcDbLine
 10
96.9523906052
 20
37.2727431937
 30
0.0
 11
97.1922632544
 21
36.9844965768
 31
0.0
  0
LINE
  5
157
330
1F
100
AcDbEntity
  8
0
  6
Continuous
 62
     7
370
    25
100
AcDbLine
 10
107.7466598225
 20
24.301645435
 30
0.0
 11
107.9865324718
 21
24.0133988182
 31
0.0
  0
SPLINE
  5
158
330
1F
100
AcDbEntity
  8
0
  6
Continuous
 62
     7
370
    25
100
AcDbSpline
210
0.0
220
0.0
230
1.0
 70
    24
 71
     3
 72
    10
 73
     6
 74
     0
 42
0.000000001
 43
0.00000001
 40
0.0
 40
0.0
 40
0.0
 40
0.0
 40
0.3089808900029879
 40
0.6190948628358312
 40
1.0
 40
1.0
 40
1.0
 40
1.0
 10
105.452390605167
 20
22.55031132932952
 30
0.0
 10
105.7129741198834
 20
22.70075929169738
 30
0.0
 10
106.2350967511536
 20
23.00220693341128
 30
0.0
 10
107.0820890618742
 20
23.49121817200735
 30
0.0
 10
107.6651411588806
 20
23.82784345716556
 30
0.0
 10
107.9865324717562
 20
24.0133988181695
 30
0.0
  0
LINE
  5
159
330
1F
100
AcDbEntity
  8
0
  6
Continuous
 62
     7
370
    25
100
AcDbLine
 10
105.322698037
 20
22.9021704457
 30
0.0
 11
105.4523906052
 21
22.5503113293
 31
0.0
  0
LINE
  5
15A
330
1F
100
AcDbEntity
  8
0
  6
Continuous
 62
     7
370
    25
100
AcDbLine
 10
99.6162250399
 20
22.9021704457
 30
0.0
 11
99.4865324718
 21
22.5503113293
 31
0.0
  0
SPLINE
  5
15B
330
1F
100
AcDbEntity
  8
0
  6
Continuous
 62
     7
370
    25
100
AcDbSpline
210
0.0
220
0.0
230
1.0
 70
    24
 71
     3
 72
    10
 73
     6
 74
     0
 42
0.000000001
 43
0.00000001
 40
0.0
 40
0.0
 40
0.0
 40
0.0
 40
0.0789477693778936
 40
0.5375793028234304
 40
0.9999999999999999
 40
0.9999999999999999
 40
0.9999999999999999
 40
0.9999999999999999
 10
96.95239060516698
 20
24.01339881816942
 30
0.0
 10
97.01887507608977
 20
23.97501399098522
 30
0.0
 10
97.47158800020266
 20
23.71364006238302
 30
0.0
 10
98.31870954677453
 20
23.22455420943346
 30
0.0
 10
99.09619198854334
 20
22.77567451238801
 30
0.0
 10
99.48653247175616
 20
22.55031132932948
 30
0.0
  0
LINE
  5
15C
330
1F
100
AcDbEntity
  8
0
  6
Continuous
 62
     7
370
    25
100
AcDbLine
 10
96.9523906052
 20
24.0133988182
 30
0.0
 11
97.1922632544
 21
24.301645435
 31
0.0
  0
LINE
  5
15D
330
1F
100
AcDbEntity
  8
0
  6
Continuous
 62
     7
370
    25
100
AcDbLine
 10
110.5998963211
 20
32.0425459952
 30
0.0
 11
110.9694615385
 21
32.1061584948
 31
0.0
  0
SPLINE
  5
15E
330
1F
100
AcDbEntity
  8
0
  6
Continuous
 62
     7
370
    25
100
AcDbSpline
210
0.0
220
0.0
230
1.0
 70
    24
 71
     3
 72
    10
 73
     6
 74
     0
 42
0.000000001
 43
0.00000001
 40
0.0
 40
0.0
 40
0.0
 40
0.0
 40
0.3089808900029882
 40
0.61909486283583
 40
1.0
 40
1.0
 40
1.0
 40
1.0
 10
110.9694615384616
 20
29.17998351707734
 30
0.0
 10
110.9694615384616
 20
29.48087944181306
 30
0.0
 10
110.9694615384616
 20
30.08377472524085
 30
0.0
 10
110.9694615384615
 20
31.06179720243297
 30
0.0
 10
110.9694615384615
 20
31.73504777274938
 30
0.0
 10
110.9694615384615
 20
32.10615849475725
 30
0.0
  0
LINE
  5
15F
330
1F
100
AcDbEntity
  8
0
  6
Continuous
 62
     7
370
    25
100
AcDbLine
 10
110.5998963211
 20
29.2435960166
 30
0.0
 11
110.9694615385
 21
29.1799835171
 31
0.0
  0
LINE
  5
160
330
1F
100
AcDbEntity
  8
0
  6
Continuous
 62
     7
370
    25
100
AcDbLine
 10
105.4523906052
 20
38.7358306825
 30
0.0
 11
105.322698037
 21
38.3839715661
 31
0.0
  0
SPLINE
  5
161
330
1F
100
AcDbEntity
  8
0
  6
Continuous
 62
     7
370
    25
100
AcDbSpline
210
0.0
220
0.0
230
1.0
 70
    24
 71
     3
 72
    10
 73
     6
 74
     0
 42
0.000000001
 43
0.00000001
 40
0.0
 40
0.0
 40
0.0
 40
0.0
 40
0.458642133663435
 40
0.9210522271454904
 40
1.0
 40
1.0
 40
1.0
 40
1.0
 10
107.986532471756
 20
37.27274319366502
 30
0.0
 10
107.5993921337271
 20
37.49625877204017
 30
0.0
 10
106.8219309185718
 20
37.94512621389455
 30
0.0
 10
105.9747698896235
 20
38.43423486200486
 30
0.0
 10
105.5188750581326
 20
38.69744586568826
 30
0.0
 10
105.4523906051668
 20
38.73583068250495
 30
0.0
  0
LINE
  5
162
330
1F
100
AcDbEntity
  8
0
  6
Continuous
 62
     7
370
    25
100
AcDbLine
 10
107.7466598225
 20
36.9844965768
 30
0.0
 11
107.9865324718
 21
37.2727431937
 31
0.0
  0
ARC
  5
163
330
1F
100
AcDbEntity
  8
0
  6
Continuous
 62
     7
370
    25
100
AcDbCircle
 10
102.4694615385
 20
30.6430710059
 30
0.0
 40
8.625000000000007
100
AcDbArc
 50
129.766500898
 51
170.233499102
  0
ARC
  5
164
330
1F
100
AcDbEntity
  8
0
  6
Continuous
 62
     7
370
    25
100
AcDbCircle
 10
102.4694615385
 20
30.6430710059
 30
0.0
 40
8.625000000000012
100
AcDbArc
 50
309.766500898
 51
350.233499102
  0
ARC
  5
165
330
1F
100
AcDbEntity
  8
0
  6
Continuous
 62
     7
370
    25
100
AcDbCircle
 10
102.4694615385
 20
30.6430710059
 30
0.0
 40
8.625000000000009
100
AcDbArc
 50
189.766500898
 51
230.233499102
  0
ARC
  5
166
330
1F
100
AcDbEntity
  8
0
  6
Continuous
 62
     7
370
    25
100
AcDbCircle
 10
102.4694615385
 20
30.6430710059
 30
0.0
 40
8.625000000000004
100
AcDbArc
 50
249.766500898
 51
290.233499102
  0
ARC
  5
167
330
1F
100
AcDbEntity
  8
0
  6
Continuous
 62
     7
370
    25
100
AcDbCircle
 10
102.4694615385
 20
30.6430710059
 30
0.0
 40
8.625000000000009
100
AcDbArc
 50
69.766500898
 51
110.233499102
  0
ARC
  5
168
330
1F
100
AcDbEntity
  8
0
  6
Continuous
 62
     7
370
    25
100
AcDbCircle
 10
102.4694615385
 20
30.6430710059
 30
0.0
 40
8.625000000000004
100
AcDbArc
 50
9.766500898
 51
50.233499102
  0
SPLINE
  5
169
330
1F
100
AcDbEntity
  8
0
  6
Continuous
 62
     7
370
    25
100
AcDbSpline
210
0.0
220
0.0
230
1.0
 70
    24
 71
     3
 72
    11
 73
     7
 74
     0
 42
0.000000001
 43
0.00000001
 40
0.0
 40
0.0
 40
0.0
 40
0.0
 40
0.2488261663104048
 40
0.49803076421438
 40
0.7486902142220282
 40
1.0
 40
1.0
 40
1.0
 40
1.0
 10
102.4694615384614
 20
40.45802558214084
 30
0.0
 10
102.2260498975266
 20
40.31749180572324
 30
0.0
 10
101.7388564188383
 20
40.03621051965513
 30
0.0
 10
100.9970529289093
 20
39.6079300750588
 30
0.0
 10
100.2465324206846
 20
39.17461685760292
 30
0.0
 10
99.74008450080369
 20
38.88221901472915
 30
0.0
 10
99.48653247175598
 20
38.73583068250487
 30
0.0
  0
SPLINE
  5
16A
330
1F
100
AcDbEntity
  8
0
  6
Continuous
 62
     7
370
    25
100
AcDbSpline
210
0.0
220
0.0
230
1.0
 70
    24
 71
     3
 72
    11
 73
     7
 74
     0
 42
0.000000001
 43
0.00000001
 40
0.0
 40
0.0
 40
0.0
 40
0.0
 40
0.248533165781602
 40
0.4977458539813224
 40
0.7486584446317369
 40
0.9999999999999999
 40
0.9999999999999999
 40
0.9999999999999999
 40
0.9999999999999999
 10
105.4523906051669
 20
38.73583068250495
 30
0.0
 10
105.2016361353149
 20
38.88060384317446
 30
0.0
 10
104.6994415998549
 20
39.17054599340781
 30
0.0
 10
103.9513408578138
 20
39.60246215820619
 30
0.0
 10
103.2066807466447
 20
40.0323918738445
 30
0.0
 10
102.7153411554644
 20
40.31606691907591
 30
0.0
 10
102.4694615384614
 20
40.45802558214084
 30
0.0
  0
SPLINE
  5
16B
330
1F
100
AcDbEntity
  8
0
  6
Continuous
 62
     7
370
    25
100
AcDbSpline
210
0.0
220
0.0
230
1.0
 70
    24
 71
     3
 72
    11
 73
     7
 74
     0
 42
0.000000001
 43
0.00000001
 40
0.0
 40
0.0
 40
0.0
 40
0.0
 40
0.2485331718811621
 40
0.4983190599828383
 40
0.748658438463252
 40
0.9999999999999999
 40
0.9999999999999999
 40
0.9999999999999999
 40
0.9999999999999999
 10
110.9694615384615
 20
32.10615849475725
 30
0.0
 10
110.9694615384615
 20
32.39570470906387
 30
0.0
 10
110.9694615384615
 20
32.97625657762431
 30
0.0
 10
110.9694615384615
 20
33.84008085670578
 30
0.0
 10
110.9694615384615
 20
34.69992856010024
 30
0.0
 10
110.9694615384615
 20
35.26663102494557
 30
0.0
 10
110.9694615384615
 20
35.55054829402913
 30
0.0
  0
SPLINE
  5
16C
330
1F
100
AcDbEntity
  8
0
  6
Continuous
 62
     7
370
    25
100
AcDbSpline
210
0.0
220
0.0
230
1.0
 70
    24
 71
     3
 72
    10
 73
     6
 74
     0
 42
0.000000001
 43
0.00000001
 40
0.0
 40
0.0
 40
0.0
 40
0.0
 40
0.3273333707077127
 40
0.6629523133412112
 40
0.9999999999999999
 40
0.9999999999999999
 40
0.9999999999999999
 40
0.9999999999999999
 10
110.9694615384615
 20
35.55054829402913
 30
0.0
 10
110.6489327291732
 20
35.73560568835476
 30
0.0
 10
109.9997617780087
 20
36.11040471175961
 30
0.0
 10
109.0045167059234
 20
36.68500972203771
 30
0.0
 10
108.3263406984603
 20
37.07655482250448
 30
0.0
 10
107.986532471756
 20
37.27274319366502
 30
0.0
  0
SPLINE
  5
16D
330
1F
100
AcDbEntity
  8
0
  6
Continuous
 62
     7
370
    25
100
AcDbSpline
210
0.0
220
0.0
230
1.0
 70
    24
 71
     3
 72
    11
 73
     7
 74
     0
 42
0.000000001
 43
0.00000001
 40
0.0
 40
0.0
 40
0.0
 40
0.0
 40
0.2488261663104051
 40
0.4980307642143795
 40
0.7486902142220282
 40
0.9999999999999999
 40
0.9999999999999999
 40
0.9999999999999999
 40
0.9999999999999999
 10
93.96946153846145
 20
35.55054829402889
 30
0.0
 10
93.96946153846145
 20
35.26948074119368
 30
0.0
 10
93.96946153846145
 20
34.70691816905742
 30
0.0
 10
93.96946153846145
 20
33.85035727986475
 30
0.0
 10
93.96946153846146
 20
32.98373084495299
 30
0.0
 10
93.96946153846147
 20
32.39893515920541
 30
0.0
 10
93.96946153846147
 20
32.10615849475687
 30
0.0
  0
SPLINE
  5
16E
330
1F
100
AcDbEntity
  8
0
  6
Continuous
 62
     7
370
    25
100
AcDbSpline
210
0.0
220
0.0
230
1.0
 70
    24
 71
     3
 72
    11
 73
     7
 74
     0
 42
0.000000001
 43
0.00000001
 40
0.0
 40
0.0
 40
0.0
 40
0.0
 40
0.2485331718811617
 40
0.4983190599828379
 40
0.7486584384632513
 40
1.0
 40
1.0
 40
1.0
 40
1.0
 10
96.95239060516685
 20
37.27274319366488
 30
0.0
 10
96.70163622800771
 20
37.12797008651157
 30
0.0
 10
96.19886356161985
 20
36.83769415223134
 30
0.0
 10
95.45076979152952
 20
36.40578201269059
 30
0.0
 10
94.70611983700422
 20
35.97585816099335
 30
0.0
 10
94.2153411060609
 20
35.69250692857068
 30
0.0
 10
93.96946153846145
 20
35.55054829402889
 30
0.0
  0
SPLINE
  5
16F
330
1F
100
AcDbEntity
  8
0
  6
Continuous
 62
     7
370
    25
100
AcDbSpline
210
0.0
220
0.0
230
1.0
 70
    24
 71
     3
 72
    11
 73
     7
 74
     0
 42
0.000000001
 43
0.00000001
 40
0.0
 40
0.0
 40
0.0
 40
0.0
 40
0.2488261663104053
 40
0.4980307642143795
 40
0.7486902142220282
 40
0.9999999999999999
 40
0.9999999999999999
 40
0.9999999999999999
 40
0.9999999999999999
 10
102.4694615384616
 20
20.82811642969357
 30
0.0
 10
102.7128731793964
 20
20.96865020611117
 30
0.0
 10
103.2000666580847
 20
21.24993149217928
 30
0.0
 10
103.9418701480137
 20
21.6782119367756
 30
0.0
 10
104.6923906562384
 20
22.11152515423147
 30
0.0
 10
105.1988385761193
 20
22.40392299710524
 30
0.0
 10
105.452390605167
 20
22.55031132932952
 30
0.0
  0
SPLINE
  5
170
330
1F
100
AcDbEntity
  8
0
  6
Continuous
 62
     7
370
    25
100
AcDbSpline
210
0.0
220
0.0
230
1.0
 70
    24
 71
     3
 72
    10
 73
     6
 74
     0
 42
0.000000001
 43
0.00000001
 40
0.0
 40
0.0
 40
0.0
 40
0.0
 40
0.3355445600395942
 40
0.6726666839999051
 40
1.0
 40
1.0
 40
1.0
 40
1.0
 10
99.48653247175616
 20
22.55031132932948
 30
0.0
 10
99.82482759964424
 20
22.35499654617777
 30
0.0
 10
100.5030083511455
 20
21.96344870673933
 30
0.0
 10
101.498289752008
 20
21.38882272203192
 30
0.0
 10
102.1489327168198
 20
21.01317383115148
 30
0.0
 10
102.4694615384616
 20
20.82811642969357
 30
0.0
  0
SPLINE
  5
171
330
1F
100
AcDbEntity
  8
0
  6
Continuous
 62
     7
370
    25
100
AcDbSpline
210
0.0
220
0.0
230
1.0
 70
    24
 71
     3
 72
    11
 73
     7
 74
     0
 42
0.000000001
 43
0.00000001
 40
0.0
 40
0.0
 40
0.0
 40
0.0
 40
0.2488261663104054
 40
0.4980307642143802
 40
0.7486902142220285
 40
1.0
 40
1.0
 40
1.0
 40
1.0
 10
110.9694615384616
 20
25.73559371780546
 30
0.0
 10
110.9694615384616
 20
26.01666127064066
 30
0.0
 10
110.9694615384616
 20
26.5792238427769
 30
0.0
 10
110.9694615384616
 20
27.43578473196953
 30
0.0
 10
110.9694615384616
 20
28.30241116688126
 30
0.0
 10
110.9694615384616
 20
28.8872068526288
 30
0.0
 10
110.9694615384616
 20
29.17998351707734
 30
0.0
  0
SPLINE
  5
172
330
1F
100
AcDbEntity
  8
0
  6
Continuous
 62
     7
370
    25
100
AcDbSpline
210
0.0
220
0.0
230
1.0
 70
    24
 71
     3
 72
    11
 73
     7
 74
     0
 42
0.000000001
 43
0.00000001
 40
0.0
 40
0.0
 40
0.0
 40
0.0
 40
0.2485331718811618
 40
0.4983190599828378
 40
0.7486584384632519
 40
1.0
 40
1.0
 40
1.0
 40
1.0
 10
107.9865324717562
 20
24.0133988181695
 30
0.0
 10
108.2372868489153
 20
24.15817192532281
 30
0.0
 10
108.7400595153032
 20
24.44844785960304
 30
0.0
 10
109.4881532853935
 20
24.88035999914377
 30
0.0
 10
110.2328032399188
 20
25.31028385084101
 30
0.0
 10
110.7235819708621
 20
25.59363508326368
 30
0.0
 10
110.9694615384616
 20
25.73559371780546
 30
0.0
  0
SPLINE
  5
173
330
1F
100
AcDbEntity
  8
0
  6
Continuous
 62
     7
370
    25
100
AcDbSpline
210
0.0
220
0.0
230
1.0
 70
    24
 71
     3
 72
    11
 73
     7
 74
     0
 42
0.000000001
 43
0.00000001
 40
0.0
 40
0.0
 40
0.0
 40
0.0
 40
0.2485331718811616
 40
0.4983190599828376
 40
0.7486584384632519
 40
1.0
 40
1.0
 40
1.0
 40
1.0
 10
93.9694615384615
 20
29.17998351707736
 30
0.0
 10
93.9694615384615
 20
28.89043730277074
 30
0.0
 10
93.9694615384615
 20
28.30988543421027
 30
0.0
 10
93.96946153846152
 20
27.44606115512876
 30
0.0
 10
93.96946153846153
 20
26.58621345173426
 30
0.0
 10
93.96946153846153
 20
26.01951098688891
 30
0.0
 10
93.96946153846153
 20
25.73559371780534
 30
0.0
  0
SPLINE
  5
174
330
1F
100
AcDbEntity
  8
0
  6
Continuous
 62
     7
370
    25
100
AcDbSpline
210
0.0
220
0.0
230
1.0
 70
    24
 71
     3
 72
    11
 73
     7
 74
     0
 42
0.000000001
 43
0.00000001
 40
0.0
 40
0.0
 40
0.0
 40
0.0
 40
0.2488261663104051
 40
0.4980307642143798
 40
0.7486902142220283
 40
1.0
 40
1.0
 40
1.0
 40
1.0
 10
93.96946153846153
 20
25.73559371780534
 30
0.0
 10
94.21287317939635
 20
25.59505994138775
 30
0.0
 10
94.70006665808465
 20
25.31377865531965
 30
0.0
 10
95.44187014801366
 20
24.88549821072333
 30
0.0
 10
96.19239065623837
 20
24.45218499326747
 30
0.0
 10
96.69883857611927
 20
24.1597871503937
 30
0.0
 10
96.95239060516698
 20
24.01339881816942
 30
0.0
  0
CIRCLE
  5
175
330
1F
100
AcDbEntity
  8
0
  6
Continuous
 62
     7
370
    25
100
AcDbCircle
 10
102.4694615385
 20
30.6430710059
 30
0.0
 40
4.050000000000011
  0
CIRCLE
  5
176
330
1F
100
AcDbEntity
  8
0
  6
Continuous
 62
     7
370
    25
100
AcDbCircle
 10
102.4694615385
 20
30.6430710059
 30
0.0
 40
3.0
  0
ENDSEC
  0
SECTION
  2
OBJECTS
  0
DICTIONARY
  5
C
330
0
100
AcDbDictionary
281
     1
  3
ACAD_GROUP
350
D
  3
ACAD_LAYOUT
350
1A
  3
ACAD_MLINESTYLE
350
17
  3
ACAD_PLOTSETTINGS
350
19
  3
ACAD_PLOTSTYLENAME
350
E
  3
ACAD_SCALELIST
350
47
  0
DICTIONARY
  5
D
102
{ACAD_REACTORS
330
C
102
}
330
C
100
AcDbDictionary
281
     1
  0
DICTIONARY
  5
1A
102
{ACAD_REACTORS
330
C
102
}
330
C
100
AcDbDictionary
281
     1
  3
Layout1
350
1E
  3
Layout2
350
26
  3
Model
350
22
  0
DICTIONARY
  5
17
102
{ACAD_REACTORS
330
C
102
}
330
C
100
AcDbDictionary
281
     1
  3
Standard
350
18
  0
DICTIONARY
  5
19
102
{ACAD_REACTORS
330
C
102
}
330
C
100
AcDbDictionary
281
     1
  0
ACDBDICTIONARYWDFLT
  5
E
102
{ACAD_REACTORS
330
C
102
}
330
C
100
AcDbDictionary
281
     1
  3
Normal
350
F
100
AcDbDictionaryWithDefault
340
F
  0
DICTIONARY
  5
47
102
{ACAD_REACTORS
330
C
102
}
330
C
100
AcDbDictionary
281
     1
  3
A0
350
48
  3
A1
350
49
  3
A2
350
4A
  3
A3
350
4B
  3
A4
350
4C
  3
A5
350
4D
  3
A6
350
4E
  3
A7
350
4F
  3
A8
350
50
  3
A9
350
51
  3
B0
350
52
  3
B1
350
53
  3
B2
350
54
  3
B3
350
55
  3
B4
350
56
  3
B5
350
57
  3
B6
350
58
  3
B7
350
59
  3
B8
350
5A
  3
B9
350
5B
  3
C0
350
5C
  3
C1
350
5D
  3
C2
350
5E
  3
C3
350
5F
  3
C4
350
60
  3
C5
350
61
  3
C6
350
62
  3
C7
350
63
  3
C8
350
64
  3
C9
350
65
  3
D0
350
66
  3
D1
350
67
  3
D2
350
68
  0
LAYOUT
  5
1E
102
{ACAD_REACTORS
330
1A
102
}
330
1A
100
AcDbPlotSettings
  1

  2
none_device
  4

  6

 40
0.0
 41
0.0
 42
0.0
 43
0.0
 44
0.0
 45
0.0
 46
0.0
 47
0.0
 48
0.0
 49
0.0
140
0.0
141
0.0
142
1.0
143
1.0
 70
   688
 72
     1
 73
     0
 74
     5
  7

 75
    16
147
1.0
148
0.0
149
0.0
100
AcDbLayout
  1
Layout1
 70
     1
 71
     1
 10
0.0
 20
0.0
 11
420.0
 21
297.0
 12
0.0
 22
0.0
 32
0.0
 14
1.0000000000E+20
 24
1.0000000000E+20
 34
1.0000000000E+20
 15
-1.0000000000E+20
 25
-1.0000000000E+20
 35
-1.0000000000E+20
146
0.0
 13
0.0
 23
0.0
 33
0.0
 16
1.0
 26
0.0
 36
0.0
 17
0.0
 27
1.0
 37
0.0
 76
     0
330
1B
  0
LAYOUT
  5
26
102
{ACAD_REACTORS
330
1A
102
}
330
1A
100
AcDbPlotSettings
  1

  2
none_device
  4

  6

 40
0.0
 41
0.0
 42
0.0
 43
0.0
 44
0.0
 45
0.0
 46
0.0
 47
0.0
 48
0.0
 49
0.0
140
0.0
141
0.0
142
1.0
143
1.0
 70
   688
 72
     1
 73
     0
 74
     5
  7

 75
    16
147
1.0
148
0.0
149
0.0
100
AcDbLayout
  1
Layout2
 70
     1
 71
     2
 10
0.0
 20
0.0
 11
0.0
 21
0.0
 12
0.0
 22
0.0
 32
0.0
 14
0.0
 24
0.0
 34
0.0
 15
0.0
 25
0.0
 35
0.0
146
0.0
 13
0.0
 23
0.0
 33
0.0
 16
1.0
 26
0.0
 36
0.0
 17
0.0
 27
1.0
 37
0.0
 76
     0
330
23
  0
LAYOUT
  5
22
102
{ACAD_REACTORS
330
1A
102
}
330
1A
100
AcDbPlotSettings
  1

  2
none_device
  4
Letter_(8.50_x_11.00_Inches)
  6

 40
6.35
 41
6.35
 42
6.35000508
 43
6.35000508
 44
215.9
 45
279.4
 46
0.0
 47
0.0
 48
0.0
 49
0.0
140
0.0
141
0.0
142
1.0
143
1.0
 70
  1712
 72
     1
 73
     0
 74
     0
  7

 75
     0
147
1.0
148
0.0
149
0.0
100
AcDbLayout
  1
Model
 70
     1
 71
     0
 10
0.0
 20
0.0
 11
215.9
 21
139.7
 12
0.0
 22
0.0
 32
0.0
 14
0.0
 24
0.0
 34
0.0
 15
215.9
 25
139.7
 35
0.0
146
0.0
 13
0.0
 23
0.0
 33
0.0
 16
1.0
 26
0.0
 36
0.0
 17
0.0
 27
1.0
 37
0.0
 76
     0
330
1F
331
29
  0
MLINESTYLE
  5
18
102
{ACAD_REACTORS
330
17
102
}
330
17
100
AcDbMlineStyle
  2
Standard
 70
     0
  3

 62
   256
 51
90.0
 52
90.0
 71
     2
 49
0.5
 62
   256
  6
BYLAYER
 49
-0.5
 62
   256
  6
BYLAYER
  0
ACDBPLACEHOLDER
  5
F
102
{ACAD_REACTORS
330
E
102
}
330
E
  0
SCALE
  5
48
102
{ACAD_REACTORS
330
47
102
}
330
47
100
AcDbScale
 70
     0
300
1:1
140
1.0
141
1.0
290
     1
  0
SCALE
  5
49
102
{ACAD_REACTORS
330
47
102
}
330
47
100
AcDbScale
 70
     0
300
1:2
140
1.0
141
2.0
290
     0
  0
SCALE
  5
4A
102
{ACAD_REACTORS
330
47
102
}
330
47
100
AcDbScale
 70
     0
300
1:4
140
1.0
141
4.0
290
     0
  0
SCALE
  5
4B
102
{ACAD_REACTORS
330
47
102
}
330
47
100
AcDbScale
 70
     0
300
1:5
140
1.0
141
5.0
290
     0
  0
SCALE
  5
4C
102
{ACAD_REACTORS
330
47
102
}
330
47
100
AcDbScale
 70
     0
300
1:8
140
1.0
141
8.0
290
     0
  0
SCALE
  5
4D
102
{ACAD_REACTORS
330
47
102
}
330
47
100
AcDbScale
 70
     0
300
1:10
140
1.0
141
10.0
290
     0
  0
SCALE
  5
4E
102
{ACAD_REACTORS
330
47
102
}
330
47
100
AcDbScale
 70
     0
300
1:16
140
1.0
141
16.0
290
     0
  0
SCALE
  5
4F
102
{ACAD_REACTORS
330
47
102
}
330
47
100
AcDbScale
 70
     0
300
1:20
140
1.0
141
20.0
290
     0
  0
SCALE
  5
50
102
{ACAD_REACTORS
330
47
102
}
330
47
100
AcDbScale
 70
     0
300
1:30
140
1.0
141
30.0
290
     0
  0
SCALE
  5
51
102
{ACAD_REACTORS
330
47
102
}
330
47
100
AcDbScale
 70
     0
300
1:40
140
1.0
141
40.0
290
     0
  0
SCALE
  5
52
102
{ACAD_REACTORS
330
47
102
}
330
47
100
AcDbScale
 70
     0
300
1:50
140
1.0
141
50.0
290
     0
  0
SCALE
  5
53
102
{ACAD_REACTORS
330
47
102
}
330
47
100
AcDbScale
 70
     0
300
1:100
140
1.0
141
100.0
290
     0
  0
SCALE
  5
54
102
{ACAD_REACTORS
330
47
102
}
330
47
100
AcDbScale
 70
     0
300
2:1
140
2.0
141
1.0
290
     0
  0
SCALE
  5
55
102
{ACAD_REACTORS
330
47
102
}
330
47
100
AcDbScale
 70
     0
300
4:1
140
4.0
141
1.0
290
     0
  0
SCALE
  5
56
102
{ACAD_REACTORS
330
47
102
}
330
47
100
AcDbScale
 70
     0
300
8:1
140
8.0
141
1.0
290
     0
  0
SCALE
  5
57
102
{ACAD_REACTORS
330
47
102
}
330
47
100
AcDbScale
 70
     0
300
10:1
140
10.0
141
1.0
290
     0
  0
SCALE
  5
58
102
{ACAD_REACTORS
330
47
102
}
330
47
100
AcDbScale
 70
     0
300
100:1
140
100.0
141
1.0
290
     0
  0
SCALE
  5
59
102
{ACAD_REACTORS
330
47
102
}
330
47
100
AcDbScale
 70
     0
300
1/128" = 1'-0"
140
0.0078125
141
12.0
290
     0
  0
SCALE
  5
5A
102
{ACAD_REACTORS
330
47
102
}
330
47
100
AcDbScale
 70
     0
300
1/64" = 1'-0"
140
0.015625
141
12.0
290
     0
  0
SCALE
  5
5B
102
{ACAD_REACTORS
330
47
102
}
330
47
100
AcDbScale
 70
     0
300
1/32" = 1'-0"
140
0.03125
141
12.0
290
     0
  0
SCALE
  5
5C
102
{ACAD_REACTORS
330
47
102
}
330
47
100
AcDbScale
 70
     0
300
1/16" = 1'-0"
140
0.0625
141
12.0
290
     0
  0
SCALE
  5
5D
102
{ACAD_REACTORS
330
47
102
}
330
47
100
AcDbScale
 70
     0
300
3/32" = 1'-0"
140
0.09375
141
12.0
290
     0
  0
SCALE
  5
5E
102
{ACAD_REACTORS
330
47
102
}
330
47
100
AcDbScale
 70
     0
300
1/8" = 1'-0"
140
0.125
141
12.0
290
     0
  0
SCALE
  5
5F
102
{ACAD_REACTORS
330
47
102
}
330
47
100
AcDbScale
 70
     0
300
3/16" = 1'-0"
140
0.1875
141
12.0
290
     0
  0
SCALE
  5
60
102
{ACAD_REACTORS
330
47
102
}
330
47
100
AcDbScale
 70
     0
300
1/4" = 1'-0"
140
0.25
141
12.0
290
     0
  0
SCALE
  5
61
102
{ACAD_REACTORS
330
47
102
}
330
47
100
AcDbScale
 70
     0
300
3/8" = 1'-0"
140
0.375
141
12.0
290
     0
  0
SCALE
  5
62
102
{ACAD_REACTORS
330
47
102
}
330
47
100
AcDbScale
 70
     0
300
1/2" = 1'-0"
140
0.5
141
12.0
290
     0
  0
SCALE
  5
63
102
{ACAD_REACTORS
330
47
102
}
330
47
100
AcDbScale
 70
     0
300
3/4" = 1'-0"
140
0.75
141
12.0
290
     0
  0
SCALE
  5
64
102
{ACAD_REACTORS
330
47
102
}
330
47
100
AcDbScale
 70
     0
300
1" = 1'-0"
140
1.0
141
12.0
290
     0
  0
SCALE
  5
65
102
{ACAD_REACTORS
330
47
102
}
330
47
100
AcDbScale
 70
     0
300
1-1/2" = 1'-0"
140
1.5
141
12.0
290
     0
  0
SCALE
  5
66
102
{ACAD_REACTORS
330
47
102
}
330
47
100
AcDbScale
 70
     0
300
3" = 1'-0"
140
3.0
141
12.0
290
     0
  0
SCALE
  5
67
102
{ACAD_REACTORS
330
47
102
}
330
47
100
AcDbScale
 70
     0
300
6" = 1'-0"
140
6.0
141
12.0
290
     0
  0
SCALE
  5
68
102
{ACAD_REACTORS
330
47
102
}
330
47
100
AcDbScale
 70
     0
300
1'-0" = 1'-0"
140
12.0
141
12.0
290
     0
  0
ENDSEC
  0
EOF
