  0
SECTION
  2
HEADER
  9
$ACADVER
  1
AC1015
  9
$ACADMAINTVER
 70
     6
  9
$DWGCODEPAGE
  3
DOS932
  9
$INSBASE
 10
0.0
 20
0.0
 30
0.0
  9
$EXTMIN
 10
0.0
 20
0.0
 30
0.0
  9
$EXTMAX
 10
215.9
 20
139.7
 30
0.0
  9
$LIMMIN
 10
0.0
 20
0.0
  9
$LIMMAX
 10
215.9
 20
139.7
  9
$ORTHOMODE
 70
     0
  9
$REGENMODE
 70
     1
  9
$FILLMODE
 70
     1
  9
$QTEXTMODE
 70
     0
  9
$MIRRTEXT
 70
     1
  9
$LTSCALE
 40
0.5
  9
$ATTMODE
 70
     1
  9
$TEXTSIZE
 40
1.75
  9
$TRACEWID
 40
1.0
  9
$TEXTSTYLE
  7
Standard
  9
$CLAYER
  8
0
  9
$CELTYPE
  6
ByLayer
  9
$CECOLOR
 62
   256
  9
$CELTSCALE
 40
1.0
  9
$DISPSILH
 70
     0
  9
$DIMSCALE
 40
1.0
  9
$DIMASZ
 40
1.778
  9
$DIMEXO
 40
0.5
  9
$DIMDLI
 40
3.75
  9
$DIMRND
 40
0.0
  9
$DIMDLE
 40
0.0
  9
$DIMEXE
 40
0.5
  9
$DIMTP
 40
0.0
  9
$DIMTM
 40
0.0
  9
$DIMTXT
 40
1.75
  9
$DIMCEN
 40
2.5
  9
$DIMTSZ
 40
0.0
  9
$DIMTOL
 70
     0
  9
$DIMLIM
 70
     0
  9
$DIMTIH
 70
     1
  9
$DIMTOH
 70
     1
  9
$DIMSE1
 70
     0
  9
$DIMSE2
 70
     0
  9
$DIMTAD
 70
     1
  9
$DIMZIN
 70
     1
  9
$DIMBLK
  1

  9
$DIMASO
 70
     1
  9
$DIMSHO
 70
     1
  9
$DIMPOST
  1

  9
$DIMAPOST
  1

  9
$DIMALT
 70
     0
  9
$DIMALTD
 70
     3
  9
$DIMALTF
 40
0.0393700787
  9
$DIMLFAC
 40
1.0
  9
$DIMTOFL
 70
     1
  9
$DIMTVP
 40
0.0
  9
$DIMTIX
 70
     0
  9
$DIMSOXD
 70
     0
  9
$DIMSAH
 70
     0
  9
$DIMBLK1
  1

  9
$DIMBLK2
  1

  9
$DIMSTYLE
  2
ISO-25
  9
$DIMCLRD
 70
     0
  9
$DIMCLRE
 70
     0
  9
$DIMCLRT
 70
     0
  9
$DIMTFAC
 40
1.0
  9
$DIMGAP
 40
0.762
  9
$DIMJUST
 70
     0
  9
$DIMSD1
 70
     0
  9
$DIMSD2
 70
     0
  9
$DIMTOLJ
 70
     0
  9
$DIMTZIN
 70
     1
  9
$DIMALTZ
 70
     0
  9
$DIMALTTZ
 70
     0
  9
$DIMUPT
 70
     0
  9
$DIMDEC
 70
     2
  9
$DIMTDEC
 70
     2
  9
$DIMALTU
 70
     2
  9
$DIMALTTD
 70
     3
  9
$DIMTXSTY
  7
Standard
  9
$DIMAUNIT
 70
     0
  9
$DIMADEC
 70
     2
  9
$DIMALTRND
 40
0.0
  9
$DIMAZIN
 70
     0
  9
$DIMDSEP
 70
    44
  9
$DIMATFIT
 70
     3
  9
$DIMFRAC
 70
     0
  9
$DIMLDRBLK
  1

  9
$DIMLUNIT
 70
     2
  9
$DIMLWD
 70
    -2
  9
$DIMLWE
 70
    -2
  9
$DIMTMOVE
 70
     0
  9
$LUNITS
 70
     2
  9
$LUPREC
 70
     2
  9
$SKETCHINC
 40
1.0
  9
$FILLETRAD
 40
10.0
  9
$AUNITS
 70
     0
  9
$AUPREC
 70
     2
  9
$MENU
  1
.
  9
$ELEVATION
 40
0.0
  9
$PELEVATION
 40
0.0
  9
$THICKNESS
 40
0.0
  9
$LIMCHECK
 70
     0
  9
$CHAMFERA
 40
0.0
  9
$CHAMFERB
 40
0.0
  9
$CHAMFERC
 40
0.0
  9
$CHAMFERD
 40
0.0
  9
$SKPOLY
 70
     0
  9
$TDCREATE
 40
2459388.563326018
  9
$TDUCREATE
 40
2459388.188326018
  9
$TDUPDATE
 40
2459388.563326505
  9
$TDUUPDATE
 40
2459388.188326505
  9
$TDINDWG
 40
0.0000000116
  9
$TDUSRTIMER
 40
0.0000000116
  9
$USRTIMER
 70
     1
  9
$ANGBASE
 50
0.0
  9
$ANGDIR
 70
     0
  9
$PDMODE
 70
     0
  9
$PDSIZE
 40
-1.0
  9
$PLINEWID
 40
0.0
  9
$SPLFRAME
 70
     0
  9
$SPLINETYPE
 70
     6
  9
$SPLINESEGS
 70
     8
  9
$HANDSEED
  5
157
  9
$SURFTAB1
 70
     6
  9
$SURFTAB2
 70
     6
  9
$SURFTYPE
 70
     6
  9
$SURFU
 70
     6
  9
$SURFV
 70
     6
  9
$UCSBASE
  2

  9
$UCSNAME
  2

  9
$UCSORG
 10
0.0
 20
0.0
 30
0.0
  9
$UCSXDIR
 10
1.0
 20
0.0
 30
0.0
  9
$UCSYDIR
 10
0.0
 20
1.0
 30
0.0
  9
$UCSORTHOREF
  2

  9
$UCSORTHOVIEW
 70
     0
  9
$UCSORGTOP
 10
0.0
 20
0.0
 30
0.0
  9
$UCSORGBOTTOM
 10
0.0
 20
0.0
 30
0.0
  9
$UCSORGLEFT
 10
0.0
 20
0.0
 30
0.0
  9
$UCSORGRIGHT
 10
0.0
 20
0.0
 30
0.0
  9
$UCSORGFRONT
 10
0.0
 20
0.0
 30
0.0
  9
$UCSORGBACK
 10
0.0
 20
0.0
 30
0.0
  9
$PUCSBASE
  2

  9
$PUCSNAME
  2

  9
$PUCSORG
 10
0.0
 20
0.0
 30
0.0
  9
$PUCSXDIR
 10
1.0
 20
0.0
 30
0.0
  9
$PUCSYDIR
 10
0.0
 20
1.0
 30
0.0
  9
$PUCSORTHOREF
  2

  9
$PUCSORTHOVIEW
 70
     0
  9
$PUCSORGTOP
 10
0.0
 20
0.0
 30
0.0
  9
$PUCSORGBOTTOM
 10
0.0
 20
0.0
 30
0.0
  9
$PUCSORGLEFT
 10
0.0
 20
0.0
 30
0.0
  9
$PUCSORGRIGHT
 10
0.0
 20
0.0
 30
0.0
  9
$PUCSORGFRONT
 10
0.0
 20
0.0
 30
0.0
  9
$PUCSORGBACK
 10
0.0
 20
0.0
 30
0.0
  9
$USERI1
 70
     0
  9
$USERI2
 70
     0
  9
$USERI3
 70
     0
  9
$USERI4
 70
     0
  9
$USERI5
 70
     0
  9
$USERR1
 40
0.0
  9
$USERR2
 40
0.0
  9
$USERR3
 40
0.0
  9
$USERR4
 40
0.0
  9
$USERR5
 40
0.0
  9
$WORLDVIEW
 70
     1
  9
$SHADEDGE
 70
     3
  9
$SHADEDIF
 70
    70
  9
$TILEMODE
 70
     1
  9
$MAXACTVP
 70
    64
  9
$PINSBASE
 10
0.0
 20
0.0
 30
0.0
  9
$PLIMCHECK
 70
     0
  9
$PEXTMIN
 10
1.0000000000E+20
 20
1.0000000000E+20
 30
1.0000000000E+20
  9
$PEXTMAX
 10
-1.0000000000E+20
 20
-1.0000000000E+20
 30
-1.0000000000E+20
  9
$PLIMMIN
 10
0.0
 20
0.0
  9
$PLIMMAX
 10
420.0
 20
297.0
  9
$UNITMODE
 70
     0
  9
$VISRETAIN
 70
     1
  9
$PLINEGEN
 70
     0
  9
$PSLTSCALE
 70
     1
  9
$TREEDEPTH
 70
  3020
  9
$CMLSTYLE
  2
Standard
  9
$CMLJUST
 70
     0
  9
$CMLSCALE
 40
20.0
  9
$PROXYGRAPHICS
 70
     1
  9
$MEASUREMENT
 70
     1
  9
$CELWEIGHT
370
    -1
  9
$ENDCAPS
280
     0
  9
$JOINSTYLE
280
     0
  9
$LWDISPLAY
290
     1
  9
$INSUNITS
 70
     4
  9
$HYPERLINKBASE
  1

  9
$STYLESHEET
  1

  9
$XEDIT
290
     1
  9
$CEPSNTYPE
380
     0
  9
$PSTYLEMODE
290
     1
  9
$FINGERPRINTGUID
  2
{34D83FB9-1B12-4FDA-9EA7-CCB7411B609C}
  9
$VERSIONGUID
  2
{FAEB1C32-E019-11D5-929B-00C0DF256EC4}
  9
$EXTNAMES
290
     1
  9
$PSVPSCALE
 40
0.0
  9
$OLESTARTUP
290
     0
  0
ENDSEC
  0
SECTION
  2
CLASSES
  0
CLASS
  1
ACDBDICTIONARYWDFLT
  2
AcDbDictionaryWithDefault
  3
ObjectDBX Classes
 90
        0
280
     0
281
     0
  0
CLASS
  1
VISUALSTYLE
  2
AcDbVisualStyle
  3
ObjectDBX Classes
 90
     4095
280
     0
281
     0
  0
CLASS
  1
MATERIAL
  2
AcDbMaterial
  3
ObjectDBX Classes
 90
     1153
280
     0
281
     0
  0
CLASS
  1
SCALE
  2
AcDbScale
  3
ObjectDBX Classes
 90
     1153
280
     0
281
     0
  0
CLASS
  1
TABLESTYLE
  2
AcDbTableStyle
  3
ObjectDBX Classes
 90
     4095
280
     0
281
     0
  0
CLASS
  1
MLEADERSTYLE
  2
AcDbMLeaderStyle
  3
ACDB_MLEADERSTYLE_CLASS
 90
     4095
280
     0
281
     0
  0
CLASS
  1
SUN
  2
AcDbSun
  3
SCENEOE
 90
     1153
280
     0
281
     0
  0
CLASS
  1
ACDBPLACEHOLDER
  2
AcDbPlaceHolder
  3
ObjectDBX Classes
 90
        0
280
     0
281
     0
  0
CLASS
  1
LAYOUT
  2
AcDbLayout
  3
ObjectDBX Classes
 90
        0
280
     0
281
     0
  0
ENDSEC
  0
SECTION
  2
TABLES
  0
TABLE
  2
VPORT
  5
8
330
0
100
AcDbSymbolTable
 70
     1
  0
VPORT
  5
29
330
8
100
AcDbSymbolTableRecord
100
AcDbViewportTableRecord
  2
*Active
 70
     0
 10
0.0
 20
0.0
 11
1.0
 21
1.0
 12
107.95
 22
69.85
 13
0.0
 23
0.0
 14
10.0
 24
10.0
 15
10.0
 25
10.0
 16
0.0
 26
0.0
 36
1.0
 17
0.0
 27
0.0
 37
0.0
 40
139.7
 41
1.5454545455
 42
50.0
 43
0.0
 44
0.0
 50
0.0
 51
0.0
 71
     0
 72
  2000
 73
     1
 74
     3
 75
     0
 76
     0
 77
     0
 78
     0
281
     0
 65
     1
110
0.0
120
0.0
130
0.0
111
1.0
121
0.0
131
0.0
112
0.0
122
1.0
132
0.0
 79
     0
146
0.0
  0
ENDTAB
  0
TABLE
  2
LTYPE
  5
5
330
0
100
AcDbSymbolTable
 70
     6
  0
LTYPE
  5
14
330
5
100
AcDbSymbolTableRecord
100
AcDbLinetypeTableRecord
  2
ByBlock
 70
     0
  3

 72
    65
 73
     0
 40
0.0
  0
LTYPE
  5
15
330
5
100
AcDbSymbolTableRecord
100
AcDbLinetypeTableRecord
  2
ByLayer
 70
     0
  3

 72
    65
 73
     0
 40
0.0
  0
LTYPE
  5
16
330
5
100
AcDbSymbolTableRecord
100
AcDbLinetypeTableRecord
  2
Continuous
 70
     0
  3
Solid line
 72
    65
 73
     0
 40
0.0
  0
LTYPE
  5
6E
330
5
100
AcDbSymbolTableRecord
100
AcDbLinetypeTableRecord
  2
HIDDEN
 70
     0
  3
Hidden __ __ __ __ __ __ __ __ __ __ __ __ __ __
 72
    65
 73
     2
 40
1.905
 49
1.27
 74
     0
 49
-0.635
 74
     0
  0
LTYPE
  5
6F
330
5
100
AcDbSymbolTableRecord
100
AcDbLinetypeTableRecord
  2
PHANTOM
 70
     0
  3
Phantom ______  __  __  ______  __  __  ______
 72
    65
 73
     6
 40
12.7
 49
6.35
 74
     0
 49
-1.27
 74
     0
 49
1.27
 74
     0
 49
-1.27
 74
     0
 49
1.27
 74
     0
 49
-1.27
 74
     0
  0
LTYPE
  5
70
330
5
100
AcDbSymbolTableRecord
100
AcDbLinetypeTableRecord
  2
CENTER
 70
     0
  3
Center ____ _ ____ _ ____ _ ____ _ ____ _ ____
 72
    65
 73
     4
 40
10.16
 49
6.35
 74
     0
 49
-1.27
 74
     0
 49
1.27
 74
     0
 49
-1.27
 74
     0
  0
LTYPE
  5
71
330
5
100
AcDbSymbolTableRecord
100
AcDbLinetypeTableRecord
  2
CENTERX2
 70
     0
  3
Center (2x) ________  __  ________  __  _____
 72
    65
 73
     4
 40
20.32
 49
12.7
 74
     0
 49
-2.54
 74
     0
 49
2.54
 74
     0
 49
-2.54
 74
     0
  0
LTYPE
  5
72
330
5
100
AcDbSymbolTableRecord
100
AcDbLinetypeTableRecord
  2
DOT2
 70
     0
  3
Dot (.5x) ........................................
 72
    65
 73
     2
 40
0.635
 49
0.0
 74
     0
 49
-0.635
 74
     0
  0
ENDTAB
  0
TABLE
  2
LAYER
  5
2
330
0
100
AcDbSymbolTable
 70
     1
  0
LAYER
  5
10
330
2
100
AcDbSymbolTableRecord
100
AcDbLayerTableRecord
  2
0
 70
     0
 62
     7
  6
Continuous
370
    -3
390
F
  0
ENDTAB
  0
TABLE
  2
STYLE
  5
3
330
0
100
AcDbSymbolTable
 70
     2
  0
STYLE
  5
11
330
3
100
AcDbSymbolTableRecord
100
AcDbTextStyleTableRecord
  2
Standard
 70
     0
 40
0.0
 41
1.0
 50
0.0
 71
     0
 42
1.75
  3
txt
  4
bigfont
  0
STYLE
  5
D0
330
3
100
AcDbSymbolTableRecord
100
AcDbTextStyleTableRecord
  2
SLDTEXTSTYLE0
 70
     0
 40
0.0
 41
0.75
 50
0.0
 71
     0
 42
1.75
  3
TXT
  4
bigfont
  0
ENDTAB
  0
TABLE
  2
VIEW
  5
6
330
0
100
AcDbSymbolTable
 70
     0
  0
ENDTAB
  0
TABLE
  2
UCS
  5
7
330
0
100
AcDbSymbolTable
 70
     0
  0
ENDTAB
  0
TABLE
  2
APPID
  5
9
330
0
100
AcDbSymbolTable
 70
     1
  0
APPID
  5
12
330
9
100
AcDbSymbolTableRecord
100
AcDbRegAppTableRecord
  2
ACAD
 70
     0
  0
ENDTAB
  0
TABLE
  2
DIMSTYLE
  5
A
330
0
100
AcDbSymbolTable
 70
     1
100
AcDbDimStyleTable
  0
DIMSTYLE
105
27
330
A
100
AcDbSymbolTableRecord
100
AcDbDimStyleTableRecord
  2
ISO-25
 70
     0
 41
2.5
 42
0.625
 43
3.75
 44
1.25
 73
     0
 74
     0
 77
     1
 78
     8
140
2.5
141
2.5
143
0.0393700787
147
0.625
171
     3
172
     1
178
     0
271
     2
272
     2
274
     3
278
    44
283
     0
284
     8
340
11
  0
ENDTAB
  0
TABLE
  2
BLOCK_RECORD
  5
1
330
0
100
AcDbSymbolTable
 70
     1
  0
BLOCK_RECORD
  5
1F
330
1
100
AcDbSymbolTableRecord
100
AcDbBlockTableRecord
  2
*Model_Space
340
22
  0
BLOCK_RECORD
  5
1B
330
1
100
AcDbSymbolTableRecord
100
AcDbBlockTableRecord
  2
*Paper_Space
340
1E
  0
BLOCK_RECORD
  5
23
330
1
100
AcDbSymbolTableRecord
100
AcDbBlockTableRecord
  2
*Paper_Space0
340
26
  0
ENDTAB
  0
ENDSEC
  0
SECTION
  2
BLOCKS
  0
BLOCK
  5
20
330
1F
100
AcDbEntity
  8
0
100
AcDbBlockBegin
  2
*Model_Space
 70
     0
 10
0.0
 20
0.0
 30
0.0
  3
*Model_Space
  1

  0
ENDBLK
  5
21
330
1F
100
AcDbEntity
  8
0
100
AcDbBlockEnd
  0
BLOCK
  5
1C
330
1B
100
AcDbEntity
 67
     1
  8
0
100
AcDbBlockBegin
  2
*Paper_Space
 70
     0
 10
0.0
 20
0.0
 30
0.0
  3
*Paper_Space
  1

  0
ENDBLK
  5
1D
330
1B
100
AcDbEntity
 67
     1
  8
0
100
AcDbBlockEnd
  0
BLOCK
  5
24
330
23
100
AcDbEntity
  8
0
100
AcDbBlockBegin
  2
*Paper_Space0
 70
     0
 10
0.0
 20
0.0
 30
0.0
  3
*Paper_Space0
  1

  0
ENDBLK
  5
25
330
23
100
AcDbEntity
  8
0
100
AcDbBlockEnd
  0
ENDSEC
  0
SECTION
  2
ENTITIES
  0
LINE
  5
73
330
1F
100
AcDbEntity
  8
0
  6
Continuous
 62
     7
370
    25
100
AcDbLine
 10
69.6875812344
 20
61.9982120389
 30
0.0
 11
68.7840542885
 21
60.4332574627
 31
0.0
  0
LINE
  5
74
330
1F
100
AcDbEntity
  8
0
  6
Continuous
 62
     7
370
    25
100
AcDbLine
 10
68.7840542885
 20
43.9332574627
 30
0.0
 11
69.6875812344
 21
42.3683028865
 31
0.0
  0
LINE
  5
75
330
1F
100
AcDbEntity
  8
0
  6
Continuous
 62
     7
370
    25
100
AcDbLine
 10
81.5840542885
 20
60.4332574627
 30
0.0
 11
80.7170669904
 21
60.4332574627
 31
0.0
  0
LINE
  5
76
330
1F
100
AcDbEntity
  8
0
  6
Continuous
 62
     7
370
    25
100
AcDbLine
 10
80.7170669904
 20
43.9332574627
 30
0.0
 11
81.5840542885
 21
43.9332574627
 31
0.0
  0
LINE
  5
77
330
1F
100
AcDbEntity
  8
0
  6
Continuous
 62
     7
370
    25
100
AcDbLine
 10
81.5840542885
 20
43.9332574627
 30
0.0
 11
81.7840542885
 21
44.1332574627
 31
0.0
  0
LINE
  5
78
330
1F
100
AcDbEntity
  8
0
  6
Continuous
 62
     7
370
    25
100
AcDbLine
 10
81.7840542885
 20
60.2332574627
 30
0.0
 11
81.5840542885
 21
60.4332574627
 31
0.0
  0
ARC
  5
79
330
1F
100
AcDbEntity
  8
0
  6
Continuous
 62
     7
370
    25
100
AcDbCircle
 10
80.7170669904
 20
61.1832574627
 30
0.0
 40
0.75
100
AcDbArc
 50
210.0
 51
270.0
  0
ARC
  5
7A
330
1F
100
AcDbEntity
  8
0
  6
Continuous
 62
     7
370
    25
100
AcDbCircle
 10
80.7170669904
 20
43.1832574627
 30
0.0
 40
0.75
100
AcDbArc
 50
90.0
 51
150.0
  0
LINE
  5
7B
330
1F
100
AcDbEntity
  8
0
  6
Continuous
 62
     7
370
    25
100
AcDbLine
 10
80.0675479376
 20
60.8082574627
 30
0.0
 11
79.3805273427
 21
61.9982120389
 31
0.0
  0
LINE
  5
7C
330
1F
100
AcDbEntity
  8
0
  6
Continuous
 62
     7
370
    25
100
AcDbLine
 10
79.3805273427
 20
42.3683028865
 30
0.0
 11
80.0675479376
 21
43.5582574627
 31
0.0
  0
ARC
  5
7D
330
1F
100
AcDbEntity
  8
0
  6
Continuous
 62
     7
370
    25
100
AcDbCircle
 10
62.8243954729
 20
44.9332574627
 30
0.0
 40
0.5
100
AcDbArc
 50
90.0
 51
150.0
  0
ARC
  5
7E
330
1F
100
AcDbEntity
  8
0
  6
Continuous
 62
     7
370
    25
100
AcDbCircle
 10
62.8243954729
 20
59.4332574627
 30
0.0
 40
0.5
100
AcDbArc
 50
210.0
 51
270.0
  0
LINE
  5
7F
330
1F
100
AcDbEntity
  8
0
  6
Continuous
 62
     7
370
    25
100
AcDbLine
 10
57.5357203384
 20
58.9489449627
 30
0.0
 11
47.6245079921
 21
58.6392195769
 31
0.0
  0
LINE
  5
80
330
1F
100
AcDbEntity
  8
0
  6
Continuous
 62
     7
370
    25
100
AcDbLine
 10
47.6245079921
 20
45.7272953485
 30
0.0
 11
57.5357203384
 21
45.4175699627
 31
0.0
  0
LINE
  5
81
330
1F
100
AcDbEntity
  8
0
  6
Continuous
 62
     7
370
    25
100
AcDbLine
 10
63.3357203384
 20
58.9332574627
 30
0.0
 11
62.8243954729
 21
58.9332574627
 31
0.0
  0
LINE
  5
82
330
1F
100
AcDbEntity
  8
0
  6
Continuous
 62
     7
370
    25
100
AcDbLine
 10
62.8243954729
 20
45.4332574627
 30
0.0
 11
63.3357203384
 21
45.4332574627
 31
0.0
  0
LINE
  5
83
330
1F
100
AcDbEntity
  8
0
  6
Continuous
 62
     7
370
    25
100
AcDbLine
 10
63.3357203384
 20
45.4332574627
 30
0.0
 11
63.5357203384
 21
45.6332574627
 31
0.0
  0
LINE
  5
84
330
1F
100
AcDbEntity
  8
0
  6
Continuous
 62
     7
370
    25
100
AcDbLine
 10
63.5357203384
 20
58.7332574627
 30
0.0
 11
63.3357203384
 21
58.9332574627
 31
0.0
  0
LINE
  5
85
330
1F
100
AcDbEntity
  8
0
  6
Continuous
 62
     7
370
    25
100
AcDbLine
 10
66.5357203384
 20
45.6047574627
 30
0.0
 11
68.7840542885
 21
45.6047574627
 31
0.0
  0
LINE
  5
86
330
1F
100
AcDbEntity
  8
0
  6
Continuous
 62
     7
370
    25
100
AcDbLine
 10
68.7840542885
 20
58.7617574627
 30
0.0
 11
66.5357203384
 21
58.7617574627
 31
0.0
  0
LINE
  5
87
330
1F
100
AcDbEntity
  8
0
  6
Continuous
 62
     7
370
    25
100
AcDbLine
 10
66.5357203384
 20
58.7617574627
 30
0.0
 11
65.5357203384
 21
57.7617574627
 31
0.0
  0
LINE
  5
88
330
1F
100
AcDbEntity
  8
0
  6
Continuous
 62
     7
370
    25
100
AcDbLine
 10
65.5357203384
 20
46.6047574627
 30
0.0
 11
66.5357203384
 21
45.6047574627
 31
0.0
  0
LINE
  5
89
330
1F
100
AcDbEntity
  8
0
  6
Continuous
 62
     7
370
    25
100
AcDbLine
 10
47.6245079921
 20
58.6392195769
 30
0.0
 11
45.5357203384
 21
57.4332574627
 31
0.0
  0
LINE
  5
8A
330
1F
100
AcDbEntity
  8
0
  6
Continuous
 62
     7
370
    25
100
AcDbLine
 10
45.5357203384
 20
46.9332574627
 30
0.0
 11
47.6245079921
 21
45.7272953485
 31
0.0
  0
LINE
  5
8B
330
1F
100
AcDbEntity
  8
0
  6
Continuous
 62
     7
370
    25
100
AcDbLine
 10
63.5357203384
 20
46.6832574627
 30
0.0
 11
65.5357203384
 21
46.6832574627
 31
0.0
  0
LINE
  5
8C
330
1F
100
AcDbEntity
  8
0
  6
Continuous
 62
     7
370
    25
100
AcDbLine
 10
65.5357203384
 20
57.6832574627
 30
0.0
 11
63.5357203384
 21
57.6832574627
 31
0.0
  0
LINE
  5
8D
330
1F
100
AcDbEntity
  8
0
  6
Continuous
 62
     7
370
    25
100
AcDbLine
 10
61.7661679887
 20
44.100353694
 30
0.0
 11
62.3913827711
 21
45.1832574627
 31
0.0
  0
LINE
  5
8E
330
1F
100
AcDbEntity
  8
0
  6
Continuous
 62
     7
370
    25
100
AcDbLine
 10
62.3913827711
 20
59.1832574627
 30
0.0
 11
61.7661679887
 21
60.2661612313
 31
0.0
  0
SPLINE
  5
8F
330
1F
100
AcDbEntity
  8
0
  6
Continuous
 62
     7
370
    25
100
AcDbSpline
210
0.0
220
0.0
230
1.0
 70
     8
 71
     3
 72
    16
 73
    12
 74
     0
 42
0.000000001
 43
0.00000001
 40
0.0
 40
0.0
 40
0.0
 40
0.0
 40
0.1120102749541304
 40
0.2377440458013613
 40
0.3634452870972627
 40
0.4922378783757057
 40
0.6210287926568644
 40
0.7152556882666298
 40
0.809492511198204
 40
0.9047415002555057
 40
1.0
 40
1.0
 40
1.0
 40
1.0
 10
69.6875812343653
 20
42.36830288646296
 30
0.0
 10
69.5889045419095
 20
42.54767840198855
 30
0.0
 10
69.37946129127606
 20
42.92840651640683
 30
0.0
 10
69.13930373781358
 20
43.52043319072261
 30
0.0
 10
68.97193426753122
 20
44.14682979887376
 30
0.0
 10
68.91075713250372
 20
44.78338607789506
 30
0.0
 10
68.95485812029484
 20
45.36791904412028
 30
0.0
 10
69.07258023191048
 20
45.89175546146888
 30
0.0
 10
69.23069043508784
 20
46.35639752068088
 30
0.0
 10
69.43410933602689
 20
46.81841518888952
 30
0.0
 10
69.60308778962076
 20
47.12332010543336
 30
0.0
 10
69.6875812343653
 20
47.27578017457481
 30
0.0
  0
SPLINE
  5
90
330
1F
100
AcDbEntity
  8
0
  6
Continuous
 62
     7
370
    25
100
AcDbSpline
210
0.0
220
0.0
230
1.0
 70
     8
 71
     3
 72
    15
 73
    11
 74
     0
 42
0.000000001
 43
0.00000001
 40
0.0
 40
0.0
 40
0.0
 40
0.0
 40
0.1323052378296956
 40
0.2645730682660304
 40
0.3997997819746811
 40
0.5350020935366634
 40
0.6501929590834554
 40
0.7654017933211805
 40
0.8826895567076666
 40
1.0
 40
1.0
 40
1.0
 40
1.0
 10
69.6875812343653
 20
57.09073475079836
 30
0.0
 10
69.57201126252531
 20
57.30275729445486
 30
0.0
 10
69.34090399458415
 20
57.72674243545868
 30
0.0
 10
69.09224136300779
 20
58.37964202111382
 30
0.0
 10
68.94272741585426
 20
59.04484887333669
 30
0.0
 10
68.9131171288059
 20
59.68595951963403
 30
0.0
 10
68.98993853145653
 20
60.29243428449738
 30
0.0
 10
69.14734800257756
 20
60.86479724424977
 30
0.0
 10
69.37825036310855
 20
61.43457238450401
 30
0.0
 10
69.58446429866592
 20
61.81032004557346
 30
0.0
 10
69.6875812343653
 20
61.99821203891023
 30
0.0
  0
SPLINE
  5
91
330
1F
100
AcDbEntity
  8
0
  6
Continuous
 62
     7
370
    25
100
AcDbSpline
210
0.0
220
0.0
230
1.0
 70
     8
 71
     3
 72
    15
 73
    11
 74
     0
 42
0.000000001
 43
0.00000001
 40
0.0
 40
0.0
 40
0.0
 40
0.0
 40
0.1323052378296973
 40
0.2645730682660339
 40
0.3997997819746865
 40
0.5350020935366703
 40
0.6501929590834608
 40
0.7654017933211844
 40
0.8826895567076685
 40
1.0
 40
1.0
 40
1.0
 40
1.0
 10
69.6875812343653
 20
47.27578017457481
 30
0.0
 10
69.57201126252531
 20
47.6998252618878
 30
0.0
 10
69.34090399458415
 20
48.54779554389543
 30
0.0
 10
69.0922413630078
 20
49.8535947152057
 30
0.0
 10
68.94272741585428
 20
51.18400841965143
 30
0.0
 10
68.91311712880591
 20
52.4662297122461
 30
0.0
 10
68.98993853145656
 20
53.67917924197275
 30
0.0
 10
69.14734800257759
 20
54.82390516147749
 30
0.0
 10
69.37825036310855
 20
55.96345544198593
 30
0.0
 10
69.58446429866592
 20
56.71495076412483
 30
0.0
 10
69.6875812343653
 20
57.09073475079836
 30
0.0
  0
LINE
  5
92
330
1F
100
AcDbEntity
  8
0
  6
Continuous
 62
     7
370
    25
100
AcDbLine
 10
68.7840542885
 20
45.0385478815
 30
0.0
 11
68.7840542885
 21
60.4332574627
 31
0.0
  0
LINE
  5
93
330
1F
100
AcDbEntity
  8
0
  6
Continuous
 62
     7
370
    25
100
AcDbLine
 10
68.7840542885
 20
43.9332574627
 30
0.0
 11
68.7840542885
 21
45.0385478815
 31
0.0
  0
SPLINE
  5
94
330
1F
100
AcDbEntity
  8
0
  6
Continuous
 62
     7
370
    25
100
AcDbSpline
210
0.0
220
0.0
230
1.0
 70
     8
 71
     3
 72
    10
 73
     6
 74
     0
 42
0.000000001
 43
0.00000001
 40
0.0
 40
0.0
 40
0.0
 40
0.0
 40
0.3089808900030072
 40
0.6190948628358686
 40
1.0
 40
1.0
 40
1.0
 40
1.0
 10
80.06754793756694
 20
53.64634495152634
 30
0.0
 10
80.09169494410365
 20
53.34544902679064
 30
0.0
 10
80.14007750815021
 20
52.7425537433629
 30
0.0
 10
80.14753260086685
 20
51.76453126617092
 30
0.0
 10
80.09597025306728
 20
51.09128069585462
 30
0.0
 10
80.06754793756694
 20
50.72016997384684
 30
0.0
  0
SPLINE
  5
95
330
1F
100
AcDbEntity
  8
0
  6
Continuous
 62
     7
370
    25
100
AcDbSpline
210
0.0
220
0.0
230
1.0
 70
     8
 71
     3
 72
    11
 73
     7
 74
     0
 42
0.000000001
 43
0.00000001
 40
0.0
 40
0.0
 40
0.0
 40
0.0
 40
0.2488617730236802
 40
0.4977454583558502
 40
0.7488627517928871
 40
1.0
 40
1.0
 40
1.0
 40
1.0
 10
80.06754793756694
 20
50.72016997384684
 30
0.0
 10
80.0343938823506
 20
50.43024521324084
 30
0.0
 10
79.96808285269947
 20
49.85037016411947
 30
0.0
 10
79.81004084661454
 20
48.98629098913052
 30
0.0
 10
79.61718866716777
 20
48.12681484717663
 30
0.0
 10
79.45941654027929
 20
47.5594659124407
 30
0.0
 10
79.3805273426608
 20
47.27578017457481
 30
0.0
  0
LINE
  5
96
330
1F
100
AcDbEntity
  8
0
  6
Continuous
 62
     7
370
    25
100
AcDbLine
 10
69.6875812344
 20
47.2757801746
 30
0.0
 11
79.3805273427
 21
47.2757801746
 31
0.0
  0
LINE
  5
97
330
1F
100
AcDbEntity
  8
0
  6
Continuous
 62
     7
370
    25
100
AcDbLine
 10
69.6875812344
 20
57.0907347508
 30
0.0
 11
79.3805273427
 21
57.0907347508
 31
0.0
  0
SPLINE
  5
98
330
1F
100
AcDbEntity
  8
0
  6
Continuous
 62
     7
370
    25
100
AcDbSpline
210
0.0
220
0.0
230
1.0
 70
     8
 71
     3
 72
    11
 73
     7
 74
     0
 42
0.000000001
 43
0.00000001
 40
0.0
 40
0.0
 40
0.0
 40
0.0
 40
0.2490252138763563
 40
0.4980311639765297
 40
0.74902692048002
 40
1.0
 40
1.0
 40
1.0
 40
1.0
 10
79.3805273426608
 20
57.09073475079836
 30
0.0
 10
79.45877621548625
 20
56.80944188952959
 30
0.0
 10
79.61526790806022
 20
56.2468779268879
 30
0.0
 10
79.80805079642661
 20
55.38993361376183
 30
0.0
 10
79.96711668166142
 20
54.52351357781977
 30
0.0
 10
80.03407186052257
 20
53.93872568748295
 30
0.0
 10
80.06754793756694
 20
53.64634495152634
 30
0.0
  0
SPLINE
  5
99
330
1F
100
AcDbEntity
  8
0
  6
Continuous
 62
     7
370
    25
100
AcDbSpline
210
0.0
220
0.0
230
1.0
 70
     8
 71
     3
 72
    11
 73
     7
 74
     0
 42
0.000000001
 43
0.00000001
 40
0.0
 40
0.0
 40
0.0
 40
0.0
 40
0.2858113857234067
 40
0.5527245545213761
 40
0.8220275582229317
 40
1.0
 40
1.0
 40
1.0
 40
1.0
 10
80.71706699040527
 20
45.84183189179747
 30
0.0
 10
80.71312668898274
 20
45.67613960572854
 30
0.0
 10
80.70550662394254
 20
45.35571082094351
 30
0.0
 10
80.6940455342916
 20
44.95564842617949
 30
0.0
 10
80.71148292353324
 20
44.65486428887271
 30
0.0
 10
80.71547752479248
 20
44.50284564497623
 30
0.0
 10
80.71706699040527
 20
44.44235690247228
 30
0.0
  0
LINE
  5
9A
330
1F
100
AcDbEntity
  8
0
  6
Continuous
 62
     7
370
    25
100
AcDbLine
 10
80.7170669904
 20
50.7837824734
 30
0.0
 11
80.7170669904
 21
45.8418318918
 31
0.0
  0
SPLINE
  5
9B
330
1F
100
AcDbEntity
  8
0
  6
Continuous
 62
     7
370
    25
100
AcDbSpline
210
0.0
220
0.0
230
1.0
 70
     8
 71
     3
 72
    11
 73
     7
 74
     0
 42
0.000000001
 43
0.00000001
 40
0.0
 40
0.0
 40
0.0
 40
0.0
 40
0.2858113857233214
 40
0.5527245545214226
 40
0.8220275582231137
 40
1.0
 40
1.0
 40
1.0
 40
1.0
 10
80.71706699040527
 20
53.58273245201158
 30
0.0
 10
80.71312668898275
 20
53.31737007336191
 30
0.0
 10
80.70550662394254
 20
52.80419141830347
 30
0.0
 10
80.69404553429163
 20
52.03239218272874
 30
0.0
 10
80.71148292353325
 20
51.36317835536432
 30
0.0
 10
80.71547752479249
 20
50.94870346226431
 30
0.0
 10
80.71706699040527
 20
50.78378247336161
 30
0.0
  0
LINE
  5
9C
330
1F
100
AcDbEntity
  8
0
  6
Continuous
 62
     7
370
    25
100
AcDbLine
 10
80.7170669904
 20
58.5246830336
 30
0.0
 11
80.7170669904
 21
53.582732452
 31
0.0
  0
SPLINE
  5
9D
330
1F
100
AcDbEntity
  8
0
  6
Continuous
 62
     7
370
    25
100
AcDbSpline
210
0.0
220
0.0
230
1.0
 70
     8
 71
     3
 72
    11
 73
     7
 74
     0
 42
0.000000001
 43
0.00000001
 40
0.0
 40
0.0
 40
0.0
 40
0.0
 40
0.2858113857233873
 40
0.5527245545213874
 40
0.8220275582229748
 40
1.0
 40
1.0
 40
1.0
 40
1.0
 10
80.71706699040527
 20
59.92415802290091
 30
0.0
 10
80.71312668898275
 20
59.82448793032005
 30
0.0
 10
80.70550662394254
 20
59.63173806004661
 30
0.0
 10
80.69404553429162
 20
59.26000121923594
 30
0.0
 10
80.71148292353324
 20
58.89157152917826
 30
0.0
 10
80.71547752479248
 20
58.62911527997465
 30
0.0
 10
80.71706699040527
 20
58.52468303357573
 30
0.0
  0
LINE
  5
9E
330
1F
100
AcDbEntity
  8
0
  6
Continuous
 62
     7
370
    25
100
AcDbLine
 10
81.5840542885
 20
45.0385478815
 30
0.0
 11
81.5840542885
 21
60.4332574627
 31
0.0
  0
LINE
  5
9F
330
1F
100
AcDbEntity
  8
0
  6
Continuous
 62
     7
370
    25
100
AcDbLine
 10
81.5840542885
 20
43.9332574627
 30
0.0
 11
81.5840542885
 21
45.0385478815
 31
0.0
  0
LINE
  5
A0
330
1F
100
AcDbEntity
  8
0
  6
Continuous
 62
     7
370
    25
100
AcDbLine
 10
81.7840542885
 20
45.2117529622
 30
0.0
 11
81.7840542885
 21
44.1332574627
 31
0.0
  0
LINE
  5
A1
330
1F
100
AcDbEntity
  8
0
  6
Continuous
 62
     7
370
    25
100
AcDbLine
 10
81.7840542885
 20
60.2332574627
 30
0.0
 11
81.7840542885
 21
45.2117529622
 31
0.0
  0
LINE
  5
A2
330
1F
100
AcDbEntity
  8
0
  6
Continuous
 62
     7
370
    25
100
AcDbLine
 10
80.0675479376
 20
45.5535852749
 30
0.0
 11
80.0675479376
 21
50.7201699738
 31
0.0
  0
SPLINE
  5
A3
330
1F
100
AcDbEntity
  8
0
  6
Continuous
 62
     7
370
    25
100
AcDbSpline
210
0.0
220
0.0
230
1.0
 70
     8
 71
     3
 72
    11
 73
     7
 74
     0
 42
0.000000001
 43
0.00000001
 40
0.0
 40
0.0
 40
0.0
 40
0.0
 40
0.2490252138763564
 40
0.4980311639765296
 40
0.74902692048002
 40
1.0
 40
1.0
 40
1.0
 40
1.0
 10
79.3805273426608
 20
47.27578017457481
 30
0.0
 10
79.45877621548624
 20
47.13513374394044
 30
0.0
 10
79.61526790806022
 20
46.8538517626196
 30
0.0
 10
79.80805079642661
 20
46.4253796060566
 30
0.0
 10
79.96711668166142
 20
45.99216958808557
 30
0.0
 10
80.03407186052257
 20
45.69977564291717
 30
0.0
 10
80.06754793756694
 20
45.55358527493887
 30
0.0
  0
ARC
  5
A4
330
1F
100
AcDbEntity
  8
0
  6
Continuous
 62
     7
370
    25
100
AcDbCircle
 10
80.6483437261
 20
48.1377033725
 30
0.0
 40
2.646971381583381
100
AcDbArc
 50
88.5122636654
 51
102.674909816
  0
ARC
  5
A5
330
1F
100
AcDbEntity
  8
0
  6
Continuous
 62
     7
370
    25
100
AcDbCircle
 10
80.6881146908
 20
45.0311528684
 30
0.0
 40
0.8111958547050884
100
AcDbArc
 50
87.9546284054
 51
139.9072030665
  0
SPLINE
  5
A6
330
1F
100
AcDbEntity
  8
0
  6
Continuous
 62
     7
370
    25
100
AcDbSpline
210
0.0
220
0.0
230
1.0
 70
     8
 71
     3
 72
    11
 73
     7
 74
     0
 42
0.000000001
 43
0.00000001
 40
0.0
 40
0.0
 40
0.0
 40
0.0
 40
0.2488617730236805
 40
0.4977454583558506
 40
0.748862751792887
 40
1.0
 40
1.0
 40
1.0
 40
1.0
 10
80.06754793756694
 20
58.81292965043433
 30
0.0
 10
80.0343938823506
 20
58.66796727013134
 30
0.0
 10
79.96808285269947
 20
58.37802974557066
 30
0.0
 10
79.81004084661453
 20
57.94599015807619
 30
0.0
 10
79.61718866716777
 20
57.51625208709925
 30
0.0
 10
79.45941654027929
 20
57.23257761973131
 30
0.0
 10
79.3805273426608
 20
57.09073475079836
 30
0.0
  0
LINE
  5
A7
330
1F
100
AcDbEntity
  8
0
  6
Continuous
 62
     7
370
    25
100
AcDbLine
 10
80.0675479376
 20
53.6463449515
 30
0.0
 11
80.0675479376
 21
58.8129296504
 31
0.0
  0
ARC
  5
A8
330
1F
100
AcDbEntity
  8
0
  6
Continuous
 62
     7
370
    25
100
AcDbCircle
 10
80.6483437261
 20
56.2288115528
 30
0.0
 40
2.646971381583183
100
AcDbArc
 50
257.325090184
 51
271.4877363346
  0
ARC
  5
A9
330
1F
100
AcDbEntity
  8
0
  6
Continuous
 62
     7
370
    25
100
AcDbCircle
 10
80.6881146908
 20
59.335362057
 30
0.0
 40
0.8111958547050458
100
AcDbArc
 50
220.0927969335
 51
272.0453715946
  0
SPLINE
  5
AA
330
1F
100
AcDbEntity
  8
0
  6
Continuous
 62
     7
370
    25
100
AcDbSpline
210
0.0
220
0.0
230
1.0
 70
     8
 71
     3
 72
    10
 73
     6
 74
     0
 42
0.000000001
 43
0.00000001
 40
0.0
 40
0.0
 40
0.0
 40
0.0
 40
0.0789477693778935
 40
0.5375793028234306
 40
0.9999999999999999
 40
0.9999999999999999
 40
0.9999999999999999
 40
0.9999999999999999
 10
80.06754793756694
 20
45.55358527493887
 30
0.0
 10
80.0746782353805
 20
45.51520044775467
 30
0.0
 10
80.12323059547553
 20
45.25382651915246
 30
0.0
 10
80.16514741035415
 20
44.7647406662029
 30
0.0
 10
80.10017019951619
 20
44.31586096915744
 30
0.0
 10
80.06754793756694
 20
44.0904977860989
 30
0.0
  0
SPLINE
  5
AB
330
1F
100
AcDbEntity
  8
0
  6
Continuous
 62
     7
370
    25
100
AcDbSpline
210
0.0
220
0.0
230
1.0
 70
     8
 71
     3
 72
    10
 73
     6
 74
     0
 42
0.000000001
 43
0.00000001
 40
0.0
 40
0.0
 40
0.0
 40
0.0
 40
0.3355445600395945
 40
0.6726666839999053
 40
0.9999999999999999
 40
0.9999999999999999
 40
0.9999999999999999
 40
0.9999999999999999
 10
80.06754793756694
 20
44.0904977860989
 30
0.0
 10
80.02041372158253
 20
43.89518300294719
 30
0.0
 10
79.92592368793264
 20
43.50363516350873
 30
0.0
 10
79.68750790991724
 20
42.92900917880132
 30
0.0
 10
79.48184424751958
 20
42.55336028792088
 30
0.0
 10
79.3805273426608
 20
42.36830288646296
 30
0.0
  0
LINE
  5
AC
330
1F
100
AcDbEntity
  8
0
  6
Continuous
 62
     7
370
    25
100
AcDbLine
 10
69.6875812344
 20
42.3683028865
 30
0.0
 11
79.3805273427
 21
42.3683028865
 31
0.0
  0
SPLINE
  5
AD
330
1F
100
AcDbEntity
  8
0
  6
Continuous
 62
     7
370
    25
100
AcDbSpline
210
0.0
220
0.0
230
1.0
 70
     8
 71
     3
 72
    10
 73
     6
 74
     0
 42
0.000000001
 43
0.00000001
 40
0.0
 40
0.0
 40
0.0
 40
0.0
 40
0.3089808900029885
 40
0.6190948628358312
 40
1.0
 40
1.0
 40
1.0
 40
1.0
 10
80.06754793756694
 20
60.27601713927429
 30
0.0
 10
80.09169494410365
 20
60.12556917690642
 30
0.0
 10
80.14007750815023
 20
59.82412153519253
 30
0.0
 10
80.14753260086688
 20
59.33511029659647
 30
0.0
 10
80.0959702530673
 20
58.99848501143826
 30
0.0
 10
80.06754793756694
 20
58.81292965043433
 30
0.0
  0
LINE
  5
AE
330
1F
100
AcDbEntity
  8
0
  6
Continuous
 62
     7
370
    25
100
AcDbLine
 10
69.6875812344
 20
61.9982120389
 30
0.0
 11
79.3805273427
 21
61.9982120389
 31
0.0
  0
SPLINE
  5
AF
330
1F
100
AcDbEntity
  8
0
  6
Continuous
 62
     7
370
    25
100
AcDbSpline
210
0.0
220
0.0
230
1.0
 70
     8
 71
     3
 72
    11
 73
     7
 74
     0
 42
0.000000001
 43
0.00000001
 40
0.0
 40
0.0
 40
0.0
 40
0.0
 40
0.2490252138763564
 40
0.4980311639765296
 40
0.7490269204800198
 40
1.0
 40
1.0
 40
1.0
 40
1.0
 10
79.3805273426608
 20
61.99821203891023
 30
0.0
 10
79.45877621548625
 20
61.85756560827585
 30
0.0
 10
79.61526790806022
 20
61.57628362695502
 30
0.0
 10
79.8080507964266
 20
61.14781147039201
 30
0.0
 10
79.96711668166141
 20
60.71460145242099
 30
0.0
 10
80.03407186052259
 20
60.42220750725259
 30
0.0
 10
80.06754793756694
 20
60.27601713927429
 30
0.0
  0
ARC
  5
B0
330
1F
100
AcDbEntity
  8
0
  6
Continuous
 62
     7
370
    25
100
AcDbCircle
 10
80.7086034557
 20
60.6839584072
 30
0.0
 40
0.759847521115736
100
AcDbArc
 50
212.4709917279
 51
270.6382002097
  0
ARC
  5
B1
330
1F
100
AcDbEntity
  8
0
  6
Continuous
 62
     7
370
    25
100
AcDbCircle
 10
80.7086034557
 20
43.6825565182
 30
0.0
 40
0.7598475211238795
100
AcDbArc
 50
89.3617997906
 51
147.5290082717
  0
LINE
  5
B2
330
1F
100
AcDbEntity
  8
0
  6
Continuous
 62
     7
370
    25
100
AcDbLine
 10
57.5357203384
 20
56.224709347
 30
0.0
 11
57.5357203384
 21
48.1418055784
 31
0.0
  0
LINE
  5
B3
330
1F
100
AcDbEntity
  8
0
  6
Continuous
 62
     7
370
    25
100
AcDbLine
 10
61.7661679887
 20
56.224709347
 30
0.0
 11
57.5357203384
 21
56.224709347
 31
0.0
  0
SPLINE
  5
B4
330
1F
100
AcDbEntity
  8
0
  6
Continuous
 62
     7
370
    25
100
AcDbSpline
210
0.0
220
0.0
230
1.0
 70
     8
 71
     3
 72
    10
 73
     6
 74
     0
 42
0.000000001
 43
0.00000001
 40
0.0
 40
0.0
 40
0.0
 40
0.0
 40
0.5
 40
0.5
 40
1.0
 40
1.0
 40
1.0
 40
1.0
 10
62.39138277105518
 20
52.1832574626866
 30
0.0
 10
62.39138277105518
 20
52.86716024612653
 30
0.0
 10
62.33094662744905
 20
53.56002934832335
 30
0.0
 10
62.11189960664364
 20
54.90914882703483
 30
0.0
 10
61.95484379509013
 20
55.57111718141555
 30
0.0
 10
61.7661679887159
 20
56.22470934701398
 30
0.0
  0
SPLINE
  5
B5
330
1F
100
AcDbEntity
  8
0
  6
Continuous
 62
     7
370
    25
100
AcDbSpline
210
0.0
220
0.0
230
1.0
 70
     8
 71
     3
 72
    10
 73
     6
 74
     0
 42
0.000000001
 43
0.00000001
 40
0.0
 40
0.0
 40
0.0
 40
0.0
 40
0.5000000000000001
 40
0.5000000000000001
 40
1.0
 40
1.0
 40
1.0
 40
1.0
 10
61.76616798871592
 20
48.14180557835921
 30
0.0
 10
61.95605778052676
 20
48.79960311286931
 30
0.0
 10
62.11510890786658
 20
49.47262572658963
 30
0.0
 10
62.33260502998152
 20
50.8213079557305
 30
0.0
 10
62.39138277105518
 20
51.49982609197536
 30
0.0
 10
62.39138277105518
 20
52.1832574626866
 30
0.0
  0
LINE
  5
B6
330
1F
100
AcDbEntity
  8
0
  6
Continuous
 62
     7
370
    25
100
AcDbLine
 10
61.7661679887
 20
48.1418055784
 30
0.0
 11
57.5357203384
 21
48.1418055784
 31
0.0
  0
SPLINE
  5
B7
330
1F
100
AcDbEntity
  8
0
  6
Continuous
 62
     7
370
    25
100
AcDbSpline
210
0.0
220
0.0
230
1.0
 70
     8
 71
     3
 72
    10
 73
     6
 74
     0
 42
0.000000001
 43
0.00000001
 40
0.0
 40
0.0
 40
0.0
 40
0.0
 40
0.5
 40
0.5
 40
1.0
 40
1.0
 40
1.0
 40
1.0
 10
61.76616798871639
 20
56.22470934701394
 30
0.0
 10
61.95701920237269
 20
56.55527334575283
 30
0.0
 10
62.11425232352931
 20
56.8882520073713
 30
0.0
 10
62.33179636065759
 20
57.5611708930785
 30
0.0
 10
62.39138277105518
 20
57.90116315571508
 30
0.0
 10
62.39138277105518
 20
58.24543528917766
 30
0.0
  0
LINE
  5
B8
330
1F
100
AcDbEntity
  8
0
  6
Continuous
 62
     7
370
    25
100
AcDbLine
 10
62.3913827711
 20
52.1832574627
 30
0.0
 11
62.3913827711
 21
58.2454352892
 31
0.0
  0
LINE
  5
B9
330
1F
100
AcDbEntity
  8
0
  6
Continuous
 62
     7
370
    25
100
AcDbLine
 10
57.5357203384
 20
60.2661612313
 30
0.0
 11
57.5357203384
 21
56.224709347
 31
0.0
  0
LINE
  5
BA
330
1F
100
AcDbEntity
  8
0
  6
Continuous
 62
     7
370
    25
100
AcDbLine
 10
61.7661679887
 20
60.2661612313
 30
0.0
 11
57.5357203384
 21
60.2661612313
 31
0.0
  0
SPLINE
  5
BB
330
1F
100
AcDbEntity
  8
0
  6
Continuous
 62
     7
370
    25
100
AcDbSpline
210
0.0
220
0.0
230
1.0
 70
     8
 71
     3
 72
    12
 73
     8
 74
     0
 42
0.000000001
 43
0.00000001
 40
0.0
 40
0.0
 40
0.0
 40
0.0
 40
0.2499999999999999
 40
0.2499999999999999
 40
0.4999999999999999
 40
0.4999999999999999
 40
1.0
 40
1.0
 40
1.0
 40
1.0
 10
62.39138277105518
 20
58.24543528917766
 30
0.0
 10
62.39138277105518
 20
58.41692783597389
 30
0.0
 10
62.37660501259469
 20
58.5891894399062
 30
0.0
 10
62.31941681159945
 20
58.92995884467803
 30
0.0
 10
62.27706134187661
 20
59.09920381044206
 30
0.0
 10
62.11370076700398
 20
59.60393277212287
 30
0.0
 10
61.95654271751351
 20
59.93642252858719
 30
0.0
 10
61.76616798871615
 20
60.26616123134138
 30
0.0
  0
LINE
  5
BC
330
1F
100
AcDbEntity
  8
0
  6
Continuous
 62
     7
370
    25
100
AcDbLine
 10
62.3913827711
 20
46.1210796362
 30
0.0
 11
62.3913827711
 21
52.1832574627
 31
0.0
  0
SPLINE
  5
BD
330
1F
100
AcDbEntity
  8
0
  6
Continuous
 62
     7
370
    25
100
AcDbSpline
210
0.0
220
0.0
230
1.0
 70
     8
 71
     3
 72
    12
 73
     8
 74
     0
 42
0.000000001
 43
0.00000001
 40
0.0
 40
0.0
 40
0.0
 40
0.0
 40
0.2499999999999998
 40
0.2499999999999998
 40
0.4999999999999997
 40
0.4999999999999997
 40
1.0
 40
1.0
 40
1.0
 40
1.0
 10
62.39138277105518
 20
46.12107963619552
 30
0.0
 10
62.39138277105518
 20
46.29257218299175
 30
0.0
 10
62.37660501259469
 20
46.46483378692406
 30
0.0
 10
62.31941681159945
 20
46.80560319169588
 30
0.0
 10
62.27706134187661
 20
46.97484815745991
 30
0.0
 10
62.11370076700399
 20
47.47957711914073
 30
0.0
 10
61.95654271751351
 20
47.81206687560505
 30
0.0
 10
61.76616798871615
 20
48.14180557835923
 30
0.0
  0
SPLINE
  5
BE
330
1F
100
AcDbEntity
  8
0
  6
Continuous
 62
     7
370
    25
100
AcDbSpline
210
0.0
220
0.0
230
1.0
 70
     8
 71
     3
 72
    10
 73
     6
 74
     0
 42
0.000000001
 43
0.00000001
 40
0.0
 40
0.0
 40
0.0
 40
0.0
 40
0.5
 40
0.5
 40
1.0
 40
1.0
 40
1.0
 40
1.0
 10
61.7661679887164
 20
44.1003536940318
 30
0.0
 10
61.95701920237269
 20
44.43091769277068
 30
0.0
 10
62.11425232352931
 20
44.76389635438915
 30
0.0
 10
62.3317963606576
 20
45.43681524009635
 30
0.0
 10
62.39138277105518
 20
45.77680750273294
 30
0.0
 10
62.39138277105518
 20
46.12107963619552
 30
0.0
  0
LINE
  5
BF
330
1F
100
AcDbEntity
  8
0
  6
Continuous
 62
     7
370
    25
100
AcDbLine
 10
61.7661679887
 20
44.100353694
 30
0.0
 11
57.5357203384
 21
44.100353694
 31
0.0
  0
LINE
  5
C0
330
1F
100
AcDbEntity
  8
0
  6
Continuous
 62
     7
370
    25
100
AcDbLine
 10
57.5357203384
 20
48.1418055784
 30
0.0
 11
57.5357203384
 21
44.100353694
 31
0.0
  0
LINE
  5
C1
330
1F
100
AcDbEntity
  8
0
  6
Continuous
 62
     7
370
    25
100
AcDbLine
 10
47.6245079921
 20
45.7272953485
 30
0.0
 11
47.6245079921
 21
58.6392195769
 31
0.0
  0
LINE
  5
C2
330
1F
100
AcDbEntity
  8
0
  6
Continuous
 62
     7
370
    25
100
AcDbLine
 10
63.3357203384
 20
45.4332574627
 30
0.0
 11
63.3357203384
 21
58.9332574627
 31
0.0
  0
LINE
  5
C3
330
1F
100
AcDbEntity
  8
0
  6
Continuous
 62
     7
370
    25
100
AcDbLine
 10
63.5357203384
 20
58.7332574627
 30
0.0
 11
63.5357203384
 21
45.6332574627
 31
0.0
  0
LINE
  5
C4
330
1F
100
AcDbEntity
  8
0
  6
Continuous
 62
     7
370
    25
100
AcDbLine
 10
66.5357203384
 20
58.7617574627
 30
0.0
 11
66.5357203384
 21
45.6047574627
 31
0.0
  0
LINE
  5
C5
330
1F
100
AcDbEntity
  8
0
  6
Continuous
 62
     7
370
    25
100
AcDbLine
 10
65.5357203384
 20
46.6047574627
 30
0.0
 11
65.5357203384
 21
57.7617574627
 31
0.0
  0
LINE
  5
C6
330
1F
100
AcDbEntity
  8
0
  6
Continuous
 62
     7
370
    25
100
AcDbLine
 10
45.5357203384
 20
52.1832574627
 30
0.0
 11
45.5357203384
 21
57.4332574627
 31
0.0
  0
LINE
  5
C7
330
1F
100
AcDbEntity
  8
0
  6
Continuous
 62
     7
370
    25
100
AcDbLine
 10
45.5357203384
 20
46.9332574627
 30
0.0
 11
45.5357203384
 21
52.1832574627
 31
0.0
  0
LINE
  5
C8
330
1F
100
AcDbEntity
  8
0
  6
Continuous
 62
     1
370
    25
100
AcDbLine
 10
80.7170669904
 20
44.4423569025
 30
0.0
 11
80.7170669904
 21
43.9332574627
 31
0.0
  0
LINE
  5
C9
330
1F
100
AcDbEntity
  8
0
  6
Continuous
 62
     1
370
    25
100
AcDbLine
 10
80.7170669904
 20
60.4332574627
 30
0.0
 11
80.7170669904
 21
59.9241580229
 31
0.0
  0
LINE
  5
CA
330
1F
100
AcDbEntity
  8
0
  6
Continuous
 62
     1
370
    25
100
AcDbLine
 10
80.0675479376
 20
60.2760171393
 30
0.0
 11
80.0675479376
 21
60.8082574627
 31
0.0
  0
LINE
  5
CB
330
1F
100
AcDbEntity
  8
0
  6
Continuous
 62
     1
370
    25
100
AcDbLine
 10
80.0675479376
 20
43.5582574627
 30
0.0
 11
80.0675479376
 21
44.0904977861
 31
0.0
  0
LINE
  5
CC
330
1F
100
AcDbEntity
  8
0
  6
Continuous
 62
     1
370
    25
100
AcDbLine
 10
62.3913827711
 20
58.2454352892
 30
0.0
 11
62.3913827711
 21
59.1832574627
 31
0.0
  0
LINE
  5
CD
330
1F
100
AcDbEntity
  8
0
  6
Continuous
 62
     1
370
    25
100
AcDbLine
 10
62.3913827711
 20
45.1832574627
 30
0.0
 11
62.3913827711
 21
46.1210796362
 31
0.0
  0
LINE
  5
CE
330
1F
100
AcDbEntity
  8
0
  6
Continuous
 62
     1
370
    25
100
AcDbLine
 10
62.8243954729
 20
52.1832574627
 30
0.0
 11
62.8243954729
 21
45.4332574627
 31
0.0
  0
LINE
  5
CF
330
1F
100
AcDbEntity
  8
0
  6
Continuous
 62
     1
370
    25
100
AcDbLine
 10
62.8243954729
 20
58.9332574627
 30
0.0
 11
62.8243954729
 21
52.1832574627
 31
0.0
  0
MTEXT
  5
D1
330
1F
100
AcDbEntity
  8
0
  6
Continuous
 62
     7
370
     0
100
AcDbMText
 10
82.2305097015
 20
68.6646589597
 30
0.0
 40
2.6458333333
 41
0.0
 71
     1
 72
     1
  1
5R-RS1208
  7
SLDTEXTSTYLE0
 73
     1
 44
1.0
  0
LINE
  5
D2
330
1F
100
AcDbEntity
  8
0
  6
Continuous
 62
     7
370
     0
100
AcDbLine
 10
73.3917203384
 20
46.4607574627
 30
0.0
 11
65.6797203384
 21
46.4607574627
 31
0.0
  0
LINE
  5
D3
330
1F
100
AcDbEntity
  8
0
  6
Continuous
 62
     7
370
     0
100
AcDbLine
 10
73.3917203384
 20
57.9057574627
 30
0.0
 11
65.6797203384
 21
57.9057574627
 31
0.0
  0
LINE
  5
D4
330
1F
100
AcDbEntity
  8
0
  6
Continuous
 62
     7
370
     0
100
AcDbLine
 10
46.4009460609
 20
57.9327957665
 30
0.0
 11
57.0357203384
 21
58.2651324627
 31
0.0
  0
LINE
  5
D5
330
1F
100
AcDbEntity
  8
0
  6
Continuous
 62
     7
370
     0
100
AcDbLine
 10
46.4009460609
 20
46.4337191589
 30
0.0
 11
57.0357203384
 21
46.1013824627
 31
0.0
  0
LINE
  5
D6
330
1F
100
AcDbEntity
  8
0
  6
Continuous
 62
     7
370
     0
100
AcDbLine
 10
57.0357203384
 20
45.4331949627
 30
0.0
 11
57.0357203384
 21
58.9333199627
 31
0.0
  0
LINE
  5
D7
330
1F
100
AcDbEntity
  8
0
  6
Continuous
 62
     7
370
    25
100
AcDbLine
 10
68.9313545924
 20
100.2947607148
 30
0.0
 11
68.7840542885
 21
100.0396291045
 31
0.0
  0
LINE
  5
D8
330
1F
100
AcDbEntity
  8
0
  6
Continuous
 62
     7
370
    25
100
AcDbLine
 10
68.7840542885
 20
83.5396291045
 30
0.0
 11
68.9313545924
 21
83.2844974941
 31
0.0
  0
LINE
  5
D9
330
1F
100
AcDbEntity
  8
0
  6
Continuous
 62
     7
370
    25
100
AcDbLine
 10
81.5840542885
 20
83.5396291045
 30
0.0
 11
81.7840542885
 21
83.7396291045
 31
0.0
  0
LINE
  5
DA
330
1F
100
AcDbEntity
  8
0
  6
Continuous
 62
     7
370
    25
100
AcDbLine
 10
81.7840542885
 20
99.8396291045
 30
0.0
 11
81.5840542885
 21
100.0396291045
 31
0.0
  0
LINE
  5
DB
330
1F
100
AcDbEntity
  8
0
  6
Continuous
 62
     7
370
    25
100
AcDbLine
 10
81.5840542885
 20
100.0396291045
 30
0.0
 11
80.700370083
 21
100.0396291045
 31
0.0
  0
LINE
  5
DC
330
1F
100
AcDbEntity
  8
0
  6
Continuous
 62
     7
370
    25
100
AcDbLine
 10
80.700370083
 20
83.5396291045
 30
0.0
 11
81.5840542885
 21
83.5396291045
 31
0.0
  0
SPLINE
  5
DD
330
1F
100
AcDbEntity
  8
0
  6
Continuous
 62
     7
370
    25
100
AcDbSpline
210
0.0
220
0.0
230
1.0
 70
     8
 71
     3
 72
    14
 73
    10
 74
     0
 42
0.000000001
 43
0.00000001
 40
0.0
 40
0.0
 40
0.0
 40
0.0
 40
0.0824466497821167
 40
0.2855406591831258
 40
0.4761410243146411
 40
0.6546792129989927
 40
0.8207096867395269
 40
0.972560121100694
 40
1.0
 40
1.0
 40
1.0
 40
1.0
 10
80.70012776377177
 20
100.0427761493884
 30
0.0
 10
80.68245123845182
 20
100.0419672603995
 30
0.0
 10
80.6212314471653
 20
100.0391658039949
 30
0.0
 10
80.51997597956807
 20
100.0588223889015
 30
0.0
 10
80.40367577527743
 20
100.0971171703719
 30
0.0
 10
80.30209916257607
 20
100.1506680879649
 30
0.0
 10
80.21800837339995
 20
100.212836381105
 30
0.0
 10
80.16393176020937
 20
100.2624190264083
 30
0.0
 10
80.14193759585037
 20
100.289454078694
 30
0.0
 10
80.13857145076688
 20
100.2935917175171
 30
0.0
  0
SPLINE
  5
DE
330
1F
100
AcDbEntity
  8
0
  6
Continuous
 62
     7
370
    25
100
AcDbSpline
210
0.0
220
0.0
230
1.0
 70
     8
 71
     3
 72
    13
 73
     9
 74
     0
 42
0.000000001
 43
0.00000001
 40
0.0
 40
0.0
 40
0.0
 40
0.0
 40
0.1511563734776953
 40
0.3344277519048884
 40
0.5316750001432676
 40
0.7415881261837447
 40
0.9598290259192728
 40
1.0
 40
1.0
 40
1.0
 40
1.0
 10
80.13810117341498
 20
83.28537455512975
 30
0.0
 10
80.15906043645155
 20
83.30786350032784
 30
0.0
 10
80.20543201217568
 20
83.35761943990406
 30
0.0
 10
80.2964055138599
 20
83.42528296164028
 30
0.0
 10
80.40781773022768
 20
83.48485908456088
 30
0.0
 10
80.53581147734995
 20
83.52425985464392
 30
0.0
 10
80.63601235710647
 20
83.54228612849829
 30
0.0
 10
80.69127733738935
 20
83.53816332010327
 30
0.0
 10
80.69986845999424
 20
83.5375224160042
 30
0.0
  0
ARC
  5
DF
330
1F
100
AcDbEntity
  8
0
  6
Continuous
 62
     7
370
    25
100
AcDbCircle
 10
62.8243954729
 20
84.5396291045
 30
0.0
 40
0.5
100
AcDbArc
 50
90.0
 51
150.0
  0
ARC
  5
E0
330
1F
100
AcDbEntity
  8
0
  6
Continuous
 62
     7
370
    25
100
AcDbCircle
 10
62.8243954729
 20
99.0396291045
 30
0.0
 40
0.5
100
AcDbArc
 50
210.0
 51
270.0
  0
LINE
  5
E1
330
1F
100
AcDbEntity
  8
0
  6
Continuous
 62
     7
370
    25
100
AcDbLine
 10
57.5357203384
 20
98.5553166045
 30
0.0
 11
47.6245079921
 21
98.2455912187
 31
0.0
  0
LINE
  5
E2
330
1F
100
AcDbEntity
  8
0
  6
Continuous
 62
     7
370
    25
100
AcDbLine
 10
47.6245079921
 20
85.3336669903
 30
0.0
 11
57.5357203384
 21
85.0239416045
 31
0.0
  0
LINE
  5
E3
330
1F
100
AcDbEntity
  8
0
  6
Continuous
 62
     7
370
    25
100
AcDbLine
 10
63.3357203384
 20
98.5396291045
 30
0.0
 11
62.8243954729
 21
98.5396291045
 31
0.0
  0
LINE
  5
E4
330
1F
100
AcDbEntity
  8
0
  6
Continuous
 62
     7
370
    25
100
AcDbLine
 10
62.8243954729
 20
85.0396291045
 30
0.0
 11
63.3357203384
 21
85.0396291045
 31
0.0
  0
LINE
  5
E5
330
1F
100
AcDbEntity
  8
0
  6
Continuous
 62
     7
370
    25
100
AcDbLine
 10
63.3357203384
 20
85.0396291045
 30
0.0
 11
63.5357203384
 21
85.2396291045
 31
0.0
  0
LINE
  5
E6
330
1F
100
AcDbEntity
  8
0
  6
Continuous
 62
     7
370
    25
100
AcDbLine
 10
63.5357203384
 20
98.3396291045
 30
0.0
 11
63.3357203384
 21
98.5396291045
 31
0.0
  0
LINE
  5
E7
330
1F
100
AcDbEntity
  8
0
  6
Continuous
 62
     7
370
    25
100
AcDbLine
 10
66.5357203384
 20
85.2111291045
 30
0.0
 11
68.7840542885
 21
85.2111291045
 31
0.0
  0
LINE
  5
E8
330
1F
100
AcDbEntity
  8
0
  6
Continuous
 62
     7
370
    25
100
AcDbLine
 10
68.7840542885
 20
98.3681291045
 30
0.0
 11
66.5357203384
 21
98.3681291045
 31
0.0
  0
LINE
  5
E9
330
1F
100
AcDbEntity
  8
0
  6
Continuous
 62
     7
370
    25
100
AcDbLine
 10
66.5357203384
 20
98.3681291045
 30
0.0
 11
65.5357203384
 21
97.3681291045
 31
0.0
  0
LINE
  5
EA
330
1F
100
AcDbEntity
  8
0
  6
Continuous
 62
     7
370
    25
100
AcDbLine
 10
65.5357203384
 20
86.2111291045
 30
0.0
 11
66.5357203384
 21
85.2111291045
 31
0.0
  0
LINE
  5
EB
330
1F
100
AcDbEntity
  8
0
  6
Continuous
 62
     7
370
    25
100
AcDbLine
 10
47.6245079921
 20
98.2455912187
 30
0.0
 11
45.5357203384
 21
97.0396291045
 31
0.0
  0
LINE
  5
EC
330
1F
100
AcDbEntity
  8
0
  6
Continuous
 62
     7
370
    25
100
AcDbLine
 10
45.5357203384
 20
86.5396291045
 30
0.0
 11
47.6245079921
 21
85.3336669903
 31
0.0
  0
LINE
  5
ED
330
1F
100
AcDbEntity
  8
0
  6
Continuous
 62
     7
370
    25
100
AcDbLine
 10
63.5357203384
 20
86.2896291045
 30
0.0
 11
65.5357203384
 21
86.2896291045
 31
0.0
  0
LINE
  5
EE
330
1F
100
AcDbEntity
  8
0
  6
Continuous
 62
     7
370
    25
100
AcDbLine
 10
65.5357203384
 20
97.2896291045
 30
0.0
 11
63.5357203384
 21
97.2896291045
 31
0.0
  0
SPLINE
  5
EF
330
1F
100
AcDbEntity
  8
0
  6
Continuous
 62
     7
370
    25
100
AcDbSpline
210
0.0
220
0.0
230
1.0
 70
    24
 71
     3
 72
    11
 73
     7
 74
     0
 42
0.000000001
 43
0.00000001
 40
0.0
 40
0.0
 40
0.0
 40
0.0
 40
0.2640630999837716
 40
0.5291551825679316
 40
0.7985675187648119
 40
1.0
 40
1.0
 40
1.0
 40
1.0
 10
69.6875812343653
 20
100.2896291044776
 30
0.0
 10
69.57198828828396
 20
100.2896291044776
 30
0.0
 10
69.3403519616219
 20
100.2896291044776
 30
0.0
 10
69.09546682591584
 20
100.2896291044777
 30
0.0
 10
68.94639314029861
 20
100.2896291044777
 30
0.0
 10
68.94208561008192
 20
100.2896291044776
 30
0.0
 10
68.94024280228746
 20
100.2896291044776
 30
0.0
  0
SPLINE
  5
F0
330
1F
100
AcDbEntity
  8
0
  6
Continuous
 62
     7
370
    25
100
AcDbSpline
210
0.0
220
0.0
230
1.0
 70
     8
 71
     3
 72
    16
 73
    12
 74
     0
 42
0.000000001
 43
0.00000001
 40
0.0
 40
0.0
 40
0.0
 40
0.0
 40
0.0943034347978451
 40
0.1885977507141883
 40
0.283789321598649
 40
0.3789705446812172
 40
0.5045422210106494
 40
0.630114785740841
 40
0.7590343874823239
 40
0.887989854635678
 40
1.0
 40
1.0
 40
1.0
 40
1.0
 10
69.6875812343653
 20
91.7896291044776
 30
0.0
 10
69.60390293166463
 20
92.05104203798788
 30
0.0
 10
69.43655441772385
 20
92.57384262710035
 30
0.0
 10
69.23315898078027
 20
93.37126020451352
 30
0.0
 10
69.07374238350286
 20
94.17864473970094
 30
0.0
 10
68.95618726617266
 20
95.08219296895413
 30
0.0
 10
68.9114725895695
 20
96.07873944617968
 30
0.0
 10
68.96805276755435
 20
97.17212007947339
 30
0.0
 10
69.1332152835804
 20
98.26674999610374
 30
0.0
 10
69.37664378649735
 20
99.31056135816405
 30
0.0
 10
69.58891114737723
 20
99.97894057095301
 30
0.0
 10
69.6875812343653
 20
100.2896291044776
 30
0.0
  0
SPLINE
  5
F1
330
1F
100
AcDbEntity
  8
0
  6
Continuous
 62
     7
370
    25
100
AcDbSpline
210
0.0
220
0.0
230
1.0
 70
     8
 71
     3
 72
    15
 73
    11
 74
     0
 42
0.000000001
 43
0.00000001
 40
0.0
 40
0.0
 40
0.0
 40
0.0
 40
0.1323052378296956
 40
0.2645730682660305
 40
0.3997997819746812
 40
0.5350020935366635
 40
0.6501929590834553
 40
0.7654017933211805
 40
0.8826895567076666
 40
1.0
 40
1.0
 40
1.0
 40
1.0
 10
69.6875812343653
 20
83.28962910447758
 30
0.0
 10
69.57201126252531
 20
83.65686292244062
 30
0.0
 10
69.34090399458415
 20
84.39122672831348
 30
0.0
 10
69.09224136300779
 20
85.52208198290884
 30
0.0
 10
68.94272741585426
 20
86.6742540485018
 30
0.0
 10
68.9131171288059
 20
87.7846902611621
 30
0.0
 10
68.98993853145653
 20
88.83513536741378
 30
0.0
 10
69.14734800257756
 20
89.82649709407542
 30
0.0
 10
69.37825036310855
 20
90.81337658588542
 30
0.0
 10
69.5844642986659
 20
91.4641906256829
 30
0.0
 10
69.6875812343653
 20
91.7896291044776
 30
0.0
  0
SPLINE
  5
F2
330
1F
100
AcDbEntity
  8
0
  6
Continuous
 62
     7
370
    25
100
AcDbSpline
210
0.0
220
0.0
230
1.0
 70
    24
 71
     3
 72
    12
 73
     8
 74
     0
 42
0.000000001
 43
0.00000001
 40
0.0
 40
0.0
 40
0.0
 40
0.0
 40
0.0700282682222949
 40
0.2997920284799645
 40
0.5308174660853457
 40
0.7650186527473594
 40
1.0
 40
1.0
 40
1.0
 40
1.0
 10
68.94024280228747
 20
83.28962910447758
 30
0.0
 10
68.93663867950514
 20
83.28962910447758
 30
0.0
 10
68.92120937777833
 20
83.28962910447758
 30
0.0
 10
68.99434207534289
 20
83.28962910447757
 30
0.0
 10
69.14584416686903
 20
83.28962910447757
 30
0.0
 10
69.37839260701199
 20
83.28962910447757
 30
0.0
 10
69.58440417267018
 20
83.28962910447758
 30
0.0
 10
69.6875812343653
 20
83.28962910447758
 30
0.0
  0
LINE
  5
F3
330
1F
100
AcDbEntity
  8
0
  6
Continuous
 62
     7
370
    25
100
AcDbLine
 10
68.7840542885
 20
83.5396291045
 30
0.0
 11
68.7840542885
 21
100.0396291045
 31
0.0
  0
SPLINE
  5
F4
330
1F
100
AcDbEntity
  8
0
  6
Continuous
 62
     7
370
    25
100
AcDbSpline
210
0.0
220
0.0
230
1.0
 70
     8
 71
     3
 72
    10
 73
     6
 74
     0
 42
0.000000001
 43
0.00000001
 40
0.0
 40
0.0
 40
0.0
 40
0.0
 40
0.3089808900029882
 40
0.619094862835831
 40
1.0
 40
1.0
 40
1.0
 40
1.0
 10
80.06754793756694
 20
88.80670003777216
 30
0.0
 10
80.09169494410365
 20
88.54611652305582
 30
0.0
 10
80.14007750815023
 20
88.02399389178552
 30
0.0
 10
80.1475326008669
 20
87.17700158106497
 30
0.0
 10
80.0959702530673
 20
86.59394948405861
 30
0.0
 10
80.06754793756694
 20
86.27255817118301
 30
0.0
  0
SPLINE
  5
F5
330
1F
100
AcDbEntity
  8
0
  6
Continuous
 62
     7
370
    25
100
AcDbSpline
210
0.0
220
0.0
230
1.0
 70
     8
 71
     3
 72
    11
 73
     7
 74
     0
 42
0.000000001
 43
0.00000001
 40
0.0
 40
0.0
 40
0.0
 40
0.0
 40
0.2485331657816016
 40
0.4977458539813223
 40
0.7486584446317368
 40
0.9999999999999999
 40
0.9999999999999999
 40
0.9999999999999999
 40
0.9999999999999999
 10
80.06754793756694
 20
86.27255817118301
 30
0.0
 10
80.03447056767824
 20
86.02180370133108
 30
0.0
 10
79.96822539001383
 20
85.51960916587112
 30
0.0
 10
79.81014731301478
 20
84.77150842383003
 30
0.0
 10
79.61724962412276
 20
84.02684831266083
 30
0.0
 10
79.45947968581174
 20
83.5355087214806
 30
0.0
 10
79.3805273426608
 20
83.28962910447758
 30
0.0
  0
LINE
  5
F6
330
1F
100
AcDbEntity
  8
0
  6
Continuous
 62
     7
370
    25
100
AcDbLine
 10
69.6875812344
 20
83.2896291045
 30
0.0
 11
79.3805273427
 21
83.2896291045
 31
0.0
  0
LINE
  5
F7
330
1F
100
AcDbEntity
  8
0
  6
Continuous
 62
     7
370
    25
100
AcDbLine
 10
69.6875812344
 20
91.7896291045
 30
0.0
 11
79.3805273427
 21
91.7896291045
 31
0.0
  0
SPLINE
  5
F8
330
1F
100
AcDbEntity
  8
0
  6
Continuous
 62
     7
370
    25
100
AcDbSpline
210
0.0
220
0.0
230
1.0
 70
     8
 71
     3
 72
    11
 73
     7
 74
     0
 42
0.000000001
 43
0.00000001
 40
0.0
 40
0.0
 40
0.0
 40
0.0
 40
0.2488261663104051
 40
0.4980307642143794
 40
0.7486902142220285
 40
1.0
 40
1.0
 40
1.0
 40
1.0
 10
79.3805273426608
 20
91.7896291044776
 30
0.0
 10
79.4587164890008
 20
91.54621746354279
 30
0.0
 10
79.61521369700108
 20
91.05902398485448
 30
0.0
 10
79.80790032660387
 20
90.31722049492548
 30
0.0
 10
79.96713988083201
 20
89.56669998670078
 30
0.0
 10
80.03404968989763
 20
89.06025206681986
 30
0.0
 10
80.06754793756694
 20
88.80670003777216
 30
0.0
  0
LINE
  5
F9
330
1F
100
AcDbEntity
  8
0
  6
Continuous
 62
     7
370
    25
100
AcDbLine
 10
81.7840542885
 20
99.8396291045
 30
0.0
 11
81.7840542885
 21
83.7396291045
 31
0.0
  0
LINE
  5
FA
330
1F
100
AcDbEntity
  8
0
  6
Continuous
 62
     7
370
    25
100
AcDbLine
 10
81.5840542885
 20
83.5396291045
 30
0.0
 11
81.5840542885
 21
100.0396291045
 31
0.0
  0
LINE
  5
FB
330
1F
100
AcDbEntity
  8
0
  6
Continuous
 62
     7
370
    25
100
AcDbLine
 10
80.7170669904
 20
86.5124308205
 30
0.0
 11
80.7170669904
 21
83.6591943219
 31
0.0
  0
SPLINE
  5
FC
330
1F
100
AcDbEntity
  8
0
  6
Continuous
 62
     7
370
    25
100
AcDbSpline
210
0.0
220
0.0
230
1.0
 70
     8
 71
     3
 72
    11
 73
     7
 74
     0
 42
0.000000001
 43
0.00000001
 40
0.0
 40
0.0
 40
0.0
 40
0.0
 40
0.2858113857233875
 40
0.5527245545213875
 40
0.8220275582229751
 40
1.0
 40
1.0
 40
1.0
 40
1.0
 10
80.71706699040527
 20
88.93639260588978
 30
0.0
 10
80.71312668898275
 20
88.68752307917902
 30
0.0
 10
80.70550662394254
 20
88.2062395993869
 30
0.0
 10
80.6940455342916
 20
87.52966497165785
 30
0.0
 10
80.71148292353325
 20
86.96963638564152
 30
0.0
 10
80.71547752479249
 20
86.64257118956236
 30
0.0
 10
80.71706699040527
 20
86.5124308204567
 30
0.0
  0
LINE
  5
FD
330
1F
100
AcDbEntity
  8
0
  6
Continuous
 62
     7
370
    25
100
AcDbLine
 10
80.7170669904
 20
94.6428656031
 30
0.0
 11
80.7170669904
 21
88.9363926059
 31
0.0
  0
SPLINE
  5
FE
330
1F
100
AcDbEntity
  8
0
  6
Continuous
 62
     7
370
    25
100
AcDbSpline
210
0.0
220
0.0
230
1.0
 70
     8
 71
     3
 72
    11
 73
     7
 74
     0
 42
0.000000001
 43
0.00000001
 40
0.0
 40
0.0
 40
0.0
 40
0.0
 40
0.2858113857726348
 40
0.5527245545033773
 40
0.822027558135924
 40
1.0
 40
1.0
 40
1.0
 40
1.0
 10
80.71706699040527
 20
97.06682738849852
 30
0.0
 10
80.71312668898165
 20
96.85607579293352
 30
0.0
 10
80.70550662394085
 20
96.44850776881637
 30
0.0
 10
80.69404553429388
 20
95.7882869073556
 30
0.0
 10
80.71148292352991
 20
95.18920314329621
 30
0.0
 10
80.71547752479103
 20
94.79837676604961
 30
0.0
 10
80.71706699040527
 20
94.6428656030654
 30
0.0
  0
LINE
  5
FF
330
1F
100
AcDbEntity
  8
0
  6
Continuous
 62
     7
370
    25
100
AcDbLine
 10
80.7170669904
 20
99.9200638871
 30
0.0
 11
80.7170669904
 21
97.0668273885
 31
0.0
  0
SPLINE
  5
100
330
1F
100
AcDbEntity
  8
0
  6
Continuous
 62
     7
370
    25
100
AcDbSpline
210
0.0
220
0.0
230
1.0
 70
     8
 71
     3
 72
    11
 73
     7
 74
     0
 42
0.000000001
 43
0.00000001
 40
0.0
 40
0.0
 40
0.0
 40
0.0
 40
0.2485331657816018
 40
0.4977458539813228
 40
0.7486584446317365
 40
0.9999999999999999
 40
0.9999999999999999
 40
0.9999999999999999
 40
0.9999999999999999
 10
80.06754793756694
 20
94.77255817118304
 30
0.0
 10
80.03447056767824
 20
94.5218037013311
 30
0.0
 10
79.96822539001383
 20
94.01960916587113
 30
0.0
 10
79.8101473130148
 20
93.27150842383003
 30
0.0
 10
79.61724962412276
 20
92.52684831266083
 30
0.0
 10
79.45947968581174
 20
92.0355087214806
 30
0.0
 10
79.3805273426608
 20
91.7896291044776
 30
0.0
  0
LINE
  5
101
330
1F
100
AcDbEntity
  8
0
  6
Continuous
 62
     7
370
    25
100
AcDbLine
 10
80.0675479376
 20
88.8067000378
 30
0.0
 11
80.0675479376
 21
94.7725581712
 31
0.0
  0
ARC
  5
102
330
1F
100
AcDbEntity
  8
0
  6
Continuous
 62
     7
370
    25
100
AcDbCircle
 10
80.6547711261
 20
96.0221676935
 30
0.0
 40
1.380708162956541
100
AcDbArc
 50
244.8299789717
 51
272.5859934179
  0
ARC
  5
103
330
1F
100
AcDbEntity
  8
0
  6
Continuous
 62
     7
370
    25
100
AcDbCircle
 10
80.6547711261
 20
87.5570905155
 30
0.0
 40
1.38070816295667
100
AcDbArc
 50
87.4140065821
 51
115.1700210283
  0
SPLINE
  5
104
330
1F
100
AcDbEntity
  8
0
  6
Continuous
 62
     7
370
    25
100
AcDbSpline
210
0.0
220
0.0
230
1.0
 70
     8
 71
     3
 72
    10
 73
     6
 74
     0
 42
0.000000001
 43
0.00000001
 40
0.0
 40
0.0
 40
0.0
 40
0.0
 40
0.4586421336634354
 40
0.9210522271454906
 40
1.0
 40
1.0
 40
1.0
 40
1.0
 10
80.06754793756694
 20
97.3067000377722
 30
0.0
 10
80.09998557299672
 20
96.91955969974327
 30
0.0
 10
80.16512733421538
 20
96.14209848458799
 30
0.0
 10
80.12357255266785
 20
95.29493745563963
 30
0.0
 10
80.07467832347318
 20
94.83904262414877
 30
0.0
 10
80.06754793756694
 20
94.77255817118304
 30
0.0
  0
LINE
  5
105
330
1F
100
AcDbEntity
  8
0
  6
Continuous
 62
     7
370
    25
100
AcDbLine
 10
69.6875812344
 20
100.2896291045
 30
0.0
 11
79.3805273427
 21
100.2896291045
 31
0.0
  0
SPLINE
  5
106
330
1F
100
AcDbEntity
  8
0
  6
Continuous
 62
     7
370
    25
100
AcDbSpline
210
0.0
220
0.0
230
1.0
 70
     8
 71
     3
 72
    10
 73
     6
 74
     0
 42
0.000000001
 43
0.00000001
 40
0.0
 40
0.0
 40
0.0
 40
0.0
 40
0.327333370707713
 40
0.6629523133412114
 40
0.9999999999999999
 40
0.9999999999999999
 40
0.9999999999999999
 40
0.9999999999999999
 10
79.3805273426608
 20
100.2896291044776
 30
0.0
 10
79.4818449687572
 20
99.96910029518934
 30
0.0
 10
79.68704480663996
 20
99.31992934402491
 30
0.0
 10
79.92561022876271
 20
98.32468427193953
 30
0.0
 10
80.0201684207607
 20
97.64650826447644
 30
0.0
 10
80.06754793756694
 20
97.3067000377722
 30
0.0
  0
ARC
  5
107
330
1F
100
AcDbEntity
  8
0
  6
Continuous
 62
     7
370
    25
100
AcDbCircle
 10
80.6752598909
 20
85.626325477
 30
0.0
 40
0.8870910400314771
100
AcDbArc
 50
87.2987462947
 51
133.2404470554
  0
ARC
  5
108
330
1F
100
AcDbEntity
  8
0
  6
Continuous
 62
     7
370
    25
100
AcDbCircle
 10
80.6752598909
 20
97.952932732
 30
0.0
 40
0.8870910400315055
100
AcDbArc
 50
226.7595529446
 51
272.7012537053
  0
LINE
  5
109
330
1F
100
AcDbEntity
  8
0
  6
Continuous
 62
     7
370
    25
100
AcDbLine
 10
80.0675479376
 20
83.2896291045
 30
0.0
 11
80.0675479376
 21
86.2725581712
 31
0.0
  0
SPLINE
  5
10A
330
1F
100
AcDbEntity
  8
0
  6
Continuous
 62
     7
370
    25
100
AcDbSpline
210
0.0
220
0.0
230
1.0
 70
    24
 71
     3
 72
    11
 73
     7
 74
     0
 42
0.000000001
 43
0.00000001
 40
0.0
 40
0.0
 40
0.0
 40
0.0
 40
0.2488261663104053
 40
0.49803076421438
 40
0.7486902142220285
 40
1.0
 40
1.0
 40
1.0
 40
1.0
 10
79.3805273426608
 20
83.28962910447758
 30
0.0
 10
79.45871648900082
 20
83.28962910447758
 30
0.0
 10
79.6152136970011
 20
83.28962910447757
 30
0.0
 10
79.80790032660387
 20
83.28962910447757
 30
0.0
 10
79.96713988083202
 20
83.28962910447757
 30
0.0
 10
80.03404968989761
 20
83.28962910447758
 30
0.0
 10
80.06754793756694
 20
83.28962910447758
 30
0.0
  0
ARC
  5
10B
330
1F
100
AcDbEntity
  8
0
  6
Continuous
 62
     7
370
    25
100
AcDbCircle
 10
80.7150308556
 20
82.9072182063
 30
0.0
 40
0.7519788721911662
100
AcDbArc
 50
89.8448599075
 51
149.433409991
  0
LINE
  5
10C
330
1F
100
AcDbEntity
  8
0
  6
Continuous
 62
     7
370
    25
100
AcDbLine
 10
80.0675479376
 20
97.3067000378
 30
0.0
 11
80.0675479376
 21
100.2896291045
 31
0.0
  0
ARC
  5
10D
330
1F
100
AcDbEntity
  8
0
  6
Continuous
 62
     7
370
    25
100
AcDbCircle
 10
80.7150308556
 20
100.6720400027
 30
0.0
 40
0.7519788722000306
100
AcDbArc
 50
210.5665900094
 51
270.1551400921
  0
SPLINE
  5
10E
330
1F
100
AcDbEntity
  8
0
  6
Continuous
 62
     7
370
    25
100
AcDbSpline
210
0.0
220
0.0
230
1.0
 70
    24
 71
     3
 72
    11
 73
     7
 74
     0
 42
0.000000001
 43
0.00000001
 40
0.0
 40
0.0
 40
0.0
 40
0.0
 40
0.248533165781602
 40
0.4977458539813221
 40
0.7486584446317359
 40
1.0
 40
1.0
 40
1.0
 40
1.0
 10
80.06754793756694
 20
100.2896291044776
 30
0.0
 10
80.03447056767824
 20
100.2896291044776
 30
0.0
 10
79.96822539001381
 20
100.2896291044776
 30
0.0
 10
79.81014731301478
 20
100.2896291044776
 30
0.0
 10
79.61724962412275
 20
100.2896291044776
 30
0.0
 10
79.45947968581174
 20
100.2896291044776
 30
0.0
 10
79.3805273426608
 20
100.2896291044776
 30
0.0
  0
SPLINE
  5
10F
330
1F
100
AcDbEntity
  8
0
  6
Continuous
 62
     7
370
    25
100
AcDbSpline
210
0.0
220
0.0
230
1.0
 70
    24
 71
     3
 72
     9
 73
     5
 74
     0
 42
0.000000001
 43
0.00000001
 40
0.0
 40
0.0
 40
0.0
 40
0.0
 40
0.1822377589212046
 40
1.0
 40
1.0
 40
1.0
 40
1.0
 10
80.13380465434005
 20
100.2896291044776
 30
0.0
 10
80.13491179353919
 20
100.2896291044776
 30
0.0
 10
80.14098703944691
 20
100.2896291044776
 30
0.0
 10
80.10058621021834
 20
100.2896291044776
 30
0.0
 10
80.06754793756694
 20
100.2896291044776
 30
0.0
  0
SPLINE
  5
110
330
1F
100
AcDbEntity
  8
0
  6
Continuous
 62
     7
370
    25
100
AcDbSpline
210
0.0
220
0.0
230
1.0
 70
    24
 71
     3
 72
     9
 73
     5
 74
     0
 42
0.000000001
 43
0.00000001
 40
0.0
 40
0.0
 40
0.0
 40
0.0
 40
0.5785387942246345
 40
0.9999999999999999
 40
0.9999999999999999
 40
0.9999999999999999
 40
0.9999999999999999
 10
80.06754793756694
 20
83.28962910447758
 30
0.0
 10
80.0933708090668
 20
83.28962910447758
 30
0.0
 10
80.13800545026568
 20
83.28962910447757
 30
0.0
 10
80.13504813255152
 20
83.28962910447757
 30
0.0
 10
80.13380173786183
 20
83.28962910447758
 30
0.0
  0
LINE
  5
111
330
1F
100
AcDbEntity
  8
0
  6
Continuous
 62
     7
370
    25
100
AcDbLine
 10
57.5357203384
 20
98.7896291045
 30
0.0
 11
57.5357203384
 21
91.7896291045
 31
0.0
  0
LINE
  5
112
330
1F
100
AcDbEntity
  8
0
  6
Continuous
 62
     7
370
    25
100
AcDbLine
 10
61.7661679887
 20
98.7896291045
 30
0.0
 11
57.5357203384
 21
98.7896291045
 31
0.0
  0
SPLINE
  5
113
330
1F
100
AcDbEntity
  8
0
  6
Continuous
 62
     7
370
    25
100
AcDbSpline
210
0.0
220
0.0
230
1.0
 70
     8
 71
     3
 72
    12
 73
     8
 74
     0
 42
0.000000001
 43
0.00000001
 40
0.0
 40
0.0
 40
0.0
 40
0.0
 40
0.25
 40
0.25
 40
0.5
 40
0.5
 40
1.0
 40
1.0
 40
1.0
 40
1.0
 10
62.39138277105518
 20
95.28962910447764
 30
0.0
 10
62.39138277105518
 20
95.58666290864808
 30
0.0
 10
62.37660501259469
 20
95.88502875885214
 30
0.0
 10
62.31941681159945
 20
96.47525868158195
 30
0.0
 10
62.27706134187661
 20
96.7683995612105
 30
0.0
 10
62.11370076700398
 20
97.64261576689314
 30
0.0
 10
61.95654271751351
 20
98.21850491808556
 30
0.0
 10
61.76616798871615
 20
98.78962910447767
 30
0.0
  0
SPLINE
  5
114
330
1F
100
AcDbEntity
  8
0
  6
Continuous
 62
     7
370
    25
100
AcDbSpline
210
0.0
220
0.0
230
1.0
 70
     8
 71
     3
 72
    10
 73
     6
 74
     0
 42
0.000000001
 43
0.00000001
 40
0.0
 40
0.0
 40
0.0
 40
0.0
 40
0.5
 40
0.5
 40
1.0
 40
1.0
 40
1.0
 40
1.0
 10
61.76616798871639
 20
91.78962910447757
 30
0.0
 10
61.95701920237269
 20
92.36218274544646
 30
0.0
 10
62.11425232352931
 20
92.93891870520594
 30
0.0
 10
62.3317963606576
 20
94.10444840462343
 30
0.0
 10
62.39138277105518
 20
94.6933322776903
 30
0.0
 10
62.39138277105518
 20
95.28962910447764
 30
0.0
  0
LINE
  5
115
330
1F
100
AcDbEntity
  8
0
  6
Continuous
 62
     7
370
    25
100
AcDbLine
 10
61.7661679887
 20
91.7896291045
 30
0.0
 11
57.5357203384
 21
91.7896291045
 31
0.0
  0
LINE
  5
116
330
1F
100
AcDbEntity
  8
0
  6
Continuous
 62
     7
370
    25
100
AcDbLine
 10
62.3913827711
 20
88.2896291045
 30
0.0
 11
62.3913827711
 21
95.2896291045
 31
0.0
  0
SPLINE
  5
117
330
1F
100
AcDbEntity
  8
0
  6
Continuous
 62
     7
370
    25
100
AcDbSpline
210
0.0
220
0.0
230
1.0
 70
     8
 71
     3
 72
    12
 73
     8
 74
     0
 42
0.000000001
 43
0.00000001
 40
0.0
 40
0.0
 40
0.0
 40
0.0
 40
0.2499999999999999
 40
0.2499999999999999
 40
0.4999999999999999
 40
0.4999999999999999
 40
1.0
 40
1.0
 40
1.0
 40
1.0
 10
62.39138277105518
 20
88.28962910447763
 30
0.0
 10
62.39138277105518
 20
88.58666290864807
 30
0.0
 10
62.37660501259469
 20
88.88502875885214
 30
0.0
 10
62.31941681159945
 20
89.47525868158195
 30
0.0
 10
62.27706134187661
 20
89.76839956121049
 30
0.0
 10
62.11370076700398
 20
90.64261576689316
 30
0.0
 10
61.95654271751351
 20
91.21850491808556
 30
0.0
 10
61.76616798871615
 20
91.78962910447765
 30
0.0
  0
SPLINE
  5
118
330
1F
100
AcDbEntity
  8
0
  6
Continuous
 62
     7
370
    25
100
AcDbSpline
210
0.0
220
0.0
230
1.0
 70
     8
 71
     3
 72
    10
 73
     6
 74
     0
 42
0.000000001
 43
0.00000001
 40
0.0
 40
0.0
 40
0.0
 40
0.0
 40
0.5
 40
0.5
 40
1.0
 40
1.0
 40
1.0
 40
1.0
 10
61.76616798871639
 20
84.78962910447757
 30
0.0
 10
61.95701920237269
 20
85.36218274544645
 30
0.0
 10
62.11425232352931
 20
85.93891870520592
 30
0.0
 10
62.33179636065759
 20
87.10444840462343
 30
0.0
 10
62.39138277105518
 20
87.6933322776903
 30
0.0
 10
62.39138277105518
 20
88.28962910447763
 30
0.0
  0
LINE
  5
119
330
1F
100
AcDbEntity
  8
0
  6
Continuous
 62
     7
370
    25
100
AcDbLine
 10
61.7661679887
 20
84.7896291045
 30
0.0
 11
57.5357203384
 21
84.7896291045
 31
0.0
  0
LINE
  5
11A
330
1F
100
AcDbEntity
  8
0
  6
Continuous
 62
     7
370
    25
100
AcDbLine
 10
57.5357203384
 20
91.7896291045
 30
0.0
 11
57.5357203384
 21
84.7896291045
 31
0.0
  0
LINE
  5
11B
330
1F
100
AcDbEntity
  8
0
  6
Continuous
 62
     7
370
    25
100
AcDbLine
 10
62.3913827711
 20
84.7896291045
 30
0.0
 11
62.3913827711
 21
88.2896291045
 31
0.0
  0
LINE
  5
11C
330
1F
100
AcDbEntity
  8
0
  6
Continuous
 62
     7
370
    25
100
AcDbLine
 10
62.3913827711
 20
95.2896291045
 30
0.0
 11
62.3913827711
 21
98.7896291045
 31
0.0
  0
LINE
  5
11D
330
1F
100
AcDbEntity
  8
0
  6
Continuous
 62
     7
370
    25
100
AcDbLine
 10
47.6245079921
 20
85.3336669903
 30
0.0
 11
47.6245079921
 21
98.2455912187
 31
0.0
  0
LINE
  5
11E
330
1F
100
AcDbEntity
  8
0
  6
Continuous
 62
     7
370
    25
100
AcDbLine
 10
63.3357203384
 20
85.0396291045
 30
0.0
 11
63.3357203384
 21
98.5396291045
 31
0.0
  0
LINE
  5
11F
330
1F
100
AcDbEntity
  8
0
  6
Continuous
 62
     7
370
    25
100
AcDbLine
 10
63.5357203384
 20
98.3396291045
 30
0.0
 11
63.5357203384
 21
85.2396291045
 31
0.0
  0
LINE
  5
120
330
1F
100
AcDbEntity
  8
0
  6
Continuous
 62
     7
370
    25
100
AcDbLine
 10
66.5357203384
 20
98.3681291045
 30
0.0
 11
66.5357203384
 21
85.2111291045
 31
0.0
  0
LINE
  5
121
330
1F
100
AcDbEntity
  8
0
  6
Continuous
 62
     7
370
    25
100
AcDbLine
 10
65.5357203384
 20
86.2111291045
 30
0.0
 11
65.5357203384
 21
97.3681291045
 31
0.0
  0
LINE
  5
122
330
1F
100
AcDbEntity
  8
0
  6
Continuous
 62
     7
370
    25
100
AcDbLine
 10
45.5357203384
 20
86.5396291045
 30
0.0
 11
45.5357203384
 21
97.0396291045
 31
0.0
  0
SPLINE
  5
123
330
1F
100
AcDbEntity
  8
0
  6
Continuous
 62
     7
370
    25
100
AcDbSpline
210
0.0
220
0.0
230
1.0
 70
    24
 71
     3
 72
    10
 73
     6
 74
     0
 42
0.000000001
 43
0.00000001
 40
0.0
 40
0.0
 40
0.0
 40
0.0
 40
0.5
 40
0.5
 40
1.0
 40
1.0
 40
1.0
 40
1.0
 10
62.39138277105518
 20
98.78962910447763
 30
0.0
 10
62.39138277105518
 20
98.78962910447763
 30
0.0
 10
62.33094662744929
 20
98.78962910447763
 30
0.0
 10
62.11189960664368
 20
98.78962910447763
 30
0.0
 10
61.95484379509008
 20
98.78962910447763
 30
0.0
 10
61.7661679887159
 20
98.78962910447763
 30
0.0
  0
SPLINE
  5
124
330
1F
100
AcDbEntity
  8
0
  6
Continuous
 62
     7
370
    25
100
AcDbSpline
210
0.0
220
0.0
230
1.0
 70
    24
 71
     3
 72
    10
 73
     6
 74
     0
 42
0.000000001
 43
0.00000001
 40
0.0
 40
0.0
 40
0.0
 40
0.0
 40
0.5
 40
0.5
 40
1.0
 40
1.0
 40
1.0
 40
1.0
 10
62.39138277105518
 20
84.78962910447763
 30
0.0
 10
62.39138277105518
 20
84.78962910447763
 30
0.0
 10
62.33094662744905
 20
84.78962910447763
 30
0.0
 10
62.11189960664364
 20
84.78962910447763
 30
0.0
 10
61.95484379509013
 20
84.78962910447763
 30
0.0
 10
61.7661679887159
 20
84.78962910447763
 30
0.0
  0
SPLINE
  5
125
330
1F
100
AcDbEntity
  8
0
  6
Continuous
 62
     1
370
    25
100
AcDbSpline
210
0.0
220
0.0
230
1.0
 70
     8
 71
     3
 72
    10
 73
     6
 74
     0
 42
0.000000001
 43
0.00000001
 40
0.0
 40
0.0
 40
0.0
 40
0.0
 40
0.1054683352037359
 40
0.6440627666016089
 40
1.0
 40
1.0
 40
1.0
 40
1.0
 10
80.70037008296889
 20
100.0342153614284
 30
0.0
 10
80.6998551406924
 20
100.0358924204666
 30
0.0
 10
80.6967105461883
 20
100.0461337055101
 30
0.0
 10
80.7120891868405
 20
100.0069273743138
 30
0.0
 10
80.71565009340623
 20
99.94478897170997
 30
0.0
 10
80.71706699040527
 20
99.92006388708633
 30
0.0
  0
SPLINE
  5
126
330
1F
100
AcDbEntity
  8
0
  6
Continuous
 62
     1
370
    25
100
AcDbSpline
210
0.0
220
0.0
230
1.0
 70
     8
 71
     3
 72
     9
 73
     5
 74
     0
 42
0.000000001
 43
0.00000001
 40
0.0
 40
0.0
 40
0.0
 40
0.0
 40
0.5716350575937688
 40
1.0
 40
1.0
 40
1.0
 40
1.0
 10
80.71706699040527
 20
83.65919432186888
 30
0.0
 10
80.71260758231989
 20
83.61947591612648
 30
0.0
 10
80.70480643712045
 20
83.54999381348986
 30
0.0
 10
80.70170054028706
 20
83.5465276363134
 30
0.0
 10
80.7003700829689
 20
83.54504284752684
 30
0.0
  0
LINE
  5
127
330
1F
100
AcDbEntity
  8
0
  6
Continuous
 62
     1
370
    25
100
AcDbLine
 10
62.8243954729
 20
98.5396291045
 30
0.0
 11
62.8243954729
 21
85.0396291045
 31
0.0
  0
LINE
  5
128
330
1F
100
AcDbEntity
  8
0
  6
Continuous
 62
     7
370
     0
100
AcDbLine
 10
73.3917203384
 20
86.0671291045
 30
0.0
 11
65.6797203384
 21
86.0671291045
 31
0.0
  0
LINE
  5
129
330
1F
100
AcDbEntity
  8
0
  6
Continuous
 62
     7
370
     0
100
AcDbLine
 10
73.3917203384
 20
97.5121291045
 30
0.0
 11
65.6797203384
 21
97.5121291045
 31
0.0
  0
LINE
  5
12A
330
1F
100
AcDbEntity
  8
0
  6
Continuous
 62
     7
370
     0
100
AcDbLine
 10
46.4009460609
 20
97.5391674083
 30
0.0
 11
57.0357203384
 21
97.8715041045
 31
0.0
  0
LINE
  5
12B
330
1F
100
AcDbEntity
  8
0
  6
Continuous
 62
     7
370
     0
100
AcDbLine
 10
46.4009460609
 20
86.0400908006
 30
0.0
 11
57.0357203384
 21
85.7077541045
 31
0.0
  0
LINE
  5
12C
330
1F
100
AcDbEntity
  8
0
  6
Continuous
 62
     7
370
     0
100
AcDbLine
 10
57.0357203384
 20
85.0395666045
 30
0.0
 11
57.0357203384
 21
98.5396916045
 31
0.0
  0
CIRCLE
  5
12D
330
1F
100
AcDbEntity
  8
0
  6
Continuous
 62
     7
370
    25
100
AcDbCircle
 10
110.4972977612
 20
52.1832574627
 30
0.0
 40
8.050000000000027
  0
CIRCLE
  5
12E
330
1F
100
AcDbEntity
  8
0
  6
Continuous
 62
     7
370
    25
100
AcDbCircle
 10
110.4972977612
 20
52.1832574627
 30
0.0
 40
8.250000000000018
  0
CIRCLE
  5
12F
330
1F
100
AcDbEntity
  8
0
  6
Continuous
 62
     7
370
    25
100
AcDbCircle
 10
110.4972977612
 20
52.1832574627
 30
0.0
 40
4.075000000000006
  0
CIRCLE
  5
130
330
1F
100
AcDbEntity
  8
0
  6
Continuous
 62
     7
370
    25
100
AcDbCircle
 10
110.4972977612
 20
52.1832574627
 30
0.0
 40
4.175000000000011
  0
SPLINE
  5
131
330
1F
100
AcDbEntity
  8
0
  6
Continuous
 62
     7
370
    25
100
AcDbSpline
210
0.0
220
0.0
230
1.0
 70
    24
 71
     3
 72
    10
 73
     6
 74
     0
 42
0.000000001
 43
0.00000001
 40
0.0
 40
0.0
 40
0.0
 40
0.0
 40
0.3089808900030068
 40
0.6190948628358689
 40
1.0
 40
1.0
 40
1.0
 40
1.0
 10
101.997297761194
 20
53.64634495152634
 30
0.0
 10
101.997297761194
 20
53.34544902679064
 30
0.0
 10
101.997297761194
 20
52.7425537433629
 30
0.0
 10
101.997297761194
 20
51.76453126617092
 30
0.0
 10
101.997297761194
 20
51.09128069585462
 30
0.0
 10
101.997297761194
 20
50.72016997384684
 30
0.0
  0
LINE
  5
132
330
1F
100
AcDbEntity
  8
0
  6
Continuous
 62
     7
370
    25
100
AcDbLine
 10
101.9972977612
 20
53.6463449515
 30
0.0
 11
102.3668629786
 21
53.582732452
 31
0.0
  0
LINE
  5
133
330
1F
100
AcDbEntity
  8
0
  6
Continuous
 62
     7
370
    25
100
AcDbLine
 10
101.9972977612
 20
50.7201699738
 30
0.0
 11
102.3668629786
 21
50.7837824734
 31
0.0
  0
SPLINE
  5
134
330
1F
100
AcDbEntity
  8
0
  6
Continuous
 62
     7
370
    25
100
AcDbSpline
210
0.0
220
0.0
230
1.0
 70
    24
 71
     3
 72
    10
 73
     6
 74
     0
 42
0.000000001
 43
0.00000001
 40
0.0
 40
0.0
 40
0.0
 40
0.0
 40
0.3089808900029883
 40
0.6190948628358313
 40
0.9999999999999999
 40
0.9999999999999999
 40
0.9999999999999999
 40
0.9999999999999999
 10
107.5143686944886
 20
60.27601713927429
 30
0.0
 10
107.2537851797722
 20
60.12556917690643
 30
0.0
 10
106.7316625485019
 20
59.82412153519254
 30
0.0
 10
105.8846702377814
 20
59.33511029659647
 30
0.0
 10
105.301618140775
 20
58.99848501143827
 30
0.0
 10
104.9802268278994
 20
58.81292965043433
 30
0.0
  0
LINE
  5
135
330
1F
100
AcDbEntity
  8
0
  6
Continuous
 62
     7
370
    25
100
AcDbLine
 10
107.5143686945
 20
60.2760171393
 30
0.0
 11
107.6440612626
 21
59.9241580229
 31
0.0
  0
LINE
  5
136
330
1F
100
AcDbEntity
  8
0
  6
Continuous
 62
     7
370
    25
100
AcDbLine
 10
104.9802268279
 20
58.8129296504
 30
0.0
 11
105.2200994772
 21
58.5246830336
 31
0.0
  0
LINE
  5
137
330
1F
100
AcDbEntity
  8
0
  6
Continuous
 62
     7
370
    25
100
AcDbLine
 10
115.7744960452
 20
45.8418318918
 30
0.0
 11
116.0143686945
 21
45.5535852749
 31
0.0
  0
SPLINE
  5
138
330
1F
100
AcDbEntity
  8
0
  6
Continuous
 62
     7
370
    25
100
AcDbSpline
210
0.0
220
0.0
230
1.0
 70
    24
 71
     3
 72
    10
 73
     6
 74
     0
 42
0.000000001
 43
0.00000001
 40
0.0
 40
0.0
 40
0.0
 40
0.0
 40
0.3089808900029886
 40
0.6190948628358303
 40
1.0
 40
1.0
 40
1.0
 40
1.0
 10
113.4802268278994
 20
44.09049778609887
 30
0.0
 10
113.7408103426158
 20
44.24094574846673
 30
0.0
 10
114.2629329738861
 20
44.54239339018061
 30
0.0
 10
115.1099252846066
 20
45.03140462877668
 30
0.0
 10
115.692977381613
 20
45.36802991393489
 30
0.0
 10
116.0143686944886
 20
45.55358527493883
 30
0.0
  0
LINE
  5
139
330
1F
100
AcDbEntity
  8
0
  6
Continuous
 62
     7
370
    25
100
AcDbLine
 10
113.3505342598
 20
44.4423569025
 30
0.0
 11
113.4802268279
 21
44.0904977861
 31
0.0
  0
LINE
  5
13A
330
1F
100
AcDbEntity
  8
0
  6
Continuous
 62
     7
370
    25
100
AcDbLine
 10
118.6277325438
 20
53.582732452
 30
0.0
 11
118.9972977612
 21
53.6463449515
 31
0.0
  0
SPLINE
  5
13B
330
1F
100
AcDbEntity
  8
0
  6
Continuous
 62
     7
370
    25
100
AcDbSpline
210
0.0
220
0.0
230
1.0
 70
    24
 71
     3
 72
    10
 73
     6
 74
     0
 42
0.000000001
 43
0.00000001
 40
0.0
 40
0.0
 40
0.0
 40
0.0
 40
0.3089808900029878
 40
0.6190948628358298
 40
1.0
 40
1.0
 40
1.0
 40
1.0
 10
118.997297761194
 20
50.72016997384664
 30
0.0
 10
118.997297761194
 20
51.02106589858236
 30
0.0
 10
118.997297761194
 20
51.62396118201016
 30
0.0
 10
118.997297761194
 20
52.60198365920227
 30
0.0
 10
118.997297761194
 20
53.27523422951868
 30
0.0
 10
118.997297761194
 20
53.64634495152655
 30
0.0
  0
LINE
  5
13C
330
1F
100
AcDbEntity
  8
0
  6
Continuous
 62
     7
370
    25
100
AcDbLine
 10
118.6277325438
 20
50.7837824734
 30
0.0
 11
118.9972977612
 21
50.7201699738
 31
0.0
  0
LINE
  5
13D
330
1F
100
AcDbEntity
  8
0
  6
Continuous
 62
     7
370
    25
100
AcDbLine
 10
107.6440612626
 20
44.4423569025
 30
0.0
 11
107.5143686945
 21
44.0904977861
 31
0.0
  0
SPLINE
  5
13E
330
1F
100
AcDbEntity
  8
0
  6
Continuous
 62
     7
370
    25
100
AcDbSpline
210
0.0
220
0.0
230
1.0
 70
    24
 71
     3
 72
    10
 73
     6
 74
     0
 42
0.000000001
 43
0.00000001
 40
0.0
 40
0.0
 40
0.0
 40
0.0
 40
0.0789477693778931
 40
0.5375793028234308
 40
1.0
 40
1.0
 40
1.0
 40
1.0
 10
104.9802268278994
 20
45.55358527493886
 30
0.0
 10
105.0467112988222
 20
45.51520044775466
 30
0.0
 10
105.4994242229351
 20
45.25382651915245
 30
0.0
 10
106.3465457695069
 20
44.76474066620289
 30
0.0
 10
107.1240282112758
 20
44.31586096915743
 30
0.0
 10
107.5143686944886
 20
44.09049778609889
 30
0.0
  0
LINE
  5
13F
330
1F
100
AcDbEntity
  8
0
  6
Continuous
 62
     7
370
    25
100
AcDbLine
 10
104.9802268279
 20
45.5535852749
 30
0.0
 11
105.2200994772
 21
45.8418318918
 31
0.0
  0
LINE
  5
140
330
1F
100
AcDbEntity
  8
0
  6
Continuous
 62
     7
370
    25
100
AcDbLine
 10
113.4802268279
 20
60.2760171393
 30
0.0
 11
113.3505342598
 21
59.9241580229
 31
0.0
  0
SPLINE
  5
141
330
1F
100
AcDbEntity
  8
0
  6
Continuous
 62
     7
370
    25
100
AcDbSpline
210
0.0
220
0.0
230
1.0
 70
    24
 71
     3
 72
    10
 73
     6
 74
     0
 42
0.000000001
 43
0.00000001
 40
0.0
 40
0.0
 40
0.0
 40
0.0
 40
0.4586421336634355
 40
0.9210522271454905
 40
1.0
 40
1.0
 40
1.0
 40
1.0
 10
116.0143686944886
 20
58.81292965043436
 30
0.0
 10
115.6272283564597
 20
59.03644522880952
 30
0.0
 10
114.8497671413044
 20
59.4853126706639
 30
0.0
 10
114.002606112356
 20
59.97442131877421
 30
0.0
 10
113.5467112808652
 20
60.23763232245763
 30
0.0
 10
113.4802268278994
 20
60.27601713927432
 30
0.0
  0
LINE
  5
142
330
1F
100
AcDbEntity
  8
0
  6
Continuous
 62
     7
370
    25
100
AcDbLine
 10
115.7744960452
 20
58.5246830336
 30
0.0
 11
116.0143686945
 21
58.8129296504
 31
0.0
  0
ARC
  5
143
330
1F
100
AcDbEntity
  8
0
  6
Continuous
 62
     7
370
    25
100
AcDbCircle
 10
110.4972977612
 20
52.1832574627
 30
0.0
 40
8.625000000000021
100
AcDbArc
 50
129.766500898
 51
170.233499102
  0
ARC
  5
144
330
1F
100
AcDbEntity
  8
0
  6
Continuous
 62
     7
370
    25
100
AcDbCircle
 10
110.4972977612
 20
52.1832574627
 30
0.0
 40
8.62500000000001
100
AcDbArc
 50
69.766500898
 51
110.233499102
  0
ARC
  5
145
330
1F
100
AcDbEntity
  8
0
  6
Continuous
 62
     7
370
    25
100
AcDbCircle
 10
110.4972977612
 20
52.1832574627
 30
0.0
 40
8.625000000000023
100
AcDbArc
 50
189.766500898
 51
230.233499102
  0
ARC
  5
146
330
1F
100
AcDbEntity
  8
0
  6
Continuous
 62
     7
370
    25
100
AcDbCircle
 10
110.4972977612
 20
52.1832574627
 30
0.0
 40
8.625000000000012
100
AcDbArc
 50
309.766500898
 51
350.233499102
  0
ARC
  5
147
330
1F
100
AcDbEntity
  8
0
  6
Continuous
 62
     7
370
    25
100
AcDbCircle
 10
110.4972977612
 20
52.1832574627
 30
0.0
 40
8.625000000000023
100
AcDbArc
 50
249.766500898
 51
290.233499102
  0
ARC
  5
148
330
1F
100
AcDbEntity
  8
0
  6
Continuous
 62
     7
370
    25
100
AcDbCircle
 10
110.4972977612
 20
52.1832574627
 30
0.0
 40
8.625
100
AcDbArc
 50
9.766500898
 51
50.233499102
  0
SPLINE
  5
149
330
1F
100
AcDbEntity
  8
0
  6
Continuous
 62
     7
370
    25
100
AcDbSpline
210
0.0
220
0.0
230
1.0
 70
    24
 71
     3
 72
    11
 73
     7
 74
     0
 42
0.000000001
 43
0.00000001
 40
0.0
 40
0.0
 40
0.0
 40
0.0
 40
0.2488261663104049
 40
0.4980307642143793
 40
0.7486902142220285
 40
0.9999999999999999
 40
0.9999999999999999
 40
0.9999999999999999
 40
0.9999999999999999
 10
110.497297761194
 20
61.99821203891024
 30
0.0
 10
110.2538861202592
 20
61.85767826249265
 30
0.0
 10
109.7666926415709
 20
61.57639697642453
 30
0.0
 10
109.0248891516419
 20
61.14811653182822
 30
0.0
 10
108.2743686434172
 20
60.71480331437234
 30
0.0
 10
107.7679207235363
 20
60.42240547149856
 30
0.0
 10
107.5143686944886
 20
60.27601713927429
 30
0.0
  0
SPLINE
  5
14A
330
1F
100
AcDbEntity
  8
0
  6
Continuous
 62
     7
370
    25
100
AcDbSpline
210
0.0
220
0.0
230
1.0
 70
    24
 71
     3
 72
    11
 73
     7
 74
     0
 42
0.000000001
 43
0.00000001
 40
0.0
 40
0.0
 40
0.0
 40
0.0
 40
0.2485331657816018
 40
0.4977458539813228
 40
0.7486584446317365
 40
0.9999999999999999
 40
0.9999999999999999
 40
0.9999999999999999
 40
0.9999999999999999
 10
113.4802268278994
 20
60.27601713927432
 30
0.0
 10
113.2294723580475
 20
60.42079029994383
 30
0.0
 10
112.7272778225875
 20
60.71073245017718
 30
0.0
 10
111.9791770805464
 20
61.14264861497558
 30
0.0
 10
111.2345169693772
 20
61.57257833061388
 30
0.0
 10
110.743177378197
 20
61.85625337584531
 30
0.0
 10
110.497297761194
 20
61.99821203891024
 30
0.0
  0
SPLINE
  5
14B
330
1F
100
AcDbEntity
  8
0
  6
Continuous
 62
     7
370
    25
100
AcDbSpline
210
0.0
220
0.0
230
1.0
 70
    24
 71
     3
 72
    11
 73
     7
 74
     0
 42
0.000000001
 43
0.00000001
 40
0.0
 40
0.0
 40
0.0
 40
0.0
 40
0.2485331718811622
 40
0.4983190599828382
 40
0.7486584384632523
 40
1.0
 40
1.0
 40
1.0
 40
1.0
 10
101.997297761194
 20
50.72016997384684
 30
0.0
 10
101.997297761194
 20
50.4306237595402
 30
0.0
 10
101.997297761194
 20
49.85007189097973
 30
0.0
 10
101.997297761194
 20
48.98624761189824
 30
0.0
 10
101.997297761194
 20
48.12639990850374
 30
0.0
 10
101.997297761194
 20
47.55969744365839
 30
0.0
 10
101.997297761194
 20
47.27578017457481
 30
0.0
  0
SPLINE
  5
14C
330
1F
100
AcDbEntity
  8
0
  6
Continuous
 62
     7
370
    25
100
AcDbSpline
210
0.0
220
0.0
230
1.0
 70
    24
 71
     3
 72
    11
 73
     7
 74
     0
 42
0.000000001
 43
0.00000001
 40
0.0
 40
0.0
 40
0.0
 40
0.0
 40
0.2488261663104053
 40
0.4980307642143796
 40
0.7486902142220284
 40
0.9999999999999999
 40
0.9999999999999999
 40
0.9999999999999999
 40
0.9999999999999999
 10
101.997297761194
 20
47.27578017457481
 30
0.0
 10
102.2407094021288
 20
47.13524639815721
 30
0.0
 10
102.7279028808171
 20
46.85396511208911
 30
0.0
 10
103.4697063707461
 20
46.42568466749279
 30
0.0
 10
104.2202268789708
 20
45.99237145003692
 30
0.0
 10
104.7266747988517
 20
45.69997360716314
 30
0.0
 10
104.9802268278994
 20
45.55358527493886
 30
0.0
  0
SPLINE
  5
14D
330
1F
100
AcDbEntity
  8
0
  6
Continuous
 62
     7
370
    25
100
AcDbSpline
210
0.0
220
0.0
230
1.0
 70
    24
 71
     3
 72
    11
 73
     7
 74
     0
 42
0.000000001
 43
0.00000001
 40
0.0
 40
0.0
 40
0.0
 40
0.0
 40
0.2488261663104045
 40
0.4980307642143795
 40
0.748690214222028
 40
1.0
 40
1.0
 40
1.0
 40
1.0
 10
110.497297761194
 20
42.36830288646295
 30
0.0
 10
110.7407094021288
 20
42.50883666288054
 30
0.0
 10
111.2279028808171
 20
42.79011794894865
 30
0.0
 10
111.9697063707461
 20
43.21839839354497
 30
0.0
 10
112.7202268789708
 20
43.65171161100083
 30
0.0
 10
113.2266747988517
 20
43.9441094538746
 30
0.0
 10
113.4802268278994
 20
44.09049778609887
 30
0.0
  0
SPLINE
  5
14E
330
1F
100
AcDbEntity
  8
0
  6
Continuous
 62
     7
370
    25
100
AcDbSpline
210
0.0
220
0.0
230
1.0
 70
    24
 71
     3
 72
    10
 73
     6
 74
     0
 42
0.000000001
 43
0.00000001
 40
0.0
 40
0.0
 40
0.0
 40
0.0
 40
0.3355445600395948
 40
0.6726666839999056
 40
1.0
 40
1.0
 40
1.0
 40
1.0
 10
107.5143686944886
 20
44.09049778609889
 30
0.0
 10
107.8526638223767
 20
43.89518300294718
 30
0.0
 10
108.5308445738779
 20
43.50363516350873
 30
0.0
 10
109.5261259747404
 20
42.92900917880131
 30
0.0
 10
110.1767689395522
 20
42.55336028792087
 30
0.0
 10
110.497297761194
 20
42.36830288646295
 30
0.0
  0
SPLINE
  5
14F
330
1F
100
AcDbEntity
  8
0
  6
Continuous
 62
     7
370
    25
100
AcDbSpline
210
0.0
220
0.0
230
1.0
 70
    24
 71
     3
 72
    11
 73
     7
 74
     0
 42
0.000000001
 43
0.00000001
 40
0.0
 40
0.0
 40
0.0
 40
0.0
 40
0.2485331718811621
 40
0.4983190599828383
 40
0.7486584384632518
 40
1.0
 40
1.0
 40
1.0
 40
1.0
 10
118.997297761194
 20
53.64634495152655
 30
0.0
 10
118.997297761194
 20
53.93589116583318
 30
0.0
 10
118.997297761194
 20
54.51644303439362
 30
0.0
 10
118.997297761194
 20
55.38026731347508
 30
0.0
 10
118.997297761194
 20
56.24011501686955
 30
0.0
 10
118.997297761194
 20
56.80681748171487
 30
0.0
 10
118.997297761194
 20
57.09073475079844
 30
0.0
  0
SPLINE
  5
150
330
1F
100
AcDbEntity
  8
0
  6
Continuous
 62
     7
370
    25
100
AcDbSpline
210
0.0
220
0.0
230
1.0
 70
    24
 71
     3
 72
    10
 73
     6
 74
     0
 42
0.000000001
 43
0.00000001
 40
0.0
 40
0.0
 40
0.0
 40
0.0
 40
0.3273333707077132
 40
0.6629523133412115
 40
1.0
 40
1.0
 40
1.0
 40
1.0
 10
118.997297761194
 20
57.09073475079844
 30
0.0
 10
118.6767689519057
 20
57.27579214512407
 30
0.0
 10
118.0275980007413
 20
57.65059116852893
 30
0.0
 10
117.0323529286559
 20
58.22519617880705
 30
0.0
 10
116.3541769211928
 20
58.61674127927382
 30
0.0
 10
116.0143686944886
 20
58.81292965043436
 30
0.0
  0
SPLINE
  5
151
330
1F
100
AcDbEntity
  8
0
  6
Continuous
 62
     7
370
    25
100
AcDbSpline
210
0.0
220
0.0
230
1.0
 70
    24
 71
     3
 72
    11
 73
     7
 74
     0
 42
0.000000001
 43
0.00000001
 40
0.0
 40
0.0
 40
0.0
 40
0.0
 40
0.2488261663104051
 40
0.4980307642143798
 40
0.7486902142220283
 40
1.0
 40
1.0
 40
1.0
 40
1.0
 10
118.997297761194
 20
47.27578017457476
 30
0.0
 10
118.997297761194
 20
47.55684772740997
 30
0.0
 10
118.997297761194
 20
48.1194102995462
 30
0.0
 10
118.997297761194
 20
48.97597118873882
 30
0.0
 10
118.997297761194
 20
49.84259762365056
 30
0.0
 10
118.997297761194
 20
50.4273933093981
 30
0.0
 10
118.997297761194
 20
50.72016997384664
 30
0.0
  0
SPLINE
  5
152
330
1F
100
AcDbEntity
  8
0
  6
Continuous
 62
     7
370
    25
100
AcDbSpline
210
0.0
220
0.0
230
1.0
 70
    24
 71
     3
 72
    11
 73
     7
 74
     0
 42
0.000000001
 43
0.00000001
 40
0.0
 40
0.0
 40
0.0
 40
0.0
 40
0.248533171881162
 40
0.4983190599828386
 40
0.748658438463253
 40
1.0
 40
1.0
 40
1.0
 40
1.0
 10
116.0143686944886
 20
45.55358527493883
 30
0.0
 10
116.2651230716477
 20
45.69835838209213
 30
0.0
 10
116.7678957380356
 20
45.98863431637236
 30
0.0
 10
117.5159895081259
 20
46.42054645591309
 30
0.0
 10
118.2606394626513
 20
46.85047030761032
 30
0.0
 10
118.7514181935946
 20
47.13382154003298
 30
0.0
 10
118.997297761194
 20
47.27578017457476
 30
0.0
  0
SPLINE
  5
153
330
1F
100
AcDbEntity
  8
0
  6
Continuous
 62
     7
370
    25
100
AcDbSpline
210
0.0
220
0.0
230
1.0
 70
    24
 71
     3
 72
    11
 73
     7
 74
     0
 42
0.000000001
 43
0.00000001
 40
0.0
 40
0.0
 40
0.0
 40
0.0
 40
0.2488261663104051
 40
0.4980307642143798
 40
0.7486902142220283
 40
0.9999999999999999
 40
0.9999999999999999
 40
0.9999999999999999
 40
0.9999999999999999
 10
101.997297761194
 20
57.09073475079837
 30
0.0
 10
101.997297761194
 20
56.80966719796315
 30
0.0
 10
101.997297761194
 20
56.2471046258269
 30
0.0
 10
101.997297761194
 20
55.39054373663424
 30
0.0
 10
101.997297761194
 20
54.52391730172246
 30
0.0
 10
101.997297761194
 20
53.9391216159749
 30
0.0
 10
101.997297761194
 20
53.64634495152634
 30
0.0
  0
SPLINE
  5
154
330
1F
100
AcDbEntity
  8
0
  6
Continuous
 62
     7
370
    25
100
AcDbSpline
210
0.0
220
0.0
230
1.0
 70
    24
 71
     3
 72
    11
 73
     7
 74
     0
 42
0.000000001
 43
0.00000001
 40
0.0
 40
0.0
 40
0.0
 40
0.0
 40
0.2485331718811616
 40
0.4983190599828384
 40
0.7486584384632524
 40
1.0
 40
1.0
 40
1.0
 40
1.0
 10
104.9802268278994
 20
58.81292965043433
 30
0.0
 10
104.7294724507403
 20
58.66815654328102
 30
0.0
 10
104.2266997843524
 20
58.3778806090008
 30
0.0
 10
103.4786060142621
 20
57.94596846946006
 30
0.0
 10
102.7339560597368
 20
57.51604461776282
 30
0.0
 10
102.2431773287934
 20
57.23269338534016
 30
0.0
 10
101.997297761194
 20
57.09073475079837
 30
0.0
  0
CIRCLE
  5
155
330
1F
100
AcDbEntity
  8
0
  6
Continuous
 62
     7
370
    25
100
AcDbCircle
 10
110.4972977612
 20
52.1832574627
 30
0.0
 40
4.050000000000011
  0
CIRCLE
  5
156
330
1F
100
AcDbEntity
  8
0
  6
Continuous
 62
     7
370
    25
100
AcDbCircle
 10
110.4972977612
 20
52.1832574627
 30
0.0
 40
2.999999999999986
  0
ENDSEC
  0
SECTION
  2
OBJECTS
  0
DICTIONARY
  5
C
330
0
100
AcDbDictionary
281
     1
  3
ACAD_GROUP
350
D
  3
ACAD_LAYOUT
350
1A
  3
ACAD_MLINESTYLE
350
17
  3
ACAD_PLOTSETTINGS
350
19
  3
ACAD_PLOTSTYLENAME
350
E
  3
ACAD_SCALELIST
350
47
  0
DICTIONARY
  5
D
102
{ACAD_REACTORS
330
C
102
}
330
C
100
AcDbDictionary
281
     1
  0
DICTIONARY
  5
1A
102
{ACAD_REACTORS
330
C
102
}
330
C
100
AcDbDictionary
281
     1
  3
Layout1
350
1E
  3
Layout2
350
26
  3
Model
350
22
  0
DICTIONARY
  5
17
102
{ACAD_REACTORS
330
C
102
}
330
C
100
AcDbDictionary
281
     1
  3
Standard
350
18
  0
DICTIONARY
  5
19
102
{ACAD_REACTORS
330
C
102
}
330
C
100
AcDbDictionary
281
     1
  0
ACDBDICTIONARYWDFLT
  5
E
102
{ACAD_REACTORS
330
C
102
}
330
C
100
AcDbDictionary
281
     1
  3
Normal
350
F
100
AcDbDictionaryWithDefault
340
F
  0
DICTIONARY
  5
47
102
{ACAD_REACTORS
330
C
102
}
330
C
100
AcDbDictionary
281
     1
  3
A0
350
48
  3
A1
350
49
  3
A2
350
4A
  3
A3
350
4B
  3
A4
350
4C
  3
A5
350
4D
  3
A6
350
4E
  3
A7
350
4F
  3
A8
350
50
  3
A9
350
51
  3
B0
350
52
  3
B1
350
53
  3
B2
350
54
  3
B3
350
55
  3
B4
350
56
  3
B5
350
57
  3
B6
350
58
  3
B7
350
59
  3
B8
350
5A
  3
B9
350
5B
  3
C0
350
5C
  3
C1
350
5D
  3
C2
350
5E
  3
C3
350
5F
  3
C4
350
60
  3
C5
350
61
  3
C6
350
62
  3
C7
350
63
  3
C8
350
64
  3
C9
350
65
  3
D0
350
66
  3
D1
350
67
  3
D2
350
68
  0
LAYOUT
  5
1E
102
{ACAD_REACTORS
330
1A
102
}
330
1A
100
AcDbPlotSettings
  1

  2
none_device
  4

  6

 40
0.0
 41
0.0
 42
0.0
 43
0.0
 44
0.0
 45
0.0
 46
0.0
 47
0.0
 48
0.0
 49
0.0
140
0.0
141
0.0
142
1.0
143
1.0
 70
   688
 72
     1
 73
     0
 74
     5
  7

 75
    16
147
1.0
148
0.0
149
0.0
100
AcDbLayout
  1
Layout1
 70
     1
 71
     1
 10
0.0
 20
0.0
 11
420.0
 21
297.0
 12
0.0
 22
0.0
 32
0.0
 14
1.0000000000E+20
 24
1.0000000000E+20
 34
1.0000000000E+20
 15
-1.0000000000E+20
 25
-1.0000000000E+20
 35
-1.0000000000E+20
146
0.0
 13
0.0
 23
0.0
 33
0.0
 16
1.0
 26
0.0
 36
0.0
 17
0.0
 27
1.0
 37
0.0
 76
     0
330
1B
  0
LAYOUT
  5
26
102
{ACAD_REACTORS
330
1A
102
}
330
1A
100
AcDbPlotSettings
  1

  2
none_device
  4

  6

 40
0.0
 41
0.0
 42
0.0
 43
0.0
 44
0.0
 45
0.0
 46
0.0
 47
0.0
 48
0.0
 49
0.0
140
0.0
141
0.0
142
1.0
143
1.0
 70
   688
 72
     1
 73
     0
 74
     5
  7

 75
    16
147
1.0
148
0.0
149
0.0
100
AcDbLayout
  1
Layout2
 70
     1
 71
     2
 10
0.0
 20
0.0
 11
0.0
 21
0.0
 12
0.0
 22
0.0
 32
0.0
 14
0.0
 24
0.0
 34
0.0
 15
0.0
 25
0.0
 35
0.0
146
0.0
 13
0.0
 23
0.0
 33
0.0
 16
1.0
 26
0.0
 36
0.0
 17
0.0
 27
1.0
 37
0.0
 76
     0
330
23
  0
LAYOUT
  5
22
102
{ACAD_REACTORS
330
1A
102
}
330
1A
100
AcDbPlotSettings
  1

  2
none_device
  4
Letter_(8.50_x_11.00_Inches)
  6

 40
6.35
 41
6.35
 42
6.35000508
 43
6.35000508
 44
215.9
 45
279.4
 46
0.0
 47
0.0
 48
0.0
 49
0.0
140
0.0
141
0.0
142
1.0
143
1.0
 70
  1712
 72
     1
 73
     0
 74
     0
  7

 75
     0
147
1.0
148
0.0
149
0.0
100
AcDbLayout
  1
Model
 70
     1
 71
     0
 10
0.0
 20
0.0
 11
215.9
 21
139.7
 12
0.0
 22
0.0
 32
0.0
 14
0.0
 24
0.0
 34
0.0
 15
215.9
 25
139.7
 35
0.0
146
0.0
 13
0.0
 23
0.0
 33
0.0
 16
1.0
 26
0.0
 36
0.0
 17
0.0
 27
1.0
 37
0.0
 76
     0
330
1F
331
29
  0
MLINESTYLE
  5
18
102
{ACAD_REACTORS
330
17
102
}
330
17
100
AcDbMlineStyle
  2
Standard
 70
     0
  3

 62
   256
 51
90.0
 52
90.0
 71
     2
 49
0.5
 62
   256
  6
BYLAYER
 49
-0.5
 62
   256
  6
BYLAYER
  0
ACDBPLACEHOLDER
  5
F
102
{ACAD_REACTORS
330
E
102
}
330
E
  0
SCALE
  5
48
102
{ACAD_REACTORS
330
47
102
}
330
47
100
AcDbScale
 70
     0
300
1:1
140
1.0
141
1.0
290
     1
  0
SCALE
  5
49
102
{ACAD_REACTORS
330
47
102
}
330
47
100
AcDbScale
 70
     0
300
1:2
140
1.0
141
2.0
290
     0
  0
SCALE
  5
4A
102
{ACAD_REACTORS
330
47
102
}
330
47
100
AcDbScale
 70
     0
300
1:4
140
1.0
141
4.0
290
     0
  0
SCALE
  5
4B
102
{ACAD_REACTORS
330
47
102
}
330
47
100
AcDbScale
 70
     0
300
1:5
140
1.0
141
5.0
290
     0
  0
SCALE
  5
4C
102
{ACAD_REACTORS
330
47
102
}
330
47
100
AcDbScale
 70
     0
300
1:8
140
1.0
141
8.0
290
     0
  0
SCALE
  5
4D
102
{ACAD_REACTORS
330
47
102
}
330
47
100
AcDbScale
 70
     0
300
1:10
140
1.0
141
10.0
290
     0
  0
SCALE
  5
4E
102
{ACAD_REACTORS
330
47
102
}
330
47
100
AcDbScale
 70
     0
300
1:16
140
1.0
141
16.0
290
     0
  0
SCALE
  5
4F
102
{ACAD_REACTORS
330
47
102
}
330
47
100
AcDbScale
 70
     0
300
1:20
140
1.0
141
20.0
290
     0
  0
SCALE
  5
50
102
{ACAD_REACTORS
330
47
102
}
330
47
100
AcDbScale
 70
     0
300
1:30
140
1.0
141
30.0
290
     0
  0
SCALE
  5
51
102
{ACAD_REACTORS
330
47
102
}
330
47
100
AcDbScale
 70
     0
300
1:40
140
1.0
141
40.0
290
     0
  0
SCALE
  5
52
102
{ACAD_REACTORS
330
47
102
}
330
47
100
AcDbScale
 70
     0
300
1:50
140
1.0
141
50.0
290
     0
  0
SCALE
  5
53
102
{ACAD_REACTORS
330
47
102
}
330
47
100
AcDbScale
 70
     0
300
1:100
140
1.0
141
100.0
290
     0
  0
SCALE
  5
54
102
{ACAD_REACTORS
330
47
102
}
330
47
100
AcDbScale
 70
     0
300
2:1
140
2.0
141
1.0
290
     0
  0
SCALE
  5
55
102
{ACAD_REACTORS
330
47
102
}
330
47
100
AcDbScale
 70
     0
300
4:1
140
4.0
141
1.0
290
     0
  0
SCALE
  5
56
102
{ACAD_REACTORS
330
47
102
}
330
47
100
AcDbScale
 70
     0
300
8:1
140
8.0
141
1.0
290
     0
  0
SCALE
  5
57
102
{ACAD_REACTORS
330
47
102
}
330
47
100
AcDbScale
 70
     0
300
10:1
140
10.0
141
1.0
290
     0
  0
SCALE
  5
58
102
{ACAD_REACTORS
330
47
102
}
330
47
100
AcDbScale
 70
     0
300
100:1
140
100.0
141
1.0
290
     0
  0
SCALE
  5
59
102
{ACAD_REACTORS
330
47
102
}
330
47
100
AcDbScale
 70
     0
300
1/128" = 1'-0"
140
0.0078125
141
12.0
290
     0
  0
SCALE
  5
5A
102
{ACAD_REACTORS
330
47
102
}
330
47
100
AcDbScale
 70
     0
300
1/64" = 1'-0"
140
0.015625
141
12.0
290
     0
  0
SCALE
  5
5B
102
{ACAD_REACTORS
330
47
102
}
330
47
100
AcDbScale
 70
     0
300
1/32" = 1'-0"
140
0.03125
141
12.0
290
     0
  0
SCALE
  5
5C
102
{ACAD_REACTORS
330
47
102
}
330
47
100
AcDbScale
 70
     0
300
1/16" = 1'-0"
140
0.0625
141
12.0
290
     0
  0
SCALE
  5
5D
102
{ACAD_REACTORS
330
47
102
}
330
47
100
AcDbScale
 70
     0
300
3/32" = 1'-0"
140
0.09375
141
12.0
290
     0
  0
SCALE
  5
5E
102
{ACAD_REACTORS
330
47
102
}
330
47
100
AcDbScale
 70
     0
300
1/8" = 1'-0"
140
0.125
141
12.0
290
     0
  0
SCALE
  5
5F
102
{ACAD_REACTORS
330
47
102
}
330
47
100
AcDbScale
 70
     0
300
3/16" = 1'-0"
140
0.1875
141
12.0
290
     0
  0
SCALE
  5
60
102
{ACAD_REACTORS
330
47
102
}
330
47
100
AcDbScale
 70
     0
300
1/4" = 1'-0"
140
0.25
141
12.0
290
     0
  0
SCALE
  5
61
102
{ACAD_REACTORS
330
47
102
}
330
47
100
AcDbScale
 70
     0
300
3/8" = 1'-0"
140
0.375
141
12.0
290
     0
  0
SCALE
  5
62
102
{ACAD_REACTORS
330
47
102
}
330
47
100
AcDbScale
 70
     0
300
1/2" = 1'-0"
140
0.5
141
12.0
290
     0
  0
SCALE
  5
63
102
{ACAD_REACTORS
330
47
102
}
330
47
100
AcDbScale
 70
     0
300
3/4" = 1'-0"
140
0.75
141
12.0
290
     0
  0
SCALE
  5
64
102
{ACAD_REACTORS
330
47
102
}
330
47
100
AcDbScale
 70
     0
300
1" = 1'-0"
140
1.0
141
12.0
290
     0
  0
SCALE
  5
65
102
{ACAD_REACTORS
330
47
102
}
330
47
100
AcDbScale
 70
     0
300
1-1/2" = 1'-0"
140
1.5
141
12.0
290
     0
  0
SCALE
  5
66
102
{ACAD_REACTORS
330
47
102
}
330
47
100
AcDbScale
 70
     0
300
3" = 1'-0"
140
3.0
141
12.0
290
     0
  0
SCALE
  5
67
102
{ACAD_REACTORS
330
47
102
}
330
47
100
AcDbScale
 70
     0
300
6" = 1'-0"
140
6.0
141
12.0
290
     0
  0
SCALE
  5
68
102
{ACAD_REACTORS
330
47
102
}
330
47
100
AcDbScale
 70
     0
300
1'-0" = 1'-0"
140
12.0
141
12.0
290
     0
  0
ENDSEC
  0
EOF
