  0
SECTION
  2
HEADER
  9
$ACADVER
  1
AC1015
  9
$ACADMAINTVER
 70
     6
  9
$DWGCODEPAGE
  3
DOS932
  9
$INSBASE
 10
0.0
 20
0.0
 30
0.0
  9
$EXTMIN
 10
0.0
 20
0.0
 30
0.0
  9
$EXTMAX
 10
215.9
 20
139.7
 30
0.0
  9
$LIMMIN
 10
0.0
 20
0.0
  9
$LIMMAX
 10
215.9
 20
139.7
  9
$ORTHOMODE
 70
     0
  9
$REGENMODE
 70
     1
  9
$FILLMODE
 70
     1
  9
$QTEXTMODE
 70
     0
  9
$MIRRTEXT
 70
     1
  9
$LTSCALE
 40
1.0
  9
$ATTMODE
 70
     1
  9
$TEXTSIZE
 40
1.75
  9
$TRACEWID
 40
1.0
  9
$TEXTSTYLE
  7
Standard
  9
$CLAYER
  8
0
  9
$CELTYPE
  6
ByLayer
  9
$CECOLOR
 62
   256
  9
$CELTSCALE
 40
1.0
  9
$DISPSILH
 70
     0
  9
$DIMSCALE
 40
1.0
  9
$DIMASZ
 40
1.778
  9
$DIMEXO
 40
0.5
  9
$DIMDLI
 40
3.75
  9
$DIMRND
 40
0.0
  9
$DIMDLE
 40
0.0
  9
$DIMEXE
 40
0.5
  9
$DIMTP
 40
0.0
  9
$DIMTM
 40
0.0
  9
$DIMTXT
 40
1.75
  9
$DIMCEN
 40
2.5
  9
$DIMTSZ
 40
0.0
  9
$DIMTOL
 70
     0
  9
$DIMLIM
 70
     0
  9
$DIMTIH
 70
     1
  9
$DIMTOH
 70
     1
  9
$DIMSE1
 70
     0
  9
$DIMSE2
 70
     0
  9
$DIMTAD
 70
     1
  9
$DIMZIN
 70
     1
  9
$DIMBLK
  1

  9
$DIMASO
 70
     1
  9
$DIMSHO
 70
     1
  9
$DIMPOST
  1

  9
$DIMAPOST
  1

  9
$DIMALT
 70
     0
  9
$DIMALTD
 70
     3
  9
$DIMALTF
 40
0.0393700787
  9
$DIMLFAC
 40
1.0
  9
$DIMTOFL
 70
     1
  9
$DIMTVP
 40
0.0
  9
$DIMTIX
 70
     0
  9
$DIMSOXD
 70
     0
  9
$DIMSAH
 70
     0
  9
$DIMBLK1
  1

  9
$DIMBLK2
  1

  9
$DIMSTYLE
  2
ISO-25
  9
$DIMCLRD
 70
     0
  9
$DIMCLRE
 70
     0
  9
$DIMCLRT
 70
     0
  9
$DIMTFAC
 40
1.0
  9
$DIMGAP
 40
0.762
  9
$DIMJUST
 70
     0
  9
$DIMSD1
 70
     0
  9
$DIMSD2
 70
     0
  9
$DIMTOLJ
 70
     0
  9
$DIMTZIN
 70
     1
  9
$DIMALTZ
 70
     0
  9
$DIMALTTZ
 70
     0
  9
$DIMUPT
 70
     0
  9
$DIMDEC
 70
     2
  9
$DIMTDEC
 70
     2
  9
$DIMALTU
 70
     2
  9
$DIMALTTD
 70
     3
  9
$DIMTXSTY
  7
Standard
  9
$DIMAUNIT
 70
     0
  9
$DIMADEC
 70
     2
  9
$DIMALTRND
 40
0.0
  9
$DIMAZIN
 70
     0
  9
$DIMDSEP
 70
    44
  9
$DIMATFIT
 70
     3
  9
$DIMFRAC
 70
     0
  9
$DIMLDRBLK
  1

  9
$DIMLUNIT
 70
     2
  9
$DIMLWD
 70
    -2
  9
$DIMLWE
 70
    -2
  9
$DIMTMOVE
 70
     0
  9
$LUNITS
 70
     2
  9
$LUPREC
 70
     2
  9
$SKETCHINC
 40
1.0
  9
$FILLETRAD
 40
10.0
  9
$AUNITS
 70
     0
  9
$AUPREC
 70
     2
  9
$MENU
  1
.
  9
$ELEVATION
 40
0.0
  9
$PELEVATION
 40
0.0
  9
$THICKNESS
 40
0.0
  9
$LIMCHECK
 70
     0
  9
$CHAMFERA
 40
0.0
  9
$CHAMFERB
 40
0.0
  9
$CHAMFERC
 40
0.0
  9
$CHAMFERD
 40
0.0
  9
$SKPOLY
 70
     0
  9
$TDCREATE
 40
2459388.559107581
  9
$TDUCREATE
 40
2459388.184107581
  9
$TDUPDATE
 40
2459388.559111505
  9
$TDUUPDATE
 40
2459388.184111505
  9
$TDINDWG
 40
0.0000000116
  9
$TDUSRTIMER
 40
0.0000000116
  9
$USRTIMER
 70
     1
  9
$ANGBASE
 50
0.0
  9
$ANGDIR
 70
     0
  9
$PDMODE
 70
     0
  9
$PDSIZE
 40
-1.0
  9
$PLINEWID
 40
0.0
  9
$SPLFRAME
 70
     0
  9
$SPLINETYPE
 70
     6
  9
$SPLINESEGS
 70
     8
  9
$HANDSEED
  5
200
  9
$SURFTAB1
 70
     6
  9
$SURFTAB2
 70
     6
  9
$SURFTYPE
 70
     6
  9
$SURFU
 70
     6
  9
$SURFV
 70
     6
  9
$UCSBASE
  2

  9
$UCSNAME
  2

  9
$UCSORG
 10
0.0
 20
0.0
 30
0.0
  9
$UCSXDIR
 10
1.0
 20
0.0
 30
0.0
  9
$UCSYDIR
 10
0.0
 20
1.0
 30
0.0
  9
$UCSORTHOREF
  2

  9
$UCSORTHOVIEW
 70
     0
  9
$UCSORGTOP
 10
0.0
 20
0.0
 30
0.0
  9
$UCSORGBOTTOM
 10
0.0
 20
0.0
 30
0.0
  9
$UCSORGLEFT
 10
0.0
 20
0.0
 30
0.0
  9
$UCSORGRIGHT
 10
0.0
 20
0.0
 30
0.0
  9
$UCSORGFRONT
 10
0.0
 20
0.0
 30
0.0
  9
$UCSORGBACK
 10
0.0
 20
0.0
 30
0.0
  9
$PUCSBASE
  2

  9
$PUCSNAME
  2

  9
$PUCSORG
 10
0.0
 20
0.0
 30
0.0
  9
$PUCSXDIR
 10
1.0
 20
0.0
 30
0.0
  9
$PUCSYDIR
 10
0.0
 20
1.0
 30
0.0
  9
$PUCSORTHOREF
  2

  9
$PUCSORTHOVIEW
 70
     0
  9
$PUCSORGTOP
 10
0.0
 20
0.0
 30
0.0
  9
$PUCSORGBOTTOM
 10
0.0
 20
0.0
 30
0.0
  9
$PUCSORGLEFT
 10
0.0
 20
0.0
 30
0.0
  9
$PUCSORGRIGHT
 10
0.0
 20
0.0
 30
0.0
  9
$PUCSORGFRONT
 10
0.0
 20
0.0
 30
0.0
  9
$PUCSORGBACK
 10
0.0
 20
0.0
 30
0.0
  9
$USERI1
 70
     0
  9
$USERI2
 70
     0
  9
$USERI3
 70
     0
  9
$USERI4
 70
     0
  9
$USERI5
 70
     0
  9
$USERR1
 40
0.0
  9
$USERR2
 40
0.0
  9
$USERR3
 40
0.0
  9
$USERR4
 40
0.0
  9
$USERR5
 40
0.0
  9
$WORLDVIEW
 70
     1
  9
$SHADEDGE
 70
     3
  9
$SHADEDIF
 70
    70
  9
$TILEMODE
 70
     0
  9
$MAXACTVP
 70
    64
  9
$PINSBASE
 10
0.0
 20
0.0
 30
0.0
  9
$PLIMCHECK
 70
     0
  9
$PEXTMIN
 10
0.0
 20
0.0
 30
0.0
  9
$PEXTMAX
 10
215.9
 20
139.7
 30
0.0
  9
$PLIMMIN
 10
0.0
 20
0.0
  9
$PLIMMAX
 10
215.9
 20
139.7
  9
$UNITMODE
 70
     0
  9
$VISRETAIN
 70
     1
  9
$PLINEGEN
 70
     0
  9
$PSLTSCALE
 70
     1
  9
$TREEDEPTH
 70
  3020
  9
$CMLSTYLE
  2
Standard
  9
$CMLJUST
 70
     0
  9
$CMLSCALE
 40
20.0
  9
$PROXYGRAPHICS
 70
     1
  9
$MEASUREMENT
 70
     1
  9
$CELWEIGHT
370
    -1
  9
$ENDCAPS
280
     0
  9
$JOINSTYLE
280
     0
  9
$LWDISPLAY
290
     1
  9
$INSUNITS
 70
     4
  9
$HYPERLINKBASE
  1

  9
$STYLESHEET
  1

  9
$XEDIT
290
     1
  9
$CEPSNTYPE
380
     0
  9
$PSTYLEMODE
290
     1
  9
$FINGERPRINTGUID
  2
{5B4C7697-85A0-4444-807A-419ACE441754}
  9
$VERSIONGUID
  2
{FAEB1C32-E019-11D5-929B-00C0DF256EC4}
  9
$EXTNAMES
290
     1
  9
$PSVPSCALE
 40
0.0
  9
$OLESTARTUP
290
     0
  0
ENDSEC
  0
SECTION
  2
CLASSES
  0
CLASS
  1
ACDBDICTIONARYWDFLT
  2
AcDbDictionaryWithDefault
  3
ObjectDBX Classes
 90
        0
280
     0
281
     0
  0
CLASS
  1
VISUALSTYLE
  2
AcDbVisualStyle
  3
ObjectDBX Classes
 90
     4095
280
     0
281
     0
  0
CLASS
  1
MATERIAL
  2
AcDbMaterial
  3
ObjectDBX Classes
 90
     1153
280
     0
281
     0
  0
CLASS
  1
SCALE
  2
AcDbScale
  3
ObjectDBX Classes
 90
     1153
280
     0
281
     0
  0
CLASS
  1
TABLESTYLE
  2
AcDbTableStyle
  3
ObjectDBX Classes
 90
     4095
280
     0
281
     0
  0
CLASS
  1
MLEADERSTYLE
  2
AcDbMLeaderStyle
  3
ACDB_MLEADERSTYLE_CLASS
 90
     4095
280
     0
281
     0
  0
CLASS
  1
SUN
  2
AcDbSun
  3
SCENEOE
 90
     1153
280
     0
281
     0
  0
CLASS
  1
ACDBPLACEHOLDER
  2
AcDbPlaceHolder
  3
ObjectDBX Classes
 90
        0
280
     0
281
     0
  0
CLASS
  1
LAYOUT
  2
AcDbLayout
  3
ObjectDBX Classes
 90
        0
280
     0
281
     0
  0
ENDSEC
  0
SECTION
  2
TABLES
  0
TABLE
  2
VPORT
  5
8
330
0
100
AcDbSymbolTable
 70
     1
  0
VPORT
  5
29
330
8
100
AcDbSymbolTableRecord
100
AcDbViewportTableRecord
  2
*Active
 70
     0
 10
0.0
 20
0.0
 11
1.0
 21
1.0
 12
107.95
 22
69.85
 13
0.0
 23
0.0
 14
10.0
 24
10.0
 15
10.0
 25
10.0
 16
0.0
 26
0.0
 36
1.0
 17
0.0
 27
0.0
 37
0.0
 40
139.7
 41
1.5454545455
 42
50.0
 43
0.0
 44
0.0
 50
0.0
 51
0.0
 71
     0
 72
  2000
 73
     1
 74
     3
 75
     0
 76
     0
 77
     0
 78
     0
281
     0
 65
     1
110
0.0
120
0.0
130
0.0
111
1.0
121
0.0
131
0.0
112
0.0
122
1.0
132
0.0
 79
     0
146
0.0
  0
ENDTAB
  0
TABLE
  2
LTYPE
  5
5
330
0
100
AcDbSymbolTable
 70
     6
  0
LTYPE
  5
14
330
5
100
AcDbSymbolTableRecord
100
AcDbLinetypeTableRecord
  2
ByBlock
 70
     0
  3

 72
    65
 73
     0
 40
0.0
  0
LTYPE
  5
15
330
5
100
AcDbSymbolTableRecord
100
AcDbLinetypeTableRecord
  2
ByLayer
 70
     0
  3

 72
    65
 73
     0
 40
0.0
  0
LTYPE
  5
16
330
5
100
AcDbSymbolTableRecord
100
AcDbLinetypeTableRecord
  2
Continuous
 70
     0
  3
Solid line
 72
    65
 73
     0
 40
0.0
  0
LTYPE
  5
6E
330
5
100
AcDbSymbolTableRecord
100
AcDbLinetypeTableRecord
  2
HIDDEN
 70
     0
  3
Hidden __ __ __ __ __ __ __ __ __ __ __ __ __ __
 72
    65
 73
     2
 40
1.905
 49
1.27
 74
     0
 49
-0.635
 74
     0
  0
LTYPE
  5
6F
330
5
100
AcDbSymbolTableRecord
100
AcDbLinetypeTableRecord
  2
PHANTOM
 70
     0
  3
Phantom ______  __  __  ______  __  __  ______
 72
    65
 73
     6
 40
12.7
 49
6.35
 74
     0
 49
-1.27
 74
     0
 49
1.27
 74
     0
 49
-1.27
 74
     0
 49
1.27
 74
     0
 49
-1.27
 74
     0
  0
LTYPE
  5
70
330
5
100
AcDbSymbolTableRecord
100
AcDbLinetypeTableRecord
  2
CENTER
 70
     0
  3
Center ____ _ ____ _ ____ _ ____ _ ____ _ ____
 72
    65
 73
     4
 40
10.16
 49
6.35
 74
     0
 49
-1.27
 74
     0
 49
1.27
 74
     0
 49
-1.27
 74
     0
  0
LTYPE
  5
71
330
5
100
AcDbSymbolTableRecord
100
AcDbLinetypeTableRecord
  2
CENTERX2
 70
     0
  3
Center (2x) ________  __  ________  __  _____
 72
    65
 73
     4
 40
20.32
 49
12.7
 74
     0
 49
-2.54
 74
     0
 49
2.54
 74
     0
 49
-2.54
 74
     0
  0
LTYPE
  5
72
330
5
100
AcDbSymbolTableRecord
100
AcDbLinetypeTableRecord
  2
DOT2
 70
     0
  3
Dot (.5x) ........................................
 72
    65
 73
     2
 40
0.635
 49
0.0
 74
     0
 49
-0.635
 74
     0
  0
ENDTAB
  0
TABLE
  2
LAYER
  5
2
330
0
100
AcDbSymbolTable
 70
     1
  0
LAYER
  5
10
330
2
100
AcDbSymbolTableRecord
100
AcDbLayerTableRecord
  2
0
 70
     0
 62
     7
  6
Continuous
370
    -3
390
F
  0
ENDTAB
  0
TABLE
  2
STYLE
  5
3
330
0
100
AcDbSymbolTable
 70
     2
  0
STYLE
  5
11
330
3
100
AcDbSymbolTableRecord
100
AcDbTextStyleTableRecord
  2
Standard
 70
     0
 40
0.0
 41
1.0
 50
0.0
 71
     0
 42
1.75
  3
txt
  4
bigfont
  0
STYLE
  5
73
330
3
100
AcDbSymbolTableRecord
100
AcDbTextStyleTableRecord
  2
SLDTEXTSTYLE0
 70
     0
 40
0.0
 41
0.75
 50
0.0
 71
     0
 42
1.75
  3
TXT
  4
bigfont
  0
ENDTAB
  0
TABLE
  2
VIEW
  5
6
330
0
100
AcDbSymbolTable
 70
     0
  0
ENDTAB
  0
TABLE
  2
UCS
  5
7
330
0
100
AcDbSymbolTable
 70
     0
  0
ENDTAB
  0
TABLE
  2
APPID
  5
9
330
0
100
AcDbSymbolTable
 70
     1
  0
APPID
  5
12
330
9
100
AcDbSymbolTableRecord
100
AcDbRegAppTableRecord
  2
ACAD
 70
     0
  0
ENDTAB
  0
TABLE
  2
DIMSTYLE
  5
A
330
0
100
AcDbSymbolTable
 70
     1
100
AcDbDimStyleTable
  0
DIMSTYLE
105
27
330
A
100
AcDbSymbolTableRecord
100
AcDbDimStyleTableRecord
  2
ISO-25
 70
     0
 41
2.5
 42
0.625
 43
3.75
 44
1.25
 73
     0
 74
     0
 77
     1
 78
     8
140
2.5
141
2.5
143
0.0393700787
147
0.625
171
     3
172
     1
178
     0
271
     2
272
     2
274
     3
278
    44
283
     0
284
     8
340
11
  0
ENDTAB
  0
TABLE
  2
BLOCK_RECORD
  5
1
330
0
100
AcDbSymbolTable
 70
     1
  0
BLOCK_RECORD
  5
1F
330
1
100
AcDbSymbolTableRecord
100
AcDbBlockTableRecord
  2
*Model_Space
340
22
  0
BLOCK_RECORD
  5
1B
330
1
100
AcDbSymbolTableRecord
100
AcDbBlockTableRecord
  2
*Paper_Space
340
1E
  0
ENDTAB
  0
ENDSEC
  0
SECTION
  2
BLOCKS
  0
BLOCK
  5
20
330
1F
100
AcDbEntity
  8
0
100
AcDbBlockBegin
  2
*Model_Space
 70
     0
 10
0.0
 20
0.0
 30
0.0
  3
*Model_Space
  1

  0
ENDBLK
  5
21
330
1F
100
AcDbEntity
  8
0
100
AcDbBlockEnd
  0
BLOCK
  5
1C
330
1B
100
AcDbEntity
 67
     1
  8
0
100
AcDbBlockBegin
  2
*Paper_Space
 70
     0
 10
0.0
 20
0.0
 30
0.0
  3
*Paper_Space
  1

  0
ENDBLK
  5
1D
330
1B
100
AcDbEntity
 67
     1
  8
0
100
AcDbBlockEnd
  0
ENDSEC
  0
SECTION
  2
ENTITIES
  0
MTEXT
  5
74
330
1F
100
AcDbEntity
  8
0
  6
Continuous
 62
     7
 48
0.5
370
     0
100
AcDbMText
 10
86.6677380597
 20
67.6786082134
 30
0.0
 40
2.6458333333
 41
0.0
 71
     1
 72
     1
  1
5R-RS1106
  7
SLDTEXTSTYLE0
 73
     1
 44
1.0
  0
LINE
  5
75
330
1F
100
AcDbEntity
  8
0
  6
Continuous
 62
     7
 48
0.5
370
    25
100
AcDbLine
 10
74.9453290466
 20
57.7967263646
 30
0.0
 11
74.2650930945
 21
56.6185231343
 31
0.0
  0
LINE
  5
76
330
1F
100
AcDbEntity
  8
0
  6
Continuous
 62
     7
 48
0.5
370
    25
100
AcDbLine
 10
74.2650930945
 20
45.1185231343
 30
0.0
 11
74.9453290466
 21
43.9403199041
 31
0.0
  0
ARC
  5
77
330
1F
100
AcDbEntity
  8
0
  6
Continuous
 62
     7
 48
0.25
370
    25
100
AcDbCircle
 10
84.5537682291
 20
57.1185231343
 30
0.0
 40
0.5
100
AcDbArc
 50
210.0
 51
270.0
  0
ARC
  5
78
330
1F
100
AcDbEntity
  8
0
  6
Continuous
 62
     7
 48
0.25
370
    25
100
AcDbCircle
 10
84.5537682291
 20
44.6185231343
 30
0.0
 40
0.5
100
AcDbArc
 50
90.0
 51
150.0
  0
LINE
  5
79
330
1F
100
AcDbEntity
  8
0
  6
Continuous
 62
     7
 48
0.5
370
    25
100
AcDbLine
 10
85.0650930945
 20
56.6185231343
 30
0.0
 11
84.5537682291
 21
56.6185231343
 31
0.0
  0
LINE
  5
7A
330
1F
100
AcDbEntity
  8
0
  6
Continuous
 62
     7
 48
0.5
370
    25
100
AcDbLine
 10
84.5537682291
 20
45.1185231343
 30
0.0
 11
85.0650930945
 21
45.1185231343
 31
0.0
  0
LINE
  5
7B
330
1F
100
AcDbEntity
  8
0
  6
Continuous
 62
     7
 48
0.5
370
    25
100
AcDbLine
 10
85.0650930945
 20
45.1185231343
 30
0.0
 11
85.2650930945
 21
45.3185231343
 31
0.0
  0
LINE
  5
7C
330
1F
100
AcDbEntity
  8
0
  6
Continuous
 62
     7
 48
0.5
370
    25
100
AcDbLine
 10
85.2650930945
 20
56.4185231343
 30
0.0
 11
85.0650930945
 21
56.6185231343
 31
0.0
  0
LINE
  5
7D
330
1F
100
AcDbEntity
  8
0
  6
Continuous
 62
     7
 48
0.5
370
    25
100
AcDbLine
 10
84.1207555272
 20
56.8685231343
 30
0.0
 11
83.5848571423
 21
57.7967263646
 31
0.0
  0
LINE
  5
7E
330
1F
100
AcDbEntity
  8
0
  6
Continuous
 62
     7
 48
0.5
370
    25
100
AcDbLine
 10
83.5848571423
 20
43.9403199041
 30
0.0
 11
84.1207555272
 21
44.8685231343
 31
0.0
  0
ARC
  5
7F
330
1F
100
AcDbEntity
  8
0
  6
Continuous
 62
     7
 48
0.25
370
    25
100
AcDbCircle
 10
70.8054342789
 20
44.6185231343
 30
0.0
 40
0.5000000000000006
100
AcDbArc
 50
90.0
 51
150.0
  0
ARC
  5
80
330
1F
100
AcDbEntity
  8
0
  6
Continuous
 62
     7
 48
0.25
370
    25
100
AcDbCircle
 10
70.8054342789
 20
57.1185231343
 30
0.0
 40
0.5000000000000006
100
AcDbArc
 50
210.0
 51
270.0
  0
LINE
  5
81
330
1F
100
AcDbEntity
  8
0
  6
Continuous
 62
     7
 48
0.5
370
    25
100
AcDbLine
 10
71.3167591443
 20
45.1185231343
 30
0.0
 11
71.5167591443
 21
45.3185231343
 31
0.0
  0
LINE
  5
82
330
1F
100
AcDbEntity
  8
0
  6
Continuous
 62
     7
 48
0.5
370
    25
100
AcDbLine
 10
71.5167591443
 20
56.4185231343
 30
0.0
 11
71.3167591443
 21
56.6185231343
 31
0.0
  0
LINE
  5
83
330
1F
100
AcDbEntity
  8
0
  6
Continuous
 62
     7
 48
0.5
370
    25
100
AcDbLine
 10
71.3167591443
 20
56.6185231343
 30
0.0
 11
70.8054342789
 21
56.6185231343
 31
0.0
  0
LINE
  5
84
330
1F
100
AcDbEntity
  8
0
  6
Continuous
 62
     7
 48
0.5
370
    25
100
AcDbLine
 10
70.8054342789
 20
45.1185231343
 30
0.0
 11
71.3167591443
 21
45.1185231343
 31
0.0
  0
LINE
  5
85
330
1F
100
AcDbEntity
  8
0
  6
Continuous
 62
     7
 48
0.5
370
    25
100
AcDbLine
 10
65.5167591443
 20
55.8897106343
 30
0.0
 11
57.8717072038
 21
55.6508027612
 31
0.0
  0
LINE
  5
86
330
1F
100
AcDbEntity
  8
0
  6
Continuous
 62
     7
 48
0.5
370
    25
100
AcDbLine
 10
57.8717072038
 20
46.0862435075
 30
0.0
 11
65.5167591443
 21
45.8473356343
 31
0.0
  0
LINE
  5
87
330
1F
100
AcDbEntity
  8
0
  6
Continuous
 62
     7
 48
0.5
370
    25
100
AcDbLine
 10
73.7167591443
 20
55.7325231343
 30
0.0
 11
73.0167591443
 21
55.0325231343
 31
0.0
  0
LINE
  5
88
330
1F
100
AcDbEntity
  8
0
  6
Continuous
 62
     7
 48
0.5
370
    25
100
AcDbLine
 10
73.0167591443
 20
46.7045231343
 30
0.0
 11
73.7167591443
 21
46.0045231343
 31
0.0
  0
LINE
  5
89
330
1F
100
AcDbEntity
  8
0
  6
Continuous
 62
     7
 48
0.5
370
    25
100
AcDbLine
 10
73.7167591443
 20
46.0045231343
 30
0.0
 11
74.2650930945
 21
46.0045231343
 31
0.0
  0
LINE
  5
8A
330
1F
100
AcDbEntity
  8
0
  6
Continuous
 62
     7
 48
0.5
370
    25
100
AcDbLine
 10
74.2650930945
 20
55.7325231343
 30
0.0
 11
73.7167591443
 21
55.7325231343
 31
0.0
  0
LINE
  5
8B
330
1F
100
AcDbEntity
  8
0
  6
Continuous
 62
     7
 48
0.5
370
    25
100
AcDbLine
 10
57.8717072038
 20
55.6508027612
 30
0.0
 11
56.5167591443
 21
54.8685231343
 31
0.0
  0
LINE
  5
8C
330
1F
100
AcDbEntity
  8
0
  6
Continuous
 62
     7
 48
0.5
370
    25
100
AcDbLine
 10
56.5167591443
 20
46.8685231343
 30
0.0
 11
57.8717072038
 21
46.0862435075
 31
0.0
  0
LINE
  5
8D
330
1F
100
AcDbEntity
  8
0
  6
Continuous
 62
     7
 48
0.5
370
    25
100
AcDbLine
 10
71.5167591443
 20
46.9685231343
 30
0.0
 11
73.0167591443
 21
46.9685231343
 31
0.0
  0
LINE
  5
8E
330
1F
100
AcDbEntity
  8
0
  6
Continuous
 62
     7
 48
0.5
370
    25
100
AcDbLine
 10
73.0167591443
 20
54.7685231343
 30
0.0
 11
71.5167591443
 21
54.7685231343
 31
0.0
  0
LINE
  5
8F
330
1F
100
AcDbEntity
  8
0
  6
Continuous
 62
     7
 48
0.5
370
    25
100
AcDbLine
 10
70.372421577
 20
56.8685231343
 30
0.0
 11
69.8365231922
 21
57.7967263646
 31
0.0
  0
LINE
  5
90
330
1F
100
AcDbEntity
  8
0
  6
Continuous
 62
     7
 48
0.5
370
    25
100
AcDbLine
 10
69.8365231922
 20
43.9403199041
 30
0.0
 11
70.372421577
 21
44.8685231343
 31
0.0
  0
SPLINE
  5
91
330
1F
100
AcDbEntity
  8
0
  6
Continuous
 62
     7
 48
0.5
370
    25
100
AcDbSpline
210
0.0
220
0.0
230
1.0
 70
     8
 71
     3
 72
    16
 73
    12
 74
     0
 42
0.000000001
 43
0.00000001
 40
0.0
 40
0.0
 40
0.0
 40
0.0
 40
0.1130223886251227
 40
0.2387024512201667
 40
0.3643500542235876
 40
0.4930894900811555
 40
0.6218274355442566
 40
0.7158584889512427
 40
0.8098993986606198
 40
0.9049449862565128
 40
1.0
 40
1.0
 40
1.0
 40
1.0
 10
74.94532904664285
 20
47.40442151919063
 30
0.0
 10
74.87507200386615
 20
47.65995434932766
 30
0.0
 10
74.72668964767733
 20
48.1996378019863
 30
0.0
 10
74.55718631694012
 20
49.0376132854456
 30
0.0
 10
74.43959543409618
 20
49.92163189138508
 30
0.0
 10
74.396962703937
 20
50.81995065013377
 30
0.0
 10
74.42852805321374
 20
51.64444635383676
 30
0.0
 10
74.51183208856193
 20
52.38290457429246
 30
0.0
 10
74.62339108073279
 20
53.0374606482478
 30
0.0
 10
74.76677515266945
 20
53.68831664610355
 30
0.0
 10
74.88580911455013
 20
54.11784828222957
 30
0.0
 10
74.94532904664285
 20
54.33262474946616
 30
0.0
  0
SPLINE
  5
92
330
1F
100
AcDbEntity
  8
0
  6
Continuous
 62
     7
 48
0.5
370
    25
100
AcDbSpline
210
0.0
220
0.0
230
1.0
 70
     8
 71
     3
 72
    15
 73
    11
 74
     0
 42
0.000000001
 43
0.00000001
 40
0.0
 40
0.0
 40
0.0
 40
0.0
 40
0.1323034284088744
 40
0.2645694515465797
 40
0.3997942148562055
 40
0.5349945762150088
 40
0.6501872613016998
 40
0.7653979157221119
 40
0.8826876171264815
 40
1.0
 40
1.0
 40
1.0
 40
1.0
 10
74.94532904664285
 20
43.94031990405287
 30
0.0
 10
74.86375129628672
 20
44.08998081977442
 30
0.0
 10
74.70061885951097
 20
44.38926033857906
 30
0.0
 10
74.52509342185397
 20
44.85012407344056
 30
0.0
 10
74.41955293076279
 20
45.31967502459521
 30
0.0
 10
74.39864766036484
 20
45.77222120536234
 30
0.0
 10
74.45287104151815
 20
46.20032315598263
 30
0.0
 10
74.56398305689105
 20
46.60435072353324
 30
0.0
 10
74.72697440826948
 20
47.00655162887774
 30
0.0
 10
74.87253947607927
 20
47.27178967462896
 30
0.0
 10
74.94532904664285
 20
47.40442151919063
 30
0.0
  0
SPLINE
  5
93
330
1F
100
AcDbEntity
  8
0
  6
Continuous
 62
     7
 48
0.5
370
    25
100
AcDbSpline
210
0.0
220
0.0
230
1.0
 70
     8
 71
     3
 72
    15
 73
    11
 74
     0
 42
0.000000001
 43
0.00000001
 40
0.0
 40
0.0
 40
0.0
 40
0.0
 40
0.1323034284088758
 40
0.2645694515465826
 40
0.3997942148562103
 40
0.5349945762150153
 40
0.6501872613017048
 40
0.7653979157221152
 40
0.8826876171264832
 40
1.0
 40
1.0
 40
1.0
 40
1.0
 10
74.94532904664285
 20
54.33262474946616
 30
0.0
 10
74.86375129628672
 20
54.48228566518772
 30
0.0
 10
74.70061885951097
 20
54.78156518399235
 30
0.0
 10
74.52509342185398
 20
55.24242891885385
 30
0.0
 10
74.4195529307628
 20
55.7119798700085
 30
0.0
 10
74.39864766036487
 20
56.16452605077562
 30
0.0
 10
74.45287104151816
 20
56.59262800139591
 30
0.0
 10
74.56398305689106
 20
56.99665556894651
 30
0.0
 10
74.7269744082695
 20
57.39885647429101
 30
0.0
 10
74.87253947607927
 20
57.66409452004222
 30
0.0
 10
74.94532904664287
 20
57.79672636460389
 30
0.0
  0
LINE
  5
94
330
1F
100
AcDbEntity
  8
0
  6
Continuous
 62
     7
 48
0.5
370
    25
100
AcDbLine
 10
74.2650930945
 20
50.8685231343
 30
0.0
 11
74.2650930945
 21
56.6185231343
 31
0.0
  0
LINE
  5
95
330
1F
100
AcDbEntity
  8
0
  6
Continuous
 62
     7
 48
0.5
370
    25
100
AcDbLine
 10
74.2650930945
 20
45.1185231343
 30
0.0
 11
74.2650930945
 21
50.8685231343
 31
0.0
  0
SPLINE
  5
96
330
1F
100
AcDbEntity
  8
0
  6
Continuous
 62
     7
 48
0.5
370
    25
100
AcDbSpline
210
0.0
220
0.0
230
1.0
 70
     8
 71
     3
 72
    12
 73
     8
 74
     0
 42
0.000000001
 43
0.00000001
 40
0.0
 40
0.0
 40
0.0
 40
0.0
 40
0.0700388419389851
 40
0.3004119028624834
 40
0.5308209005332588
 40
0.765387770009328
 40
0.9999999999999999
 40
0.9999999999999999
 40
0.9999999999999999
 40
0.9999999999999999
 10
84.12075552718579
 20
56.06467555703502
 30
0.0
 10
84.12015251581951
 20
56.02362627656843
 30
0.0
 10
84.11756606825735
 20
55.84755693968749
 30
0.0
 10
84.0769793667976
 20
55.53670942376802
 30
0.0
 10
83.9662944851506
 20
55.13269926935146
 30
0.0
 10
83.8031887673082
 20
54.73049370158289
 30
0.0
 10
83.65763904126315
 20
54.46525628127562
 30
0.0
 10
83.58485714232356
 20
54.33262474946616
 30
0.0
  0
LINE
  5
97
330
1F
100
AcDbEntity
  8
0
  6
Continuous
 62
     7
 48
0.5
370
    25
100
AcDbLine
 10
84.1207555272
 20
50.8685231343
 30
0.0
 11
84.1207555272
 21
56.064675557
 31
0.0
  0
SPLINE
  5
98
330
1F
100
AcDbEntity
  8
0
  6
Continuous
 62
     7
 48
0.5
370
    25
100
AcDbSpline
210
0.0
220
0.0
230
1.0
 70
     8
 71
     3
 72
    12
 73
     8
 74
     0
 42
0.000000001
 43
0.00000001
 40
0.0
 40
0.0
 40
0.0
 40
0.0
 40
0.1874471619102472
 40
0.3748765475261017
 40
0.5640623755679541
 40
0.7532279557308604
 40
0.9999999999999999
 40
0.9999999999999999
 40
0.9999999999999999
 40
0.9999999999999999
 10
83.58485714232356
 20
54.33262474946616
 30
0.0
 10
83.64356495822472
 20
54.1208577757487
 30
0.0
 10
83.76097502255185
 20
53.69734391094413
 30
0.0
 10
83.90412006019248
 20
53.05144989832085
 30
0.0
 10
84.01579135733043
 20
52.39754347743315
 30
0.0
 10
84.10166601665125
 20
51.66904291624446
 30
0.0
 10
84.11385543809277
 20
51.15787878888817
 30
0.0
 10
84.1207555271858
 20
50.8685231343284
 30
0.0
  0
SPLINE
  5
99
330
1F
100
AcDbEntity
  8
0
  6
Continuous
 62
     7
 48
0.5
370
    25
100
AcDbSpline
210
0.0
220
0.0
230
1.0
 70
     8
 71
     3
 72
    12
 73
     8
 74
     0
 42
0.000000001
 43
0.00000001
 40
0.0
 40
0.0
 40
0.0
 40
0.0
 40
0.1911385458921326
 40
0.3822891756203943
 40
0.5761623698022401
 40
0.7700589757435052
 40
1.0
 40
1.0
 40
1.0
 40
1.0
 10
84.1207555271858
 20
50.8685231343284
 30
0.0
 10
84.11648985599139
 20
50.6444309493926
 30
0.0
 10
84.10795824392555
 20
50.19623241234593
 30
0.0
 10
84.04114066080503
 20
49.52346136464457
 30
0.0
 10
83.93637336846764
 20
48.85275475386956
 30
0.0
 10
83.78802417433745
 20
48.14354807628862
 30
0.0
 10
83.65631318500427
 20
47.66438032395791
 30
0.0
 10
83.58485714232356
 20
47.40442151919063
 30
0.0
  0
LINE
  5
9A
330
1F
100
AcDbEntity
  8
0
  6
Continuous
 62
     7
 48
0.5
370
    25
100
AcDbLine
 10
74.9453290466
 20
47.4044215192
 30
0.0
 11
83.5848571423
 21
47.4044215192
 31
0.0
  0
LINE
  5
9B
330
1F
100
AcDbEntity
  8
0
  6
Continuous
 62
     7
 48
0.5
370
    25
100
AcDbLine
 10
74.9453290466
 20
54.3326247495
 30
0.0
 11
83.5848571423
 21
54.3326247495
 31
0.0
  0
LINE
  5
9C
330
1F
100
AcDbEntity
  8
0
  6
Continuous
 62
     7
 48
0.5
370
    25
100
AcDbLine
 10
84.1207555272
 20
45.6723707116
 30
0.0
 11
84.1207555272
 21
50.8685231343
 31
0.0
  0
SPLINE
  5
9D
330
1F
100
AcDbEntity
  8
0
  6
Continuous
 62
     7
 48
0.5
370
    25
100
AcDbSpline
210
0.0
220
0.0
230
1.0
 70
     8
 71
     3
 72
    11
 73
     7
 74
     0
 42
0.000000001
 43
0.00000001
 40
0.0
 40
0.0
 40
0.0
 40
0.0
 40
0.2477111816679852
 40
0.495365492733121
 40
0.7477052806358118
 40
1.0
 40
1.0
 40
1.0
 40
1.0
 10
83.58485714232356
 20
47.40442151919063
 30
0.0
 10
83.66157186232643
 20
47.26435866960603
 30
0.0
 10
83.81498368983546
 20
46.98426512667068
 30
0.0
 10
83.9837042756007
 20
46.55393576022099
 30
0.0
 10
84.098388081007
 20
46.11611414185547
 30
0.0
 10
84.11330015572169
 20
45.82027638134838
 30
0.0
 10
84.1207555271858
 20
45.67237071162176
 30
0.0
  0
LINE
  5
9E
330
1F
100
AcDbEntity
  8
0
  6
Continuous
 62
     7
 48
0.5
370
    25
100
AcDbLine
 10
74.9453290466
 20
57.7967263646
 30
0.0
 11
83.5848571423
 21
57.7967263646
 31
0.0
  0
SPLINE
  5
9F
330
1F
100
AcDbEntity
  8
0
  6
Continuous
 62
     7
 48
0.5
370
    25
100
AcDbSpline
210
0.0
220
0.0
230
1.0
 70
     8
 71
     3
 72
    11
 73
     7
 74
     0
 42
0.000000001
 43
0.00000001
 40
0.0
 40
0.0
 40
0.0
 40
0.0
 40
0.2477111816679851
 40
0.4953654927331209
 40
0.7477052806358114
 40
0.9999999999999999
 40
0.9999999999999999
 40
0.9999999999999999
 40
0.9999999999999999
 10
83.58485714232356
 20
57.79672636460389
 30
0.0
 10
83.66157186232643
 20
57.65666351501928
 30
0.0
 10
83.81498368983544
 20
57.37656997208394
 30
0.0
 10
83.98370427560067
 20
56.94624060563424
 30
0.0
 10
84.09838808100699
 20
56.50841898726873
 30
0.0
 10
84.11330015572169
 20
56.21258122676164
 30
0.0
 10
84.12075552718579
 20
56.06467555703502
 30
0.0
  0
SPLINE
  5
A0
330
1F
100
AcDbEntity
  8
0
  6
Continuous
 62
     7
 48
0.5
370
    25
100
AcDbSpline
210
0.0
220
0.0
230
1.0
 70
     8
 71
     3
 72
    12
 73
     8
 74
     0
 42
0.000000001
 43
0.00000001
 40
0.0
 40
0.0
 40
0.0
 40
0.0
 40
0.070038841938972
 40
0.3004119028624735
 40
0.5308209005332518
 40
0.7653877700093245
 40
1.0
 40
1.0
 40
1.0
 40
1.0
 10
84.1207555271858
 20
45.67237071162176
 30
0.0
 10
84.12015251581953
 20
45.63132143115517
 30
0.0
 10
84.11756606825736
 20
45.45525209427424
 30
0.0
 10
84.07697936679762
 20
45.14440457835475
 30
0.0
 10
83.96629448515061
 20
44.74039442393819
 30
0.0
 10
83.80318876730821
 20
44.3381888561696
 30
0.0
 10
83.65763904126315
 20
44.07295143586234
 30
0.0
 10
83.58485714232356
 20
43.94031990405287
 30
0.0
  0
LINE
  5
A1
330
1F
100
AcDbEntity
  8
0
  6
Continuous
 62
     7
 48
0.5
370
    25
100
AcDbLine
 10
74.9453290466
 20
43.9403199041
 30
0.0
 11
83.5848571423
 21
43.9403199041
 31
0.0
  0
LINE
  5
A2
330
1F
100
AcDbEntity
  8
0
  6
Continuous
 62
     7
 48
0.5
370
    25
100
AcDbLine
 10
85.0650930945
 20
50.8685231343
 30
0.0
 11
85.0650930945
 21
56.6185231343
 31
0.0
  0
LINE
  5
A3
330
1F
100
AcDbEntity
  8
0
  6
Continuous
 62
     7
 48
0.5
370
    25
100
AcDbLine
 10
85.0650930945
 20
45.1185231343
 30
0.0
 11
85.0650930945
 21
50.8685231343
 31
0.0
  0
LINE
  5
A4
330
1F
100
AcDbEntity
  8
0
  6
Continuous
 62
     7
 48
0.5
370
    25
100
AcDbLine
 10
85.2650930945
 20
50.8685231343
 30
0.0
 11
85.2650930945
 21
45.3185231343
 31
0.0
  0
LINE
  5
A5
330
1F
100
AcDbEntity
  8
0
  6
Continuous
 62
     7
 48
0.5
370
    25
100
AcDbLine
 10
85.2650930945
 20
56.4185231343
 30
0.0
 11
85.2650930945
 21
50.8685231343
 31
0.0
  0
LINE
  5
A6
330
1F
100
AcDbEntity
  8
0
  6
Continuous
 62
     7
 48
0.5
370
    25
100
AcDbLine
 10
65.5167591443
 20
57.7967263646
 30
0.0
 11
65.5167591443
 21
54.3326247495
 31
0.0
  0
LINE
  5
A7
330
1F
100
AcDbEntity
  8
0
  6
Continuous
 62
     7
 48
0.5
370
    25
100
AcDbLine
 10
69.8365231922
 20
57.7967263646
 30
0.0
 11
65.5167591443
 21
57.7967263646
 31
0.0
  0
SPLINE
  5
A8
330
1F
100
AcDbEntity
  8
0
  6
Continuous
 62
     7
 48
0.5
370
    25
100
AcDbSpline
210
0.0
220
0.0
230
1.0
 70
     8
 71
     3
 72
    12
 73
     8
 74
     0
 42
0.000000001
 43
0.00000001
 40
0.0
 40
0.0
 40
0.0
 40
0.0
 40
0.2500000000000001
 40
0.2500000000000001
 40
0.5000000000000001
 40
0.5000000000000001
 40
1.0
 40
1.0
 40
1.0
 40
1.0
 10
70.37242157702534
 20
56.06467555703501
 30
0.0
 10
70.37242157702534
 20
56.21166926697757
 30
0.0
 10
70.35975491753281
 20
56.35932205158606
 30
0.0
 10
70.31073645375464
 20
56.65141009982
 30
0.0
 10
70.2744317638732
 20
56.79647720618817
 30
0.0
 10
70.13440841381274
 20
57.2291020074321
 30
0.0
 10
69.99970152020445
 20
57.51409320974262
 30
0.0
 10
69.83652319216338
 20
57.79672636460392
 30
0.0
  0
SPLINE
  5
A9
330
1F
100
AcDbEntity
  8
0
  6
Continuous
 62
     7
 48
0.5
370
    25
100
AcDbSpline
210
0.0
220
0.0
230
1.0
 70
     8
 71
     3
 72
     8
 73
     4
 74
     0
 42
0.000000001
 43
0.00000001
 40
0.0
 40
0.0
 40
0.0
 40
0.0
 40
1.0
 40
1.0
 40
1.0
 40
1.0
 10
69.83652319216365
 20
54.33262474946608
 30
0.0
 10
70.16369660049514
 20
54.89930571558168
 30
0.0
 10
70.37242157702534
 20
55.4744945381602
 30
0.0
 10
70.37242157702534
 20
56.06467555703501
 30
0.0
  0
LINE
  5
AA
330
1F
100
AcDbEntity
  8
0
  6
Continuous
 62
     7
 48
0.5
370
    25
100
AcDbLine
 10
69.8365231922
 20
54.3326247495
 30
0.0
 11
65.5167591443
 21
54.3326247495
 31
0.0
  0
LINE
  5
AB
330
1F
100
AcDbEntity
  8
0
  6
Continuous
 62
     7
 48
0.5
370
    25
100
AcDbLine
 10
65.5167591443
 20
54.3326247495
 30
0.0
 11
65.5167591443
 21
47.4044215192
 31
0.0
  0
SPLINE
  5
AC
330
1F
100
AcDbEntity
  8
0
  6
Continuous
 62
     7
 48
0.5
370
    25
100
AcDbSpline
210
0.0
220
0.0
230
1.0
 70
     8
 71
     3
 72
    10
 73
     6
 74
     0
 42
0.000000001
 43
0.00000001
 40
0.0
 40
0.0
 40
0.0
 40
0.0
 40
0.5
 40
0.5
 40
1.0
 40
1.0
 40
1.0
 40
1.0
 10
70.37242157702532
 20
50.86852313432836
 30
0.0
 10
70.37242157702532
 20
51.45475196082062
 30
0.0
 10
70.32061469056748
 20
52.04864528839945
 30
0.0
 10
70.1328643508082
 20
53.2049984633638
 30
0.0
 10
69.99824700909006
 20
53.77239701404314
 30
0.0
 10
69.83652319216307
 20
54.33262474946613
 30
0.0
  0
SPLINE
  5
AD
330
1F
100
AcDbEntity
  8
0
  6
Continuous
 62
     7
 48
0.5
370
    25
100
AcDbSpline
210
0.0
220
0.0
230
1.0
 70
     8
 71
     3
 72
    10
 73
     6
 74
     0
 42
0.000000001
 43
0.00000001
 40
0.0
 40
0.0
 40
0.0
 40
0.0
 40
0.5
 40
0.5
 40
1.0
 40
1.0
 40
1.0
 40
1.0
 10
69.83652319216309
 20
47.40442151919059
 30
0.0
 10
69.99929213638305
 20
47.96826968175719
 30
0.0
 10
70.13561629799115
 20
48.54513256066502
 30
0.0
 10
70.32203708129434
 20
49.70111313339997
 30
0.0
 10
70.37242157702532
 20
50.28270154428981
 30
0.0
 10
70.37242157702532
 20
50.86852313432836
 30
0.0
  0
LINE
  5
AE
330
1F
100
AcDbEntity
  8
0
  6
Continuous
 62
     7
 48
0.5
370
    25
100
AcDbLine
 10
69.8365231922
 20
47.4044215192
 30
0.0
 11
65.5167591443
 21
47.4044215192
 31
0.0
  0
LINE
  5
AF
330
1F
100
AcDbEntity
  8
0
  6
Continuous
 62
     7
 48
0.5
370
    25
100
AcDbLine
 10
70.372421577
 20
45.6723707116
 30
0.0
 11
70.372421577
 21
50.8685231343
 31
0.0
  0
SPLINE
  5
B0
330
1F
100
AcDbEntity
  8
0
  6
Continuous
 62
     7
 48
0.5
370
    25
100
AcDbSpline
210
0.0
220
0.0
230
1.0
 70
     8
 71
     3
 72
    12
 73
     8
 74
     0
 42
0.000000001
 43
0.00000001
 40
0.0
 40
0.0
 40
0.0
 40
0.0
 40
0.25
 40
0.25
 40
0.5
 40
0.5
 40
1.0
 40
1.0
 40
1.0
 40
1.0
 10
70.37242157702534
 20
45.67237071162173
 30
0.0
 10
70.37242157702534
 20
45.81936442156429
 30
0.0
 10
70.35975491753281
 20
45.96701720617277
 30
0.0
 10
70.31073645375464
 20
46.25910525440671
 30
0.0
 10
70.2744317638732
 20
46.40417236077488
 30
0.0
 10
70.13440841381274
 20
46.8367971620188
 30
0.0
 10
69.99970152020445
 20
47.12178836432933
 30
0.0
 10
69.83652319216338
 20
47.40442151919062
 30
0.0
  0
LINE
  5
B1
330
1F
100
AcDbEntity
  8
0
  6
Continuous
 62
     7
 48
0.5
370
    25
100
AcDbLine
 10
70.372421577
 20
50.8685231343
 30
0.0
 11
70.372421577
 21
56.064675557
 31
0.0
  0
SPLINE
  5
B2
330
1F
100
AcDbEntity
  8
0
  6
Continuous
 62
     7
 48
0.5
370
    25
100
AcDbSpline
210
0.0
220
0.0
230
1.0
 70
     8
 71
     3
 72
     8
 73
     4
 74
     0
 42
0.000000001
 43
0.00000001
 40
0.0
 40
0.0
 40
0.0
 40
0.0
 40
1.0
 40
1.0
 40
1.0
 40
1.0
 10
69.83652319216365
 20
43.94031990405282
 30
0.0
 10
70.16369660049514
 20
44.5070008701684
 30
0.0
 10
70.37242157702534
 20
45.08218969274693
 30
0.0
 10
70.37242157702534
 20
45.67237071162173
 30
0.0
  0
LINE
  5
B3
330
1F
100
AcDbEntity
  8
0
  6
Continuous
 62
     7
 48
0.5
370
    25
100
AcDbLine
 10
69.8365231922
 20
43.9403199041
 30
0.0
 11
65.5167591443
 21
43.9403199041
 31
0.0
  0
LINE
  5
B4
330
1F
100
AcDbEntity
  8
0
  6
Continuous
 62
     7
 48
0.5
370
    25
100
AcDbLine
 10
65.5167591443
 20
47.4044215192
 30
0.0
 11
65.5167591443
 21
43.9403199041
 31
0.0
  0
LINE
  5
B5
330
1F
100
AcDbEntity
  8
0
  6
Continuous
 62
     7
 48
0.5
370
    25
100
AcDbLine
 10
71.5167591443
 20
56.4185231343
 30
0.0
 11
71.5167591443
 21
45.3185231343
 31
0.0
  0
LINE
  5
B6
330
1F
100
AcDbEntity
  8
0
  6
Continuous
 62
     7
 48
0.5
370
    25
100
AcDbLine
 10
71.3167591443
 20
45.1185231343
 30
0.0
 11
71.3167591443
 21
56.6185231343
 31
0.0
  0
LINE
  5
B7
330
1F
100
AcDbEntity
  8
0
  6
Continuous
 62
     7
 48
0.5
370
    25
100
AcDbLine
 10
57.8717072038
 20
55.6508027612
 30
0.0
 11
57.8717072038
 21
46.0862435075
 31
0.0
  0
LINE
  5
B8
330
1F
100
AcDbEntity
  8
0
  6
Continuous
 62
     7
 48
0.5
370
    25
100
AcDbLine
 10
73.0167591443
 20
46.7045231343
 30
0.0
 11
73.0167591443
 21
55.0325231343
 31
0.0
  0
LINE
  5
B9
330
1F
100
AcDbEntity
  8
0
  6
Continuous
 62
     7
 48
0.5
370
    25
100
AcDbLine
 10
73.7167591443
 20
55.7325231343
 30
0.0
 11
73.7167591443
 21
46.0045231343
 31
0.0
  0
LINE
  5
BA
330
1F
100
AcDbEntity
  8
0
  6
Continuous
 62
     7
 48
0.5
370
    25
100
AcDbLine
 10
56.5167591443
 20
54.8685231343
 30
0.0
 11
56.5167591443
 21
46.8685231343
 31
0.0
  0
LINE
  5
BB
330
1F
100
AcDbEntity
  8
0
  6
Continuous
 62
     1
 48
0.5
370
    25
100
AcDbLine
 10
84.5537682291
 20
56.6185231343
 30
0.0
 11
84.5537682291
 21
45.1185231343
 31
0.0
  0
LINE
  5
BC
330
1F
100
AcDbEntity
  8
0
  6
Continuous
 62
     1
 48
0.5
370
    25
100
AcDbLine
 10
84.1207555272
 20
56.064675557
 30
0.0
 11
84.1207555272
 21
56.8685231343
 31
0.0
  0
LINE
  5
BD
330
1F
100
AcDbEntity
  8
0
  6
Continuous
 62
     1
 48
0.5
370
    25
100
AcDbLine
 10
84.1207555272
 20
44.8685231343
 30
0.0
 11
84.1207555272
 21
45.6723707116
 31
0.0
  0
LINE
  5
BE
330
1F
100
AcDbEntity
  8
0
  6
Continuous
 62
     1
 48
0.5
370
    25
100
AcDbLine
 10
70.372421577
 20
56.064675557
 30
0.0
 11
70.372421577
 21
56.8685231343
 31
0.0
  0
LINE
  5
BF
330
1F
100
AcDbEntity
  8
0
  6
Continuous
 62
     1
 48
0.5
370
    25
100
AcDbLine
 10
70.372421577
 20
44.8685231343
 30
0.0
 11
70.372421577
 21
45.6723707116
 31
0.0
  0
LINE
  5
C0
330
1F
100
AcDbEntity
  8
0
  6
Continuous
 62
     1
 48
0.5
370
    25
100
AcDbLine
 10
70.8054342789
 20
50.8685231343
 30
0.0
 11
70.8054342789
 21
45.1185231343
 31
0.0
  0
LINE
  5
C1
330
1F
100
AcDbEntity
  8
0
  6
Continuous
 62
     1
 48
0.5
370
    25
100
AcDbLine
 10
70.8054342789
 20
56.6185231343
 30
0.0
 11
70.8054342789
 21
50.8685231343
 31
0.0
  0
LINE
  5
C2
330
1F
100
AcDbEntity
  8
0
  6
Continuous
 62
     7
 48
0.5
370
    25
100
AcDbLine
 10
74.4094306618
 20
91.2159574627
 30
0.0
 11
74.2650930945
 21
90.9659574627
 31
0.0
  0
LINE
  5
C3
330
1F
100
AcDbEntity
  8
0
  6
Continuous
 62
     7
 48
0.5
370
    25
100
AcDbLine
 10
74.2650930945
 20
79.4659574627
 30
0.0
 11
74.4094306618
 21
79.2159574627
 31
0.0
  0
ARC
  5
C4
330
1F
100
AcDbEntity
  8
0
  6
Continuous
 62
     7
 48
0.25
370
    25
100
AcDbCircle
 10
84.5537682291
 20
91.4659574627
 30
0.0
 40
0.5
100
AcDbArc
 50
210.0
 51
270.0
  0
ARC
  5
C5
330
1F
100
AcDbEntity
  8
0
  6
Continuous
 62
     7
 48
0.25
370
    25
100
AcDbCircle
 10
84.5537682291
 20
78.9659574627
 30
0.0
 40
0.5
100
AcDbArc
 50
90.0
 51
150.0
  0
LINE
  5
C6
330
1F
100
AcDbEntity
  8
0
  6
Continuous
 62
     7
 48
0.5
370
    25
100
AcDbLine
 10
85.0650930945
 20
79.4659574627
 30
0.0
 11
85.2650930945
 21
79.6659574627
 31
0.0
  0
LINE
  5
C7
330
1F
100
AcDbEntity
  8
0
  6
Continuous
 62
     7
 48
0.5
370
    25
100
AcDbLine
 10
85.2650930945
 20
90.7659574627
 30
0.0
 11
85.0650930945
 21
90.9659574627
 31
0.0
  0
LINE
  5
C8
330
1F
100
AcDbEntity
  8
0
  6
Continuous
 62
     7
 48
0.5
370
    25
100
AcDbLine
 10
85.0650930945
 20
90.9659574627
 30
0.0
 11
84.5537682291
 21
90.9659574627
 31
0.0
  0
LINE
  5
C9
330
1F
100
AcDbEntity
  8
0
  6
Continuous
 62
     7
 48
0.5
370
    25
100
AcDbLine
 10
84.5537682291
 20
79.4659574627
 30
0.0
 11
85.0650930945
 21
79.4659574627
 31
0.0
  0
ARC
  5
CA
330
1F
100
AcDbEntity
  8
0
  6
Continuous
 62
     7
 48
0.25
370
    25
100
AcDbCircle
 10
70.8054342789
 20
78.9659574627
 30
0.0
 40
0.5000000000000041
100
AcDbArc
 50
90.0
 51
150.0
  0
ARC
  5
CB
330
1F
100
AcDbEntity
  8
0
  6
Continuous
 62
     7
 48
0.25
370
    25
100
AcDbCircle
 10
70.8054342789
 20
91.4659574627
 30
0.0
 40
0.5
100
AcDbArc
 50
210.0
 51
270.0
  0
LINE
  5
CC
330
1F
100
AcDbEntity
  8
0
  6
Continuous
 62
     7
 48
0.5
370
    25
100
AcDbLine
 10
71.3167591443
 20
90.9659574627
 30
0.0
 11
70.8054342789
 21
90.9659574627
 31
0.0
  0
LINE
  5
CD
330
1F
100
AcDbEntity
  8
0
  6
Continuous
 62
     7
 48
0.5
370
    25
100
AcDbLine
 10
70.8054342789
 20
79.4659574627
 30
0.0
 11
71.3167591443
 21
79.4659574627
 31
0.0
  0
LINE
  5
CE
330
1F
100
AcDbEntity
  8
0
  6
Continuous
 62
     7
 48
0.5
370
    25
100
AcDbLine
 10
71.3167591443
 20
79.4659574627
 30
0.0
 11
71.5167591443
 21
79.6659574627
 31
0.0
  0
LINE
  5
CF
330
1F
100
AcDbEntity
  8
0
  6
Continuous
 62
     7
 48
0.5
370
    25
100
AcDbLine
 10
71.5167591443
 20
90.7659574627
 30
0.0
 11
71.3167591443
 21
90.9659574627
 31
0.0
  0
LINE
  5
D0
330
1F
100
AcDbEntity
  8
0
  6
Continuous
 62
     7
 48
0.5
370
    25
100
AcDbLine
 10
65.5167591443
 20
90.2371449627
 30
0.0
 11
57.8717072038
 21
89.9982370895
 31
0.0
  0
LINE
  5
D1
330
1F
100
AcDbEntity
  8
0
  6
Continuous
 62
     7
 48
0.5
370
    25
100
AcDbLine
 10
57.8717072038
 20
80.4336778358
 30
0.0
 11
65.5167591443
 21
80.1947699627
 31
0.0
  0
LINE
  5
D2
330
1F
100
AcDbEntity
  8
0
  6
Continuous
 62
     7
 48
0.5
370
    25
100
AcDbLine
 10
73.7167591443
 20
80.3519574627
 30
0.0
 11
74.2650930945
 21
80.3519574627
 31
0.0
  0
LINE
  5
D3
330
1F
100
AcDbEntity
  8
0
  6
Continuous
 62
     7
 48
0.5
370
    25
100
AcDbLine
 10
74.2650930945
 20
90.0799574627
 30
0.0
 11
73.7167591443
 21
90.0799574627
 31
0.0
  0
LINE
  5
D4
330
1F
100
AcDbEntity
  8
0
  6
Continuous
 62
     7
 48
0.5
370
    25
100
AcDbLine
 10
73.7167591443
 20
90.0799574627
 30
0.0
 11
73.0167591443
 21
89.3799574627
 31
0.0
  0
LINE
  5
D5
330
1F
100
AcDbEntity
  8
0
  6
Continuous
 62
     7
 48
0.5
370
    25
100
AcDbLine
 10
73.0167591443
 20
81.0519574627
 30
0.0
 11
73.7167591443
 21
80.3519574627
 31
0.0
  0
LINE
  5
D6
330
1F
100
AcDbEntity
  8
0
  6
Continuous
 62
     7
 48
0.5
370
    25
100
AcDbLine
 10
57.8717072038
 20
89.9982370895
 30
0.0
 11
56.5167591443
 21
89.2159574627
 31
0.0
  0
LINE
  5
D7
330
1F
100
AcDbEntity
  8
0
  6
Continuous
 62
     7
 48
0.5
370
    25
100
AcDbLine
 10
56.5167591443
 20
81.2159574627
 30
0.0
 11
57.8717072038
 21
80.4336778358
 31
0.0
  0
LINE
  5
D8
330
1F
100
AcDbEntity
  8
0
  6
Continuous
 62
     7
 48
0.5
370
    25
100
AcDbLine
 10
71.5167591443
 20
81.3159574627
 30
0.0
 11
73.0167591443
 21
81.3159574627
 31
0.0
  0
LINE
  5
D9
330
1F
100
AcDbEntity
  8
0
  6
Continuous
 62
     7
 48
0.5
370
    25
100
AcDbLine
 10
73.0167591443
 20
89.1159574627
 30
0.0
 11
71.5167591443
 21
89.1159574627
 31
0.0
  0
SPLINE
  5
DA
330
1F
100
AcDbEntity
  8
0
  6
Continuous
 62
     7
 48
0.5
370
    25
100
AcDbSpline
210
0.0
220
0.0
230
1.0
 70
     8
 71
     3
 72
    12
 73
     8
 74
     0
 42
0.000000001
 43
0.00000001
 40
0.0
 40
0.0
 40
0.0
 40
0.0
 40
0.0700385718644583
 40
0.2997996769400305
 40
0.530822494558588
 40
0.7650211555547353
 40
1.0
 40
1.0
 40
1.0
 40
1.0
 10
84.1207555271858
 20
88.21595746268655
 30
0.0
 10
84.1201489012894
 20
88.14485826058691
 30
0.0
 10
84.11755224286357
 20
87.84051856243588
 30
0.0
 10
84.07736291678889
 20
87.30208895682095
 30
0.0
 10
83.96640822360477
 20
86.6027178277718
 30
0.0
 10
83.80332754660817
 20
85.90544504731261
 30
0.0
 10
83.65776129656793
 20
85.44604130119892
 30
0.0
 10
83.58485714232356
 20
85.21595746268652
 30
0.0
  0
LINE
  5
DB
330
1F
100
AcDbEntity
  8
0
  6
Continuous
 62
     7
 48
0.5
370
    25
100
AcDbLine
 10
74.9453290466
 20
85.2159574627
 30
0.0
 11
83.5848571423
 21
85.2159574627
 31
0.0
  0
SPLINE
  5
DC
330
1F
100
AcDbEntity
  8
0
  6
Continuous
 62
     7
 48
0.5
370
    25
100
AcDbSpline
210
0.0
220
0.0
230
1.0
 70
     8
 71
     3
 72
    15
 73
    11
 74
     0
 42
0.000000001
 43
0.00000001
 40
0.0
 40
0.0
 40
0.0
 40
0.0
 40
0.1323034284088744
 40
0.2645694515465797
 40
0.3997942148562054
 40
0.5349945762150088
 40
0.6501872613016997
 40
0.7653979157221118
 40
0.8826876171264814
 40
0.9999999999999999
 40
0.9999999999999999
 40
0.9999999999999999
 40
0.9999999999999999
 10
74.94532904664287
 20
85.21595746268652
 30
0.0
 10
74.86375129628674
 20
85.47517777262355
 30
0.0
 10
74.70061885951097
 20
85.99354510485793
 30
0.0
 10
74.52509342185397
 20
86.79178450900402
 30
0.0
 10
74.4195529307628
 20
87.60507061314614
 30
0.0
 10
74.39864766036486
 20
88.38890359100606
 30
0.0
 10
74.45287104151815
 20
89.13039792029977
 30
0.0
 10
74.56398305689105
 20
89.83019419495588
 30
0.0
 10
74.72697440826948
 20
90.52682659786277
 30
0.0
 10
74.87253947607927
 20
90.98623236920416
 30
0.0
 10
74.94532904664287
 20
91.21595746268656
 30
0.0
  0
LINE
  5
DD
330
1F
100
AcDbEntity
  8
0
  6
Continuous
 62
     7
 48
0.5
370
    25
100
AcDbLine
 10
74.9453290466
 20
91.2159574627
 30
0.0
 11
83.5848571423
 21
91.2159574627
 31
0.0
  0
SPLINE
  5
DE
330
1F
100
AcDbEntity
  8
0
  6
Continuous
 62
     7
 48
0.5
370
    25
100
AcDbSpline
210
0.0
220
0.0
230
1.0
 70
     8
 71
     3
 72
    11
 73
     7
 74
     0
 42
0.000000001
 43
0.00000001
 40
0.0
 40
0.0
 40
0.0
 40
0.0
 40
0.2472686137512652
 40
0.4953625653849101
 40
0.7468740051198234
 40
0.9999999999999999
 40
0.9999999999999999
 40
0.9999999999999999
 40
0.9999999999999999
 10
83.58485714232356
 20
91.21595746268656
 30
0.0
 10
83.66146042433367
 20
90.97379817549614
 30
0.0
 10
83.81492267624571
 20
90.48867131724029
 30
0.0
 10
83.98332758538758
 20
89.74412860210937
 30
0.0
 10
84.09873733973093
 20
88.98542056421836
 30
0.0
 10
84.11340049342719
 20
88.47299165768399
 30
0.0
 10
84.1207555271858
 20
88.21595746268655
 30
0.0
  0
SPLINE
  5
DF
330
1F
100
AcDbEntity
  8
0
  6
Continuous
 62
     7
 48
0.5
370
    25
100
AcDbSpline
210
0.0
220
0.0
230
1.0
 70
    24
 71
     3
 72
    12
 73
     8
 74
     0
 42
0.000000001
 43
0.00000001
 40
0.0
 40
0.0
 40
0.0
 40
0.0
 40
0.2437070786217334
 40
0.4314597764332023
 40
0.6198254874358171
 40
0.8097214913316884
 40
1.0
 40
1.0
 40
1.0
 40
1.0
 10
74.41155083973537
 20
79.21595746268659
 30
0.0
 10
74.41737212552549
 20
79.21595746268659
 30
0.0
 10
74.42767814814809
 20
79.21595746268659
 30
0.0
 10
74.51232820082734
 20
79.21595746268659
 30
0.0
 10
74.62313296990699
 20
79.21595746268659
 30
0.0
 10
74.76676140173635
 20
79.21595746268659
 30
0.0
 10
74.88576658680032
 20
79.2159574626866
 30
0.0
 10
74.94532904664287
 20
79.2159574626866
 30
0.0
  0
SPLINE
  5
E0
330
1F
100
AcDbEntity
  8
0
  6
Continuous
 62
     7
 48
0.5
370
    25
100
AcDbSpline
210
0.0
220
0.0
230
1.0
 70
    24
 71
     3
 72
    12
 73
     8
 74
     0
 42
0.000000001
 43
0.00000001
 40
0.0
 40
0.0
 40
0.0
 40
0.0
 40
0.1880244591829763
 40
0.3763825138844549
 40
0.56604164444167
 40
0.7562900361515422
 40
1.0
 40
1.0
 40
1.0
 40
1.0
 10
74.94532904664287
 20
91.21595746268656
 30
0.0
 10
74.88644481264106
 20
91.21595746268656
 30
0.0
 10
74.76857187143936
 20
91.21595746268656
 30
0.0
 10
74.62510318442199
 20
91.21595746268656
 30
0.0
 10
74.51319636894898
 20
91.21595746268657
 30
0.0
 10
74.42799947285783
 20
91.21595746268657
 30
0.0
 10
74.41670143048026
 20
91.21595746268657
 30
0.0
 10
74.41035647718202
 20
91.21595746268657
 30
0.0
  0
SPLINE
  5
E1
330
1F
100
AcDbEntity
  8
0
  6
Continuous
 62
     7
 48
0.5
370
    25
100
AcDbSpline
210
0.0
220
0.0
230
1.0
 70
     8
 71
     3
 72
    15
 73
    11
 74
     0
 42
0.000000001
 43
0.00000001
 40
0.0
 40
0.0
 40
0.0
 40
0.0
 40
0.1323034284088758
 40
0.2645694515465826
 40
0.3997942148562104
 40
0.5349945762150152
 40
0.6501872613017045
 40
0.7653979157221151
 40
0.8826876171264831
 40
0.9999999999999999
 40
0.9999999999999999
 40
0.9999999999999999
 40
0.9999999999999999
 10
74.94532904664287
 20
79.21595746268659
 30
0.0
 10
74.86375129628674
 20
79.47517777262361
 30
0.0
 10
74.70061885951097
 20
79.993545104858
 30
0.0
 10
74.52509342185398
 20
80.79178450900406
 30
0.0
 10
74.4195529307628
 20
81.6050706131462
 30
0.0
 10
74.39864766036487
 20
82.3889035910061
 30
0.0
 10
74.45287104151816
 20
83.1303979202998
 30
0.0
 10
74.56398305689108
 20
83.83019419495588
 30
0.0
 10
74.7269744082695
 20
84.52682659786277
 30
0.0
 10
74.87253947607928
 20
84.98623236920413
 30
0.0
 10
74.94532904664287
 20
85.21595746268652
 30
0.0
  0
LINE
  5
E2
330
1F
100
AcDbEntity
  8
0
  6
Continuous
 62
     7
 48
0.5
370
    25
100
AcDbLine
 10
74.2650930945
 20
79.4659574627
 30
0.0
 11
74.2650930945
 21
90.9659574627
 31
0.0
  0
LINE
  5
E3
330
1F
100
AcDbEntity
  8
0
  6
Continuous
 62
     7
 48
0.5
370
    25
100
AcDbLine
 10
84.1207555272
 20
82.2159574627
 30
0.0
 11
84.1207555272
 21
88.2159574627
 31
0.0
  0
SPLINE
  5
E4
330
1F
100
AcDbEntity
  8
0
  6
Continuous
 62
     7
 48
0.5
370
    25
100
AcDbSpline
210
0.0
220
0.0
230
1.0
 70
     8
 71
     3
 72
    11
 73
     7
 74
     0
 42
0.000000001
 43
0.00000001
 40
0.0
 40
0.0
 40
0.0
 40
0.0
 40
0.247268613751265
 40
0.4953625653849103
 40
0.7468740051198235
 40
1.0
 40
1.0
 40
1.0
 40
1.0
 10
83.58485714232356
 20
85.21595746268652
 30
0.0
 10
83.66146042433367
 20
84.97379817549611
 30
0.0
 10
83.8149226762457
 20
84.48867131724028
 30
0.0
 10
83.98332758538757
 20
83.74412860210937
 30
0.0
 10
84.09873733973092
 20
82.98542056421836
 30
0.0
 10
84.11340049342718
 20
82.47299165768402
 30
0.0
 10
84.12075552718579
 20
82.21595746268656
 30
0.0
  0
SPLINE
  5
E5
330
1F
100
AcDbEntity
  8
0
  6
Continuous
 62
     7
 48
0.5
370
    25
100
AcDbSpline
210
0.0
220
0.0
230
1.0
 70
     8
 71
     3
 72
    12
 73
     8
 74
     0
 42
0.000000001
 43
0.00000001
 40
0.0
 40
0.0
 40
0.0
 40
0.0
 40
0.0700385718644716
 40
0.2997996769400406
 40
0.5308224945585952
 40
0.765021155554739
 40
1.0
 40
1.0
 40
1.0
 40
1.0
 10
84.12075552718579
 20
82.21595746268656
 30
0.0
 10
84.12014890128938
 20
82.14485826058693
 30
0.0
 10
84.11755224286354
 20
81.84051856243588
 30
0.0
 10
84.07736291678887
 20
81.30208895682095
 30
0.0
 10
83.96640822360476
 20
80.60271782777181
 30
0.0
 10
83.80332754660816
 20
79.90544504731264
 30
0.0
 10
83.65776129656793
 20
79.44604130119896
 30
0.0
 10
83.58485714232356
 20
79.2159574626866
 30
0.0
  0
LINE
  5
E6
330
1F
100
AcDbEntity
  8
0
  6
Continuous
 62
     7
 48
0.5
370
    25
100
AcDbLine
 10
74.9453290466
 20
79.2159574627
 30
0.0
 11
83.5848571423
 21
79.2159574627
 31
0.0
  0
LINE
  5
E7
330
1F
100
AcDbEntity
  8
0
  6
Continuous
 62
     7
 48
0.5
370
    25
100
AcDbLine
 10
84.1207555272
 20
79.2159574627
 30
0.0
 11
84.1207555272
 21
82.2159574627
 31
0.0
  0
LINE
  5
E8
330
1F
100
AcDbEntity
  8
0
  6
Continuous
 62
     7
 48
0.5
370
    25
100
AcDbLine
 10
84.1207555272
 20
88.2159574627
 30
0.0
 11
84.1207555272
 21
91.2159574627
 31
0.0
  0
LINE
  5
E9
330
1F
100
AcDbEntity
  8
0
  6
Continuous
 62
     7
 48
0.5
370
    25
100
AcDbLine
 10
85.2650930945
 20
90.7659574627
 30
0.0
 11
85.2650930945
 21
79.6659574627
 31
0.0
  0
LINE
  5
EA
330
1F
100
AcDbEntity
  8
0
  6
Continuous
 62
     7
 48
0.5
370
    25
100
AcDbLine
 10
85.0650930945
 20
79.4659574627
 30
0.0
 11
85.0650930945
 21
90.9659574627
 31
0.0
  0
SPLINE
  5
EB
330
1F
100
AcDbEntity
  8
0
  6
Continuous
 62
     7
 48
0.5
370
    25
100
AcDbSpline
210
0.0
220
0.0
230
1.0
 70
    24
 71
     3
 72
    12
 73
     8
 74
     0
 42
0.000000001
 43
0.00000001
 40
0.0
 40
0.0
 40
0.0
 40
0.0
 40
0.2467717232827324
 40
0.4337771387112416
 40
0.6213867515395265
 40
0.8105047604015168
 40
1.0
 40
1.0
 40
1.0
 40
1.0
 10
84.1207555271858
 20
91.21595746268657
 30
0.0
 10
84.11384916188344
 20
91.21595746268657
 30
0.0
 10
84.10170910247997
 20
91.21595746268657
 30
0.0
 10
84.0167520383965
 20
91.21595746268657
 30
0.0
 10
83.90591597376262
 20
91.21595746268656
 30
0.0
 10
83.76272054469949
 20
91.21595746268656
 30
0.0
 10
83.64418431091451
 20
91.21595746268656
 30
0.0
 10
83.58485714232356
 20
91.21595746268656
 30
0.0
  0
SPLINE
  5
EC
330
1F
100
AcDbEntity
  8
0
  6
Continuous
 62
     7
 48
0.5
370
    25
100
AcDbSpline
210
0.0
220
0.0
230
1.0
 70
    24
 71
     3
 72
    12
 73
     8
 74
     0
 42
0.000000001
 43
0.00000001
 40
0.0
 40
0.0
 40
0.0
 40
0.0
 40
0.1872734889728915
 40
0.3748762106130479
 40
0.5637618838290638
 40
0.7532281671094972
 40
1.0
 40
1.0
 40
1.0
 40
1.0
 10
83.58485714232356
 20
79.2159574626866
 30
0.0
 10
83.6435141187655
 20
79.21595746268659
 30
0.0
 10
83.76093119245371
 20
79.21595746268659
 30
0.0
 10
83.90398510140881
 20
79.21595746268659
 30
0.0
 10
84.01583486378198
 20
79.21595746268659
 30
0.0
 10
84.10162383226847
 20
79.21595746268659
 30
0.0
 10
84.11384323633625
 20
79.21595746268659
 30
0.0
 10
84.1207555271858
 20
79.21595746268659
 30
0.0
  0
LINE
  5
ED
330
1F
100
AcDbEntity
  8
0
  6
Continuous
 62
     7
 48
0.5
370
    25
100
AcDbLine
 10
69.8365231922
 20
91.2159574627
 30
0.0
 11
65.5167591443
 21
91.2159574627
 31
0.0
  0
SPLINE
  5
EE
330
1F
100
AcDbEntity
  8
0
  6
Continuous
 62
     7
 48
0.5
370
    25
100
AcDbSpline
210
0.0
220
0.0
230
1.0
 70
     8
 71
     3
 72
    12
 73
     8
 74
     0
 42
0.000000001
 43
0.00000001
 40
0.0
 40
0.0
 40
0.0
 40
0.0
 40
0.2500000000000004
 40
0.2500000000000004
 40
0.5000000000000004
 40
0.5000000000000004
 40
1.0
 40
1.0
 40
1.0
 40
1.0
 10
70.37242157702532
 20
88.21595746268655
 30
0.0
 10
70.37242157702532
 20
88.47055803670011
 30
0.0
 10
70.3597549175328
 20
88.72630016152104
 30
0.0
 10
70.31073645375463
 20
89.23221150134584
 30
0.0
 10
70.27443176387318
 20
89.48347510008252
 30
0.0
 10
70.13440841381274
 20
90.23280323645139
 30
0.0
 10
69.99970152020445
 20
90.72642247856334
 30
0.0
 10
69.83652319216338
 20
91.21595746268659
 30
0.0
  0
SPLINE
  5
EF
330
1F
100
AcDbEntity
  8
0
  6
Continuous
 62
     7
 48
0.5
370
    25
100
AcDbSpline
210
0.0
220
0.0
230
1.0
 70
     8
 71
     3
 72
     8
 73
     4
 74
     0
 42
0.000000001
 43
0.00000001
 40
0.0
 40
0.0
 40
0.0
 40
0.0
 40
1.0
 40
1.0
 40
1.0
 40
1.0
 10
69.83652319216365
 20
85.2159574626865
 30
0.0
 10
70.16369660049513
 20
86.1974776876809
 30
0.0
 10
70.37242157702532
 20
87.19373395233264
 30
0.0
 10
70.37242157702532
 20
88.21595746268655
 30
0.0
  0
LINE
  5
F0
330
1F
100
AcDbEntity
  8
0
  6
Continuous
 62
     7
 48
0.5
370
    25
100
AcDbLine
 10
69.8365231922
 20
85.2159574627
 30
0.0
 11
65.5167591443
 21
85.2159574627
 31
0.0
  0
LINE
  5
F1
330
1F
100
AcDbEntity
  8
0
  6
Continuous
 62
     7
 48
0.5
370
    25
100
AcDbLine
 10
65.5167591443
 20
91.2159574627
 30
0.0
 11
65.5167591443
 21
85.2159574627
 31
0.0
  0
LINE
  5
F2
330
1F
100
AcDbEntity
  8
0
  6
Continuous
 62
     7
 48
0.5
370
    25
100
AcDbLine
 10
70.372421577
 20
82.2159574627
 30
0.0
 11
70.372421577
 21
88.2159574627
 31
0.0
  0
SPLINE
  5
F3
330
1F
100
AcDbEntity
  8
0
  6
Continuous
 62
     7
 48
0.5
370
    25
100
AcDbSpline
210
0.0
220
0.0
230
1.0
 70
     8
 71
     3
 72
    12
 73
     8
 74
     0
 42
0.000000001
 43
0.00000001
 40
0.0
 40
0.0
 40
0.0
 40
0.0
 40
0.2500000000000001
 40
0.2500000000000001
 40
0.5000000000000001
 40
0.5000000000000001
 40
1.0
 40
1.0
 40
1.0
 40
1.0
 10
70.37242157702534
 20
82.21595746268657
 30
0.0
 10
70.37242157702534
 20
82.47055803670013
 30
0.0
 10
70.35975491753281
 20
82.72630016152105
 30
0.0
 10
70.31073645375464
 20
83.23221150134587
 30
0.0
 10
70.2744317638732
 20
83.48347510008253
 30
0.0
 10
70.13440841381274
 20
84.2328032364514
 30
0.0
 10
69.99970152020445
 20
84.72642247856336
 30
0.0
 10
69.83652319216338
 20
85.21595746268662
 30
0.0
  0
SPLINE
  5
F4
330
1F
100
AcDbEntity
  8
0
  6
Continuous
 62
     7
 48
0.5
370
    25
100
AcDbSpline
210
0.0
220
0.0
230
1.0
 70
     8
 71
     3
 72
     8
 73
     4
 74
     0
 42
0.000000001
 43
0.00000001
 40
0.0
 40
0.0
 40
0.0
 40
0.0
 40
1.0
 40
1.0
 40
1.0
 40
1.0
 10
69.83652319216365
 20
79.21595746268649
 30
0.0
 10
70.16369660049514
 20
80.1974776876809
 30
0.0
 10
70.37242157702534
 20
81.19373395233265
 30
0.0
 10
70.37242157702534
 20
82.21595746268657
 30
0.0
  0
LINE
  5
F5
330
1F
100
AcDbEntity
  8
0
  6
Continuous
 62
     7
 48
0.5
370
    25
100
AcDbLine
 10
69.8365231922
 20
79.2159574627
 30
0.0
 11
65.5167591443
 21
79.2159574627
 31
0.0
  0
LINE
  5
F6
330
1F
100
AcDbEntity
  8
0
  6
Continuous
 62
     7
 48
0.5
370
    25
100
AcDbLine
 10
65.5167591443
 20
85.2159574627
 30
0.0
 11
65.5167591443
 21
79.2159574627
 31
0.0
  0
LINE
  5
F7
330
1F
100
AcDbEntity
  8
0
  6
Continuous
 62
     7
 48
0.5
370
    25
100
AcDbLine
 10
70.372421577
 20
79.2159574627
 30
0.0
 11
70.372421577
 21
82.2159574627
 31
0.0
  0
LINE
  5
F8
330
1F
100
AcDbEntity
  8
0
  6
Continuous
 62
     7
 48
0.5
370
    25
100
AcDbLine
 10
70.372421577
 20
88.2159574627
 30
0.0
 11
70.372421577
 21
91.2159574627
 31
0.0
  0
LINE
  5
F9
330
1F
100
AcDbEntity
  8
0
  6
Continuous
 62
     7
 48
0.5
370
    25
100
AcDbLine
 10
71.3167591443
 20
79.4659574627
 30
0.0
 11
71.3167591443
 21
90.9659574627
 31
0.0
  0
LINE
  5
FA
330
1F
100
AcDbEntity
  8
0
  6
Continuous
 62
     7
 48
0.5
370
    25
100
AcDbLine
 10
71.5167591443
 20
90.7659574627
 30
0.0
 11
71.5167591443
 21
79.6659574627
 31
0.0
  0
SPLINE
  5
FB
330
1F
100
AcDbEntity
  8
0
  6
Continuous
 62
     7
 48
0.5
370
    25
100
AcDbSpline
210
0.0
220
0.0
230
1.0
 70
    24
 71
     3
 72
    10
 73
     6
 74
     0
 42
0.000000001
 43
0.00000001
 40
0.0
 40
0.0
 40
0.0
 40
0.0
 40
0.5
 40
0.5
 40
1.0
 40
1.0
 40
1.0
 40
1.0
 10
70.37242157702532
 20
91.21595746268657
 30
0.0
 10
70.37242157702532
 20
91.21595746268657
 30
0.0
 10
70.32061469056775
 20
91.21595746268657
 30
0.0
 10
70.13286435080825
 20
91.21595746268656
 30
0.0
 10
69.99824700909001
 20
91.21595746268655
 30
0.0
 10
69.83652319216307
 20
91.21595746268655
 30
0.0
  0
SPLINE
  5
FC
330
1F
100
AcDbEntity
  8
0
  6
Continuous
 62
     7
 48
0.5
370
    25
100
AcDbSpline
210
0.0
220
0.0
230
1.0
 70
    24
 71
     3
 72
    10
 73
     6
 74
     0
 42
0.000000001
 43
0.00000001
 40
0.0
 40
0.0
 40
0.0
 40
0.0
 40
0.5
 40
0.5
 40
1.0
 40
1.0
 40
1.0
 40
1.0
 10
70.37242157702532
 20
79.21595746268657
 30
0.0
 10
70.37242157702532
 20
79.21595746268657
 30
0.0
 10
70.32061469056748
 20
79.21595746268657
 30
0.0
 10
70.1328643508082
 20
79.21595746268657
 30
0.0
 10
69.99824700909006
 20
79.21595746268656
 30
0.0
 10
69.83652319216307
 20
79.21595746268656
 30
0.0
  0
LINE
  5
FD
330
1F
100
AcDbEntity
  8
0
  6
Continuous
 62
     7
 48
0.5
370
    25
100
AcDbLine
 10
57.8717072038
 20
89.9982370895
 30
0.0
 11
57.8717072038
 21
80.4336778358
 31
0.0
  0
LINE
  5
FE
330
1F
100
AcDbEntity
  8
0
  6
Continuous
 62
     7
 48
0.5
370
    25
100
AcDbLine
 10
73.7167591443
 20
90.0799574627
 30
0.0
 11
73.7167591443
 21
80.3519574627
 31
0.0
  0
LINE
  5
FF
330
1F
100
AcDbEntity
  8
0
  6
Continuous
 62
     7
 48
0.5
370
    25
100
AcDbLine
 10
73.0167591443
 20
81.0519574627
 30
0.0
 11
73.0167591443
 21
89.3799574627
 31
0.0
  0
LINE
  5
100
330
1F
100
AcDbEntity
  8
0
  6
Continuous
 62
     7
 48
0.5
370
    25
100
AcDbLine
 10
56.5167591443
 20
89.2159574627
 30
0.0
 11
56.5167591443
 21
81.2159574627
 31
0.0
  0
LINE
  5
101
330
1F
100
AcDbEntity
  8
0
  6
Continuous
 62
     1
 48
0.5
370
    25
100
AcDbLine
 10
84.5537682291
 20
90.9659574627
 30
0.0
 11
84.5537682291
 21
79.4659574627
 31
0.0
  0
LINE
  5
102
330
1F
100
AcDbEntity
  8
0
  6
Continuous
 62
     1
 48
0.5
370
    25
100
AcDbLine
 10
70.8054342789
 20
90.9659574627
 30
0.0
 11
70.8054342789
 21
79.4659574627
 31
0.0
  0
CIRCLE
  5
103
330
1F
100
AcDbEntity
  8
0
  6
Continuous
 62
     7
 48
0.25
370
    25
100
AcDbCircle
 10
112.7980828358
 20
50.8685231343
 30
0.0
 40
5.549999999999997
  0
CIRCLE
  5
104
330
1F
100
AcDbEntity
  8
0
  6
Continuous
 62
     7
 48
0.25
370
    25
100
AcDbCircle
 10
112.7980828358
 20
50.8685231343
 30
0.0
 40
3.174999999999997
  0
CIRCLE
  5
105
330
1F
100
AcDbEntity
  8
0
  6
Continuous
 62
     7
 48
0.25
370
    25
100
AcDbCircle
 10
112.7980828358
 20
50.8685231343
 30
0.0
 40
3.074999999999989
  0
CIRCLE
  5
106
330
1F
100
AcDbEntity
  8
0
  6
Continuous
 62
     7
 48
0.25
370
    25
100
AcDbCircle
 10
112.7980828358
 20
50.8685231343
 30
0.0
 40
5.749999999999986
  0
ARC
  5
107
330
1F
100
AcDbEntity
  8
0
  6
Continuous
 62
     7
 48
0.25
370
    25
100
AcDbCircle
 10
112.7980828358
 20
50.8685231343
 30
0.0
 40
5.999999999999986
100
AcDbArc
 50
180.0
 51
240.0
  0
ARC
  5
108
330
1F
100
AcDbEntity
  8
0
  6
Continuous
 62
     7
 48
0.25
370
    25
100
AcDbCircle
 10
112.7980828358
 20
50.8685231343
 30
0.0
 40
6.00000000000002
100
AcDbArc
 50
120.0
 51
180.0
  0
ARC
  5
109
330
1F
100
AcDbEntity
  8
0
  6
Continuous
 62
     7
 48
0.25
370
    25
100
AcDbCircle
 10
112.7980828358
 20
50.8685231343
 30
0.0
 40
6.00000000000002
100
AcDbArc
 50
60.0
 51
120.0
  0
ARC
  5
10A
330
1F
100
AcDbEntity
  8
0
  6
Continuous
 62
     7
 48
0.25
370
    25
100
AcDbCircle
 10
112.7980828358
 20
50.8685231343
 30
0.0
 40
5.999999999999991
100
AcDbArc
 50
0.0
 51
60.0
  0
ARC
  5
10B
330
1F
100
AcDbEntity
  8
0
  6
Continuous
 62
     7
 48
0.25
370
    25
100
AcDbCircle
 10
112.7980828358
 20
50.8685231343
 30
0.0
 40
5.999999999999988
100
AcDbArc
 50
300.0
 51
0.0
  0
ARC
  5
10C
330
1F
100
AcDbEntity
  8
0
  6
Continuous
 62
     7
 48
0.25
370
    25
100
AcDbCircle
 10
112.7980828358
 20
50.8685231343
 30
0.0
 40
5.999999999999988
100
AcDbArc
 50
240.0
 51
300.0
  0
SPLINE
  5
10D
330
1F
100
AcDbEntity
  8
0
  6
Continuous
 62
     7
 48
0.5
370
    25
100
AcDbSpline
210
0.0
220
0.0
230
1.0
 70
    24
 71
     3
 72
    12
 73
     8
 74
     0
 42
0.000000001
 43
0.00000001
 40
0.0
 40
0.0
 40
0.0
 40
0.0
 40
0.229940626658086
 40
0.420962790787128
 40
0.6124858037083587
 40
0.8058577968207262
 40
1.0
 40
1.0
 40
1.0
 40
1.0
 10
118.7980828358209
 20
47.40442151919064
 30
0.0
 10
118.7980828358209
 20
47.66438090775947
 30
0.0
 10
118.7980828358209
 20
48.14030041486759
 30
0.0
 10
118.7980828358209
 20
48.84342937094548
 30
0.0
 10
118.7980828358209
 20
49.51054157055366
 30
0.0
 10
118.7980828358209
 20
50.18657242233576
 30
0.0
 10
118.7980828358209
 20
50.64090522484378
 30
0.0
 10
118.7980828358209
 20
50.8685231343284
 30
0.0
  0
SPLINE
  5
10E
330
1F
100
AcDbEntity
  8
0
  6
Continuous
 62
     7
 48
0.5
370
    25
100
AcDbSpline
210
0.0
220
0.0
230
1.0
 70
    24
 71
     3
 72
    12
 73
     8
 74
     0
 42
0.000000001
 43
0.00000001
 40
0.0
 40
0.0
 40
0.0
 40
0.0
 40
0.0700385718644578
 40
0.2997996769400301
 40
0.5308224945585881
 40
0.7650211555547354
 40
1.0
 40
1.0
 40
1.0
 40
1.0
 10
115.7980828358209
 20
45.67237071162176
 30
0.0
 10
115.8691820379205
 20
45.71341985509314
 30
0.0
 10
116.1735217360716
 20
45.88913046174574
 30
0.0
 10
116.7119513416865
 20
46.19999293948717
 30
0.0
 10
117.4113224707356
 20
46.60377504910717
 30
0.0
 10
118.1085952511948
 20
47.00634567660387
 30
0.0
 10
118.5679989973085
 20
47.27158255308934
 30
0.0
 10
118.7980828358209
 20
47.40442151919064
 30
0.0
  0
SPLINE
  5
10F
330
1F
100
AcDbEntity
  8
0
  6
Continuous
 62
     7
 48
0.5
370
    25
100
AcDbSpline
210
0.0
220
0.0
230
1.0
 70
    24
 71
     3
 72
    12
 73
     8
 74
     0
 42
0.000000001
 43
0.00000001
 40
0.0
 40
0.0
 40
0.0
 40
0.0
 40
0.0700385718644585
 40
0.2997996769400308
 40
0.5308224945585881
 40
0.7650211555547353
 40
0.9999999999999999
 40
0.9999999999999999
 40
0.9999999999999999
 40
0.9999999999999999
 10
109.7980828358209
 20
45.67237071162177
 30
0.0
 10
109.8691820379205
 20
45.63132156815038
 30
0.0
 10
110.1735217360716
 20
45.45561096149778
 30
0.0
 10
110.7119513416865
 20
45.14474848375634
 30
0.0
 10
111.4113224707356
 20
44.74096637413636
 30
0.0
 10
112.1085952511948
 20
44.33839574663965
 30
0.0
 10
112.5679989973085
 20
44.07315887015418
 30
0.0
 10
112.7980828358209
 20
43.94031990405287
 30
0.0
  0
SPLINE
  5
110
330
1F
100
AcDbEntity
  8
0
  6
Continuous
 62
     7
 48
0.5
370
    25
100
AcDbSpline
210
0.0
220
0.0
230
1.0
 70
    24
 71
     3
 72
    11
 73
     7
 74
     0
 42
0.000000001
 43
0.00000001
 40
0.0
 40
0.0
 40
0.0
 40
0.0
 40
0.2472686137512649
 40
0.4953625653849102
 40
0.7468740051198233
 40
1.0
 40
1.0
 40
1.0
 40
1.0
 10
112.7980828358209
 20
43.94031990405287
 30
0.0
 10
113.0402421230113
 20
44.08013063369904
 30
0.0
 10
113.5253689812671
 20
44.36021875590416
 30
0.0
 10
114.2699116963981
 20
44.79008069290817
 30
0.0
 10
115.0286197342891
 20
45.22812098282088
 30
0.0
 10
115.5410486408234
 20
45.52397194994904
 30
0.0
 10
115.7980828358209
 20
45.67237071162176
 30
0.0
  0
SPLINE
  5
111
330
1F
100
AcDbEntity
  8
0
  6
Continuous
 62
     7
 48
0.5
370
    25
100
AcDbSpline
210
0.0
220
0.0
230
1.0
 70
    24
 71
     3
 72
    12
 73
     8
 74
     0
 42
0.000000001
 43
0.00000001
 40
0.0
 40
0.0
 40
0.0
 40
0.0
 40
0.0700385718644583
 40
0.2997996769400305
 40
0.530822494558588
 40
0.7650211555547353
 40
1.0
 40
1.0
 40
1.0
 40
1.0
 10
115.7980828358208
 20
56.06467555703502
 30
0.0
 10
115.7269836337212
 20
56.10572470050641
 30
0.0
 10
115.4226439355702
 20
56.281435307159
 30
0.0
 10
114.8842143299553
 20
56.59229778490044
 30
0.0
 10
114.1848432009061
 20
56.99607989452041
 30
0.0
 10
113.4875704204469
 20
57.39865052201712
 30
0.0
 10
113.0281666743332
 20
57.66388739850258
 30
0.0
 10
112.7980828358208
 20
57.79672636460389
 30
0.0
  0
SPLINE
  5
112
330
1F
100
AcDbEntity
  8
0
  6
Continuous
 62
     7
 48
0.5
370
    25
100
AcDbSpline
210
0.0
220
0.0
230
1.0
 70
    24
 71
     3
 72
    11
 73
     7
 74
     0
 42
0.000000001
 43
0.00000001
 40
0.0
 40
0.0
 40
0.0
 40
0.0
 40
0.2472686137512649
 40
0.4953625653849102
 40
0.7468740051198234
 40
0.9999999999999999
 40
0.9999999999999999
 40
0.9999999999999999
 40
0.9999999999999999
 10
112.7980828358208
 20
57.79672636460389
 30
0.0
 10
112.5559235486304
 20
57.65691563495773
 30
0.0
 10
112.0707966903746
 20
57.37682751275261
 30
0.0
 10
111.3262539752437
 20
56.9469655757486
 30
0.0
 10
110.5675459373527
 20
56.5089252858359
 30
0.0
 10
110.0551170308183
 20
56.21307431870774
 30
0.0
 10
109.7980828358209
 20
56.06467555703502
 30
0.0
  0
SPLINE
  5
113
330
1F
100
AcDbEntity
  8
0
  6
Continuous
 62
     7
 48
0.5
370
    25
100
AcDbSpline
210
0.0
220
0.0
230
1.0
 70
    24
 71
     3
 72
    11
 73
     7
 74
     0
 42
0.000000001
 43
0.00000001
 40
0.0
 40
0.0
 40
0.0
 40
0.0
 40
0.2472686137512653
 40
0.4953625653849102
 40
0.7468740051198233
 40
0.9999999999999999
 40
0.9999999999999999
 40
0.9999999999999999
 40
0.9999999999999999
 10
118.7980828358209
 20
54.33262474946616
 30
0.0
 10
118.5559235486305
 20
54.47243547911232
 30
0.0
 10
118.0707966903746
 20
54.75252360131744
 30
0.0
 10
117.3262539752437
 20
55.18238553832144
 30
0.0
 10
116.5675459373527
 20
55.62042582823415
 30
0.0
 10
116.0551170308183
 20
55.91627679536231
 30
0.0
 10
115.7980828358208
 20
56.06467555703502
 30
0.0
  0
SPLINE
  5
114
330
1F
100
AcDbEntity
  8
0
  6
Continuous
 62
     7
 48
0.5
370
    25
100
AcDbSpline
210
0.0
220
0.0
230
1.0
 70
    24
 71
     3
 72
    12
 73
     8
 74
     0
 42
0.000000001
 43
0.00000001
 40
0.0
 40
0.0
 40
0.0
 40
0.0
 40
0.2467717232827323
 40
0.4337771387112416
 40
0.6213867515395264
 40
0.8105047604015166
 40
1.0
 40
1.0
 40
1.0
 40
1.0
 10
118.7980828358209
 20
50.8685231343284
 30
0.0
 10
118.7980828358209
 20
51.15787762789417
 30
0.0
 10
118.7980828358209
 20
51.66650707142401
 30
0.0
 10
118.7980828358209
 20
52.39068856730294
 30
0.0
 10
118.7980828358209
 20
53.04230093417006
 30
0.0
 10
118.7980828358209
 20
53.69078659815656
 30
0.0
 10
118.7980828358209
 20
54.11853663632881
 30
0.0
 10
118.7980828358209
 20
54.33262474946616
 30
0.0
  0
SPLINE
  5
115
330
1F
100
AcDbEntity
  8
0
  6
Continuous
 62
     7
 48
0.5
370
    25
100
AcDbSpline
210
0.0
220
0.0
230
1.0
 70
    24
 71
     3
 72
    12
 73
     8
 74
     0
 42
0.000000001
 43
0.00000001
 40
0.0
 40
0.0
 40
0.0
 40
0.0
 40
0.0700385718644716
 40
0.2997996769400406
 40
0.5308224945585952
 40
0.765021155554739
 40
1.0
 40
1.0
 40
1.0
 40
1.0
 10
109.7980828358209
 20
56.06467555703502
 30
0.0
 10
109.7269836337212
 20
56.02362641356363
 30
0.0
 10
109.4226439355702
 20
55.84791580691103
 30
0.0
 10
108.8842143299553
 20
55.53705332916959
 30
0.0
 10
108.1848432009061
 20
55.13327121954962
 30
0.0
 10
107.487570420447
 20
54.73070059205292
 30
0.0
 10
107.0281666743333
 20
54.46546371556747
 30
0.0
 10
106.7980828358209
 20
54.33262474946616
 30
0.0
  0
SPLINE
  5
116
330
1F
100
AcDbEntity
  8
0
  6
Continuous
 62
     7
 48
0.5
370
    25
100
AcDbSpline
210
0.0
220
0.0
230
1.0
 70
    24
 71
     3
 72
    12
 73
     8
 74
     0
 42
0.000000001
 43
0.00000001
 40
0.0
 40
0.0
 40
0.0
 40
0.0
 40
0.1872734889728916
 40
0.3748762106130479
 40
0.5637618838290638
 40
0.7532281671094971
 40
0.9999999999999999
 40
0.9999999999999999
 40
0.9999999999999999
 40
0.9999999999999999
 10
106.7980828358209
 20
54.33262474946616
 30
0.0
 10
106.7980828358209
 20
54.1210546317822
 30
0.0
 10
106.7980828358209
 20
53.69754244951169
 30
0.0
 10
106.7980828358209
 20
53.0519898705839
 30
0.0
 10
106.7980828358209
 20
52.39790636582373
 30
0.0
 10
106.7980828358209
 20
51.66939155119871
 30
0.0
 10
106.7980828358209
 20
51.15787729001351
 30
0.0
 10
106.7980828358209
 20
50.8685231343284
 30
0.0
  0
SPLINE
  5
117
330
1F
100
AcDbEntity
  8
0
  6
Continuous
 62
     7
 48
0.5
370
    25
100
AcDbSpline
210
0.0
220
0.0
230
1.0
 70
    24
 71
     3
 72
    11
 73
     7
 74
     0
 42
0.000000001
 43
0.00000001
 40
0.0
 40
0.0
 40
0.0
 40
0.0
 40
0.2472686137512654
 40
0.4953625653849105
 40
0.7468740051198235
 40
1.0
 40
1.0
 40
1.0
 40
1.0
 10
106.7980828358209
 20
47.40442151919064
 30
0.0
 10
107.0402421230113
 20
47.26461078954448
 30
0.0
 10
107.5253689812671
 20
46.98452266733935
 30
0.0
 10
108.2699116963981
 20
46.55466073033534
 30
0.0
 10
109.0286197342891
 20
46.11662044042264
 30
0.0
 10
109.5410486408234
 20
45.82076947329448
 30
0.0
 10
109.7980828358209
 20
45.67237071162177
 30
0.0
  0
SPLINE
  5
118
330
1F
100
AcDbEntity
  8
0
  6
Continuous
 62
     7
 48
0.5
370
    25
100
AcDbSpline
210
0.0
220
0.0
230
1.0
 70
    24
 71
     3
 72
    12
 73
     8
 74
     0
 42
0.000000001
 43
0.00000001
 40
0.0
 40
0.0
 40
0.0
 40
0.0
 40
0.190762328010727
 40
0.3822900697926657
 40
0.5758896407802039
 40
0.7700595067491237
 40
1.0
 40
1.0
 40
1.0
 40
1.0
 10
106.7980828358209
 20
50.8685231343284
 30
0.0
 10
106.7980828358209
 20
50.64486911801935
 30
0.0
 10
106.7980828358209
 20
50.19666369719125
 30
0.0
 10
106.7980828358209
 20
49.52422366784945
 30
0.0
 10
106.7980828358209
 20
48.85305916270455
 30
0.0
 10
106.7980828358209
 20
48.14386137212437
 30
0.0
 10
106.7980828358209
 20
47.66438167958285
 30
0.0
 10
106.7980828358209
 20
47.40442151919064
 30
0.0
  0
CIRCLE
  5
119
330
1F
100
AcDbEntity
  8
0
  6
Continuous
 62
     7
 48
0.25
370
    25
100
AcDbCircle
 10
112.7980828358
 20
50.8685231343
 30
0.0
 40
3.05
  0
CIRCLE
  5
11A
330
1F
100
AcDbEntity
  8
0
  6
Continuous
 62
     7
 48
0.25
370
    25
100
AcDbCircle
 10
112.7980828358
 20
50.8685231343
 30
0.0
 40
2.499999999999986
  0
VIEWPORT
  5
11B
330
1B
100
AcDbEntity
 67
     1
  8
0
100
AcDbViewport
 10
107.95
 20
69.85
 30
0.0
 40
228.4222
 41
147.8026
 68
     1
 69
     1
 12
107.95
 22
69.85
 13
0.0
 23
0.0
 14
10.0
 24
10.0
 15
10.0
 25
10.0
 16
0.0
 26
0.0
 36
1.0
 17
0.0
 27
0.0
 37
0.0
 42
50.0
 43
0.0
 44
0.0
 45
147.8026
 50
0.0
 51
0.0
 72
   100
 90
   557152
  1

281
     0
 71
     1
 74
     0
110
0.0
120
0.0
130
0.0
111
1.0
121
0.0
131
0.0
112
0.0
122
1.0
132
0.0
 79
     0
146
0.0
  0
LINE
  5
11D
330
1B
100
AcDbEntity
 67
     1
  8
0
  6
Continuous
 62
     7
 48
0.5
370
    25
100
AcDbLine
 10
68.5162648165
 20
61.0121612926
 30
0.0
 11
67.6127378706
 21
59.4472067164
 31
0.0
  0
LINE
  5
11E
330
1B
100
AcDbEntity
 67
     1
  8
0
  6
Continuous
 62
     7
 48
0.5
370
    25
100
AcDbLine
 10
67.6127378706
 20
42.9472067164
 30
0.0
 11
68.5162648165
 21
41.3822521402
 31
0.0
  0
LINE
  5
11F
330
1B
100
AcDbEntity
 67
     1
  8
0
  6
Continuous
 62
     7
 48
0.5
370
    25
100
AcDbLine
 10
80.4127378706
 20
42.9472067164
 30
0.0
 11
80.6127378706
 21
43.1472067164
 31
0.0
  0
LINE
  5
120
330
1B
100
AcDbEntity
 67
     1
  8
0
  6
Continuous
 62
     7
 48
0.5
370
    25
100
AcDbLine
 10
80.6127378706
 20
59.2472067164
 30
0.0
 11
80.4127378706
 21
59.4472067164
 31
0.0
  0
LINE
  5
121
330
1B
100
AcDbEntity
 67
     1
  8
0
  6
Continuous
 62
     7
 48
0.5
370
    25
100
AcDbLine
 10
80.4127378706
 20
59.4472067164
 30
0.0
 11
79.5457505725
 21
59.4472067164
 31
0.0
  0
LINE
  5
122
330
1B
100
AcDbEntity
 67
     1
  8
0
  6
Continuous
 62
     7
 48
0.5
370
    25
100
AcDbLine
 10
79.5457505725
 20
42.9472067164
 30
0.0
 11
80.4127378706
 21
42.9472067164
 31
0.0
  0
LINE
  5
123
330
1B
100
AcDbEntity
 67
     1
  8
0
  6
Continuous
 62
     7
 48
0.5
370
    25
100
AcDbLine
 10
78.8962315197
 20
59.8222067164
 30
0.0
 11
78.2092109248
 21
61.0121612926
 31
0.0
  0
ARC
  5
124
330
1B
100
AcDbEntity
 67
     1
  8
0
  6
Continuous
 62
     7
 48
0.25
370
    25
100
AcDbCircle
 10
79.5457505725
 20
60.1972067164
 30
0.0
 40
0.75
100
AcDbArc
 50
210.0
 51
270.0
  0
ARC
  5
125
330
1B
100
AcDbEntity
 67
     1
  8
0
  6
Continuous
 62
     7
 48
0.25
370
    25
100
AcDbCircle
 10
79.5457505725
 20
42.1972067164
 30
0.0
 40
0.75
100
AcDbArc
 50
90.0
 51
150.0
  0
LINE
  5
126
330
1B
100
AcDbEntity
 67
     1
  8
0
  6
Continuous
 62
     7
 48
0.5
370
    25
100
AcDbLine
 10
78.2092109248
 20
41.3822521402
 30
0.0
 11
78.8962315197
 21
42.5722067164
 31
0.0
  0
ARC
  5
127
330
1B
100
AcDbEntity
 67
     1
  8
0
  6
Continuous
 62
     7
 48
0.25
370
    25
100
AcDbCircle
 10
61.653079055
 20
43.9472067164
 30
0.0
 40
0.5
100
AcDbArc
 50
90.0
 51
150.0
  0
ARC
  5
128
330
1B
100
AcDbEntity
 67
     1
  8
0
  6
Continuous
 62
     7
 48
0.25
370
    25
100
AcDbCircle
 10
61.653079055
 20
58.4472067164
 30
0.0
 40
0.5
100
AcDbArc
 50
210.0
 51
270.0
  0
LINE
  5
129
330
1B
100
AcDbEntity
 67
     1
  8
0
  6
Continuous
 62
     7
 48
0.5
370
    25
100
AcDbLine
 10
62.1644039204
 20
44.4472067164
 30
0.0
 11
62.3644039204
 21
44.6472067164
 31
0.0
  0
LINE
  5
12A
330
1B
100
AcDbEntity
 67
     1
  8
0
  6
Continuous
 62
     7
 48
0.5
370
    25
100
AcDbLine
 10
62.3644039204
 20
57.7472067164
 30
0.0
 11
62.1644039204
 21
57.9472067164
 31
0.0
  0
LINE
  5
12B
330
1B
100
AcDbEntity
 67
     1
  8
0
  6
Continuous
 62
     7
 48
0.5
370
    25
100
AcDbLine
 10
62.1644039204
 20
57.9472067164
 30
0.0
 11
61.653079055
 21
57.9472067164
 31
0.0
  0
LINE
  5
12C
330
1B
100
AcDbEntity
 67
     1
  8
0
  6
Continuous
 62
     7
 48
0.5
370
    25
100
AcDbLine
 10
61.653079055
 20
44.4472067164
 30
0.0
 11
62.1644039204
 21
44.4472067164
 31
0.0
  0
LINE
  5
12D
330
1B
100
AcDbEntity
 67
     1
  8
0
  6
Continuous
 62
     7
 48
0.5
370
    25
100
AcDbLine
 10
65.3644039204
 20
44.6187067164
 30
0.0
 11
67.6127378706
 21
44.6187067164
 31
0.0
  0
LINE
  5
12E
330
1B
100
AcDbEntity
 67
     1
  8
0
  6
Continuous
 62
     7
 48
0.5
370
    25
100
AcDbLine
 10
67.6127378706
 20
57.7757067164
 30
0.0
 11
65.3644039204
 21
57.7757067164
 31
0.0
  0
LINE
  5
12F
330
1B
100
AcDbEntity
 67
     1
  8
0
  6
Continuous
 62
     7
 48
0.5
370
    25
100
AcDbLine
 10
65.3644039204
 20
57.7757067164
 30
0.0
 11
64.3644039204
 21
56.7757067164
 31
0.0
  0
LINE
  5
130
330
1B
100
AcDbEntity
 67
     1
  8
0
  6
Continuous
 62
     7
 48
0.5
370
    25
100
AcDbLine
 10
64.3644039204
 20
45.6187067164
 30
0.0
 11
65.3644039204
 21
44.6187067164
 31
0.0
  0
LINE
  5
131
330
1B
100
AcDbEntity
 67
     1
  8
0
  6
Continuous
 62
     7
 48
0.5
370
    25
100
AcDbLine
 10
62.3644039204
 20
45.6972067164
 30
0.0
 11
64.3644039204
 21
45.6972067164
 31
0.0
  0
LINE
  5
132
330
1B
100
AcDbEntity
 67
     1
  8
0
  6
Continuous
 62
     7
 48
0.5
370
    25
100
AcDbLine
 10
64.3644039204
 20
56.6972067164
 30
0.0
 11
62.3644039204
 21
56.6972067164
 31
0.0
  0
LINE
  5
133
330
1B
100
AcDbEntity
 67
     1
  8
0
  6
Continuous
 62
     7
 48
0.5
370
    25
100
AcDbLine
 10
56.3644039204
 20
56.2183942164
 30
0.0
 11
48.7193519799
 21
55.9794863433
 31
0.0
  0
LINE
  5
134
330
1B
100
AcDbEntity
 67
     1
  8
0
  6
Continuous
 62
     7
 48
0.5
370
    25
100
AcDbLine
 10
48.7193519799
 20
46.4149270896
 30
0.0
 11
56.3644039204
 21
46.1760192164
 31
0.0
  0
LINE
  5
135
330
1B
100
AcDbEntity
 67
     1
  8
0
  6
Continuous
 62
     7
 48
0.5
370
    25
100
AcDbLine
 10
48.7193519799
 20
55.9794863433
 30
0.0
 11
47.3644039204
 21
55.1972067164
 31
0.0
  0
LINE
  5
136
330
1B
100
AcDbEntity
 67
     1
  8
0
  6
Continuous
 62
     7
 48
0.5
370
    25
100
AcDbLine
 10
47.3644039204
 20
47.1972067164
 30
0.0
 11
48.7193519799
 21
46.4149270896
 31
0.0
  0
LINE
  5
137
330
1B
100
AcDbEntity
 67
     1
  8
0
  6
Continuous
 62
     7
 48
0.5
370
    25
100
AcDbLine
 10
60.5948515708
 20
43.1143029478
 30
0.0
 11
61.2200663531
 21
44.1972067164
 31
0.0
  0
LINE
  5
138
330
1B
100
AcDbEntity
 67
     1
  8
0
  6
Continuous
 62
     7
 48
0.5
370
    25
100
AcDbLine
 10
61.2200663531
 20
58.1972067164
 30
0.0
 11
60.5948515708
 21
59.2801104851
 31
0.0
  0
SPLINE
  5
139
330
1B
100
AcDbEntity
 67
     1
  8
0
  6
Continuous
 62
     7
 48
0.5
370
    25
100
AcDbSpline
210
0.0
220
0.0
230
1.0
 70
     8
 71
     3
 72
    16
 73
    12
 74
     0
 42
0.000000001
 43
0.00000001
 40
0.0
 40
0.0
 40
0.0
 40
0.0
 40
0.1120102749541303
 40
0.2377440458013612
 40
0.3634452870972626
 40
0.4922378783757057
 40
0.6210287926568643
 40
0.7152556882666299
 40
0.8094925111982041
 40
0.9047415002555058
 40
1.0
 40
1.0
 40
1.0
 40
1.0
 10
68.51626481645485
 20
46.28972942830614
 30
0.0
 10
68.41758812399905
 20
46.64848045935732
 30
0.0
 10
68.2081448733656
 20
47.40993668819389
 30
0.0
 10
67.96798731990313
 20
48.59399003682544
 30
0.0
 10
67.80061784962076
 20
49.84678325312769
 30
0.0
 10
67.73944071459326
 20
51.1198958111703
 30
0.0
 10
67.78354170238438
 20
52.28896174362076
 30
0.0
 10
67.90126381400002
 20
53.33663457831793
 30
0.0
 10
68.05937401717739
 20
54.26591869674191
 30
0.0
 10
68.26279291811643
 20
55.18995403315922
 30
0.0
 10
68.4317713717103
 20
55.7997638662469
 30
0.0
 10
68.51626481645485
 20
56.1046840045298
 30
0.0
  0
SPLINE
  5
13A
330
1B
100
AcDbEntity
 67
     1
  8
0
  6
Continuous
 62
     7
 48
0.5
370
    25
100
AcDbSpline
210
0.0
220
0.0
230
1.0
 70
     8
 71
     3
 72
    16
 73
    12
 74
     0
 42
0.000000001
 43
0.00000001
 40
0.0
 40
0.0
 40
0.0
 40
0.0
 40
0.1322988555735028
 40
0.2645603055581355
 40
0.3546976504550875
 40
0.444904051248098
 40
0.5350245245138254
 40
0.6502098333825368
 40
0.7654131100753919
 40
0.8826952156317988
 40
1.0
 40
1.0
 40
1.0
 40
1.0
 10
68.51626481645485
 20
41.38225214019428
 30
0.0
 10
68.40068021759362
 20
41.59426981681188
 30
0.0
 10
68.16954369974556
 20
42.01824522511401
 30
0.0
 10
67.94911854816237
 20
42.59758321165052
 30
0.0
 10
67.81931501724789
 20
43.11282854254645
 30
0.0
 10
67.75882572265336
 20
43.56121899606434
 30
0.0
 10
67.75122848230089
 20
44.05221985219922
 30
0.0
 10
67.81863510124202
 20
44.58396150527619
 30
0.0
 10
67.97602805121454
 20
45.15631195890446
 30
0.0
 10
68.20693483533444
 20
45.72609044771235
 30
0.0
 10
68.4131481774867
 20
46.10183765958799
 30
0.0
 10
68.51626481645485
 20
46.28972942830614
 30
0.0
  0
SPLINE
  5
13B
330
1B
100
AcDbEntity
 67
     1
  8
0
  6
Continuous
 62
     7
 48
0.5
370
    25
100
AcDbSpline
210
0.0
220
0.0
230
1.0
 70
     8
 71
     3
 72
    16
 73
    12
 74
     0
 42
0.000000001
 43
0.00000001
 40
0.0
 40
0.0
 40
0.0
 40
0.0
 40
0.1322988555735045
 40
0.2645603055581389
 40
0.3546976504550921
 40
0.4449040512481037
 40
0.5350245245138324
 40
0.6502098333825423
 40
0.7654131100753958
 40
0.8826952156318008
 40
1.0
 40
1.0
 40
1.0
 40
1.0
 10
68.51626481645485
 20
56.1046840045298
 30
0.0
 10
68.40068021759363
 20
56.31670168114741
 30
0.0
 10
68.16954369974556
 20
56.74067708944953
 30
0.0
 10
67.94911854816239
 20
57.32001507598605
 30
0.0
 10
67.81931501724792
 20
57.83526040688197
 30
0.0
 10
67.75882572265337
 20
58.28365086039986
 30
0.0
 10
67.7512284823009
 20
58.77465171653473
 30
0.0
 10
67.81863510124205
 20
59.3063933696117
 30
0.0
 10
67.97602805121457
 20
59.87874382323994
 30
0.0
 10
68.20693483533444
 20
60.44852231204781
 30
0.0
 10
68.41314817748672
 20
60.82426952392343
 30
0.0
 10
68.51626481645485
 20
61.01216129264157
 30
0.0
  0
LINE
  5
13C
330
1B
100
AcDbEntity
 67
     1
  8
0
  6
Continuous
 62
     7
 48
0.5
370
    25
100
AcDbLine
 10
67.6127378706
 20
51.1972067164
 30
0.0
 11
67.6127378706
 21
59.4472067164
 31
0.0
  0
LINE
  5
13D
330
1B
100
AcDbEntity
 67
     1
  8
0
  6
Continuous
 62
     7
 48
0.5
370
    25
100
AcDbLine
 10
67.6127378706
 20
42.9472067164
 30
0.0
 11
67.6127378706
 21
51.1972067164
 31
0.0
  0
SPLINE
  5
13E
330
1B
100
AcDbEntity
 67
     1
  8
0
  6
Continuous
 62
     7
 48
0.5
370
    25
100
AcDbSpline
210
0.0
220
0.0
230
1.0
 70
     8
 71
     3
 72
    11
 73
     7
 74
     0
 42
0.000000001
 43
0.00000001
 40
0.0
 40
0.0
 40
0.0
 40
0.0
 40
0.2488617730236799
 40
0.49774545835585
 40
0.7488627517928869
 40
1.0
 40
1.0
 40
1.0
 40
1.0
 10
78.8962315196565
 20
57.8268789041658
 30
0.0
 10
78.86307746444015
 20
57.68191652386281
 30
0.0
 10
78.79676643478902
 20
57.39197899930213
 30
0.0
 10
78.63872442870408
 20
56.95993941180766
 30
0.0
 10
78.44587224925732
 20
56.53020134083071
 30
0.0
 10
78.28810012236885
 20
56.24652687346274
 30
0.0
 10
78.20921092475035
 20
56.1046840045298
 30
0.0
  0
LINE
  5
13F
330
1B
100
AcDbEntity
 67
     1
  8
0
  6
Continuous
 62
     7
 48
0.5
370
    25
100
AcDbLine
 10
78.8962315197
 20
52.6602942053
 30
0.0
 11
78.8962315197
 21
57.8268789042
 31
0.0
  0
SPLINE
  5
140
330
1B
100
AcDbEntity
 67
     1
  8
0
  6
Continuous
 62
     7
 48
0.5
370
    25
100
AcDbSpline
210
0.0
220
0.0
230
1.0
 70
     8
 71
     3
 72
    11
 73
     7
 74
     0
 42
0.000000001
 43
0.00000001
 40
0.0
 40
0.0
 40
0.0
 40
0.0
 40
0.2490252138763564
 40
0.4980311639765296
 40
0.7490269204800198
 40
1.0
 40
1.0
 40
1.0
 40
1.0
 10
78.20921092475035
 20
56.1046840045298
 30
0.0
 10
78.28745979757579
 20
55.82339114326104
 30
0.0
 10
78.44395149014976
 20
55.26082718061938
 30
0.0
 10
78.63673437851615
 20
54.40388286749335
 30
0.0
 10
78.79580026375096
 20
53.53746283155131
 30
0.0
 10
78.86275544261213
 20
52.95267494121451
 30
0.0
 10
78.8962315196565
 20
52.66029420525793
 30
0.0
  0
SPLINE
  5
141
330
1B
100
AcDbEntity
 67
     1
  8
0
  6
Continuous
 62
     7
 48
0.5
370
    25
100
AcDbSpline
210
0.0
220
0.0
230
1.0
 70
     8
 71
     3
 72
    12
 73
     8
 74
     0
 42
0.000000001
 43
0.00000001
 40
0.0
 40
0.0
 40
0.0
 40
0.0
 40
0.0789293209563345
 40
0.3082512807973306
 40
0.5375700456123031
 40
0.768782761375315
 40
1.0
 40
1.0
 40
1.0
 40
1.0
 10
78.8962315196565
 20
52.66029420525793
 30
0.0
 10
78.90339466904136
 20
52.58352199604178
 30
0.0
 10
78.931369697151
 20
52.28369511885875
 30
0.0
 10
78.96260884152517
 20
51.75924390738417
 30
0.0
 10
78.9728753624027
 20
51.08525330703027
 30
0.0
 10
78.95373688125359
 20
50.40939979314398
 30
0.0
 10
78.91540009850831
 20
49.95921421713459
 30
0.0
 10
78.8962315196565
 20
49.73411922757801
 30
0.0
  0
SPLINE
  5
142
330
1B
100
AcDbEntity
 67
     1
  8
0
  6
Continuous
 62
     7
 48
0.5
370
    25
100
AcDbSpline
210
0.0
220
0.0
230
1.0
 70
     8
 71
     3
 72
    10
 73
     6
 74
     0
 42
0.000000001
 43
0.00000001
 40
0.0
 40
0.0
 40
0.0
 40
0.0
 40
0.3355445600395945
 40
0.6726666839999054
 40
1.0
 40
1.0
 40
1.0
 40
1.0
 10
78.8962315196565
 20
49.73411922757801
 30
0.0
 10
78.84909730367207
 20
49.34348966127457
 30
0.0
 10
78.75460727002219
 20
48.56039398239766
 30
0.0
 10
78.5161914920068
 20
47.41114201298288
 30
0.0
 10
78.31052782960913
 20
46.65984423122198
 30
0.0
 10
78.20921092475035
 20
46.28972942830614
 30
0.0
  0
LINE
  5
143
330
1B
100
AcDbEntity
 67
     1
  8
0
  6
Continuous
 62
     7
 48
0.5
370
    25
100
AcDbLine
 10
68.5162648165
 20
46.2897294283
 30
0.0
 11
78.2092109248
 21
46.2897294283
 31
0.0
  0
LINE
  5
144
330
1B
100
AcDbEntity
 67
     1
  8
0
  6
Continuous
 62
     7
 48
0.5
370
    25
100
AcDbLine
 10
68.5162648165
 20
56.1046840045
 30
0.0
 11
78.2092109248
 21
56.1046840045
 31
0.0
  0
SPLINE
  5
145
330
1B
100
AcDbEntity
 67
     1
  8
0
  6
Continuous
 62
     7
 48
0.5
370
    25
100
AcDbSpline
210
0.0
220
0.0
230
1.0
 70
     8
 71
     3
 72
    11
 73
     7
 74
     0
 42
0.000000001
 43
0.00000001
 40
0.0
 40
0.0
 40
0.0
 40
0.0
 40
0.2858113857234067
 40
0.5527245545213759
 40
0.8220275582229318
 40
1.0
 40
1.0
 40
1.0
 40
1.0
 10
79.54575057249482
 20
52.59668170574314
 30
0.0
 10
79.5418102710723
 20
52.33131932709336
 30
0.0
 10
79.5341902060321
 20
51.8181406720349
 30
0.0
 10
79.52272911638116
 20
51.04634143646022
 30
0.0
 10
79.54016650562279
 20
50.37712760909579
 30
0.0
 10
79.54416110688203
 20
49.96265271599568
 30
0.0
 10
79.54575057249482
 20
49.79773172709279
 30
0.0
  0
ARC
  5
146
330
1B
100
AcDbEntity
 67
     1
  8
0
  6
Continuous
 62
     7
 48
0.25
370
    25
100
AcDbCircle
 10
79.4770273082
 20
47.1516526263
 30
0.0
 40
2.646971381584631
100
AcDbArc
 50
88.5122636654
 51
102.674909816
  0
ARC
  5
147
330
1B
100
AcDbEntity
 67
     1
  8
0
  6
Continuous
 62
     7
 48
0.25
370
    25
100
AcDbCircle
 10
79.4770273082
 20
55.2427608066
 30
0.0
 40
2.64697138158229
100
AcDbArc
 50
257.325090184
 51
271.4877363346
  0
LINE
  5
148
330
1B
100
AcDbEntity
 67
     1
  8
0
  6
Continuous
 62
     7
 48
0.5
370
    25
100
AcDbLine
 10
78.8962315197
 20
44.5675345287
 30
0.0
 11
78.8962315197
 21
49.7341192276
 31
0.0
  0
SPLINE
  5
149
330
1B
100
AcDbEntity
 67
     1
  8
0
  6
Continuous
 62
     7
 48
0.5
370
    25
100
AcDbSpline
210
0.0
220
0.0
230
1.0
 70
     8
 71
     3
 72
    11
 73
     7
 74
     0
 42
0.000000001
 43
0.00000001
 40
0.0
 40
0.0
 40
0.0
 40
0.0
 40
0.2490252138763566
 40
0.4980311639765296
 40
0.7490269204800197
 40
0.9999999999999999
 40
0.9999999999999999
 40
0.9999999999999999
 40
0.9999999999999999
 10
78.20921092475035
 20
46.28972942830614
 30
0.0
 10
78.28745979757579
 20
46.14908299767175
 30
0.0
 10
78.44395149014977
 20
45.86780101635092
 30
0.0
 10
78.63673437851615
 20
45.43932885978789
 30
0.0
 10
78.79580026375096
 20
45.00611884181688
 30
0.0
 10
78.86275544261213
 20
44.71372489664848
 30
0.0
 10
78.8962315196565
 20
44.56753452867018
 30
0.0
  0
ARC
  5
14A
330
1B
100
AcDbEntity
 67
     1
  8
0
  6
Continuous
 62
     7
 48
0.25
370
    25
100
AcDbCircle
 10
79.5167982729
 20
58.3493113107
 30
0.0
 40
0.81119585470506
100
AcDbArc
 50
220.0927969335
 51
272.0453715946
  0
LINE
  5
14B
330
1B
100
AcDbEntity
 67
     1
  8
0
  6
Continuous
 62
     7
 48
0.5
370
    25
100
AcDbLine
 10
79.5457505725
 20
57.5386322873
 30
0.0
 11
79.5457505725
 21
52.5966817057
 31
0.0
  0
SPLINE
  5
14C
330
1B
100
AcDbEntity
 67
     1
  8
0
  6
Continuous
 62
     7
 48
0.5
370
    25
100
AcDbSpline
210
0.0
220
0.0
230
1.0
 70
     8
 71
     3
 72
    10
 73
     6
 74
     0
 42
0.000000001
 43
0.00000001
 40
0.0
 40
0.0
 40
0.0
 40
0.0
 40
0.3089808900030073
 40
0.6190948628358687
 40
1.0
 40
1.0
 40
1.0
 40
1.0
 10
78.8962315196565
 20
59.28996639300556
 30
0.0
 10
78.9203785261932
 20
59.13951843063771
 30
0.0
 10
78.96876109023975
 20
58.83807078892385
 30
0.0
 10
78.9762161829564
 20
58.34905955032784
 30
0.0
 10
78.92465383515685
 20
58.01243426516969
 30
0.0
 10
78.8962315196565
 20
57.8268789041658
 30
0.0
  0
LINE
  5
14D
330
1B
100
AcDbEntity
 67
     1
  8
0
  6
Continuous
 62
     7
 48
0.5
370
    25
100
AcDbLine
 10
68.5162648165
 20
61.0121612926
 30
0.0
 11
78.2092109248
 21
61.0121612926
 31
0.0
  0
SPLINE
  5
14E
330
1B
100
AcDbEntity
 67
     1
  8
0
  6
Continuous
 62
     7
 48
0.5
370
    25
100
AcDbSpline
210
0.0
220
0.0
230
1.0
 70
     8
 71
     3
 72
    11
 73
     7
 74
     0
 42
0.000000001
 43
0.00000001
 40
0.0
 40
0.0
 40
0.0
 40
0.0
 40
0.2490252138763563
 40
0.4980311639765297
 40
0.7490269204800202
 40
1.0
 40
1.0
 40
1.0
 40
1.0
 10
78.20921092475035
 20
61.01216129264157
 30
0.0
 10
78.28745979757579
 20
60.87151486200718
 30
0.0
 10
78.44395149014977
 20
60.59023288068634
 30
0.0
 10
78.63673437851615
 20
60.16176072412331
 30
0.0
 10
78.79580026375096
 20
59.72855070615227
 30
0.0
 10
78.86275544261213
 20
59.43615676098386
 30
0.0
 10
78.8962315196565
 20
59.28996639300556
 30
0.0
  0
SPLINE
  5
14F
330
1B
100
AcDbEntity
 67
     1
  8
0
  6
Continuous
 62
     7
 48
0.5
370
    25
100
AcDbSpline
210
0.0
220
0.0
230
1.0
 70
     8
 71
     3
 72
    10
 73
     6
 74
     0
 42
0.000000001
 43
0.00000001
 40
0.0
 40
0.0
 40
0.0
 40
0.0
 40
0.3089808900029882
 40
0.6190948628358306
 40
1.0
 40
1.0
 40
1.0
 40
1.0
 10
78.8962315196565
 20
44.56753452867018
 30
0.0
 10
78.9203785261932
 20
44.41708656630232
 30
0.0
 10
78.96876109023978
 20
44.11563892458842
 30
0.0
 10
78.97621618295643
 20
43.62662768599237
 30
0.0
 10
78.92465383515685
 20
43.29000240083416
 30
0.0
 10
78.8962315196565
 20
43.10444703983022
 30
0.0
  0
SPLINE
  5
150
330
1B
100
AcDbEntity
 67
     1
  8
0
  6
Continuous
 62
     7
 48
0.5
370
    25
100
AcDbSpline
210
0.0
220
0.0
230
1.0
 70
     8
 71
     3
 72
    11
 73
     7
 74
     0
 42
0.000000001
 43
0.00000001
 40
0.0
 40
0.0
 40
0.0
 40
0.0
 40
0.2488617730236805
 40
0.4977454583558504
 40
0.748862751792887
 40
1.0
 40
1.0
 40
1.0
 40
1.0
 10
78.8962315196565
 20
43.10444703983022
 30
0.0
 10
78.86307746444015
 20
42.95948465952723
 30
0.0
 10
78.796766434789
 20
42.66954713496655
 30
0.0
 10
78.63872442870408
 20
42.23750754747209
 30
0.0
 10
78.4458722492573
 20
41.80776947649517
 30
0.0
 10
78.28810012236885
 20
41.52409500912721
 30
0.0
 10
78.20921092475035
 20
41.38225214019428
 30
0.0
  0
LINE
  5
151
330
1B
100
AcDbEntity
 67
     1
  8
0
  6
Continuous
 62
     7
 48
0.5
370
    25
100
AcDbLine
 10
68.5162648165
 20
41.3822521402
 30
0.0
 11
78.2092109248
 21
41.3822521402
 31
0.0
  0
LINE
  5
152
330
1B
100
AcDbEntity
 67
     1
  8
0
  6
Continuous
 62
     7
 48
0.5
370
    25
100
AcDbLine
 10
79.5457505725
 20
49.7977317271
 30
0.0
 11
79.5457505725
 21
44.8557811455
 31
0.0
  0
ARC
  5
153
330
1B
100
AcDbEntity
 67
     1
  8
0
  6
Continuous
 62
     7
 48
0.25
370
    25
100
AcDbCircle
 10
79.5167982729
 20
44.0451021221
 30
0.0
 40
0.8111958547049622
100
AcDbArc
 50
87.9546284054
 51
139.9072030665
  0
LINE
  5
154
330
1B
100
AcDbEntity
 67
     1
  8
0
  6
Continuous
 62
     7
 48
0.5
370
    25
100
AcDbLine
 10
80.6127378706
 20
51.1972067164
 30
0.0
 11
80.6127378706
 21
43.1472067164
 31
0.0
  0
LINE
  5
155
330
1B
100
AcDbEntity
 67
     1
  8
0
  6
Continuous
 62
     7
 48
0.5
370
    25
100
AcDbLine
 10
80.6127378706
 20
59.2472067164
 30
0.0
 11
80.6127378706
 21
51.1972067164
 31
0.0
  0
LINE
  5
156
330
1B
100
AcDbEntity
 67
     1
  8
0
  6
Continuous
 62
     7
 48
0.5
370
    25
100
AcDbLine
 10
80.4127378706
 20
51.1972067164
 30
0.0
 11
80.4127378706
 21
59.4472067164
 31
0.0
  0
LINE
  5
157
330
1B
100
AcDbEntity
 67
     1
  8
0
  6
Continuous
 62
     7
 48
0.5
370
    25
100
AcDbLine
 10
80.4127378706
 20
42.9472067164
 30
0.0
 11
80.4127378706
 21
51.1972067164
 31
0.0
  0
SPLINE
  5
158
330
1B
100
AcDbEntity
 67
     1
  8
0
  6
Continuous
 62
     7
 48
0.5
370
    25
100
AcDbSpline
210
0.0
220
0.0
230
1.0
 70
     8
 71
     3
 72
    11
 73
     7
 74
     0
 42
0.000000001
 43
0.00000001
 40
0.0
 40
0.0
 40
0.0
 40
0.0
 40
0.2858113857233994
 40
0.5527245545213821
 40
0.8220275582229517
 40
1.0
 40
1.0
 40
1.0
 40
1.0
 10
79.54575057249482
 20
44.85578114552878
 30
0.0
 10
79.5418102710723
 20
44.69008885945987
 30
0.0
 10
79.53419020603208
 20
44.36966007467483
 30
0.0
 10
79.52272911638116
 20
43.96959767991081
 30
0.0
 10
79.54016650562279
 20
43.66881354260402
 30
0.0
 10
79.54416110688203
 20
43.51679489870754
 30
0.0
 10
79.54575057249482
 20
43.4563061562036
 30
0.0
  0
SPLINE
  5
159
330
1B
100
AcDbEntity
 67
     1
  8
0
  6
Continuous
 62
     7
 48
0.5
370
    25
100
AcDbSpline
210
0.0
220
0.0
230
1.0
 70
     8
 71
     3
 72
    11
 73
     7
 74
     0
 42
0.000000001
 43
0.00000001
 40
0.0
 40
0.0
 40
0.0
 40
0.0
 40
0.2858113857233212
 40
0.5527245545214226
 40
0.8220275582231136
 40
1.0
 40
1.0
 40
1.0
 40
1.0
 10
79.54575057249482
 20
58.93810727663218
 30
0.0
 10
79.5418102710723
 20
58.83843718405137
 30
0.0
 10
79.5341902060321
 20
58.64568731377793
 30
0.0
 10
79.52272911638117
 20
58.27395047296724
 30
0.0
 10
79.5401665056228
 20
57.90552078290958
 30
0.0
 10
79.54416110688203
 20
57.64306453370602
 30
0.0
 10
79.54575057249482
 20
57.53863228730719
 30
0.0
  0
ARC
  5
15A
330
1B
100
AcDbEntity
 67
     1
  8
0
  6
Continuous
 62
     7
 48
0.25
370
    25
100
AcDbCircle
 10
79.5372870378
 20
42.6965057719
 30
0.0
 40
0.7598475211238719
100
AcDbArc
 50
89.3617997906
 51
147.5290082717
  0
ARC
  5
15B
330
1B
100
AcDbEntity
 67
     1
  8
0
  6
Continuous
 62
     7
 48
0.25
370
    25
100
AcDbCircle
 10
79.5372870378
 20
59.6979076609
 30
0.0
 40
0.7598475211157367
100
AcDbArc
 50
212.4709917279
 51
270.6382002097
  0
LINE
  5
15C
330
1B
100
AcDbEntity
 67
     1
  8
0
  6
Continuous
 62
     7
 48
0.5
370
    25
100
AcDbLine
 10
56.3644039204
 20
47.1557548321
 30
0.0
 11
56.3644039204
 21
43.1143029478
 31
0.0
  0
LINE
  5
15D
330
1B
100
AcDbEntity
 67
     1
  8
0
  6
Continuous
 62
     7
 48
0.5
370
    25
100
AcDbLine
 10
60.5948515708
 20
47.1557548321
 30
0.0
 11
56.3644039204
 21
47.1557548321
 31
0.0
  0
SPLINE
  5
15E
330
1B
100
AcDbEntity
 67
     1
  8
0
  6
Continuous
 62
     7
 48
0.5
370
    25
100
AcDbSpline
210
0.0
220
0.0
230
1.0
 70
     8
 71
     3
 72
    12
 73
     8
 74
     0
 42
0.000000001
 43
0.00000001
 40
0.0
 40
0.0
 40
0.0
 40
0.0
 40
0.2499999999999998
 40
0.2499999999999998
 40
0.4999999999999997
 40
0.4999999999999997
 40
1.0
 40
1.0
 40
1.0
 40
1.0
 10
61.22006635314474
 20
45.13502888992685
 30
0.0
 10
61.22006635314474
 20
45.30652143672307
 30
0.0
 10
61.20528859468424
 20
45.47878304065539
 30
0.0
 10
61.14810039368899
 20
45.81955244542721
 30
0.0
 10
61.10574492396617
 20
45.98879741119124
 30
0.0
 10
60.94238434909354
 20
46.49352637287205
 30
0.0
 10
60.78522629960307
 20
46.82601612933637
 30
0.0
 10
60.59485157080571
 20
47.15575483209056
 30
0.0
  0
SPLINE
  5
15F
330
1B
100
AcDbEntity
 67
     1
  8
0
  6
Continuous
 62
     7
 48
0.5
370
    25
100
AcDbSpline
210
0.0
220
0.0
230
1.0
 70
     8
 71
     3
 72
    10
 73
     6
 74
     0
 42
0.000000001
 43
0.00000001
 40
0.0
 40
0.0
 40
0.0
 40
0.0
 40
0.5
 40
0.5
 40
1.0
 40
1.0
 40
1.0
 40
1.0
 10
60.59485157080595
 20
43.11430294776312
 30
0.0
 10
60.78570278446225
 20
43.44486694650201
 30
0.0
 10
60.94293590561887
 20
43.77784560812047
 30
0.0
 10
61.16047994274714
 20
44.45076449382768
 30
0.0
 10
61.22006635314474
 20
44.79075675646427
 30
0.0
 10
61.22006635314474
 20
45.13502888992685
 30
0.0
  0
LINE
  5
160
330
1B
100
AcDbEntity
 67
     1
  8
0
  6
Continuous
 62
     7
 48
0.5
370
    25
100
AcDbLine
 10
60.5948515708
 20
43.1143029478
 30
0.0
 11
56.3644039204
 21
43.1143029478
 31
0.0
  0
SPLINE
  5
161
330
1B
100
AcDbEntity
 67
     1
  8
0
  6
Continuous
 62
     7
 48
0.5
370
    25
100
AcDbSpline
210
0.0
220
0.0
230
1.0
 70
     8
 71
     3
 72
    10
 73
     6
 74
     0
 42
0.000000001
 43
0.00000001
 40
0.0
 40
0.0
 40
0.0
 40
0.0
 40
0.5000000000000001
 40
0.5000000000000001
 40
1.0
 40
1.0
 40
1.0
 40
1.0
 10
60.59485157080547
 20
47.15575483209054
 30
0.0
 10
60.78474136261631
 20
47.81355236660063
 30
0.0
 10
60.94379248995615
 20
48.48657498032096
 30
0.0
 10
61.16128861207108
 20
49.83525720946182
 30
0.0
 10
61.22006635314474
 20
50.51377534570669
 30
0.0
 10
61.22006635314474
 20
51.19720671641792
 30
0.0
  0
LINE
  5
162
330
1B
100
AcDbEntity
 67
     1
  8
0
  6
Continuous
 62
     7
 48
0.5
370
    25
100
AcDbLine
 10
61.2200663531
 20
45.1350288899
 30
0.0
 11
61.2200663531
 21
51.1972067164
 31
0.0
  0
SPLINE
  5
163
330
1B
100
AcDbEntity
 67
     1
  8
0
  6
Continuous
 62
     7
 48
0.5
370
    25
100
AcDbSpline
210
0.0
220
0.0
230
1.0
 70
     8
 71
     3
 72
    10
 73
     6
 74
     0
 42
0.000000001
 43
0.00000001
 40
0.0
 40
0.0
 40
0.0
 40
0.0
 40
0.5
 40
0.5
 40
1.0
 40
1.0
 40
1.0
 40
1.0
 10
60.59485157080595
 20
55.23865860074527
 30
0.0
 10
60.78570278446225
 20
55.56922259948416
 30
0.0
 10
60.94293590561887
 20
55.90220126110263
 30
0.0
 10
61.16047994274714
 20
56.57512014680982
 30
0.0
 10
61.22006635314474
 20
56.91511240944641
 30
0.0
 10
61.22006635314474
 20
57.25938454290899
 30
0.0
  0
LINE
  5
164
330
1B
100
AcDbEntity
 67
     1
  8
0
  6
Continuous
 62
     7
 48
0.5
370
    25
100
AcDbLine
 10
61.2200663531
 20
51.1972067164
 30
0.0
 11
61.2200663531
 21
57.2593845429
 31
0.0
  0
SPLINE
  5
165
330
1B
100
AcDbEntity
 67
     1
  8
0
  6
Continuous
 62
     7
 48
0.5
370
    25
100
AcDbSpline
210
0.0
220
0.0
230
1.0
 70
     8
 71
     3
 72
    10
 73
     6
 74
     0
 42
0.000000001
 43
0.00000001
 40
0.0
 40
0.0
 40
0.0
 40
0.0
 40
0.5
 40
0.5
 40
1.0
 40
1.0
 40
1.0
 40
1.0
 10
61.22006635314474
 20
51.19720671641792
 30
0.0
 10
61.22006635314474
 20
51.88110949985786
 30
0.0
 10
61.1596302095386
 20
52.57397860205468
 30
0.0
 10
60.94058318873319
 20
53.92309808076616
 30
0.0
 10
60.78352737717969
 20
54.58506643514688
 30
0.0
 10
60.59485157080545
 20
55.2386586007453
 30
0.0
  0
LINE
  5
166
330
1B
100
AcDbEntity
 67
     1
  8
0
  6
Continuous
 62
     7
 48
0.5
370
    25
100
AcDbLine
 10
56.3644039204
 20
55.2386586007
 30
0.0
 11
56.3644039204
 21
47.1557548321
 31
0.0
  0
LINE
  5
167
330
1B
100
AcDbEntity
 67
     1
  8
0
  6
Continuous
 62
     7
 48
0.5
370
    25
100
AcDbLine
 10
60.5948515708
 20
55.2386586007
 30
0.0
 11
56.3644039204
 21
55.2386586007
 31
0.0
  0
LINE
  5
168
330
1B
100
AcDbEntity
 67
     1
  8
0
  6
Continuous
 62
     7
 48
0.5
370
    25
100
AcDbLine
 10
60.5948515708
 20
59.2801104851
 30
0.0
 11
56.3644039204
 21
59.2801104851
 31
0.0
  0
SPLINE
  5
169
330
1B
100
AcDbEntity
 67
     1
  8
0
  6
Continuous
 62
     7
 48
0.5
370
    25
100
AcDbSpline
210
0.0
220
0.0
230
1.0
 70
     8
 71
     3
 72
    12
 73
     8
 74
     0
 42
0.000000001
 43
0.00000001
 40
0.0
 40
0.0
 40
0.0
 40
0.0
 40
0.2499999999999999
 40
0.2499999999999999
 40
0.4999999999999999
 40
0.4999999999999999
 40
1.0
 40
1.0
 40
1.0
 40
1.0
 10
61.22006635314474
 20
57.25938454290899
 30
0.0
 10
61.22006635314474
 20
57.43087708970522
 30
0.0
 10
61.20528859468424
 20
57.60313869363753
 30
0.0
 10
61.14810039368899
 20
57.94390809840935
 30
0.0
 10
61.10574492396616
 20
58.11315306417338
 30
0.0
 10
60.94238434909354
 20
58.6178820258542
 30
0.0
 10
60.78522629960307
 20
58.95037178231852
 30
0.0
 10
60.59485157080571
 20
59.2801104850727
 30
0.0
  0
LINE
  5
16A
330
1B
100
AcDbEntity
 67
     1
  8
0
  6
Continuous
 62
     7
 48
0.5
370
    25
100
AcDbLine
 10
56.3644039204
 20
59.2801104851
 30
0.0
 11
56.3644039204
 21
55.2386586007
 31
0.0
  0
LINE
  5
16B
330
1B
100
AcDbEntity
 67
     1
  8
0
  6
Continuous
 62
     7
 48
0.5
370
    25
100
AcDbLine
 10
62.3644039204
 20
57.7472067164
 30
0.0
 11
62.3644039204
 21
44.6472067164
 31
0.0
  0
LINE
  5
16C
330
1B
100
AcDbEntity
 67
     1
  8
0
  6
Continuous
 62
     7
 48
0.5
370
    25
100
AcDbLine
 10
62.1644039204
 20
44.4472067164
 30
0.0
 11
62.1644039204
 21
57.9472067164
 31
0.0
  0
LINE
  5
16D
330
1B
100
AcDbEntity
 67
     1
  8
0
  6
Continuous
 62
     7
 48
0.5
370
    25
100
AcDbLine
 10
65.3644039204
 20
57.7757067164
 30
0.0
 11
65.3644039204
 21
44.6187067164
 31
0.0
  0
LINE
  5
16E
330
1B
100
AcDbEntity
 67
     1
  8
0
  6
Continuous
 62
     7
 48
0.5
370
    25
100
AcDbLine
 10
64.3644039204
 20
45.6187067164
 30
0.0
 11
64.3644039204
 21
56.7757067164
 31
0.0
  0
LINE
  5
16F
330
1B
100
AcDbEntity
 67
     1
  8
0
  6
Continuous
 62
     7
 48
0.5
370
    25
100
AcDbLine
 10
48.7193519799
 20
46.4149270896
 30
0.0
 11
48.7193519799
 21
55.9794863433
 31
0.0
  0
LINE
  5
170
330
1B
100
AcDbEntity
 67
     1
  8
0
  6
Continuous
 62
     7
 48
0.5
370
    25
100
AcDbLine
 10
47.3644039204
 20
51.1972067164
 30
0.0
 11
47.3644039204
 21
55.1972067164
 31
0.0
  0
LINE
  5
171
330
1B
100
AcDbEntity
 67
     1
  8
0
  6
Continuous
 62
     7
 48
0.5
370
    25
100
AcDbLine
 10
47.3644039204
 20
47.1972067164
 30
0.0
 11
47.3644039204
 21
51.1972067164
 31
0.0
  0
LINE
  5
172
330
1B
100
AcDbEntity
 67
     1
  8
0
  6
Continuous
 62
     1
 48
0.5
370
    25
100
AcDbLine
 10
79.5457505725
 20
43.4563061562
 30
0.0
 11
79.5457505725
 21
42.9472067164
 31
0.0
  0
LINE
  5
173
330
1B
100
AcDbEntity
 67
     1
  8
0
  6
Continuous
 62
     1
 48
0.5
370
    25
100
AcDbLine
 10
79.5457505725
 20
59.4472067164
 30
0.0
 11
79.5457505725
 21
58.9381072766
 31
0.0
  0
LINE
  5
174
330
1B
100
AcDbEntity
 67
     1
  8
0
  6
Continuous
 62
     1
 48
0.5
370
    25
100
AcDbLine
 10
78.8962315197
 20
59.289966393
 30
0.0
 11
78.8962315197
 21
59.8222067164
 31
0.0
  0
LINE
  5
175
330
1B
100
AcDbEntity
 67
     1
  8
0
  6
Continuous
 62
     1
 48
0.5
370
    25
100
AcDbLine
 10
78.8962315197
 20
42.5722067164
 30
0.0
 11
78.8962315197
 21
43.1044470398
 31
0.0
  0
LINE
  5
176
330
1B
100
AcDbEntity
 67
     1
  8
0
  6
Continuous
 62
     1
 48
0.5
370
    25
100
AcDbLine
 10
61.2200663531
 20
57.2593845429
 30
0.0
 11
61.2200663531
 21
58.1972067164
 31
0.0
  0
LINE
  5
177
330
1B
100
AcDbEntity
 67
     1
  8
0
  6
Continuous
 62
     1
 48
0.5
370
    25
100
AcDbLine
 10
61.2200663531
 20
44.1972067164
 30
0.0
 11
61.2200663531
 21
45.1350288899
 31
0.0
  0
LINE
  5
178
330
1B
100
AcDbEntity
 67
     1
  8
0
  6
Continuous
 62
     1
 48
0.5
370
    25
100
AcDbLine
 10
61.653079055
 20
51.1972067164
 30
0.0
 11
61.653079055
 21
44.4472067164
 31
0.0
  0
LINE
  5
179
330
1B
100
AcDbEntity
 67
     1
  8
0
  6
Continuous
 62
     1
 48
0.5
370
    25
100
AcDbLine
 10
61.653079055
 20
57.9472067164
 30
0.0
 11
61.653079055
 21
51.1972067164
 31
0.0
  0
MTEXT
  5
17A
330
1B
100
AcDbEntity
 67
     1
  8
0
  6
Continuous
 62
     7
 48
0.5
370
     0
100
AcDbMText
 10
82.2305097015
 20
66.5282156761
 30
0.0
 40
2.6458333333
 41
0.0
 71
     1
 72
     1
  1
5R-RS1108
  7
SLDTEXTSTYLE0
 73
     1
 44
1.0
  0
LINE
  5
17B
330
1B
100
AcDbEntity
 67
     1
  8
0
  6
Continuous
 62
     7
 48
0.5
370
     0
100
AcDbLine
 10
72.2429039204
 20
45.4972067164
 30
0.0
 11
64.4859039204
 21
45.4972067164
 31
0.0
  0
LINE
  5
17C
330
1B
100
AcDbEntity
 67
     1
  8
0
  6
Continuous
 62
     7
 48
0.5
370
     0
100
AcDbLine
 10
72.2429039204
 20
56.8972067164
 30
0.0
 11
64.4859039204
 21
56.8972067164
 31
0.0
  0
LINE
  5
17D
330
1B
100
AcDbEntity
 67
     1
  8
0
  6
Continuous
 62
     7
 48
0.5
370
     0
100
AcDbLine
 10
47.822195308
 20
55.4615126973
 30
0.0
 11
55.8644039204
 21
55.7128317164
 31
0.0
  0
LINE
  5
17E
330
1B
100
AcDbEntity
 67
     1
  8
0
  6
Continuous
 62
     7
 48
0.5
370
     0
100
AcDbLine
 10
47.822195308
 20
46.9329007356
 30
0.0
 11
55.8644039204
 21
46.6815817164
 31
0.0
  0
LINE
  5
17F
330
1B
100
AcDbEntity
 67
     1
  8
0
  6
Continuous
 62
     7
 48
0.5
370
     0
100
AcDbLine
 10
55.8644039204
 20
46.1916442164
 30
0.0
 11
55.8644039204
 21
56.2027692164
 31
0.0
  0
LINE
  5
180
330
1B
100
AcDbEntity
 67
     1
  8
0
  6
Continuous
 62
     7
 48
0.5
370
    25
100
AcDbLine
 10
67.7570754379
 20
90.7578052239
 30
0.0
 11
67.6127378706
 21
90.5078052239
 31
0.0
  0
LINE
  5
181
330
1B
100
AcDbEntity
 67
     1
  8
0
  6
Continuous
 62
     7
 48
0.5
370
    25
100
AcDbLine
 10
67.6127378706
 20
74.0078052239
 30
0.0
 11
67.7570754379
 21
73.7578052239
 31
0.0
  0
LINE
  5
182
330
1B
100
AcDbEntity
 67
     1
  8
0
  6
Continuous
 62
     7
 48
0.5
370
    25
100
AcDbLine
 10
80.4127378706
 20
90.5078052239
 30
0.0
 11
79.5290536651
 21
90.5078052239
 31
0.0
  0
LINE
  5
183
330
1B
100
AcDbEntity
 67
     1
  8
0
  6
Continuous
 62
     7
 48
0.5
370
    25
100
AcDbLine
 10
79.5290536651
 20
74.0078052239
 30
0.0
 11
80.4127378706
 21
74.0078052239
 31
0.0
  0
LINE
  5
184
330
1B
100
AcDbEntity
 67
     1
  8
0
  6
Continuous
 62
     7
 48
0.5
370
    25
100
AcDbLine
 10
80.4127378706
 20
74.0078052239
 30
0.0
 11
80.6127378706
 21
74.2078052239
 31
0.0
  0
LINE
  5
185
330
1B
100
AcDbEntity
 67
     1
  8
0
  6
Continuous
 62
     7
 48
0.5
370
    25
100
AcDbLine
 10
80.6127378706
 20
90.3078052239
 30
0.0
 11
80.4127378706
 21
90.5078052239
 31
0.0
  0
SPLINE
  5
186
330
1B
100
AcDbEntity
 67
     1
  8
0
  6
Continuous
 62
     7
 48
0.5
370
    25
100
AcDbSpline
210
0.0
220
0.0
230
1.0
 70
     8
 71
     3
 72
    14
 73
    10
 74
     0
 42
0.000000001
 43
0.00000001
 40
0.0
 40
0.0
 40
0.0
 40
0.0
 40
0.0750752202206551
 40
0.2635023530250638
 40
0.4419068947699044
 40
0.6105172597772682
 40
0.7689453541641411
 40
0.915898223506395
 40
0.9999999999999999
 40
0.9999999999999999
 40
0.9999999999999999
 40
0.9999999999999999
 10
79.52883435426571
 20
90.51045350694486
 30
0.0
 10
79.5127685233766
 20
90.50977314955679
 30
0.0
 10
79.45637995428356
 20
90.50738520088179
 30
0.0
 10
79.36246254292143
 20
90.52411787809388
 30
0.0
 10
79.25294151981954
 20
90.55725209876513
 30
0.0
 10
79.15559795828064
 20
90.60442185288201
 30
0.0
 10
79.07233726461904
 20
90.66037809577708
 30
0.0
 10
79.00977126586024
 20
90.71380220982138
 30
0.0
 10
78.97935355469657
 20
90.7484714406388
 30
0.0
 10
78.96828178621305
 20
90.76109072336676
 30
0.0
  0
SPLINE
  5
187
330
1B
100
AcDbEntity
 67
     1
  8
0
  6
Continuous
 62
     7
 48
0.5
370
    25
100
AcDbSpline
210
0.0
220
0.0
230
1.0
 70
     8
 71
     3
 72
    14
 73
    10
 74
     0
 42
0.000000001
 43
0.00000001
 40
0.0
 40
0.0
 40
0.0
 40
0.0
 40
0.0188608887132336
 40
0.1785994266701312
 40
0.3530867890185236
 40
0.5387439594147683
 40
0.7336661330815362
 40
0.9346416214651296
 40
1.0
 40
1.0
 40
1.0
 40
1.0
 10
78.96937998961486
 20
73.7565013260496
 30
0.0
 10
78.97167515188298
 20
73.75932623561894
 30
0.0
 10
78.99340873355207
 20
73.78607615377756
 30
0.0
 10
79.04875207203654
 20
73.83647532500504
 30
0.0
 10
79.13667153037193
 20
73.9006679505008
 30
0.0
 10
79.24218453509651
 20
73.95463221420262
 30
0.0
 10
79.36033871481268
 20
73.99131974000136
 30
0.0
 10
79.45810697435546
 20
74.00881388884268
 30
0.0
 10
79.514834394445
 20
74.00594670610245
 30
0.0
 10
79.52875531347198
 20
74.00524309894563
 30
0.0
  0
ARC
  5
188
330
1B
100
AcDbEntity
 67
     1
  8
0
  6
Continuous
 62
     7
 48
0.25
370
    25
100
AcDbCircle
 10
61.653079055
 20
75.0078052239
 30
0.0
 40
0.5
100
AcDbArc
 50
90.0
 51
150.0
  0
ARC
  5
189
330
1B
100
AcDbEntity
 67
     1
  8
0
  6
Continuous
 62
     7
 48
0.25
370
    25
100
AcDbCircle
 10
61.653079055
 20
89.5078052239
 30
0.0
 40
0.5
100
AcDbArc
 50
210.0
 51
270.0
  0
LINE
  5
18A
330
1B
100
AcDbEntity
 67
     1
  8
0
  6
Continuous
 62
     7
 48
0.5
370
    25
100
AcDbLine
 10
62.1644039204
 20
89.0078052239
 30
0.0
 11
61.653079055
 21
89.0078052239
 31
0.0
  0
LINE
  5
18B
330
1B
100
AcDbEntity
 67
     1
  8
0
  6
Continuous
 62
     7
 48
0.5
370
    25
100
AcDbLine
 10
61.653079055
 20
75.5078052239
 30
0.0
 11
62.1644039204
 21
75.5078052239
 31
0.0
  0
LINE
  5
18C
330
1B
100
AcDbEntity
 67
     1
  8
0
  6
Continuous
 62
     7
 48
0.5
370
    25
100
AcDbLine
 10
62.1644039204
 20
75.5078052239
 30
0.0
 11
62.3644039204
 21
75.7078052239
 31
0.0
  0
LINE
  5
18D
330
1B
100
AcDbEntity
 67
     1
  8
0
  6
Continuous
 62
     7
 48
0.5
370
    25
100
AcDbLine
 10
62.3644039204
 20
88.8078052239
 30
0.0
 11
62.1644039204
 21
89.0078052239
 31
0.0
  0
LINE
  5
18E
330
1B
100
AcDbEntity
 67
     1
  8
0
  6
Continuous
 62
     7
 48
0.5
370
    25
100
AcDbLine
 10
65.3644039204
 20
88.8363052239
 30
0.0
 11
64.3644039204
 21
87.8363052239
 31
0.0
  0
LINE
  5
18F
330
1B
100
AcDbEntity
 67
     1
  8
0
  6
Continuous
 62
     7
 48
0.5
370
    25
100
AcDbLine
 10
64.3644039204
 20
76.6793052239
 30
0.0
 11
65.3644039204
 21
75.6793052239
 31
0.0
  0
LINE
  5
190
330
1B
100
AcDbEntity
 67
     1
  8
0
  6
Continuous
 62
     7
 48
0.5
370
    25
100
AcDbLine
 10
65.3644039204
 20
75.6793052239
 30
0.0
 11
67.6127378706
 21
75.6793052239
 31
0.0
  0
LINE
  5
191
330
1B
100
AcDbEntity
 67
     1
  8
0
  6
Continuous
 62
     7
 48
0.5
370
    25
100
AcDbLine
 10
67.6127378706
 20
88.8363052239
 30
0.0
 11
65.3644039204
 21
88.8363052239
 31
0.0
  0
LINE
  5
192
330
1B
100
AcDbEntity
 67
     1
  8
0
  6
Continuous
 62
     7
 48
0.5
370
    25
100
AcDbLine
 10
62.3644039204
 20
76.7578052239
 30
0.0
 11
64.3644039204
 21
76.7578052239
 31
0.0
  0
LINE
  5
193
330
1B
100
AcDbEntity
 67
     1
  8
0
  6
Continuous
 62
     7
 48
0.5
370
    25
100
AcDbLine
 10
64.3644039204
 20
87.7578052239
 30
0.0
 11
62.3644039204
 21
87.7578052239
 31
0.0
  0
LINE
  5
194
330
1B
100
AcDbEntity
 67
     1
  8
0
  6
Continuous
 62
     7
 48
0.5
370
    25
100
AcDbLine
 10
56.3644039204
 20
87.2789927239
 30
0.0
 11
48.7193519799
 21
87.0400848507
 31
0.0
  0
LINE
  5
195
330
1B
100
AcDbEntity
 67
     1
  8
0
  6
Continuous
 62
     7
 48
0.5
370
    25
100
AcDbLine
 10
48.7193519799
 20
77.475525597
 30
0.0
 11
56.3644039204
 21
77.2366177239
 31
0.0
  0
LINE
  5
196
330
1B
100
AcDbEntity
 67
     1
  8
0
  6
Continuous
 62
     7
 48
0.5
370
    25
100
AcDbLine
 10
48.7193519799
 20
87.0400848507
 30
0.0
 11
47.3644039204
 21
86.2578052239
 31
0.0
  0
LINE
  5
197
330
1B
100
AcDbEntity
 67
     1
  8
0
  6
Continuous
 62
     7
 48
0.5
370
    25
100
AcDbLine
 10
47.3644039204
 20
78.2578052239
 30
0.0
 11
48.7193519799
 21
77.475525597
 31
0.0
  0
SPLINE
  5
198
330
1B
100
AcDbEntity
 67
     1
  8
0
  6
Continuous
 62
     7
 48
0.5
370
    25
100
AcDbSpline
210
0.0
220
0.0
230
1.0
 70
     8
 71
     3
 72
    10
 73
     6
 74
     0
 42
0.000000001
 43
0.00000001
 40
0.0
 40
0.0
 40
0.0
 40
0.0
 40
0.3089808900029888
 40
0.6190948628358316
 40
1.0
 40
1.0
 40
1.0
 40
1.0
 10
78.8962315196565
 20
87.77487615717516
 30
0.0
 10
78.9203785261932
 20
87.51429264245881
 30
0.0
 10
78.96876109023977
 20
86.99217001118853
 30
0.0
 10
78.97621618295643
 20
86.14517770046798
 30
0.0
 10
78.92465383515685
 20
85.56212560346161
 30
0.0
 10
78.8962315196565
 20
85.240734290586
 30
0.0
  0
SPLINE
  5
199
330
1B
100
AcDbEntity
 67
     1
  8
0
  6
Continuous
 62
     7
 48
0.5
370
    25
100
AcDbSpline
210
0.0
220
0.0
230
1.0
 70
     8
 71
     3
 72
    11
 73
     7
 74
     0
 42
0.000000001
 43
0.00000001
 40
0.0
 40
0.0
 40
0.0
 40
0.0
 40
0.248533165781602
 40
0.4977458539813225
 40
0.7486584446317361
 40
0.9999999999999999
 40
0.9999999999999999
 40
0.9999999999999999
 40
0.9999999999999999
 10
78.8962315196565
 20
85.240734290586
 30
0.0
 10
78.8631541497678
 20
84.98997982073408
 30
0.0
 10
78.79690897210337
 20
84.48778528527411
 30
0.0
 10
78.63883089510433
 20
83.739684543233
 30
0.0
 10
78.44593320621232
 20
82.9950244320638
 30
0.0
 10
78.28816326790128
 20
82.50368484088357
 30
0.0
 10
78.20921092475035
 20
82.25780522388055
 30
0.0
  0
LINE
  5
19A
330
1B
100
AcDbEntity
 67
     1
  8
0
  6
Continuous
 62
     7
 48
0.5
370
    25
100
AcDbLine
 10
68.5162648165
 20
82.2578052239
 30
0.0
 11
78.2092109248
 21
82.2578052239
 31
0.0
  0
SPLINE
  5
19B
330
1B
100
AcDbEntity
 67
     1
  8
0
  6
Continuous
 62
     7
 48
0.5
370
    25
100
AcDbSpline
210
0.0
220
0.0
230
1.0
 70
     8
 71
     3
 72
    16
 73
    12
 74
     0
 42
0.000000001
 43
0.00000001
 40
0.0
 40
0.0
 40
0.0
 40
0.0
 40
0.1322988555735028
 40
0.2645603055581354
 40
0.3546976504550874
 40
0.4449040512480978
 40
0.5350245245138253
 40
0.6502098333825368
 40
0.7654131100753919
 40
0.8826952156317988
 40
1.0
 40
1.0
 40
1.0
 40
1.0
 10
68.51626481645485
 20
82.25780522388055
 30
0.0
 10
68.40068021759363
 20
82.62503061188497
 30
0.0
 10
68.16954369974556
 20
83.35937756022399
 30
0.0
 10
67.94911854816237
 20
84.36282038765991
 30
0.0
 10
67.81931501724789
 20
85.25525147913427
 30
0.0
 10
67.75882572265336
 20
86.03188652625612
 30
0.0
 10
67.75122848230089
 20
86.88232495564155
 30
0.0
 10
67.81863510124202
 20
87.80332851527153
 30
0.0
 10
67.97602805121454
 20
88.79466858069078
 30
0.0
 10
68.20693483533444
 20
89.78155387236583
 30
0.0
 10
68.4131481774867
 20
90.43236713413678
 30
0.0
 10
68.51626481645485
 20
90.7578052238806
 30
0.0
  0
LINE
  5
19C
330
1B
100
AcDbEntity
 67
     1
  8
0
  6
Continuous
 62
     7
 48
0.5
370
    25
100
AcDbLine
 10
68.5162648165
 20
90.7578052239
 30
0.0
 11
78.2092109248
 21
90.7578052239
 31
0.0
  0
SPLINE
  5
19D
330
1B
100
AcDbEntity
 67
     1
  8
0
  6
Continuous
 62
     7
 48
0.5
370
    25
100
AcDbSpline
210
0.0
220
0.0
230
1.0
 70
     8
 71
     3
 72
    11
 73
     7
 74
     0
 42
0.000000001
 43
0.00000001
 40
0.0
 40
0.0
 40
0.0
 40
0.0
 40
0.248826166310405
 40
0.4980307642143795
 40
0.7486902142220282
 40
1.0
 40
1.0
 40
1.0
 40
1.0
 10
78.20921092475035
 20
90.7578052238806
 30
0.0
 10
78.28740007109036
 20
90.51439358294579
 30
0.0
 10
78.44389727909065
 20
90.02720010425749
 30
0.0
 10
78.63658390869341
 20
89.28539661432849
 30
0.0
 10
78.79582346292156
 20
88.53487610610378
 30
0.0
 10
78.86273327198717
 20
88.02842818622287
 30
0.0
 10
78.8962315196565
 20
87.77487615717516
 30
0.0
  0
SPLINE
  5
19E
330
1B
100
AcDbEntity
 67
     1
  8
0
  6
Continuous
 62
     7
 48
0.5
370
    25
100
AcDbSpline
210
0.0
220
0.0
230
1.0
 70
    24
 71
     3
 72
    12
 73
     8
 74
     0
 42
0.000000001
 43
0.00000001
 40
0.0
 40
0.0
 40
0.0
 40
0.0
 40
0.2421066248552679
 40
0.4302495651884543
 40
0.6190101271282956
 40
0.8093124322495835
 40
0.9999999999999999
 40
0.9999999999999999
 40
0.9999999999999999
 40
0.9999999999999999
 10
67.7604062564515
 20
73.75780522388062
 30
0.0
 10
67.76839271179101
 20
73.75780522388062
 30
0.0
 10
67.78258550366225
 20
73.75780522388061
 30
0.0
 10
67.90198263260982
 20
73.75780522388065
 30
0.0
 10
68.05900296150308
 20
73.75780522388064
 30
0.0
 10
68.26277396399598
 20
73.75780522388065
 30
0.0
 10
68.43171092178
 20
73.75780522388064
 30
0.0
 10
68.51626481645485
 20
73.75780522388062
 30
0.0
  0
SPLINE
  5
19F
330
1B
100
AcDbEntity
 67
     1
  8
0
  6
Continuous
 62
     7
 48
0.5
370
    25
100
AcDbSpline
210
0.0
220
0.0
230
1.0
 70
    24
 71
     3
 72
    12
 73
     8
 74
     0
 42
0.000000001
 43
0.00000001
 40
0.0
 40
0.0
 40
0.0
 40
0.0
 40
0.188416990149556
 40
0.37716985636693
 40
0.5672332772242097
 40
0.7578904850153201
 40
1.0
 40
1.0
 40
1.0
 40
1.0
 10
68.51626481645485
 20
90.7578052238806
 30
0.0
 10
68.43267861920218
 20
90.7578052238806
 30
0.0
 10
68.26535722219319
 20
90.7578052238806
 30
0.0
 10
68.06181190596381
 20
90.75780522388061
 30
0.0
 10
67.90321761131793
 20
90.7578052238806
 30
0.0
 10
67.78304087236222
 20
90.75780522388062
 30
0.0
 10
67.76744789039593
 20
90.75780522388061
 30
0.0
 10
67.75872446250202
 20
90.75780522388061
 30
0.0
  0
SPLINE
  5
1A0
330
1B
100
AcDbEntity
 67
     1
  8
0
  6
Continuous
 62
     7
 48
0.5
370
    25
100
AcDbSpline
210
0.0
220
0.0
230
1.0
 70
     8
 71
     3
 72
    16
 73
    12
 74
     0
 42
0.000000001
 43
0.00000001
 40
0.0
 40
0.0
 40
0.0
 40
0.0
 40
0.1322988555735046
 40
0.2645603055581391
 40
0.3546976504550921
 40
0.4449040512481038
 40
0.5350245245138325
 40
0.6502098333825423
 40
0.7654131100753959
 40
0.8826952156318009
 40
1.0
 40
1.0
 40
1.0
 40
1.0
 10
68.51626481645485
 20
73.75780522388062
 30
0.0
 10
68.40068021759363
 20
74.12503061188502
 30
0.0
 10
68.16954369974556
 20
74.85937756022406
 30
0.0
 10
67.94911854816239
 20
75.86282038765997
 30
0.0
 10
67.8193150172479
 20
76.75525147913434
 30
0.0
 10
67.75882572265337
 20
77.53188652625619
 30
0.0
 10
67.75122848230092
 20
78.38232495564161
 30
0.0
 10
67.81863510124205
 20
79.30332851527157
 30
0.0
 10
67.97602805121457
 20
80.29466858069078
 30
0.0
 10
68.20693483533445
 20
81.28155387236582
 30
0.0
 10
68.41314817748672
 20
81.93236713413675
 30
0.0
 10
68.51626481645485
 20
82.25780522388055
 30
0.0
  0
LINE
  5
1A1
330
1B
100
AcDbEntity
 67
     1
  8
0
  6
Continuous
 62
     7
 48
0.5
370
    25
100
AcDbLine
 10
67.6127378706
 20
74.0078052239
 30
0.0
 11
67.6127378706
 21
90.5078052239
 31
0.0
  0
LINE
  5
1A2
330
1B
100
AcDbEntity
 67
     1
  8
0
  6
Continuous
 62
     7
 48
0.5
370
    25
100
AcDbLine
 10
78.8962315197
 20
79.2748761572
 30
0.0
 11
78.8962315197
 21
85.2407342906
 31
0.0
  0
SPLINE
  5
1A3
330
1B
100
AcDbEntity
 67
     1
  8
0
  6
Continuous
 62
     7
 48
0.5
370
    25
100
AcDbSpline
210
0.0
220
0.0
230
1.0
 70
     8
 71
     3
 72
    11
 73
     7
 74
     0
 42
0.000000001
 43
0.00000001
 40
0.0
 40
0.0
 40
0.0
 40
0.0
 40
0.248826166310405
 40
0.4980307642143798
 40
0.7486902142220279
 40
0.9999999999999999
 40
0.9999999999999999
 40
0.9999999999999999
 40
0.9999999999999999
 10
78.20921092475035
 20
82.25780522388055
 30
0.0
 10
78.28740007109037
 20
82.01439358294574
 30
0.0
 10
78.44389727909065
 20
81.52720010425742
 30
0.0
 10
78.63658390869341
 20
80.78539661432838
 30
0.0
 10
78.79582346292156
 20
80.03487610610364
 30
0.0
 10
78.86273327198717
 20
79.52842818622271
 30
0.0
 10
78.8962315196565
 20
79.274876157175
 30
0.0
  0
SPLINE
  5
1A4
330
1B
100
AcDbEntity
 67
     1
  8
0
  6
Continuous
 62
     7
 48
0.5
370
    25
100
AcDbSpline
210
0.0
220
0.0
230
1.0
 70
     8
 71
     3
 72
    10
 73
     6
 74
     0
 42
0.000000001
 43
0.00000001
 40
0.0
 40
0.0
 40
0.0
 40
0.0
 40
0.3089808900030073
 40
0.6190948628358688
 40
0.9999999999999999
 40
0.9999999999999999
 40
0.9999999999999999
 40
0.9999999999999999
 10
78.8962315196565
 20
79.274876157175
 30
0.0
 10
78.9203785261932
 20
79.01429264245867
 30
0.0
 10
78.96876109023975
 20
78.49217001118842
 30
0.0
 10
78.97621618295642
 20
77.64517770046798
 30
0.0
 10
78.92465383515685
 20
77.06212560346171
 30
0.0
 10
78.8962315196565
 20
76.74073429058619
 30
0.0
  0
SPLINE
  5
1A5
330
1B
100
AcDbEntity
 67
     1
  8
0
  6
Continuous
 62
     7
 48
0.5
370
    25
100
AcDbSpline
210
0.0
220
0.0
230
1.0
 70
     8
 71
     3
 72
    11
 73
     7
 74
     0
 42
0.000000001
 43
0.00000001
 40
0.0
 40
0.0
 40
0.0
 40
0.0
 40
0.2485331657816016
 40
0.4977458539813222
 40
0.7486584446317361
 40
1.0
 40
1.0
 40
1.0
 40
1.0
 10
78.8962315196565
 20
76.74073429058619
 30
0.0
 10
78.8631541497678
 20
76.48997982073425
 30
0.0
 10
78.79690897210337
 20
75.98778528527427
 30
0.0
 10
78.63883089510435
 20
75.23968454323312
 30
0.0
 10
78.4459332062123
 20
74.4950244320639
 30
0.0
 10
78.28816326790128
 20
74.00368484088364
 30
0.0
 10
78.20921092475035
 20
73.75780522388062
 30
0.0
  0
LINE
  5
1A6
330
1B
100
AcDbEntity
 67
     1
  8
0
  6
Continuous
 62
     7
 48
0.5
370
    25
100
AcDbLine
 10
68.5162648165
 20
73.7578052239
 30
0.0
 11
78.2092109248
 21
73.7578052239
 31
0.0
  0
ARC
  5
1A7
330
1B
100
AcDbEntity
 67
     1
  8
0
  6
Continuous
 62
     7
 48
0.25
370
    25
100
AcDbCircle
 10
79.4834547082
 20
86.4903438129
 30
0.0
 40
1.380708162956612
100
AcDbArc
 50
244.8299789717
 51
272.5859934179
  0
LINE
  5
1A8
330
1B
100
AcDbEntity
 67
     1
  8
0
  6
Continuous
 62
     7
 48
0.5
370
    25
100
AcDbLine
 10
79.5457505725
 20
85.1110417225
 30
0.0
 11
79.5457505725
 21
79.4045687253
 31
0.0
  0
ARC
  5
1A9
330
1B
100
AcDbEntity
 67
     1
  8
0
  6
Continuous
 62
     7
 48
0.25
370
    25
100
AcDbCircle
 10
79.4834547082
 20
78.0252666349
 30
0.0
 40
1.380708162956599
100
AcDbArc
 50
87.4140065821
 51
115.1700210283
  0
LINE
  5
1AA
330
1B
100
AcDbEntity
 67
     1
  8
0
  6
Continuous
 62
     7
 48
0.5
370
    25
100
AcDbLine
 10
79.5457505725
 20
76.9806069399
 30
0.0
 11
79.5457505725
 21
74.1273704413
 31
0.0
  0
SPLINE
  5
1AB
330
1B
100
AcDbEntity
 67
     1
  8
0
  6
Continuous
 62
     7
 48
0.5
370
    25
100
AcDbSpline
210
0.0
220
0.0
230
1.0
 70
     8
 71
     3
 72
    11
 73
     7
 74
     0
 42
0.000000001
 43
0.00000001
 40
0.0
 40
0.0
 40
0.0
 40
0.0
 40
0.2858113857233213
 40
0.5527245545214228
 40
0.8220275582231135
 40
1.0
 40
1.0
 40
1.0
 40
1.0
 10
79.54575057249482
 20
79.40456872529263
 30
0.0
 10
79.54181027107231
 20
79.15569919858197
 30
0.0
 10
79.5341902060321
 20
78.67441571878989
 30
0.0
 10
79.52272911638117
 20
77.99784109106079
 30
0.0
 10
79.54016650562282
 20
77.4378125050445
 30
0.0
 10
79.54416110688203
 20
77.11074730896541
 30
0.0
 10
79.54575057249482
 20
76.98060693985987
 30
0.0
  0
SPLINE
  5
1AC
330
1B
100
AcDbEntity
 67
     1
  8
0
  6
Continuous
 62
     7
 48
0.5
370
    25
100
AcDbSpline
210
0.0
220
0.0
230
1.0
 70
     8
 71
     3
 72
    11
 73
     7
 74
     0
 42
0.000000001
 43
0.00000001
 40
0.0
 40
0.0
 40
0.0
 40
0.0
 40
0.2858113857233872
 40
0.5527245545213874
 40
0.8220275582229751
 40
1.0
 40
1.0
 40
1.0
 40
1.0
 10
79.54575057249482
 20
87.53500350790148
 30
0.0
 10
79.5418102710723
 20
87.32425191237353
 30
0.0
 10
79.5341902060321
 20
86.91668388824452
 30
0.0
 10
79.52272911638116
 20
86.25646302671537
 30
0.0
 10
79.54016650562279
 20
85.65737926260884
 30
0.0
 10
79.54416110688203
 20
85.26655288537695
 30
0.0
 10
79.54575057249482
 20
85.11104172246837
 30
0.0
  0
LINE
  5
1AD
330
1B
100
AcDbEntity
 67
     1
  8
0
  6
Continuous
 62
     7
 48
0.5
370
    25
100
AcDbLine
 10
79.5457505725
 20
90.3882400065
 30
0.0
 11
79.5457505725
 21
87.5350035079
 31
0.0
  0
LINE
  5
1AE
330
1B
100
AcDbEntity
 67
     1
  8
0
  6
Continuous
 62
     7
 48
0.5
370
    25
100
AcDbLine
 10
80.4127378706
 20
74.0078052239
 30
0.0
 11
80.4127378706
 21
90.5078052239
 31
0.0
  0
LINE
  5
1AF
330
1B
100
AcDbEntity
 67
     1
  8
0
  6
Continuous
 62
     7
 48
0.5
370
    25
100
AcDbLine
 10
80.6127378706
 20
90.3078052239
 30
0.0
 11
80.6127378706
 21
74.2078052239
 31
0.0
  0
ARC
  5
1B0
330
1B
100
AcDbEntity
 67
     1
  8
0
  6
Continuous
 62
     7
 48
0.25
370
    25
100
AcDbCircle
 10
79.503943473
 20
88.4211088514
 30
0.0
 40
0.8870910400315055
100
AcDbArc
 50
226.7595529446
 51
272.7012537053
  0
ARC
  5
1B1
330
1B
100
AcDbEntity
 67
     1
  8
0
  6
Continuous
 62
     7
 48
0.25
370
    25
100
AcDbCircle
 10
79.503943473
 20
76.0945015964
 30
0.0
 40
0.8870910400316253
100
AcDbArc
 50
87.2987462948
 51
133.2404470554
  0
LINE
  5
1B2
330
1B
100
AcDbEntity
 67
     1
  8
0
  6
Continuous
 62
     7
 48
0.5
370
    25
100
AcDbLine
 10
78.8962315197
 20
73.7578052239
 30
0.0
 11
78.8962315197
 21
76.7407342906
 31
0.0
  0
ARC
  5
1B3
330
1B
100
AcDbEntity
 67
     1
  8
0
  6
Continuous
 62
     7
 48
0.25
370
    25
100
AcDbCircle
 10
79.5437144377
 20
73.3753943257
 30
0.0
 40
0.7519788721912924
100
AcDbArc
 50
89.8448599075
 51
149.433409991
  0
SPLINE
  5
1B4
330
1B
100
AcDbEntity
 67
     1
  8
0
  6
Continuous
 62
     7
 48
0.5
370
    25
100
AcDbSpline
210
0.0
220
0.0
230
1.0
 70
    24
 71
     3
 72
    11
 73
     7
 74
     0
 42
0.000000001
 43
0.00000001
 40
0.0
 40
0.0
 40
0.0
 40
0.0
 40
0.2488261663104052
 40
0.4980307642143799
 40
0.7486902142220282
 40
1.0
 40
1.0
 40
1.0
 40
1.0
 10
78.20921092475035
 20
73.75780522388062
 30
0.0
 10
78.28740007109037
 20
73.75780522388064
 30
0.0
 10
78.44389727909065
 20
73.75780522388067
 30
0.0
 10
78.63658390869341
 20
73.75780522388064
 30
0.0
 10
78.79582346292158
 20
73.75780522388065
 30
0.0
 10
78.86273327198718
 20
73.75780522388064
 30
0.0
 10
78.8962315196565
 20
73.75780522388062
 30
0.0
  0
LINE
  5
1B5
330
1B
100
AcDbEntity
 67
     1
  8
0
  6
Continuous
 62
     7
 48
0.5
370
    25
100
AcDbLine
 10
78.8962315197
 20
87.7748761572
 30
0.0
 11
78.8962315197
 21
90.7578052239
 31
0.0
  0
ARC
  5
1B6
330
1B
100
AcDbEntity
 67
     1
  8
0
  6
Continuous
 62
     7
 48
0.25
370
    25
100
AcDbCircle
 10
79.5437144377
 20
91.1402161221
 30
0.0
 40
0.7519788721912976
100
AcDbArc
 50
210.566590009
 51
270.1551400925
  0
SPLINE
  5
1B7
330
1B
100
AcDbEntity
 67
     1
  8
0
  6
Continuous
 62
     7
 48
0.5
370
    25
100
AcDbSpline
210
0.0
220
0.0
230
1.0
 70
    24
 71
     3
 72
    11
 73
     7
 74
     0
 42
0.000000001
 43
0.00000001
 40
0.0
 40
0.0
 40
0.0
 40
0.0
 40
0.248533165781602
 40
0.4977458539813224
 40
0.7486584446317364
 40
1.0
 40
1.0
 40
1.0
 40
1.0
 10
78.8962315196565
 20
90.75780522388061
 30
0.0
 10
78.8631541497678
 20
90.75780522388061
 30
0.0
 10
78.79690897210338
 20
90.7578052238806
 30
0.0
 10
78.63883089510435
 20
90.75780522388061
 30
0.0
 10
78.44593320621232
 20
90.7578052238806
 30
0.0
 10
78.28816326790128
 20
90.7578052238806
 30
0.0
 10
78.20921092475035
 20
90.7578052238806
 30
0.0
  0
SPLINE
  5
1B8
330
1B
100
AcDbEntity
 67
     1
  8
0
  6
Continuous
 62
     7
 48
0.5
370
    25
100
AcDbSpline
210
0.0
220
0.0
230
1.0
 70
    24
 71
     3
 72
    10
 73
     6
 74
     0
 42
0.000000001
 43
0.00000001
 40
0.0
 40
0.0
 40
0.0
 40
0.0
 40
0.333792784164893
 40
0.8305848987473792
 40
0.9999999999999999
 40
0.9999999999999999
 40
0.9999999999999999
 40
0.9999999999999999
 10
78.96464267344227
 20
90.75780522388061
 30
0.0
 10
78.96358570943569
 20
90.75780522388061
 30
0.0
 10
78.96095563957188
 20
90.75780522388061
 30
0.0
 10
78.93135968299862
 20
90.75780522388062
 30
0.0
 10
78.90335344690489
 20
90.75780522388062
 30
0.0
 10
78.8962315196565
 20
90.75780522388061
 30
0.0
  0
SPLINE
  5
1B9
330
1B
100
AcDbEntity
 67
     1
  8
0
  6
Continuous
 62
     7
 48
0.5
370
    25
100
AcDbSpline
210
0.0
220
0.0
230
1.0
 70
    24
 71
     3
 72
    10
 73
     6
 74
     0
 42
0.000000001
 43
0.00000001
 40
0.0
 40
0.0
 40
0.0
 40
0.0
 40
0.1479092261024286
 40
0.577208985868865
 40
1.0
 40
1.0
 40
1.0
 40
1.0
 10
78.8962315196565
 20
73.75780522388062
 30
0.0
 10
78.90337319338865
 20
73.75780522388062
 30
0.0
 10
78.93124324829307
 20
73.75780522388062
 30
0.0
 10
78.96382146667233
 20
73.75780522388064
 30
0.0
 10
78.96648829353141
 20
73.75780522388062
 30
0.0
 10
78.96781152160382
 20
73.75780522388062
 30
0.0
  0
LINE
  5
1BA
330
1B
100
AcDbEntity
 67
     1
  8
0
  6
Continuous
 62
     7
 48
0.5
370
    25
100
AcDbLine
 10
56.3644039204
 20
89.2578052239
 30
0.0
 11
56.3644039204
 21
82.2578052239
 31
0.0
  0
LINE
  5
1BB
330
1B
100
AcDbEntity
 67
     1
  8
0
  6
Continuous
 62
     7
 48
0.5
370
    25
100
AcDbLine
 10
60.5948515708
 20
89.2578052239
 30
0.0
 11
56.3644039204
 21
89.2578052239
 31
0.0
  0
SPLINE
  5
1BC
330
1B
100
AcDbEntity
 67
     1
  8
0
  6
Continuous
 62
     7
 48
0.5
370
    25
100
AcDbSpline
210
0.0
220
0.0
230
1.0
 70
     8
 71
     3
 72
    12
 73
     8
 74
     0
 42
0.000000001
 43
0.00000001
 40
0.0
 40
0.0
 40
0.0
 40
0.0
 40
0.25
 40
0.25
 40
0.5
 40
0.5
 40
1.0
 40
1.0
 40
1.0
 40
1.0
 10
61.22006635314474
 20
85.75780522388061
 30
0.0
 10
61.22006635314474
 20
86.05483902805106
 30
0.0
 10
61.20528859468424
 20
86.35320487825514
 30
0.0
 10
61.14810039368899
 20
86.94343480098493
 30
0.0
 10
61.10574492396616
 20
87.23657568061348
 30
0.0
 10
60.94238434909354
 20
88.11079188629614
 30
0.0
 10
60.78522629960307
 20
88.68668103748854
 30
0.0
 10
60.59485157080571
 20
89.25780522388065
 30
0.0
  0
SPLINE
  5
1BD
330
1B
100
AcDbEntity
 67
     1
  8
0
  6
Continuous
 62
     7
 48
0.5
370
    25
100
AcDbSpline
210
0.0
220
0.0
230
1.0
 70
     8
 71
     3
 72
    10
 73
     6
 74
     0
 42
0.000000001
 43
0.00000001
 40
0.0
 40
0.0
 40
0.0
 40
0.0
 40
0.5
 40
0.5
 40
1.0
 40
1.0
 40
1.0
 40
1.0
 10
60.59485157080595
 20
82.25780522388055
 30
0.0
 10
60.78570278446225
 20
82.83035886484943
 30
0.0
 10
60.94293590561887
 20
83.4070948246089
 30
0.0
 10
61.16047994274714
 20
84.57262452402641
 30
0.0
 10
61.22006635314474
 20
85.1615083970933
 30
0.0
 10
61.22006635314474
 20
85.75780522388061
 30
0.0
  0
LINE
  5
1BE
330
1B
100
AcDbEntity
 67
     1
  8
0
  6
Continuous
 62
     7
 48
0.5
370
    25
100
AcDbLine
 10
60.5948515708
 20
82.2578052239
 30
0.0
 11
56.3644039204
 21
82.2578052239
 31
0.0
  0
LINE
  5
1BF
330
1B
100
AcDbEntity
 67
     1
  8
0
  6
Continuous
 62
     7
 48
0.5
370
    25
100
AcDbLine
 10
61.2200663531
 20
78.7578052239
 30
0.0
 11
61.2200663531
 21
85.7578052239
 31
0.0
  0
SPLINE
  5
1C0
330
1B
100
AcDbEntity
 67
     1
  8
0
  6
Continuous
 62
     7
 48
0.5
370
    25
100
AcDbSpline
210
0.0
220
0.0
230
1.0
 70
     8
 71
     3
 72
    12
 73
     8
 74
     0
 42
0.000000001
 43
0.00000001
 40
0.0
 40
0.0
 40
0.0
 40
0.0
 40
0.2499999999999999
 40
0.2499999999999999
 40
0.4999999999999999
 40
0.4999999999999999
 40
1.0
 40
1.0
 40
1.0
 40
1.0
 10
61.22006635314474
 20
78.75780522388061
 30
0.0
 10
61.22006635314474
 20
79.05483902805106
 30
0.0
 10
61.20528859468424
 20
79.35320487825513
 30
0.0
 10
61.14810039368899
 20
79.94343480098495
 30
0.0
 10
61.10574492396616
 20
80.23657568061348
 30
0.0
 10
60.94238434909354
 20
81.11079188629614
 30
0.0
 10
60.78522629960307
 20
81.68668103748855
 30
0.0
 10
60.59485157080571
 20
82.25780522388065
 30
0.0
  0
SPLINE
  5
1C1
330
1B
100
AcDbEntity
 67
     1
  8
0
  6
Continuous
 62
     7
 48
0.5
370
    25
100
AcDbSpline
210
0.0
220
0.0
230
1.0
 70
     8
 71
     3
 72
    10
 73
     6
 74
     0
 42
0.000000001
 43
0.00000001
 40
0.0
 40
0.0
 40
0.0
 40
0.0
 40
0.5
 40
0.5
 40
1.0
 40
1.0
 40
1.0
 40
1.0
 10
60.59485157080595
 20
75.25780522388055
 30
0.0
 10
60.78570278446225
 20
75.83035886484944
 30
0.0
 10
60.94293590561887
 20
76.4070948246089
 30
0.0
 10
61.16047994274714
 20
77.57262452402641
 30
0.0
 10
61.22006635314474
 20
78.1615083970933
 30
0.0
 10
61.22006635314474
 20
78.75780522388061
 30
0.0
  0
LINE
  5
1C2
330
1B
100
AcDbEntity
 67
     1
  8
0
  6
Continuous
 62
     7
 48
0.5
370
    25
100
AcDbLine
 10
60.5948515708
 20
75.2578052239
 30
0.0
 11
56.3644039204
 21
75.2578052239
 31
0.0
  0
LINE
  5
1C3
330
1B
100
AcDbEntity
 67
     1
  8
0
  6
Continuous
 62
     7
 48
0.5
370
    25
100
AcDbLine
 10
56.3644039204
 20
82.2578052239
 30
0.0
 11
56.3644039204
 21
75.2578052239
 31
0.0
  0
LINE
  5
1C4
330
1B
100
AcDbEntity
 67
     1
  8
0
  6
Continuous
 62
     7
 48
0.5
370
    25
100
AcDbLine
 10
61.2200663531
 20
75.2578052239
 30
0.0
 11
61.2200663531
 21
78.7578052239
 31
0.0
  0
LINE
  5
1C5
330
1B
100
AcDbEntity
 67
     1
  8
0
  6
Continuous
 62
     7
 48
0.5
370
    25
100
AcDbLine
 10
61.2200663531
 20
85.7578052239
 30
0.0
 11
61.2200663531
 21
89.2578052239
 31
0.0
  0
LINE
  5
1C6
330
1B
100
AcDbEntity
 67
     1
  8
0
  6
Continuous
 62
     7
 48
0.5
370
    25
100
AcDbLine
 10
62.1644039204
 20
75.5078052239
 30
0.0
 11
62.1644039204
 21
89.0078052239
 31
0.0
  0
LINE
  5
1C7
330
1B
100
AcDbEntity
 67
     1
  8
0
  6
Continuous
 62
     7
 48
0.5
370
    25
100
AcDbLine
 10
62.3644039204
 20
88.8078052239
 30
0.0
 11
62.3644039204
 21
75.7078052239
 31
0.0
  0
LINE
  5
1C8
330
1B
100
AcDbEntity
 67
     1
  8
0
  6
Continuous
 62
     7
 48
0.5
370
    25
100
AcDbLine
 10
64.3644039204
 20
76.6793052239
 30
0.0
 11
64.3644039204
 21
87.8363052239
 31
0.0
  0
LINE
  5
1C9
330
1B
100
AcDbEntity
 67
     1
  8
0
  6
Continuous
 62
     7
 48
0.5
370
    25
100
AcDbLine
 10
65.3644039204
 20
88.8363052239
 30
0.0
 11
65.3644039204
 21
75.6793052239
 31
0.0
  0
SPLINE
  5
1CA
330
1B
100
AcDbEntity
 67
     1
  8
0
  6
Continuous
 62
     7
 48
0.5
370
    25
100
AcDbSpline
210
0.0
220
0.0
230
1.0
 70
    24
 71
     3
 72
    10
 73
     6
 74
     0
 42
0.000000001
 43
0.00000001
 40
0.0
 40
0.0
 40
0.0
 40
0.0
 40
0.5
 40
0.5
 40
1.0
 40
1.0
 40
1.0
 40
1.0
 10
61.22006635314474
 20
89.25780522388062
 30
0.0
 10
61.22006635314474
 20
89.25780522388062
 30
0.0
 10
61.15963020953885
 20
89.25780522388062
 30
0.0
 10
60.94058318873324
 20
89.25780522388062
 30
0.0
 10
60.78352737717964
 20
89.25780522388062
 30
0.0
 10
60.59485157080545
 20
89.25780522388062
 30
0.0
  0
SPLINE
  5
1CB
330
1B
100
AcDbEntity
 67
     1
  8
0
  6
Continuous
 62
     7
 48
0.5
370
    25
100
AcDbSpline
210
0.0
220
0.0
230
1.0
 70
    24
 71
     3
 72
    10
 73
     6
 74
     0
 42
0.000000001
 43
0.00000001
 40
0.0
 40
0.0
 40
0.0
 40
0.0
 40
0.5
 40
0.5
 40
1.0
 40
1.0
 40
1.0
 40
1.0
 10
61.22006635314474
 20
75.25780522388062
 30
0.0
 10
61.22006635314474
 20
75.25780522388062
 30
0.0
 10
61.1596302095386
 20
75.25780522388062
 30
0.0
 10
60.94058318873319
 20
75.25780522388062
 30
0.0
 10
60.78352737717969
 20
75.25780522388062
 30
0.0
 10
60.59485157080545
 20
75.25780522388062
 30
0.0
  0
LINE
  5
1CC
330
1B
100
AcDbEntity
 67
     1
  8
0
  6
Continuous
 62
     7
 48
0.5
370
    25
100
AcDbLine
 10
48.7193519799
 20
77.475525597
 30
0.0
 11
48.7193519799
 21
87.0400848507
 31
0.0
  0
LINE
  5
1CD
330
1B
100
AcDbEntity
 67
     1
  8
0
  6
Continuous
 62
     7
 48
0.5
370
    25
100
AcDbLine
 10
47.3644039204
 20
78.2578052239
 30
0.0
 11
47.3644039204
 21
86.2578052239
 31
0.0
  0
SPLINE
  5
1CE
330
1B
100
AcDbEntity
 67
     1
  8
0
  6
Continuous
 62
     1
 48
0.5
370
    25
100
AcDbSpline
210
0.0
220
0.0
230
1.0
 70
     8
 71
     3
 72
     9
 73
     5
 74
     0
 42
0.000000001
 43
0.00000001
 40
0.0
 40
0.0
 40
0.0
 40
0.0
 40
0.57163505759392
 40
1.0
 40
1.0
 40
1.0
 40
1.0
 10
79.54575057249482
 20
74.12737044127194
 30
0.0
 10
79.54129116440944
 20
74.08765203552949
 30
0.0
 10
79.53349001921
 20
74.01816993289286
 30
0.0
 10
79.53038412237659
 20
74.0147037557164
 30
0.0
 10
79.52905366505844
 20
74.01321896692981
 30
0.0
  0
SPLINE
  5
1CF
330
1B
100
AcDbEntity
 67
     1
  8
0
  6
Continuous
 62
     1
 48
0.5
370
    25
100
AcDbSpline
210
0.0
220
0.0
230
1.0
 70
     8
 71
     3
 72
    10
 73
     6
 74
     0
 42
0.000000001
 43
0.00000001
 40
0.0
 40
0.0
 40
0.0
 40
0.0
 40
0.1054683351678105
 40
0.6440627664276205
 40
1.0
 40
1.0
 40
1.0
 40
1.0
 10
79.52905366505757
 20
90.5023914808345
 30
0.0
 10
79.52853872278135
 20
90.50406853987172
 30
0.0
 10
79.52539412827862
 20
90.51430982491013
 30
0.0
 10
79.54077276892698
 20
90.47510349372645
 30
0.0
 10
79.54433367549446
 20
90.41296509112364
 30
0.0
 10
79.54575057249482
 20
90.3882400064893
 30
0.0
  0
LINE
  5
1D0
330
1B
100
AcDbEntity
 67
     1
  8
0
  6
Continuous
 62
     1
 48
0.5
370
    25
100
AcDbLine
 10
61.653079055
 20
89.0078052239
 30
0.0
 11
61.653079055
 21
75.5078052239
 31
0.0
  0
LINE
  5
1D1
330
1B
100
AcDbEntity
 67
     1
  8
0
  6
Continuous
 62
     7
 48
0.5
370
     0
100
AcDbLine
 10
72.2429039204
 20
76.5578052239
 30
0.0
 11
64.4859039204
 21
76.5578052239
 31
0.0
  0
LINE
  5
1D2
330
1B
100
AcDbEntity
 67
     1
  8
0
  6
Continuous
 62
     7
 48
0.5
370
     0
100
AcDbLine
 10
72.2429039204
 20
87.9578052239
 30
0.0
 11
64.4859039204
 21
87.9578052239
 31
0.0
  0
LINE
  5
1D3
330
1B
100
AcDbEntity
 67
     1
  8
0
  6
Continuous
 62
     7
 48
0.5
370
     0
100
AcDbLine
 10
47.822195308
 20
86.5221112047
 30
0.0
 11
55.8644039204
 21
86.7734302239
 31
0.0
  0
LINE
  5
1D4
330
1B
100
AcDbEntity
 67
     1
  8
0
  6
Continuous
 62
     7
 48
0.5
370
     0
100
AcDbLine
 10
47.822195308
 20
77.993499243
 30
0.0
 11
55.8644039204
 21
77.7421802239
 31
0.0
  0
LINE
  5
1D5
330
1B
100
AcDbEntity
 67
     1
  8
0
  6
Continuous
 62
     7
 48
0.5
370
     0
100
AcDbLine
 10
55.8644039204
 20
77.2522427239
 30
0.0
 11
55.8644039204
 21
87.2633677239
 31
0.0
  0
CIRCLE
  5
1D6
330
1B
100
AcDbEntity
 67
     1
  8
0
  6
Continuous
 62
     7
 48
0.25
370
    25
100
AcDbCircle
 10
103.4306007463
 20
51.1972067164
 30
0.0
 40
8.049999999999997
  0
CIRCLE
  5
1D7
330
1B
100
AcDbEntity
 67
     1
  8
0
  6
Continuous
 62
     7
 48
0.25
370
    25
100
AcDbCircle
 10
103.4306007463
 20
51.1972067164
 30
0.0
 40
4.174999999999997
  0
CIRCLE
  5
1D8
330
1B
100
AcDbEntity
 67
     1
  8
0
  6
Continuous
 62
     7
 48
0.25
370
    25
100
AcDbCircle
 10
103.4306007463
 20
51.1972067164
 30
0.0
 40
4.074999999999989
  0
CIRCLE
  5
1D9
330
1B
100
AcDbEntity
 67
     1
  8
0
  6
Continuous
 62
     7
 48
0.25
370
    25
100
AcDbCircle
 10
103.4306007463
 20
51.1972067164
 30
0.0
 40
8.249999999999986
  0
SPLINE
  5
1DA
330
1B
100
AcDbEntity
 67
     1
  8
0
  6
Continuous
 62
     7
 48
0.5
370
    25
100
AcDbSpline
210
0.0
220
0.0
230
1.0
 70
    24
 71
     3
 72
    10
 73
     6
 74
     0
 42
0.000000001
 43
0.00000001
 40
0.0
 40
0.0
 40
0.0
 40
0.0
 40
0.3089808900030074
 40
0.619094862835869
 40
0.9999999999999999
 40
0.9999999999999999
 40
0.9999999999999999
 40
0.9999999999999999
 10
100.447671679563
 20
59.28996639300556
 30
0.0
 10
100.1870881648467
 20
59.13951843063771
 30
0.0
 10
99.66496553357646
 20
58.83807078892385
 30
0.0
 10
98.81797322285603
 20
58.34905955032784
 30
0.0
 10
98.23492112584975
 20
58.01243426516969
 30
0.0
 10
97.91352981297423
 20
57.8268789041658
 30
0.0
  0
LINE
  5
1DB
330
1B
100
AcDbEntity
 67
     1
  8
0
  6
Continuous
 62
     7
 48
0.5
370
    25
100
AcDbLine
 10
100.4476716796
 20
59.289966393
 30
0.0
 11
100.5773642477
 21
58.9381072766
 31
0.0
  0
LINE
  5
1DC
330
1B
100
AcDbEntity
 67
     1
  8
0
  6
Continuous
 62
     7
 48
0.5
370
    25
100
AcDbLine
 10
97.913529813
 20
57.8268789042
 30
0.0
 11
98.1534024622
 21
57.5386322873
 31
0.0
  0
SPLINE
  5
1DD
330
1B
100
AcDbEntity
 67
     1
  8
0
  6
Continuous
 62
     7
 48
0.5
370
    25
100
AcDbSpline
210
0.0
220
0.0
230
1.0
 70
    24
 71
     3
 72
    10
 73
     6
 74
     0
 42
0.000000001
 43
0.00000001
 40
0.0
 40
0.0
 40
0.0
 40
0.0
 40
0.3089808900029891
 40
0.6190948628358318
 40
1.0
 40
1.0
 40
1.0
 40
1.0
 10
108.9476716795632
 20
57.8268789041657
 30
0.0
 10
108.6870881648469
 20
57.97732686653356
 30
0.0
 10
108.1649655335766
 20
58.27877450824746
 30
0.0
 10
107.317973222856
 20
58.7677857468435
 30
0.0
 10
106.7349211258497
 20
59.1044110320017
 30
0.0
 10
106.413529812974
 20
59.28996639300563
 30
0.0
  0
LINE
  5
1DE
330
1B
100
AcDbEntity
 67
     1
  8
0
  6
Continuous
 62
     7
 48
0.5
370
    25
100
AcDbLine
 10
108.9476716796
 20
57.8268789042
 30
0.0
 11
108.7077990303
 21
57.5386322873
 31
0.0
  0
LINE
  5
1DF
330
1B
100
AcDbEntity
 67
     1
  8
0
  6
Continuous
 62
     7
 48
0.5
370
    25
100
AcDbLine
 10
106.413529813
 20
59.289966393
 30
0.0
 11
106.2838372449
 21
58.9381072766
 31
0.0
  0
LINE
  5
1E0
330
1B
100
AcDbEntity
 67
     1
  8
0
  6
Continuous
 62
     7
 48
0.5
370
    25
100
AcDbLine
 10
100.5773642477
 20
43.4563061562
 30
0.0
 11
100.4476716796
 21
43.1044470398
 31
0.0
  0
SPLINE
  5
1E1
330
1B
100
AcDbEntity
 67
     1
  8
0
  6
Continuous
 62
     7
 48
0.5
370
    25
100
AcDbSpline
210
0.0
220
0.0
230
1.0
 70
    24
 71
     3
 72
    10
 73
     6
 74
     0
 42
0.000000001
 43
0.00000001
 40
0.0
 40
0.0
 40
0.0
 40
0.0
 40
0.3089808900029887
 40
0.619094862835831
 40
0.9999999999999999
 40
0.9999999999999999
 40
0.9999999999999999
 40
0.9999999999999999
 10
97.91352981297405
 20
44.56753452867018
 30
0.0
 10
98.17411332769039
 20
44.41708656630232
 30
0.0
 10
98.69623595896068
 20
44.11563892458842
 30
0.0
 10
99.54322826968125
 20
43.62662768599237
 30
0.0
 10
100.1262803666876
 20
43.29000240083416
 30
0.0
 10
100.4476716795632
 20
43.10444703983022
 30
0.0
  0
LINE
  5
1E2
330
1B
100
AcDbEntity
 67
     1
  8
0
  6
Continuous
 62
     7
 48
0.5
370
    25
100
AcDbLine
 10
98.1534024622
 20
44.8557811455
 30
0.0
 11
97.913529813
 21
44.5675345287
 31
0.0
  0
LINE
  5
1E3
330
1B
100
AcDbEntity
 67
     1
  8
0
  6
Continuous
 62
     7
 48
0.5
370
    25
100
AcDbLine
 10
95.3001659637
 20
49.7977317271
 30
0.0
 11
94.9306007463
 21
49.7341192276
 31
0.0
  0
SPLINE
  5
1E4
330
1B
100
AcDbEntity
 67
     1
  8
0
  6
Continuous
 62
     7
 48
0.5
370
    25
100
AcDbSpline
210
0.0
220
0.0
230
1.0
 70
    24
 71
     3
 72
    12
 73
     8
 74
     0
 42
0.000000001
 43
0.00000001
 40
0.0
 40
0.0
 40
0.0
 40
0.0
 40
0.0789292290677931
 40
0.3080177042781791
 40
0.5375700022627363
 40
0.7685473095201498
 40
1.0
 40
1.0
 40
1.0
 40
1.0
 10
94.93060074626867
 20
52.66029420525793
 30
0.0
 10
94.93060074626867
 20
52.58352194668984
 30
0.0
 10
94.93060074626867
 20
52.28392172107406
 30
0.0
 10
94.93060074626868
 20
51.75947473028481
 30
0.0
 10
94.93060074626867
 20
51.08571151508737
 30
0.0
 10
94.93060074626868
 20
50.40962691194987
 30
0.0
 10
94.93060074626867
 20
49.95944272050072
 30
0.0
 10
94.93060074626865
 20
49.73411922757801
 30
0.0
  0
LINE
  5
1E5
330
1B
100
AcDbEntity
 67
     1
  8
0
  6
Continuous
 62
     7
 48
0.5
370
    25
100
AcDbLine
 10
94.9306007463
 20
52.6602942053
 30
0.0
 11
95.3001659637
 21
52.5966817057
 31
0.0
  0
LINE
  5
1E6
330
1B
100
AcDbEntity
 67
     1
  8
0
  6
Continuous
 62
     7
 48
0.5
370
    25
100
AcDbLine
 10
108.7077990303
 20
44.8557811455
 30
0.0
 11
108.9476716796
 21
44.5675345287
 31
0.0
  0
SPLINE
  5
1E7
330
1B
100
AcDbEntity
 67
     1
  8
0
  6
Continuous
 62
     7
 48
0.5
370
    25
100
AcDbSpline
210
0.0
220
0.0
230
1.0
 70
    24
 71
     3
 72
    10
 73
     6
 74
     0
 42
0.000000001
 43
0.00000001
 40
0.0
 40
0.0
 40
0.0
 40
0.0
 40
0.3089808900029883
 40
0.6190948628358306
 40
1.0
 40
1.0
 40
1.0
 40
1.0
 10
106.4135298129741
 20
43.10444703983021
 30
0.0
 10
106.6741133276904
 20
43.25489500219807
 30
0.0
 10
107.1962359589607
 20
43.55634264391196
 30
0.0
 10
108.0432282696813
 20
44.04535388250802
 30
0.0
 10
108.6262803666876
 20
44.38197916766623
 30
0.0
 10
108.9476716795632
 20
44.56753452867017
 30
0.0
  0
LINE
  5
1E8
330
1B
100
AcDbEntity
 67
     1
  8
0
  6
Continuous
 62
     7
 48
0.5
370
    25
100
AcDbLine
 10
106.2838372449
 20
43.4563061562
 30
0.0
 11
106.413529813
 21
43.1044470398
 31
0.0
  0
LINE
  5
1E9
330
1B
100
AcDbEntity
 67
     1
  8
0
  6
Continuous
 62
     7
 48
0.5
370
    25
100
AcDbLine
 10
111.9306007463
 20
52.6602942053
 30
0.0
 11
111.5610355289
 21
52.5966817057
 31
0.0
  0
SPLINE
  5
1EA
330
1B
100
AcDbEntity
 67
     1
  8
0
  6
Continuous
 62
     7
 48
0.5
370
    25
100
AcDbSpline
210
0.0
220
0.0
230
1.0
 70
    24
 71
     3
 72
    12
 73
     8
 74
     0
 42
0.000000001
 43
0.00000001
 40
0.0
 40
0.0
 40
0.0
 40
0.0
 40
0.2290973061183104
 40
0.4586493868636476
 40
0.6896190352345004
 40
0.9210707699905069
 40
1.0
 40
1.0
 40
1.0
 40
1.0
 10
111.9306007462687
 20
49.73411922757798
 30
0.0
 10
111.9306007462687
 20
49.9571465761116
 30
0.0
 10
111.9306007462687
 20
50.40364399850358
 30
0.0
 10
111.9306007462687
 20
51.07740202563257
 30
0.0
 10
111.9306007462686
 20
51.75347591554711
 30
0.0
 10
111.9306007462687
 20
52.28162302682001
 30
0.0
 10
111.9306007462687
 20
52.58352194256859
 30
0.0
 10
111.9306007462687
 20
52.66029420525789
 30
0.0
  0
LINE
  5
1EB
330
1B
100
AcDbEntity
 67
     1
  8
0
  6
Continuous
 62
     7
 48
0.5
370
    25
100
AcDbLine
 10
111.5610355289
 20
49.7977317271
 30
0.0
 11
111.9306007463
 21
49.7341192276
 31
0.0
  0
ARC
  5
1EC
330
1B
100
AcDbEntity
 67
     1
  8
0
  6
Continuous
 62
     7
 48
0.25
370
    25
100
AcDbCircle
 10
103.4306007463
 20
51.1972067164
 30
0.0
 40
8.624999999999995
100
AcDbArc
 50
129.766500898
 51
170.233499102
  0
ARC
  5
1ED
330
1B
100
AcDbEntity
 67
     1
  8
0
  6
Continuous
 62
     7
 48
0.25
370
    25
100
AcDbCircle
 10
103.4306007463
 20
51.1972067164
 30
0.0
 40
8.625000000000009
100
AcDbArc
 50
189.766500898
 51
230.233499102
  0
ARC
  5
1EE
330
1B
100
AcDbEntity
 67
     1
  8
0
  6
Continuous
 62
     7
 48
0.25
370
    25
100
AcDbCircle
 10
103.4306007463
 20
51.1972067164
 30
0.0
 40
8.625000000000002
100
AcDbArc
 50
9.766500898
 51
50.233499102
  0
ARC
  5
1EF
330
1B
100
AcDbEntity
 67
     1
  8
0
  6
Continuous
 62
     7
 48
0.25
370
    25
100
AcDbCircle
 10
103.4306007463
 20
51.1972067164
 30
0.0
 40
8.625000000000007
100
AcDbArc
 50
249.766500898
 51
290.233499102
  0
ARC
  5
1F0
330
1B
100
AcDbEntity
 67
     1
  8
0
  6
Continuous
 62
     7
 48
0.25
370
    25
100
AcDbCircle
 10
103.4306007463
 20
51.1972067164
 30
0.0
 40
8.624999999999998
100
AcDbArc
 50
69.766500898
 51
110.233499102
  0
ARC
  5
1F1
330
1B
100
AcDbEntity
 67
     1
  8
0
  6
Continuous
 62
     7
 48
0.25
370
    25
100
AcDbCircle
 10
103.4306007463
 20
51.1972067164
 30
0.0
 40
8.625000000000012
100
AcDbArc
 50
309.766500898
 51
350.233499102
  0
SPLINE
  5
1F2
330
1B
100
AcDbEntity
 67
     1
  8
0
  6
Continuous
 62
     7
 48
0.5
370
    25
100
AcDbSpline
210
0.0
220
0.0
230
1.0
 70
    24
 71
     3
 72
    11
 73
     7
 74
     0
 42
0.000000001
 43
0.00000001
 40
0.0
 40
0.0
 40
0.0
 40
0.0
 40
0.2488261663104049
 40
0.4980307642143791
 40
0.7486902142220279
 40
1.0
 40
1.0
 40
1.0
 40
1.0
 10
111.9306007462686
 20
56.10468400452977
 30
0.0
 10
111.6871891053338
 20
56.24521778094737
 30
0.0
 10
111.1999956266455
 20
56.5264990670155
 30
0.0
 10
110.4581921367165
 20
56.9547795116118
 30
0.0
 10
109.7076716284918
 20
57.38809272906767
 30
0.0
 10
109.2012237086109
 20
57.68049057194144
 30
0.0
 10
108.9476716795632
 20
57.8268789041657
 30
0.0
  0
SPLINE
  5
1F3
330
1B
100
AcDbEntity
 67
     1
  8
0
  6
Continuous
 62
     7
 48
0.5
370
    25
100
AcDbSpline
210
0.0
220
0.0
230
1.0
 70
    24
 71
     3
 72
    11
 73
     7
 74
     0
 42
0.000000001
 43
0.00000001
 40
0.0
 40
0.0
 40
0.0
 40
0.0
 40
0.248533165781602
 40
0.4977458539813224
 40
0.7486584446317364
 40
1.0
 40
1.0
 40
1.0
 40
1.0
 10
111.9306007462687
 20
52.66029420525789
 30
0.0
 10
111.9306007462687
 20
52.94984052659692
 30
0.0
 10
111.9306007462686
 20
53.52972482706365
 30
0.0
 10
111.9306007462687
 20
54.39355715666044
 30
0.0
 10
111.9306007462686
 20
55.25341658793705
 30
0.0
 10
111.9306007462686
 20
55.8207666783999
 30
0.0
 10
111.9306007462686
 20
56.10468400452977
 30
0.0
  0
SPLINE
  5
1F4
330
1B
100
AcDbEntity
 67
     1
  8
0
  6
Continuous
 62
     7
 48
0.5
370
    25
100
AcDbSpline
210
0.0
220
0.0
230
1.0
 70
    24
 71
     3
 72
    11
 73
     7
 74
     0
 42
0.000000001
 43
0.00000001
 40
0.0
 40
0.0
 40
0.0
 40
0.0
 40
0.2488261663104049
 40
0.4980307642143798
 40
0.7486902142220279
 40
0.9999999999999999
 40
0.9999999999999999
 40
0.9999999999999999
 40
0.9999999999999999
 10
103.4306007462686
 20
61.01216129264157
 30
0.0
 10
103.1871891053338
 20
60.87162751622397
 30
0.0
 10
102.6999956266455
 20
60.59034623015584
 30
0.0
 10
101.9581921367164
 20
60.16206578555951
 30
0.0
 10
101.2076716284917
 20
59.72875256810363
 30
0.0
 10
100.7012237086108
 20
59.43635472522984
 30
0.0
 10
100.447671679563
 20
59.28996639300556
 30
0.0
  0
SPLINE
  5
1F5
330
1B
100
AcDbEntity
 67
     1
  8
0
  6
Continuous
 62
     7
 48
0.5
370
    25
100
AcDbSpline
210
0.0
220
0.0
230
1.0
 70
    24
 71
     3
 72
    11
 73
     7
 74
     0
 42
0.000000001
 43
0.00000001
 40
0.0
 40
0.0
 40
0.0
 40
0.0
 40
0.2485331718811622
 40
0.498319059982838
 40
0.748658438463252
 40
1.0
 40
1.0
 40
1.0
 40
1.0
 10
106.413529812974
 20
59.28996639300563
 30
0.0
 10
106.1627754358149
 20
59.43473950015894
 30
0.0
 10
105.660002769427
 20
59.72501543443917
 30
0.0
 10
104.9119089993367
 20
60.1569275739799
 30
0.0
 10
104.1672590448114
 20
60.58685142567713
 30
0.0
 10
103.6764803138681
 20
60.87020265809979
 30
0.0
 10
103.4306007462686
 20
61.01216129264157
 30
0.0
  0
SPLINE
  5
1F6
330
1B
100
AcDbEntity
 67
     1
  8
0
  6
Continuous
 62
     7
 48
0.5
370
    25
100
AcDbSpline
210
0.0
220
0.0
230
1.0
 70
    24
 71
     3
 72
    11
 73
     7
 74
     0
 42
0.000000001
 43
0.00000001
 40
0.0
 40
0.0
 40
0.0
 40
0.0
 40
0.2485331718811615
 40
0.4983190599828375
 40
0.7486584384632518
 40
1.0
 40
1.0
 40
1.0
 40
1.0
 10
97.91352981297423
 20
57.8268789041658
 30
0.0
 10
97.66277543581508
 20
57.6821057970125
 30
0.0
 10
97.16000276942718
 20
57.39182986273227
 30
0.0
 10
96.41190899933683
 20
56.95991772319152
 30
0.0
 10
95.66725904481147
 20
56.52999387149427
 30
0.0
 10
95.17648031386815
 20
56.2466426390716
 30
0.0
 10
94.93060074626867
 20
56.1046840045298
 30
0.0
  0
SPLINE
  5
1F7
330
1B
100
AcDbEntity
 67
     1
  8
0
  6
Continuous
 62
     7
 48
0.5
370
    25
100
AcDbSpline
210
0.0
220
0.0
230
1.0
 70
    24
 71
     3
 72
    11
 73
     7
 74
     0
 42
0.000000001
 43
0.00000001
 40
0.0
 40
0.0
 40
0.0
 40
0.0
 40
0.2488261663104052
 40
0.4980307642143799
 40
0.7486902142220283
 40
1.0
 40
1.0
 40
1.0
 40
1.0
 10
94.93060074626867
 20
56.1046840045298
 30
0.0
 10
94.93060074626868
 20
55.8236164516946
 30
0.0
 10
94.93060074626871
 20
55.26105387955837
 30
0.0
 10
94.93060074626868
 20
54.40449299036574
 30
0.0
 10
94.9306007462687
 20
53.537866555454
 30
0.0
 10
94.93060074626868
 20
52.95307086970647
 30
0.0
 10
94.93060074626867
 20
52.66029420525793
 30
0.0
  0
SPLINE
  5
1F8
330
1B
100
AcDbEntity
 67
     1
  8
0
  6
Continuous
 62
     7
 48
0.5
370
    25
100
AcDbSpline
210
0.0
220
0.0
230
1.0
 70
    24
 71
     3
 72
    11
 73
     7
 74
     0
 42
0.000000001
 43
0.00000001
 40
0.0
 40
0.0
 40
0.0
 40
0.0
 40
0.2488261663104051
 40
0.4980307642143792
 40
0.7486902142220279
 40
1.0
 40
1.0
 40
1.0
 40
1.0
 10
94.93060074626865
 20
46.28972942830614
 30
0.0
 10
95.17401238720345
 20
46.14919565188853
 30
0.0
 10
95.66120586589173
 20
45.8679143658204
 30
0.0
 10
96.40300935582074
 20
45.43963392122409
 30
0.0
 10
97.15352986404544
 20
45.00632070376822
 30
0.0
 10
97.65997778392635
 20
44.71392286089446
 30
0.0
 10
97.91352981297405
 20
44.56753452867018
 30
0.0
  0
SPLINE
  5
1F9
330
1B
100
AcDbEntity
 67
     1
  8
0
  6
Continuous
 62
     7
 48
0.5
370
    25
100
AcDbSpline
210
0.0
220
0.0
230
1.0
 70
    24
 71
     3
 72
    10
 73
     6
 74
     0
 42
0.000000001
 43
0.00000001
 40
0.0
 40
0.0
 40
0.0
 40
0.0
 40
0.3355445600395945
 40
0.6726666839999055
 40
0.9999999999999999
 40
0.9999999999999999
 40
0.9999999999999999
 40
0.9999999999999999
 10
94.93060074626865
 20
49.73411922757801
 30
0.0
 10
94.93060074626865
 20
49.34348966127457
 30
0.0
 10
94.93060074626867
 20
48.56039398239766
 30
0.0
 10
94.93060074626864
 20
47.41114201298288
 30
0.0
 10
94.93060074626864
 20
46.65984423122198
 30
0.0
 10
94.93060074626865
 20
46.28972942830614
 30
0.0
  0
SPLINE
  5
1FA
330
1B
100
AcDbEntity
 67
     1
  8
0
  6
Continuous
 62
     7
 48
0.5
370
    25
100
AcDbSpline
210
0.0
220
0.0
230
1.0
 70
    24
 71
     3
 72
    11
 73
     7
 74
     0
 42
0.000000001
 43
0.00000001
 40
0.0
 40
0.0
 40
0.0
 40
0.0
 40
0.2488261663104051
 40
0.4980307642143803
 40
0.7486902142220284
 40
1.0
 40
1.0
 40
1.0
 40
1.0
 10
103.4306007462686
 20
41.38225214019428
 30
0.0
 10
103.6740123872035
 20
41.52278591661187
 30
0.0
 10
104.1612058658918
 20
41.80406720267998
 30
0.0
 10
104.9030093558208
 20
42.2323476472763
 30
0.0
 10
105.6535298640455
 20
42.66566086473216
 30
0.0
 10
106.1599777839264
 20
42.95805870760594
 30
0.0
 10
106.4135298129741
 20
43.10444703983021
 30
0.0
  0
SPLINE
  5
1FB
330
1B
100
AcDbEntity
 67
     1
  8
0
  6
Continuous
 62
     7
 48
0.5
370
    25
100
AcDbSpline
210
0.0
220
0.0
230
1.0
 70
    24
 71
     3
 72
    11
 73
     7
 74
     0
 42
0.000000001
 43
0.00000001
 40
0.0
 40
0.0
 40
0.0
 40
0.0
 40
0.2485331718811621
 40
0.4983190599828383
 40
0.7486584384632521
 40
1.0
 40
1.0
 40
1.0
 40
1.0
 10
100.4476716795632
 20
43.10444703983022
 30
0.0
 10
100.6984260567224
 20
42.95967393267691
 30
0.0
 10
101.2011987231102
 20
42.66939799839669
 30
0.0
 10
101.9492924932006
 20
42.23748585885595
 30
0.0
 10
102.6939424477259
 20
41.80756200715872
 30
0.0
 10
103.1847211786692
 20
41.52421077473605
 30
0.0
 10
103.4306007462686
 20
41.38225214019428
 30
0.0
  0
SPLINE
  5
1FC
330
1B
100
AcDbEntity
 67
     1
  8
0
  6
Continuous
 62
     7
 48
0.5
370
    25
100
AcDbSpline
210
0.0
220
0.0
230
1.0
 70
    24
 71
     3
 72
    11
 73
     7
 74
     0
 42
0.000000001
 43
0.00000001
 40
0.0
 40
0.0
 40
0.0
 40
0.0
 40
0.2485331718811618
 40
0.498319059982838
 40
0.7486584384632521
 40
1.0
 40
1.0
 40
1.0
 40
1.0
 10
108.9476716795632
 20
44.56753452867017
 30
0.0
 10
109.1984260567224
 20
44.71230763582347
 30
0.0
 10
109.7011987231103
 20
45.00258357010369
 30
0.0
 10
110.4492924932006
 20
45.43449570964442
 30
0.0
 10
111.1939424477259
 20
45.86441956134165
 30
0.0
 10
111.6847211786692
 20
46.14777079376432
 30
0.0
 10
111.9306007462687
 20
46.2897294283061
 30
0.0
  0
SPLINE
  5
1FD
330
1B
100
AcDbEntity
 67
     1
  8
0
  6
Continuous
 62
     7
 48
0.5
370
    25
100
AcDbSpline
210
0.0
220
0.0
230
1.0
 70
    24
 71
     3
 72
    10
 73
     6
 74
     0
 42
0.000000001
 43
0.00000001
 40
0.0
 40
0.0
 40
0.0
 40
0.0
 40
0.3273333707077131
 40
0.6629523133412116
 40
1.0
 40
1.0
 40
1.0
 40
1.0
 10
111.9306007462687
 20
46.2897294283061
 30
0.0
 10
111.9306007462687
 20
46.65984421695736
 30
0.0
 10
111.9306007462687
 20
47.4094422637671
 30
0.0
 10
111.9306007462687
 20
48.55865228432337
 30
0.0
 10
111.9306007462687
 20
49.34174248525689
 30
0.0
 10
111.9306007462687
 20
49.73411922757798
 30
0.0
  0
CIRCLE
  5
1FE
330
1B
100
AcDbEntity
 67
     1
  8
0
  6
Continuous
 62
     7
 48
0.25
370
    25
100
AcDbCircle
 10
103.4306007463
 20
51.1972067164
 30
0.0
 40
4.050000000000001
  0
CIRCLE
  5
1FF
330
1B
100
AcDbEntity
 67
     1
  8
0
  6
Continuous
 62
     7
 48
0.25
370
    25
100
AcDbCircle
 10
103.4306007463
 20
51.1972067164
 30
0.0
 40
2.499999999999986
  0
ENDSEC
  0
SECTION
  2
OBJECTS
  0
DICTIONARY
  5
C
330
0
100
AcDbDictionary
281
     1
  3
ACAD_GROUP
350
D
  3
ACAD_LAYOUT
350
1A
  3
ACAD_MLINESTYLE
350
17
  3
ACAD_PLOTSETTINGS
350
19
  3
ACAD_PLOTSTYLENAME
350
E
  3
ACAD_SCALELIST
350
47
  0
DICTIONARY
  5
D
102
{ACAD_REACTORS
330
C
102
}
330
C
100
AcDbDictionary
281
     1
  0
DICTIONARY
  5
1A
102
{ACAD_REACTORS
330
C
102
}
330
C
100
AcDbDictionary
281
     1
  3
Model
350
22
  3
ｼｰﾄ2
350
1E
  0
DICTIONARY
  5
17
102
{ACAD_REACTORS
330
C
102
}
330
C
100
AcDbDictionary
281
     1
  3
Standard
350
18
  0
DICTIONARY
  5
19
102
{ACAD_REACTORS
330
C
102
}
330
C
100
AcDbDictionary
281
     1
  0
ACDBDICTIONARYWDFLT
  5
E
102
{ACAD_REACTORS
330
C
102
}
330
C
100
AcDbDictionary
281
     1
  3
Normal
350
F
100
AcDbDictionaryWithDefault
340
F
  0
DICTIONARY
  5
47
102
{ACAD_REACTORS
330
C
102
}
330
C
100
AcDbDictionary
281
     1
  3
A0
350
48
  3
A1
350
49
  3
A2
350
4A
  3
A3
350
4B
  3
A4
350
4C
  3
A5
350
4D
  3
A6
350
4E
  3
A7
350
4F
  3
A8
350
50
  3
A9
350
51
  3
B0
350
52
  3
B1
350
53
  3
B2
350
54
  3
B3
350
55
  3
B4
350
56
  3
B5
350
57
  3
B6
350
58
  3
B7
350
59
  3
B8
350
5A
  3
B9
350
5B
  3
C0
350
5C
  3
C1
350
5D
  3
C2
350
5E
  3
C3
350
5F
  3
C4
350
60
  3
C5
350
61
  3
C6
350
62
  3
C7
350
63
  3
C8
350
64
  3
C9
350
65
  3
D0
350
66
  3
D1
350
67
  3
D2
350
68
  0
LAYOUT
  5
22
102
{ACAD_REACTORS
330
1A
102
}
330
1A
100
AcDbPlotSettings
  1

  2
none_device
  4
Letter_(8.50_x_11.00_Inches)
  6

 40
6.35
 41
6.35
 42
6.35000508
 43
6.35000508
 44
215.9
 45
279.4
 46
0.0
 47
0.0
 48
0.0
 49
0.0
140
0.0
141
0.0
142
1.0
143
1.0
 70
  1712
 72
     1
 73
     0
 74
     0
  7

 75
     0
147
1.0
148
0.0
149
0.0
100
AcDbLayout
  1
Model
 70
     1
 71
     0
 10
0.0
 20
0.0
 11
215.9
 21
139.7
 12
0.0
 22
0.0
 32
0.0
 14
0.0
 24
0.0
 34
0.0
 15
215.9
 25
139.7
 35
0.0
146
0.0
 13
0.0
 23
0.0
 33
0.0
 16
1.0
 26
0.0
 36
0.0
 17
0.0
 27
1.0
 37
0.0
 76
     0
330
1F
331
29
  0
LAYOUT
  5
1E
102
{ACAD_REACTORS
330
1A
102
}
330
1A
100
AcDbPlotSettings
  1

  2
none_device
  4
ANSI_B_(17.00_x_11.00_Inches)
  6

 40
6.35
 41
19.05
 42
6.35000508
 43
19.0499873
 44
431.8
 45
279.4
 46
0.0
 47
0.0
 48
0.0
 49
0.0
140
0.0
141
0.0
142
1.0
143
1.0
 70
  4832
 72
     1
 73
     0
 74
     1
  7

 75
     0
147
1.0
148
0.0
149
0.0
100
AcDbLayout
  1
ｼｰﾄ2
 70
     1
 71
     1
 10
0.0
 20
0.0
 11
215.9
 21
139.7
 12
0.0
 22
0.0
 32
0.0
 14
0.0
 24
0.0
 34
0.0
 15
215.9
 25
139.7
 35
0.0
146
0.0
 13
0.0
 23
0.0
 33
0.0
 16
1.0
 26
0.0
 36
0.0
 17
0.0
 27
1.0
 37
0.0
 76
     0
330
1B
331
11B
  0
MLINESTYLE
  5
18
102
{ACAD_REACTORS
330
17
102
}
330
17
100
AcDbMlineStyle
  2
Standard
 70
     0
  3

 62
   256
 51
90.0
 52
90.0
 71
     2
 49
0.5
 62
   256
  6
BYLAYER
 49
-0.5
 62
   256
  6
BYLAYER
  0
ACDBPLACEHOLDER
  5
F
102
{ACAD_REACTORS
330
E
102
}
330
E
  0
SCALE
  5
48
102
{ACAD_REACTORS
330
47
102
}
330
47
100
AcDbScale
 70
     0
300
1:1
140
1.0
141
1.0
290
     1
  0
SCALE
  5
49
102
{ACAD_REACTORS
330
47
102
}
330
47
100
AcDbScale
 70
     0
300
1:2
140
1.0
141
2.0
290
     0
  0
SCALE
  5
4A
102
{ACAD_REACTORS
330
47
102
}
330
47
100
AcDbScale
 70
     0
300
1:4
140
1.0
141
4.0
290
     0
  0
SCALE
  5
4B
102
{ACAD_REACTORS
330
47
102
}
330
47
100
AcDbScale
 70
     0
300
1:5
140
1.0
141
5.0
290
     0
  0
SCALE
  5
4C
102
{ACAD_REACTORS
330
47
102
}
330
47
100
AcDbScale
 70
     0
300
1:8
140
1.0
141
8.0
290
     0
  0
SCALE
  5
4D
102
{ACAD_REACTORS
330
47
102
}
330
47
100
AcDbScale
 70
     0
300
1:10
140
1.0
141
10.0
290
     0
  0
SCALE
  5
4E
102
{ACAD_REACTORS
330
47
102
}
330
47
100
AcDbScale
 70
     0
300
1:16
140
1.0
141
16.0
290
     0
  0
SCALE
  5
4F
102
{ACAD_REACTORS
330
47
102
}
330
47
100
AcDbScale
 70
     0
300
1:20
140
1.0
141
20.0
290
     0
  0
SCALE
  5
50
102
{ACAD_REACTORS
330
47
102
}
330
47
100
AcDbScale
 70
     0
300
1:30
140
1.0
141
30.0
290
     0
  0
SCALE
  5
51
102
{ACAD_REACTORS
330
47
102
}
330
47
100
AcDbScale
 70
     0
300
1:40
140
1.0
141
40.0
290
     0
  0
SCALE
  5
52
102
{ACAD_REACTORS
330
47
102
}
330
47
100
AcDbScale
 70
     0
300
1:50
140
1.0
141
50.0
290
     0
  0
SCALE
  5
53
102
{ACAD_REACTORS
330
47
102
}
330
47
100
AcDbScale
 70
     0
300
1:100
140
1.0
141
100.0
290
     0
  0
SCALE
  5
54
102
{ACAD_REACTORS
330
47
102
}
330
47
100
AcDbScale
 70
     0
300
2:1
140
2.0
141
1.0
290
     0
  0
SCALE
  5
55
102
{ACAD_REACTORS
330
47
102
}
330
47
100
AcDbScale
 70
     0
300
4:1
140
4.0
141
1.0
290
     0
  0
SCALE
  5
56
102
{ACAD_REACTORS
330
47
102
}
330
47
100
AcDbScale
 70
     0
300
8:1
140
8.0
141
1.0
290
     0
  0
SCALE
  5
57
102
{ACAD_REACTORS
330
47
102
}
330
47
100
AcDbScale
 70
     0
300
10:1
140
10.0
141
1.0
290
     0
  0
SCALE
  5
58
102
{ACAD_REACTORS
330
47
102
}
330
47
100
AcDbScale
 70
     0
300
100:1
140
100.0
141
1.0
290
     0
  0
SCALE
  5
59
102
{ACAD_REACTORS
330
47
102
}
330
47
100
AcDbScale
 70
     0
300
1/128" = 1'-0"
140
0.0078125
141
12.0
290
     0
  0
SCALE
  5
5A
102
{ACAD_REACTORS
330
47
102
}
330
47
100
AcDbScale
 70
     0
300
1/64" = 1'-0"
140
0.015625
141
12.0
290
     0
  0
SCALE
  5
5B
102
{ACAD_REACTORS
330
47
102
}
330
47
100
AcDbScale
 70
     0
300
1/32" = 1'-0"
140
0.03125
141
12.0
290
     0
  0
SCALE
  5
5C
102
{ACAD_REACTORS
330
47
102
}
330
47
100
AcDbScale
 70
     0
300
1/16" = 1'-0"
140
0.0625
141
12.0
290
     0
  0
SCALE
  5
5D
102
{ACAD_REACTORS
330
47
102
}
330
47
100
AcDbScale
 70
     0
300
3/32" = 1'-0"
140
0.09375
141
12.0
290
     0
  0
SCALE
  5
5E
102
{ACAD_REACTORS
330
47
102
}
330
47
100
AcDbScale
 70
     0
300
1/8" = 1'-0"
140
0.125
141
12.0
290
     0
  0
SCALE
  5
5F
102
{ACAD_REACTORS
330
47
102
}
330
47
100
AcDbScale
 70
     0
300
3/16" = 1'-0"
140
0.1875
141
12.0
290
     0
  0
SCALE
  5
60
102
{ACAD_REACTORS
330
47
102
}
330
47
100
AcDbScale
 70
     0
300
1/4" = 1'-0"
140
0.25
141
12.0
290
     0
  0
SCALE
  5
61
102
{ACAD_REACTORS
330
47
102
}
330
47
100
AcDbScale
 70
     0
300
3/8" = 1'-0"
140
0.375
141
12.0
290
     0
  0
SCALE
  5
62
102
{ACAD_REACTORS
330
47
102
}
330
47
100
AcDbScale
 70
     0
300
1/2" = 1'-0"
140
0.5
141
12.0
290
     0
  0
SCALE
  5
63
102
{ACAD_REACTORS
330
47
102
}
330
47
100
AcDbScale
 70
     0
300
3/4" = 1'-0"
140
0.75
141
12.0
290
     0
  0
SCALE
  5
64
102
{ACAD_REACTORS
330
47
102
}
330
47
100
AcDbScale
 70
     0
300
1" = 1'-0"
140
1.0
141
12.0
290
     0
  0
SCALE
  5
65
102
{ACAD_REACTORS
330
47
102
}
330
47
100
AcDbScale
 70
     0
300
1-1/2" = 1'-0"
140
1.5
141
12.0
290
     0
  0
SCALE
  5
66
102
{ACAD_REACTORS
330
47
102
}
330
47
100
AcDbScale
 70
     0
300
3" = 1'-0"
140
3.0
141
12.0
290
     0
  0
SCALE
  5
67
102
{ACAD_REACTORS
330
47
102
}
330
47
100
AcDbScale
 70
     0
300
6" = 1'-0"
140
6.0
141
12.0
290
     0
  0
SCALE
  5
68
102
{ACAD_REACTORS
330
47
102
}
330
47
100
AcDbScale
 70
     0
300
1'-0" = 1'-0"
140
12.0
141
12.0
290
     0
  0
ENDSEC
  0
EOF
