  0
SECTION
  2
HEADER
  9
$ACADVER
  1
AC1015
  9
$ACADMAINTVER
 70
     6
  9
$DWGCODEPAGE
  3
DOS932
  9
$INSBASE
 10
0.0
 20
0.0
 30
0.0
  9
$EXTMIN
 10
0.0
 20
0.0
 30
0.0
  9
$EXTMAX
 10
431.8
 20
279.4
 30
0.0
  9
$LIMMIN
 10
0.0
 20
0.0
  9
$LIMMAX
 10
431.8
 20
279.4
  9
$ORTHOMODE
 70
     0
  9
$REGENMODE
 70
     1
  9
$FILLMODE
 70
     1
  9
$QTEXTMODE
 70
     0
  9
$MIRRTEXT
 70
     1
  9
$LTSCALE
 40
1.0
  9
$ATTMODE
 70
     1
  9
$TEXTSIZE
 40
3.5
  9
$TRACEWID
 40
1.0
  9
$TEXTSTYLE
  7
Standard
  9
$CLAYER
  8
0
  9
$CELTYPE
  6
ByLayer
  9
$CECOLOR
 62
   256
  9
$CELTSCALE
 40
1.0
  9
$DISPSILH
 70
     0
  9
$DIMSCALE
 40
1.0
  9
$DIMASZ
 40
3.556
  9
$DIMEXO
 40
1.0
  9
$DIMDLI
 40
3.75
  9
$DIMRND
 40
0.0
  9
$DIMDLE
 40
0.0
  9
$DIMEXE
 40
1.0
  9
$DIMTP
 40
0.0
  9
$DIMTM
 40
0.0
  9
$DIMTXT
 40
3.5
  9
$DIMCEN
 40
2.5
  9
$DIMTSZ
 40
0.0
  9
$DIMTOL
 70
     0
  9
$DIMLIM
 70
     0
  9
$DIMTIH
 70
     1
  9
$DIMTOH
 70
     1
  9
$DIMSE1
 70
     0
  9
$DIMSE2
 70
     0
  9
$DIMTAD
 70
     1
  9
$DIMZIN
 70
     0
  9
$DIMBLK
  1

  9
$DIMASO
 70
     1
  9
$DIMSHO
 70
     1
  9
$DIMPOST
  1

  9
$DIMAPOST
  1

  9
$DIMALT
 70
     0
  9
$DIMALTD
 70
     3
  9
$DIMALTF
 40
0.0393700787
  9
$DIMLFAC
 40
1.0
  9
$DIMTOFL
 70
     1
  9
$DIMTVP
 40
0.0
  9
$DIMTIX
 70
     0
  9
$DIMSOXD
 70
     0
  9
$DIMSAH
 70
     0
  9
$DIMBLK1
  1

  9
$DIMBLK2
  1

  9
$DIMSTYLE
  2
ISO-25
  9
$DIMCLRD
 70
     0
  9
$DIMCLRE
 70
     0
  9
$DIMCLRT
 70
     0
  9
$DIMTFAC
 40
1.0
  9
$DIMGAP
 40
1.524
  9
$DIMJUST
 70
     0
  9
$DIMSD1
 70
     0
  9
$DIMSD2
 70
     0
  9
$DIMTOLJ
 70
     0
  9
$DIMTZIN
 70
     0
  9
$DIMALTZ
 70
     0
  9
$DIMALTTZ
 70
     0
  9
$DIMUPT
 70
     0
  9
$DIMDEC
 70
     3
  9
$DIMTDEC
 70
     3
  9
$DIMALTU
 70
     2
  9
$DIMALTTD
 70
     3
  9
$DIMTXSTY
  7
Standard
  9
$DIMAUNIT
 70
     0
  9
$DIMADEC
 70
     2
  9
$DIMALTRND
 40
0.0
  9
$DIMAZIN
 70
     0
  9
$DIMDSEP
 70
    44
  9
$DIMATFIT
 70
     3
  9
$DIMFRAC
 70
     0
  9
$DIMLDRBLK
  1

  9
$DIMLUNIT
 70
     2
  9
$DIMLWD
 70
    -2
  9
$DIMLWE
 70
    -2
  9
$DIMTMOVE
 70
     0
  9
$LUNITS
 70
     2
  9
$LUPREC
 70
     3
  9
$SKETCHINC
 40
1.0
  9
$FILLETRAD
 40
0.0
  9
$AUNITS
 70
     0
  9
$AUPREC
 70
     2
  9
$MENU
  1
.
  9
$ELEVATION
 40
0.0
  9
$PELEVATION
 40
0.0
  9
$THICKNESS
 40
0.0
  9
$LIMCHECK
 70
     0
  9
$CHAMFERA
 40
0.0
  9
$CHAMFERB
 40
0.0
  9
$CHAMFERC
 40
0.0
  9
$CHAMFERD
 40
0.0
  9
$SKPOLY
 70
     0
  9
$TDCREATE
 40
2460279.659682928
  9
$TDUCREATE
 40
2460279.284682928
  9
$TDUPDATE
 40
2460279.659683287
  9
$TDUUPDATE
 40
2460279.284683287
  9
$TDINDWG
 40
0.0000000116
  9
$TDUSRTIMER
 40
0.0000000116
  9
$USRTIMER
 70
     1
  9
$ANGBASE
 50
0.0
  9
$ANGDIR
 70
     0
  9
$PDMODE
 70
     0
  9
$PDSIZE
 40
-1.0
  9
$PLINEWID
 40
0.0
  9
$SPLFRAME
 70
     0
  9
$SPLINETYPE
 70
     6
  9
$SPLINESEGS
 70
     8
  9
$HANDSEED
  5
210
  9
$SURFTAB1
 70
     6
  9
$SURFTAB2
 70
     6
  9
$SURFTYPE
 70
     6
  9
$SURFU
 70
     6
  9
$SURFV
 70
     6
  9
$UCSBASE
  2

  9
$UCSNAME
  2

  9
$UCSORG
 10
0.0
 20
0.0
 30
0.0
  9
$UCSXDIR
 10
1.0
 20
0.0
 30
0.0
  9
$UCSYDIR
 10
0.0
 20
1.0
 30
0.0
  9
$UCSORTHOREF
  2

  9
$UCSORTHOVIEW
 70
     0
  9
$UCSORGTOP
 10
0.0
 20
0.0
 30
0.0
  9
$UCSORGBOTTOM
 10
0.0
 20
0.0
 30
0.0
  9
$UCSORGLEFT
 10
0.0
 20
0.0
 30
0.0
  9
$UCSORGRIGHT
 10
0.0
 20
0.0
 30
0.0
  9
$UCSORGFRONT
 10
0.0
 20
0.0
 30
0.0
  9
$UCSORGBACK
 10
0.0
 20
0.0
 30
0.0
  9
$PUCSBASE
  2

  9
$PUCSNAME
  2

  9
$PUCSORG
 10
0.0
 20
0.0
 30
0.0
  9
$PUCSXDIR
 10
1.0
 20
0.0
 30
0.0
  9
$PUCSYDIR
 10
0.0
 20
1.0
 30
0.0
  9
$PUCSORTHOREF
  2

  9
$PUCSORTHOVIEW
 70
     0
  9
$PUCSORGTOP
 10
0.0
 20
0.0
 30
0.0
  9
$PUCSORGBOTTOM
 10
0.0
 20
0.0
 30
0.0
  9
$PUCSORGLEFT
 10
0.0
 20
0.0
 30
0.0
  9
$PUCSORGRIGHT
 10
0.0
 20
0.0
 30
0.0
  9
$PUCSORGFRONT
 10
0.0
 20
0.0
 30
0.0
  9
$PUCSORGBACK
 10
0.0
 20
0.0
 30
0.0
  9
$USERI1
 70
     0
  9
$USERI2
 70
     0
  9
$USERI3
 70
     0
  9
$USERI4
 70
     0
  9
$USERI5
 70
     0
  9
$USERR1
 40
0.0
  9
$USERR2
 40
0.0
  9
$USERR3
 40
0.0
  9
$USERR4
 40
0.0
  9
$USERR5
 40
0.0
  9
$WORLDVIEW
 70
     1
  9
$SHADEDGE
 70
     3
  9
$SHADEDIF
 70
    70
  9
$TILEMODE
 70
     1
  9
$MAXACTVP
 70
    64
  9
$PINSBASE
 10
0.0
 20
0.0
 30
0.0
  9
$PLIMCHECK
 70
     0
  9
$PEXTMIN
 10
1.0000000000E+20
 20
1.0000000000E+20
 30
1.0000000000E+20
  9
$PEXTMAX
 10
-1.0000000000E+20
 20
-1.0000000000E+20
 30
-1.0000000000E+20
  9
$PLIMMIN
 10
0.0
 20
0.0
  9
$PLIMMAX
 10
420.0
 20
297.0
  9
$UNITMODE
 70
     0
  9
$VISRETAIN
 70
     1
  9
$PLINEGEN
 70
     0
  9
$PSLTSCALE
 70
     1
  9
$TREEDEPTH
 70
  3020
  9
$CMLSTYLE
  2
Standard
  9
$CMLJUST
 70
     0
  9
$CMLSCALE
 40
20.0
  9
$PROXYGRAPHICS
 70
     1
  9
$MEASUREMENT
 70
     1
  9
$CELWEIGHT
370
    -1
  9
$ENDCAPS
280
     0
  9
$JOINSTYLE
280
     0
  9
$LWDISPLAY
290
     1
  9
$INSUNITS
 70
     4
  9
$HYPERLINKBASE
  1

  9
$STYLESHEET
  1

  9
$XEDIT
290
     1
  9
$CEPSNTYPE
380
     0
  9
$PSTYLEMODE
290
     1
  9
$FINGERPRINTGUID
  2
{6229ab6b-9ddd-4ded-9d91-d73234984896}
  9
$VERSIONGUID
  2
{FAEB1C32-E019-11D5-929B-00C0DF256EC4}
  9
$EXTNAMES
290
     1
  9
$PSVPSCALE
 40
0.0
  9
$OLESTARTUP
290
     0
  0
ENDSEC
  0
SECTION
  2
CLASSES
  0
CLASS
  1
ACDBDICTIONARYWDFLT
  2
AcDbDictionaryWithDefault
  3
ObjectDBX Classes
 90
        0
280
     0
281
     0
  0
CLASS
  1
VISUALSTYLE
  2
AcDbVisualStyle
  3
ObjectDBX Classes
 90
     4095
280
     0
281
     0
  0
CLASS
  1
MATERIAL
  2
AcDbMaterial
  3
ObjectDBX Classes
 90
     1153
280
     0
281
     0
  0
CLASS
  1
SCALE
  2
AcDbScale
  3
ObjectDBX Classes
 90
     1153
280
     0
281
     0
  0
CLASS
  1
TABLESTYLE
  2
AcDbTableStyle
  3
ObjectDBX Classes
 90
     4095
280
     0
281
     0
  0
CLASS
  1
MLEADERSTYLE
  2
AcDbMLeaderStyle
  3
ACDB_MLEADERSTYLE_CLASS
 90
     4095
280
     0
281
     0
  0
CLASS
  1
SUN
  2
AcDbSun
  3
SCENEOE
 90
     1153
280
     0
281
     0
  0
CLASS
  1
ACDBPLACEHOLDER
  2
AcDbPlaceHolder
  3
ObjectDBX Classes
 90
        0
280
     0
281
     0
  0
CLASS
  1
LAYOUT
  2
AcDbLayout
  3
ObjectDBX Classes
 90
        0
280
     0
281
     0
  0
ENDSEC
  0
SECTION
  2
TABLES
  0
TABLE
  2
VPORT
  5
8
330
0
100
AcDbSymbolTable
 70
     1
  0
VPORT
  5
29
330
8
100
AcDbSymbolTableRecord
100
AcDbViewportTableRecord
  2
*Active
 70
     0
 10
0.0
 20
0.0
 11
1.0
 21
1.0
 12
215.9
 22
139.7
 13
0.0
 23
0.0
 14
10.0
 24
10.0
 15
10.0
 25
10.0
 16
0.0
 26
0.0
 36
1.0
 17
0.0
 27
0.0
 37
0.0
 40
279.4
 41
1.5454545455
 42
50.0
 43
0.0
 44
0.0
 50
0.0
 51
0.0
 71
     0
 72
  2000
 73
     1
 74
     3
 75
     0
 76
     0
 77
     0
 78
     0
281
     0
 65
     1
110
0.0
120
0.0
130
0.0
111
1.0
121
0.0
131
0.0
112
0.0
122
1.0
132
0.0
 79
     0
146
0.0
  0
ENDTAB
  0
TABLE
  2
LTYPE
  5
5
330
0
100
AcDbSymbolTable
 70
     6
  0
LTYPE
  5
14
330
5
100
AcDbSymbolTableRecord
100
AcDbLinetypeTableRecord
  2
ByBlock
 70
     0
  3

 72
    65
 73
     0
 40
0.0
  0
LTYPE
  5
15
330
5
100
AcDbSymbolTableRecord
100
AcDbLinetypeTableRecord
  2
ByLayer
 70
     0
  3

 72
    65
 73
     0
 40
0.0
  0
LTYPE
  5
16
330
5
100
AcDbSymbolTableRecord
100
AcDbLinetypeTableRecord
  2
Continuous
 70
     0
  3
Solid line
 72
    65
 73
     0
 40
0.0
  0
LTYPE
  5
5E
330
5
100
AcDbSymbolTableRecord
100
AcDbLinetypeTableRecord
  2
HIDDEN
 70
     0
  3
Hidden __ __ __ __ __ __ __ __ __ __ __ __ __ __
 72
    65
 73
     2
 40
1.905
 49
1.27
 74
     0
 49
-0.635
 74
     0
  0
LTYPE
  5
5F
330
5
100
AcDbSymbolTableRecord
100
AcDbLinetypeTableRecord
  2
PHANTOM
 70
     0
  3
Phantom ______  __  __  ______  __  __  ______
 72
    65
 73
     6
 40
12.7
 49
6.35
 74
     0
 49
-1.27
 74
     0
 49
1.27
 74
     0
 49
-1.27
 74
     0
 49
1.27
 74
     0
 49
-1.27
 74
     0
  0
LTYPE
  5
60
330
5
100
AcDbSymbolTableRecord
100
AcDbLinetypeTableRecord
  2
CENTER
 70
     0
  3
Center ____ _ ____ _ ____ _ ____ _ ____ _ ____
 72
    65
 73
     4
 40
10.16
 49
6.35
 74
     0
 49
-1.27
 74
     0
 49
1.27
 74
     0
 49
-1.27
 74
     0
  0
LTYPE
  5
61
330
5
100
AcDbSymbolTableRecord
100
AcDbLinetypeTableRecord
  2
CENTERX2
 70
     0
  3
Center (2x) ________  __  ________  __  _____
 72
    65
 73
     4
 40
20.32
 49
12.7
 74
     0
 49
-2.54
 74
     0
 49
2.54
 74
     0
 49
-2.54
 74
     0
  0
LTYPE
  5
62
330
5
100
AcDbSymbolTableRecord
100
AcDbLinetypeTableRecord
  2
DOT2
 70
     0
  3
Dot (.5x) ........................................
 72
    65
 73
     2
 40
0.635
 49
0.0
 74
     0
 49
-0.635
 74
     0
  0
ENDTAB
  0
TABLE
  2
LAYER
  5
2
330
0
100
AcDbSymbolTable
 70
     1
  0
LAYER
  5
10
330
2
100
AcDbSymbolTableRecord
100
AcDbLayerTableRecord
  2
0
 70
     0
 62
     7
  6
Continuous
370
    -3
390
F
  0
ENDTAB
  0
TABLE
  2
STYLE
  5
3
330
0
100
AcDbSymbolTable
 70
     2
  0
STYLE
  5
11
330
3
100
AcDbSymbolTableRecord
100
AcDbTextStyleTableRecord
  2
Standard
 70
     0
 40
0.0
 41
1.0
 50
0.0
 71
     0
 42
3.5
  3
txt
  4
bigfont
  0
STYLE
  5
201
330
3
100
AcDbSymbolTableRecord
100
AcDbTextStyleTableRecord
  2
SLDTEXTSTYLE0
 70
     0
 40
0.0
 41
0.75
 50
0.0
 71
     0
 42
3.5
  3
TXT
  4
bigfont
  0
ENDTAB
  0
TABLE
  2
VIEW
  5
6
330
0
100
AcDbSymbolTable
 70
     0
  0
ENDTAB
  0
TABLE
  2
UCS
  5
7
330
0
100
AcDbSymbolTable
 70
     0
  0
ENDTAB
  0
TABLE
  2
APPID
  5
9
330
0
100
AcDbSymbolTable
 70
     1
  0
APPID
  5
12
330
9
100
AcDbSymbolTableRecord
100
AcDbRegAppTableRecord
  2
ACAD
 70
     0
  0
ENDTAB
  0
TABLE
  2
DIMSTYLE
  5
A
330
0
100
AcDbSymbolTable
 70
     1
100
AcDbDimStyleTable
  0
DIMSTYLE
105
27
330
A
100
AcDbSymbolTableRecord
100
AcDbDimStyleTableRecord
  2
ISO-25
 70
     0
 41
2.5
 42
0.625
 43
3.75
 44
1.25
 73
     0
 74
     0
 77
     1
 78
     8
140
2.5
141
2.5
143
0.0393700787
147
0.625
171
     3
172
     1
178
     0
271
     2
272
     2
274
     3
278
    44
283
     0
284
     8
340
11
  0
ENDTAB
  0
TABLE
  2
BLOCK_RECORD
  5
1
330
0
100
AcDbSymbolTable
 70
     3
  0
BLOCK_RECORD
  5
1F
330
1
100
AcDbSymbolTableRecord
100
AcDbBlockTableRecord
  2
*Model_Space
340
22
  0
BLOCK_RECORD
  5
1B
330
1
100
AcDbSymbolTableRecord
100
AcDbBlockTableRecord
  2
*Paper_Space
340
1E
  0
BLOCK_RECORD
  5
23
330
1
100
AcDbSymbolTableRecord
100
AcDbBlockTableRecord
  2
*Paper_Space0
340
26
  0
BLOCK_RECORD
  5
190
330
1
100
AcDbSymbolTableRecord
100
AcDbBlockTableRecord
  2
SW_CENTERMARKSYMBOL_0
340
0
102
{BLKREFS
331
19B
102
}
  0
BLOCK_RECORD
  5
203
330
1
100
AcDbSymbolTableRecord
100
AcDbBlockTableRecord
  2
SW_CENTERMARKSYMBOL_1
340
0
102
{BLKREFS
331
20E
102
}
  0
ENDTAB
  0
ENDSEC
  0
SECTION
  2
BLOCKS
  0
BLOCK
  5
20
330
1F
100
AcDbEntity
  8
0
100
AcDbBlockBegin
  2
*Model_Space
 70
     0
 10
0.0
 20
0.0
 30
0.0
  3
*Model_Space
  1

  0
ENDBLK
  5
21
330
1F
100
AcDbEntity
  8
0
100
AcDbBlockEnd
  0
BLOCK
  5
1C
330
1B
100
AcDbEntity
 67
     1
  8
0
100
AcDbBlockBegin
  2
*Paper_Space
 70
     0
 10
0.0
 20
0.0
 30
0.0
  3
*Paper_Space
  1

  0
ENDBLK
  5
1D
330
1B
100
AcDbEntity
 67
     1
  8
0
100
AcDbBlockEnd
  0
BLOCK
  5
24
330
23
100
AcDbEntity
  8
0
100
AcDbBlockBegin
  2
*Paper_Space0
 70
     0
 10
0.0
 20
0.0
 30
0.0
  3
*Paper_Space0
  1

  0
ENDBLK
  5
25
330
23
100
AcDbEntity
  8
0
100
AcDbBlockEnd
  0
BLOCK
  5
191
330
190
100
AcDbEntity
  8
0
100
AcDbBlockBegin
  2
SW_CENTERMARKSYMBOL_0
 70
     0
 10
0.0
 20
0.0
 30
0.0
  3
SW_CENTERMARKSYMBOL_0
  1

  0
LINE
  5
193
330
190
100
AcDbEntity
  8
0
  6
Continuous
 62
     0
370
    18
100
AcDbLine
 10
0.0
 20
0.0
 30
0.0
 11
0.0
 21
2.5
 31
0.0
  0
LINE
  5
194
330
190
100
AcDbEntity
  8
0
  6
Continuous
 62
     0
370
    18
100
AcDbLine
 10
0.0
 20
0.0
 30
0.0
 11
-2.5
 21
0.0
 31
0.0
  0
LINE
  5
195
330
190
100
AcDbEntity
  8
0
  6
Continuous
 62
     0
370
    18
100
AcDbLine
 10
0.0
 20
0.0
 30
0.0
 11
0.0
 21
-2.5
 31
0.0
  0
LINE
  5
196
330
190
100
AcDbEntity
  8
0
  6
Continuous
 62
     0
370
    18
100
AcDbLine
 10
0.0
 20
0.0
 30
0.0
 11
2.5
 21
0.0
 31
0.0
  0
LINE
  5
197
330
190
100
AcDbEntity
  8
0
  6
Continuous
 62
     0
370
    18
100
AcDbLine
 10
0.0
 20
5.0
 30
0.0
 11
0.0
 21
39.1805697508
 31
0.0
  0
LINE
  5
198
330
190
100
AcDbEntity
  8
0
  6
Continuous
 62
     0
370
    18
100
AcDbLine
 10
-5.0
 20
0.0
 30
0.0
 11
-14.05
 21
0.0
 31
0.0
  0
LINE
  5
199
330
190
100
AcDbEntity
  8
0
  6
Continuous
 62
     0
370
    18
100
AcDbLine
 10
0.0
 20
-5.0
 30
0.0
 11
0.0
 21
-16.7751508337
 31
0.0
  0
LINE
  5
19A
330
190
100
AcDbEntity
  8
0
  6
Continuous
 62
     0
370
    18
100
AcDbLine
 10
5.0
 20
0.0
 30
0.0
 11
14.05
 21
0.0
 31
0.0
  0
ENDBLK
  5
192
330
190
100
AcDbEntity
  8
0
100
AcDbBlockEnd
  0
BLOCK
  5
204
330
203
100
AcDbEntity
  8
0
100
AcDbBlockBegin
  2
SW_CENTERMARKSYMBOL_1
 70
     0
 10
0.0
 20
0.0
 30
0.0
  3
SW_CENTERMARKSYMBOL_1
  1

  0
LINE
  5
206
330
203
100
AcDbEntity
  8
0
  6
Continuous
 62
     0
370
    18
100
AcDbLine
 10
0.0
 20
0.0
 30
0.0
 11
0.0
 21
2.5
 31
0.0
  0
LINE
  5
207
330
203
100
AcDbEntity
  8
0
  6
Continuous
 62
     0
370
    18
100
AcDbLine
 10
0.0
 20
0.0
 30
0.0
 11
-2.5
 21
0.0
 31
0.0
  0
LINE
  5
208
330
203
100
AcDbEntity
  8
0
  6
Continuous
 62
     0
370
    18
100
AcDbLine
 10
0.0
 20
0.0
 30
0.0
 11
0.0
 21
-2.5
 31
0.0
  0
LINE
  5
209
330
203
100
AcDbEntity
  8
0
  6
Continuous
 62
     0
370
    18
100
AcDbLine
 10
0.0
 20
0.0
 30
0.0
 11
2.5
 21
0.0
 31
0.0
  0
LINE
  5
20A
330
203
100
AcDbEntity
  8
0
  6
Continuous
 62
     0
370
    18
100
AcDbLine
 10
0.0
 20
5.0
 30
0.0
 11
0.0
 21
14.05
 31
0.0
  0
LINE
  5
20B
330
203
100
AcDbEntity
  8
0
  6
Continuous
 62
     0
370
    18
100
AcDbLine
 10
-5.0
 20
0.0
 30
0.0
 11
-17.2143742742
 21
0.0
 31
0.0
  0
LINE
  5
20C
330
203
100
AcDbEntity
  8
0
  6
Continuous
 62
     0
370
    18
100
AcDbLine
 10
0.0
 20
-5.0
 30
0.0
 11
0.0
 21
-14.05
 31
0.0
  0
LINE
  5
20D
330
203
100
AcDbEntity
  8
0
  6
Continuous
 62
     0
370
    18
100
AcDbLine
 10
5.0
 20
0.0
 30
0.0
 11
38.4237224743
 21
0.0
 31
0.0
  0
ENDBLK
  5
205
330
203
100
AcDbEntity
  8
0
100
AcDbBlockEnd
  0
ENDSEC
  0
SECTION
  2
ENTITIES
  0
LINE
  5
63
330
1F
100
AcDbEntity
  8
0
  6
Continuous
 62
     7
370
    25
100
AcDbLine
 10
10.5044839911
 20
42.0723201241
 30
0.0
 11
12.6108904517
 21
40.8561857871
 31
0.0
  0
LINE
  5
64
330
1F
100
AcDbEntity
  8
0
  6
Continuous
 62
     7
370
    25
100
AcDbLine
 10
36.1108904517
 20
40.8561857871
 30
0.0
 11
38.2172969122
 21
42.0723201241
 31
0.0
  0
LINE
  5
65
330
1F
100
AcDbEntity
  8
0
  6
Continuous
 62
     7
370
    25
100
AcDbLine
 10
36.1108904517
 20
58.6561857871
 30
0.0
 11
35.9108904517
 21
58.8561857871
 31
0.0
  0
LINE
  5
66
330
1F
100
AcDbEntity
  8
0
  6
Continuous
 62
     7
370
    25
100
AcDbLine
 10
12.8108904517
 20
58.8561857871
 30
0.0
 11
12.6108904517
 21
58.6561857871
 31
0.0
  0
LINE
  5
67
330
1F
100
AcDbEntity
  8
0
  6
Continuous
 62
     7
370
    25
100
AcDbLine
 10
12.6108904517
 20
58.6561857871
 30
0.0
 11
12.6108904517
 21
57.5778736235
 31
0.0
  0
LINE
  5
68
330
1F
100
AcDbEntity
  8
0
  6
Continuous
 62
     7
370
    25
100
AcDbLine
 10
36.1108904517
 20
57.5778736235
 30
0.0
 11
36.1108904517
 21
58.6561857871
 31
0.0
  0
ARC
  5
69
330
1F
100
AcDbEntity
  8
0
  6
Continuous
 62
     7
370
    25
100
AcDbCircle
 10
37.3608904517
 20
57.5778736235
 30
0.0
 40
1.25
100
AcDbArc
 50
180.0
 51
240.0
  0
LINE
  5
6A
330
1F
100
AcDbEntity
  8
0
  6
Continuous
 62
     7
370
    25
100
AcDbLine
 10
38.2172969122
 20
55.64005145
 30
0.0
 11
36.7358904517
 21
56.4953418688
 31
0.0
  0
LINE
  5
6B
330
1F
100
AcDbEntity
  8
0
  6
Continuous
 62
     7
370
    25
100
AcDbLine
 10
11.9858904517
 20
56.4953418688
 30
0.0
 11
10.5044839911
 21
55.64005145
 31
0.0
  0
ARC
  5
6C
330
1F
100
AcDbEntity
  8
0
  6
Continuous
 62
     7
370
    25
100
AcDbCircle
 10
11.3608904517
 20
57.5778736235
 30
0.0
 40
1.250000000000002
100
AcDbArc
 50
300.0
 51
0.0
  0
LINE
  5
6D
330
1F
100
AcDbEntity
  8
0
  6
Continuous
 62
     7
370
    25
100
AcDbLine
 10
43.6366092015
 20
36.6530078348
 30
0.0
 11
42.4204748644
 21
34.5466013743
 31
0.0
  0
LINE
  5
6E
330
1F
100
AcDbEntity
  8
0
  6
Continuous
 62
     7
370
    25
100
AcDbLine
 10
42.4204748644
 20
11.0466013743
 30
0.0
 11
43.6366092015
 21
8.9401949137
 31
0.0
  0
LINE
  5
6F
330
1F
100
AcDbEntity
  8
0
  6
Continuous
 62
     7
370
    25
100
AcDbLine
 10
60.2204748644
 20
11.0466013743
 30
0.0
 11
60.4204748644
 21
11.2466013743
 31
0.0
  0
LINE
  5
70
330
1F
100
AcDbEntity
  8
0
  6
Continuous
 62
     7
370
    25
100
AcDbLine
 10
60.4204748644
 20
34.3466013743
 30
0.0
 11
60.2204748644
 21
34.5466013743
 31
0.0
  0
LINE
  5
71
330
1F
100
AcDbEntity
  8
0
  6
Continuous
 62
     7
370
    25
100
AcDbLine
 10
60.2204748644
 20
34.5466013743
 30
0.0
 11
59.1421627009
 21
34.5466013743
 31
0.0
  0
LINE
  5
72
330
1F
100
AcDbEntity
  8
0
  6
Continuous
 62
     7
370
    25
100
AcDbLine
 10
59.1421627009
 20
11.0466013743
 30
0.0
 11
60.2204748644
 21
11.0466013743
 31
0.0
  0
ARC
  5
73
330
1F
100
AcDbEntity
  8
0
  6
Continuous
 62
     7
370
    25
100
AcDbCircle
 10
59.1421627009
 20
35.7966013743
 30
0.0
 40
1.249999999999998
100
AcDbArc
 50
210.0
 51
270.0
  0
LINE
  5
74
330
1F
100
AcDbEntity
  8
0
  6
Continuous
 62
     7
370
    25
100
AcDbLine
 10
58.0596309462
 20
35.1716013743
 30
0.0
 11
57.2043405274
 21
36.6530078348
 31
0.0
  0
ARC
  5
75
330
1F
100
AcDbEntity
  8
0
  6
Continuous
 62
     7
370
    25
100
AcDbCircle
 10
59.1421627009
 20
9.7966013743
 30
0.0
 40
1.249999999999998
100
AcDbArc
 50
90.0
 51
150.0
  0
LINE
  5
76
330
1F
100
AcDbEntity
  8
0
  6
Continuous
 62
     7
370
    25
100
AcDbLine
 10
57.2043405274
 20
8.9401949137
 30
0.0
 11
58.0596309462
 21
10.4216013743
 31
0.0
  0
ARC
  5
77
330
1F
100
AcDbEntity
  8
0
  6
Continuous
 62
     7
370
    25
100
AcDbCircle
 10
41.3260332265
 20
14.0466013743
 30
0.0
 40
2.50000000000001
100
AcDbArc
 50
206.7436839504
 51
223.7093197495
  0
ARC
  5
78
330
1F
100
AcDbEntity
  8
0
  6
Continuous
 62
     7
370
    25
100
AcDbCircle
 10
41.3260332265
 20
31.5466013743
 30
0.0
 40
2.500000000000011
100
AcDbArc
 50
136.2906802505
 51
153.2563160496
  0
ARC
  5
79
330
1F
100
AcDbEntity
  8
0
  6
Continuous
 62
     7
370
    25
100
AcDbCircle
 10
33.1108904517
 20
39.7617441492
 30
0.0
 40
2.500000000000003
100
AcDbArc
 50
296.7436839504
 51
313.7093197495
  0
ARC
  5
7A
330
1F
100
AcDbEntity
  8
0
  6
Continuous
 62
     7
370
    25
100
AcDbCircle
 10
15.6108904517
 20
39.7617441492
 30
0.0
 40
2.500000000000003
100
AcDbArc
 50
226.2906802505
 51
243.2563160496
  0
LINE
  5
7B
330
1F
100
AcDbEntity
  8
0
  6
Continuous
 62
     7
370
    25
100
AcDbLine
 10
34.8383904517
 20
37.9546072562
 30
0.0
 11
34.8383904517
 21
40.8561857871
 31
0.0
  0
LINE
  5
7C
330
1F
100
AcDbEntity
  8
0
  6
Continuous
 62
     7
370
    25
100
AcDbLine
 10
13.8833904517
 20
40.8561857871
 30
0.0
 11
13.8833904517
 21
37.9546072562
 31
0.0
  0
LINE
  5
7D
330
1F
100
AcDbEntity
  8
0
  6
Continuous
 62
     7
370
    25
100
AcDbLine
 10
39.5188963336
 20
12.3191013743
 30
0.0
 11
42.4204748644
 21
12.3191013743
 31
0.0
  0
LINE
  5
7E
330
1F
100
AcDbEntity
  8
0
  6
Continuous
 62
     7
370
    25
100
AcDbLine
 10
42.4204748644
 20
33.2741013743
 30
0.0
 11
39.5188963336
 21
33.2741013743
 31
0.0
  0
ARC
  5
7F
330
1F
100
AcDbEntity
  8
0
  6
Continuous
 62
     7
370
    25
100
AcDbCircle
 10
35.3608904517
 20
35.2966013743
 30
0.0
 40
2.500000000000007
100
AcDbArc
 50
116.7436839504
 51
180.0
  0
ARC
  5
80
330
1F
100
AcDbEntity
  8
0
  6
Continuous
 62
     7
370
    25
100
AcDbCircle
 10
13.3608904517
 20
35.2966013743
 30
0.0
 40
2.500000000000002
100
AcDbArc
 50
0.0
 51
63.2563160496
  0
ARC
  5
81
330
1F
100
AcDbEntity
  8
0
  6
Continuous
 62
     7
370
    25
100
AcDbCircle
 10
36.8608904517
 20
11.7966013743
 30
0.0
 40
2.499999999999998
100
AcDbArc
 50
26.7436839504
 51
90.0
  0
ARC
  5
82
330
1F
100
AcDbEntity
  8
0
  6
Continuous
 62
     7
370
    25
100
AcDbCircle
 10
36.8608904517
 20
33.7966013743
 30
0.0
 40
2.500000000000004
100
AcDbArc
 50
270.0
 51
333.2563160496
  0
LINE
  5
83
330
1F
100
AcDbEntity
  8
0
  6
Continuous
 62
     7
370
    25
100
AcDbLine
 10
15.8608904517
 20
35.2966013743
 30
0.0
 11
15.8608904517
 21
17.2922007059
 31
0.0
  0
LINE
  5
84
330
1F
100
AcDbEntity
  8
0
  6
Continuous
 62
     7
370
    25
100
AcDbLine
 10
32.8608904517
 20
31.7966013743
 30
0.0
 11
32.8608904517
 21
35.2966013743
 31
0.0
  0
LINE
  5
85
330
1F
100
AcDbEntity
  8
0
  6
Continuous
 62
     7
370
    25
100
AcDbLine
 10
36.8608904517
 20
31.2966013743
 30
0.0
 11
33.3608904517
 21
31.2966013743
 31
0.0
  0
LINE
  5
86
330
1F
100
AcDbEntity
  8
0
  6
Continuous
 62
     7
370
    25
100
AcDbLine
 10
18.8564897832
 20
14.2966013743
 30
0.0
 11
36.8608904517
 21
14.2966013743
 31
0.0
  0
SPLINE
  5
87
330
1F
100
AcDbEntity
  8
0
  6
Continuous
 62
     7
370
    25
100
AcDbSpline
210
0.0
220
0.0
230
1.0
 70
     8
 71
     3
 72
    15
 73
    11
 74
     0
 42
0.00000001
 43
0.00000001
 40
0.0
 40
0.0
 40
0.0
 40
0.0
 40
0.1576401772492522
 40
0.2847966753704386
 40
0.3814334857025759
 40
0.4521238516440819
 40
0.542422230549403
 40
0.6638977523739631
 40
0.8164378052309327
 40
1.0
 40
1.0
 40
1.0
 40
1.0
 10
15.86089045193348
 20
17.29656175131302
 30
0.0
 10
15.87852628330199
 20
17.04879364819065
 30
0.0
 10
15.91038761604588
 20
16.60116961437268
 30
0.0
 10
16.12293909146241
 20
16.03518953357959
 30
0.0
 10
16.35347522523561
 20
15.6339644895213
 30
0.0
 10
16.59982105501555
 20
15.31288427032714
 30
0.0
 10
16.91243695263611
 20
14.99691588233276
 30
0.0
 10
17.37886268671931
 20
14.66346888814902
 30
0.0
 10
18.04325311840526
 20
14.36444747744308
 30
0.0
 10
18.57204902142716
 20
14.32056680018943
 30
0.0
 10
18.86085082870217
 20
14.29660137454433
 30
0.0
  0
SPLINE
  5
88
330
1F
100
AcDbEntity
  8
0
  6
Continuous
 62
     7
370
    25
100
AcDbSpline
210
0.0
220
0.0
230
1.0
 70
     8
 71
     3
 72
    11
 73
     7
 74
     0
 42
0.00000001
 43
0.00000001
 40
0.0
 40
0.0
 40
0.0
 40
0.0
 40
0.2500481156911711
 40
0.5000000000000012
 40
0.7499518843088333
 40
1.0
 40
1.0
 40
1.0
 40
1.0
 10
33.36572378284529
 20
31.29660137427928
 30
0.0
 10
33.29932264935847
 20
31.30369379853862
 30
0.0
 10
33.166545936958
 20
31.31787591752745
 30
0.0
 10
32.99894762837297
 20
31.43465855098381
 30
0.0
 10
32.88216499491661
 20
31.60225685956885
 30
0.0
 10
32.86798287592777
 20
31.73503357196931
 30
0.0
 10
32.86089045166844
 20
31.80143470545613
 30
0.0
  0
SPLINE
  5
89
330
1F
100
AcDbEntity
  8
0
  6
Continuous
 62
     7
370
    25
100
AcDbSpline
210
0.0
220
0.0
230
1.0
 70
     8
 71
     3
 72
    10
 73
     6
 74
     0
 42
0.00000001
 43
0.00000001
 40
0.0
 40
0.0
 40
0.0
 40
0.0
 40
0.2896830214237577
 40
0.581291372732543
 40
1.0
 40
1.0
 40
1.0
 40
1.0
 10
33.24152196927575
 20
56.49534186881657
 30
0.0
 10
33.53240141186556
 20
56.56394390103511
 30
0.0
 10
34.11609357874393
 20
56.70160391743708
 30
0.0
 10
35.12919300794805
 20
56.74220776887129
 30
0.0
 10
35.84369378515979
 20
56.58689416098429
 30
0.0
 10
36.26486862488769
 20
56.49534186881657
 30
0.0
  0
SPLINE
  5
8A
330
1F
100
AcDbEntity
  8
0
  6
Continuous
 62
     7
370
    25
100
AcDbSpline
210
0.0
220
0.0
230
1.0
 70
     8
 71
     3
 72
     9
 73
     5
 74
     0
 42
0.00000001
 43
0.00000001
 40
0.0
 40
0.0
 40
0.0
 40
0.0
 40
0.4986680494787146
 40
1.0
 40
1.0
 40
1.0
 40
1.0
 10
36.26486862488769
 20
56.49534186881657
 30
0.0
 10
36.59316797495399
 20
56.38753497823226
 30
0.0
 10
37.25152046096045
 20
56.17134528912548
 30
0.0
 10
37.89480021726197
 20
55.81746363163938
 30
0.0
 10
38.21729691221948
 20
55.64005145003819
 30
0.0
  0
LINE
  5
8B
330
1F
100
AcDbEntity
  8
0
  6
Continuous
 62
     7
370
    25
100
AcDbLine
 10
38.2172969122
 20
55.64005145
 30
0.0
 11
38.2172969122
 21
42.0723201241
 31
0.0
  0
SPLINE
  5
8C
330
1F
100
AcDbEntity
  8
0
  6
Continuous
 62
     7
370
    25
100
AcDbSpline
210
0.0
220
0.0
230
1.0
 70
     8
 71
     3
 72
    15
 73
    11
 74
     0
 42
0.00000001
 43
0.00000001
 40
0.0
 40
0.0
 40
0.0
 40
0.0
 40
0.1323065044264403
 40
0.2645755999739298
 40
0.3998036789671094
 40
0.5350073556765895
 40
0.6501969475405023
 40
0.7654045076453767
 40
0.8826909144168968
 40
1.0
 40
1.0
 40
1.0
 40
1.0
 10
38.21729691221947
 20
42.07232012408197
 30
0.0
 10
37.91796808944887
 20
41.90916104216424
 30
0.0
 10
37.31939507735594
 20
41.58288901059094
 30
0.0
 10
36.39764530056313
 20
41.23183430757105
 30
0.0
 10
35.45852018681257
 20
41.0207575220419
 30
0.0
 10
34.55341928876938
 20
40.97896021175633
 30
0.0
 10
33.69722258398483
 20
41.0874188444571
 30
0.0
 10
32.88919007517534
 20
41.30964475351796
 30
0.0
 10
32.08481100606539
 20
41.63562252680425
 30
0.0
 10
31.55434988356075
 20
41.92674487719771
 30
0.0
 10
31.28909368194396
 20
42.07232012408197
 30
0.0
  0
LINE
  5
8D
330
1F
100
AcDbEntity
  8
0
  6
Continuous
 62
     7
370
    25
100
AcDbLine
 10
31.2890936819
 20
55.64005145
 30
0.0
 11
31.2890936819
 21
42.0723201241
 31
0.0
  0
SPLINE
  5
8E
330
1F
100
AcDbEntity
  8
0
  6
Continuous
 62
     7
370
    25
100
AcDbSpline
210
0.0
220
0.0
230
1.0
 70
     8
 71
     3
 72
     9
 73
     5
 74
     0
 42
0.00000001
 43
0.00000001
 40
0.0
 40
0.0
 40
0.0
 40
0.0
 40
0.498847038423143
 40
1.0
 40
1.0
 40
1.0
 40
1.0
 10
31.28909368194397
 20
55.64005145003819
 30
0.0
 10
31.60998400187822
 20
55.8166274503767
 30
0.0
 10
32.2532479589994
 20
56.1705956745776
 30
0.0
 10
32.91159126948938
 20
56.38692685637658
 30
0.0
 10
33.24152196927575
 20
56.49534186881657
 30
0.0
  0
SPLINE
  5
8F
330
1F
100
AcDbEntity
  8
0
  6
Continuous
 62
     7
370
    25
100
AcDbSpline
210
0.0
220
0.0
230
1.0
 70
     8
 71
     3
 72
     9
 73
     5
 74
     0
 42
0.00000001
 43
0.00000001
 40
0.0
 40
0.0
 40
0.0
 40
0.0
 40
0.4986680494787147
 40
1.0
 40
1.0
 40
1.0
 40
1.0
 10
27.38423710728044
 20
56.49534186881657
 30
0.0
 10
28.04083580741304
 20
56.38753497823226
 30
0.0
 10
29.35754077942593
 20
56.17134528912547
 30
0.0
 10
30.64410029202897
 20
55.81746363163939
 30
0.0
 10
31.28909368194397
 20
55.64005145003819
 30
0.0
  0
LINE
  5
90
330
1F
100
AcDbEntity
  8
0
  6
Continuous
 62
     7
370
    25
100
AcDbLine
 10
33.2415219693
 20
56.4953418688
 30
0.0
 11
27.3842371073
 21
56.4953418688
 31
0.0
  0
SPLINE
  5
91
330
1F
100
AcDbEntity
  8
0
  6
Continuous
 62
     7
370
    25
100
AcDbSpline
210
0.0
220
0.0
230
1.0
 70
     8
 71
     3
 72
    15
 73
    11
 74
     0
 42
0.00000001
 43
0.00000001
 40
0.0
 40
0.0
 40
0.0
 40
0.0
 40
0.1323065044264402
 40
0.2645755999739297
 40
0.3998036789671089
 40
0.5350073556765891
 40
0.6501969475405018
 40
0.7654045076453765
 40
0.8826909144168966
 40
0.9999999999999999
 40
0.9999999999999999
 40
0.9999999999999999
 40
0.9999999999999999
 10
17.43268722139293
 20
42.07232012408197
 30
0.0
 10
17.13335839862233
 20
41.90916104216424
 30
0.0
 10
16.53478538652939
 20
41.58288901059094
 30
0.0
 10
15.6130356097366
 20
41.23183430757105
 30
0.0
 10
14.67391049598604
 20
41.02075752204192
 30
0.0
 10
13.76880959794284
 20
40.97896021175632
 30
0.0
 10
12.91261289315829
 20
41.0874188444571
 30
0.0
 10
12.1045803843488
 20
41.30964475351796
 30
0.0
 10
11.30020131523886
 20
41.63562252680426
 30
0.0
 10
10.76974019273421
 20
41.92674487719771
 30
0.0
 10
10.50448399111742
 20
42.07232012408198
 30
0.0
  0
SPLINE
  5
92
330
1F
100
AcDbEntity
  8
0
  6
Continuous
 62
     7
370
    25
100
AcDbSpline
210
0.0
220
0.0
230
1.0
 70
     8
 71
     3
 72
    14
 73
    10
 74
     0
 42
0.00000001
 43
0.00000001
 40
0.0
 40
0.0
 40
0.0
 40
0.0
 40
0.1849616675901325
 40
0.3715529357653711
 40
0.4966600563761461
 40
0.6217665387009521
 40
0.7502083078289149
 40
0.8786852004145195
 40
1.0
 40
1.0
 40
1.0
 40
1.0
 10
31.28909368194396
 20
42.07232012408197
 30
0.0
 10
30.45070612367132
 20
41.84898754406804
 30
0.0
 10
28.76654441252344
 20
41.40035471739984
 30
0.0
 10
26.45509272479958
 20
41.06832189384463
 30
0.0
 10
24.40751664554045
 20
40.97645810709329
 30
0.0
 10
22.63136457153385
 20
41.04672704329901
 30
0.0
 10
20.85259724659985
 20
41.269534454602
 30
0.0
 10
19.11103944980035
 20
41.6124519458206
 30
0.0
 10
17.98134096026811
 20
41.9219891082664
 30
0.0
 10
17.43268722139293
 20
42.07232012408197
 30
0.0
  0
LINE
  5
93
330
1F
100
AcDbEntity
  8
0
  6
Continuous
 62
     7
370
    25
100
AcDbLine
 10
36.1108904517
 20
40.8561857871
 30
0.0
 11
12.6108904517
 21
40.8561857871
 31
0.0
  0
SPLINE
  5
94
330
1F
100
AcDbEntity
  8
0
  6
Continuous
 62
     7
370
    25
100
AcDbSpline
210
0.0
220
0.0
230
1.0
 70
     8
 71
     3
 72
    10
 73
     6
 74
     0
 42
0.00000001
 43
0.00000001
 40
0.0
 40
0.0
 40
0.0
 40
0.0
 40
0.3910406133635747
 40
0.78696609495545
 40
1.0
 40
1.0
 40
1.0
 40
1.0
 10
21.33754379605645
 20
56.49534186881657
 30
0.0
 10
22.1238982301851
 20
56.58214438949889
 30
0.0
 10
23.7064302156844
 20
56.75683376548489
 30
0.0
 10
25.73508508190857
 20
56.69884831111946
 30
0.0
 10
26.95683058275925
 20
56.54808411445806
 30
0.0
 10
27.38423710728044
 20
56.49534186881657
 30
0.0
  0
LINE
  5
95
330
1F
100
AcDbEntity
  8
0
  6
Continuous
 62
     7
370
    25
100
AcDbLine
 10
17.4326872214
 20
55.64005145
 30
0.0
 11
17.4326872214
 21
42.0723201241
 31
0.0
  0
SPLINE
  5
96
330
1F
100
AcDbEntity
  8
0
  6
Continuous
 62
     7
370
    25
100
AcDbSpline
210
0.0
220
0.0
230
1.0
 70
     8
 71
     3
 72
     9
 73
     5
 74
     0
 42
0.00000001
 43
0.00000001
 40
0.0
 40
0.0
 40
0.0
 40
0.0
 40
0.4060341230684889
 40
1.0
 40
1.0
 40
1.0
 40
1.0
 10
17.43268722139294
 20
55.6400514500382
 30
0.0
 10
17.95458150831815
 20
55.78506082719046
 30
0.0
 10
19.23992738757862
 20
56.14219676457524
 30
0.0
 10
20.55590060810696
 20
56.36374799685201
 30
0.0
 10
21.33754379605645
 20
56.49534186881657
 30
0.0
  0
ARC
  5
97
330
1F
100
AcDbEntity
  8
0
  6
Continuous
 62
     7
370
    25
100
AcDbCircle
 10
30.3590330141
 20
57.4669804117
 30
0.0
 40
3.12945556691543
100
AcDbArc
 50
177.9692814554
 51
198.0882596308
  0
LINE
  5
98
330
1F
100
AcDbEntity
  8
0
  6
Continuous
 62
     7
370
    25
100
AcDbLine
 10
27.2315428317
 20
57.5778736235
 30
0.0
 11
32.793005226
 21
57.5778736235
 31
0.0
  0
ARC
  5
99
330
1F
100
AcDbEntity
  8
0
  6
Continuous
 62
     7
370
    25
100
AcDbCircle
 10
34.1855995357
 20
57.5206750521
 30
0.0
 40
1.393768484391413
100
AcDbArc
 50
177.647990046
 51
227.3626177873
  0
SPLINE
  5
9A
330
1F
100
AcDbEntity
  8
0
  6
Continuous
 62
     7
370
    25
100
AcDbSpline
210
0.0
220
0.0
230
1.0
 70
     8
 71
     3
 72
    11
 73
     7
 74
     0
 42
0.00000001
 43
0.00000001
 40
0.0
 40
0.0
 40
0.0
 40
0.0
 40
0.2219160281998818
 40
0.4466603017989557
 40
0.7206213487801929
 40
1.0
 40
1.0
 40
1.0
 40
1.0
 10
21.49023807159242
 20
57.57787362354712
 30
0.0
 10
21.90969012395754
 20
57.56494175396266
 30
0.0
 10
22.75394000450628
 20
57.53891320245032
 30
0.0
 10
24.14451208153352
 20
57.43241975965614
 30
0.0
 10
25.65496679366438
 20
57.51275698570982
 30
0.0
 10
26.70259845652971
 20
57.55602686291839
 30
0.0
 10
27.23154283174448
 20
57.57787362354712
 30
0.0
  0
ARC
  5
9B
330
1F
100
AcDbEntity
  8
0
  6
Continuous
 62
     7
370
    25
100
AcDbCircle
 10
18.3627478892
 20
57.4669804117
 30
0.0
 40
3.12945556691558
100
AcDbArc
 50
341.9117403692
 51
2.0307185446
  0
SPLINE
  5
9C
330
1F
100
AcDbEntity
  8
0
  6
Continuous
 62
     7
370
    25
100
AcDbSpline
210
0.0
220
0.0
230
1.0
 70
     8
 71
     3
 72
     9
 73
     5
 74
     0
 42
0.00000001
 43
0.00000001
 40
0.0
 40
0.0
 40
0.0
 40
0.0
 40
0.4986680494787148
 40
1.0
 40
1.0
 40
1.0
 40
1.0
 10
15.48025893406116
 20
56.49534186881657
 30
0.0
 10
15.80855828412746
 20
56.38753497823227
 30
0.0
 10
16.46691077013391
 20
56.17134528912548
 30
0.0
 10
17.11019052643544
 20
55.81746363163939
 30
0.0
 10
17.43268722139294
 20
55.6400514500382
 30
0.0
  0
LINE
  5
9D
330
1F
100
AcDbEntity
  8
0
  6
Continuous
 62
     7
370
    25
100
AcDbLine
 10
21.3375437961
 20
56.4953418688
 30
0.0
 11
15.4802589341
 21
56.4953418688
 31
0.0
  0
LINE
  5
9E
330
1F
100
AcDbEntity
  8
0
  6
Continuous
 62
     7
370
    25
100
AcDbLine
 10
15.9287756774
 20
57.5778736235
 30
0.0
 11
21.4902380716
 21
57.5778736235
 31
0.0
  0
ARC
  5
9F
330
1F
100
AcDbEntity
  8
0
  6
Continuous
 62
     7
370
    25
100
AcDbCircle
 10
14.5361813676
 20
57.5206750521
 30
0.0
 40
1.393768484394631
100
AcDbArc
 50
312.6373822128
 51
2.3520099539
  0
SPLINE
  5
A0
330
1F
100
AcDbEntity
  8
0
  6
Continuous
 62
     7
370
    25
100
AcDbSpline
210
0.0
220
0.0
230
1.0
 70
     8
 71
     3
 72
    10
 73
     6
 74
     0
 42
0.00000001
 43
0.00000001
 40
0.0
 40
0.0
 40
0.0
 40
0.0
 40
0.2896830214237568
 40
0.5812913727325408
 40
1.0
 40
1.0
 40
1.0
 40
1.0
 10
12.4569122784492
 20
56.49534186881657
 30
0.0
 10
12.74779172103901
 20
56.56394390103512
 30
0.0
 10
13.33148388791738
 20
56.70160391743708
 30
0.0
 10
14.34458331712152
 20
56.7422077688713
 30
0.0
 10
15.05908409433326
 20
56.58689416098431
 30
0.0
 10
15.48025893406116
 20
56.49534186881657
 30
0.0
  0
LINE
  5
A1
330
1F
100
AcDbEntity
  8
0
  6
Continuous
 62
     7
370
    25
100
AcDbLine
 10
10.5044839911
 20
55.64005145
 30
0.0
 11
10.5044839911
 21
42.0723201241
 31
0.0
  0
SPLINE
  5
A2
330
1F
100
AcDbEntity
  8
0
  6
Continuous
 62
     7
370
    25
100
AcDbSpline
210
0.0
220
0.0
230
1.0
 70
     8
 71
     3
 72
     9
 73
     5
 74
     0
 42
0.00000001
 43
0.00000001
 40
0.0
 40
0.0
 40
0.0
 40
0.0
 40
0.498847038423143
 40
1.0
 40
1.0
 40
1.0
 40
1.0
 10
10.50448399111743
 20
55.6400514500382
 30
0.0
 10
10.82537431105168
 20
55.8166274503767
 30
0.0
 10
11.46863826817286
 20
56.1705956745776
 30
0.0
 10
12.12698157866284
 20
56.38692685637658
 30
0.0
 10
12.4569122784492
 20
56.49534186881657
 30
0.0
  0
LINE
  5
A3
330
1F
100
AcDbEntity
  8
0
  6
Continuous
 62
     7
370
    25
100
AcDbLine
 10
24.3608904517
 20
58.8561857871
 30
0.0
 11
35.9108904517
 21
58.8561857871
 31
0.0
  0
LINE
  5
A4
330
1F
100
AcDbEntity
  8
0
  6
Continuous
 62
     7
370
    25
100
AcDbLine
 10
12.8108904517
 20
58.8561857871
 30
0.0
 11
24.3608904517
 21
58.8561857871
 31
0.0
  0
LINE
  5
A5
330
1F
100
AcDbEntity
  8
0
  6
Continuous
 62
     7
370
    25
100
AcDbLine
 10
24.3608904517
 20
58.6561857871
 30
0.0
 11
12.6108904517
 21
58.6561857871
 31
0.0
  0
LINE
  5
A6
330
1F
100
AcDbEntity
  8
0
  6
Continuous
 62
     7
370
    25
100
AcDbLine
 10
36.1108904517
 20
58.6561857871
 30
0.0
 11
24.3608904517
 21
58.6561857871
 31
0.0
  0
SPLINE
  5
A7
330
1F
100
AcDbEntity
  8
0
  6
Continuous
 62
     7
370
    25
100
AcDbSpline
210
0.0
220
0.0
230
1.0
 70
     8
 71
     3
 72
    11
 73
     7
 74
     0
 42
0.00000001
 43
0.00000001
 40
0.0
 40
0.0
 40
0.0
 40
0.0
 40
0.2219160282077402
 40
0.4466603018149352
 40
0.7206213487884544
 40
1.0
 40
1.0
 40
1.0
 40
1.0
 10
13.05812329729866
 20
57.57787362354712
 30
0.0
 10
13.18837440071142
 20
57.56494175396164
 30
0.0
 10
13.45053661419339
 20
57.53891320244721
 30
0.0
 10
14.05635479689737
 20
57.43241975965434
 30
0.0
 10
14.85313727548182
 20
57.51275698571426
 30
0.0
 10
15.56789686867552
 20
57.55602686291989
 30
0.0
 10
15.92877567737466
 20
57.57787362354712
 30
0.0
  0
SPLINE
  5
A8
330
1F
100
AcDbEntity
  8
0
  6
Continuous
 62
     7
370
    25
100
AcDbSpline
210
0.0
220
0.0
230
1.0
 70
     8
 71
     3
 72
    11
 73
     7
 74
     0
 42
0.00000001
 43
0.00000001
 40
0.0
 40
0.0
 40
0.0
 40
0.0
 40
0.2219160282077372
 40
0.4466603018149288
 40
0.7206213487884514
 40
1.0
 40
1.0
 40
1.0
 40
1.0
 10
32.79300522596225
 20
57.57787362354712
 30
0.0
 10
33.08220617492957
 20
57.56494175396163
 30
0.0
 10
33.66429384202672
 20
57.5389132024472
 30
0.0
 10
34.44904773636726
 20
57.43241975965435
 30
0.0
 10
35.16271996989722
 20
57.51275698571423
 30
0.0
 10
35.49559203953837
 20
57.55602686291989
 30
0.0
 10
35.66365760603823
 20
57.57787362354712
 30
0.0
  0
ARC
  5
A9
330
1F
100
AcDbEntity
  8
0
  6
Continuous
 62
     7
370
    25
100
AcDbCircle
 10
11.7987796177
 20
57.5690669092
 30
0.0
 40
1.259374472359702
100
AcDbArc
 50
301.5059393155
 51
0.400668494
  0
ARC
  5
AA
330
1F
100
AcDbEntity
  8
0
  6
Continuous
 62
     7
370
    25
100
AcDbCircle
 10
36.9230012857
 20
57.5690669092
 30
0.0
 40
1.25937447235967
100
AcDbArc
 50
179.599331506
 51
238.4940606845
  0
SPLINE
  5
AB
330
1F
100
AcDbEntity
  8
0
  6
Continuous
 62
     7
370
    25
100
AcDbSpline
210
0.0
220
0.0
230
1.0
 70
     8
 71
     3
 72
    15
 73
    11
 74
     0
 42
0.00000001
 43
0.00000001
 40
0.0
 40
0.0
 40
0.0
 40
0.0
 40
0.1323065044264404
 40
0.2645755999739298
 40
0.3998036789671092
 40
0.5350073556765892
 40
0.6501969475405018
 40
0.7654045076453764
 40
0.8826909144168966
 40
1.0
 40
1.0
 40
1.0
 40
1.0
 10
43.63660920147114
 20
29.7248046045548
 30
0.0
 10
43.47345011955342
 20
30.02413342732541
 30
0.0
 10
43.14717808798011
 20
30.62270643941834
 30
0.0
 10
42.79612338496021
 20
31.54445621621114
 30
0.0
 10
42.58504659943108
 20
32.48358132996169
 30
0.0
 10
42.54324928914549
 20
33.38868222800489
 30
0.0
 10
42.65170792184627
 20
34.24487893278944
 30
0.0
 10
42.87393383090712
 20
35.05291144159894
 30
0.0
 10
43.19991160419342
 20
35.85729051070888
 30
0.0
 10
43.49103395458688
 20
36.38775163321353
 30
0.0
 10
43.63660920147114
 20
36.65300783483032
 30
0.0
  0
SPLINE
  5
AC
330
1F
100
AcDbEntity
  8
0
  6
Continuous
 62
     7
370
    25
100
AcDbSpline
210
0.0
220
0.0
230
1.0
 70
     8
 71
     3
 72
    14
 73
    10
 74
     0
 42
0.00000001
 43
0.00000001
 40
0.0
 40
0.0
 40
0.0
 40
0.0
 40
0.1213148676422981
 40
0.2465737848541126
 40
0.3718008293836808
 40
0.5001234647862597
 40
0.6284461178609373
 40
0.8132558656183412
 40
1.0
 40
1.0
 40
1.0
 40
1.0
 10
43.63660920147113
 20
15.86839814400377
 30
0.0
 10
43.48626738916445
 20
16.41704991213296
 30
0.0
 10
43.18069602431255
 20
17.53219058420131
 30
0.0
 10
42.84218652138306
 20
19.24376722316682
 30
0.0
 10
42.61615799313502
 20
21.0067898969937
 30
0.0
 10
42.53948142133297
 20
22.79790995584867
 30
0.0
 10
42.63004678399661
 20
24.8675069540779
 30
0.0
 10
42.96293417568872
 20
27.19399665970635
 30
0.0
 10
43.41127281154755
 20
28.87827904837918
 30
0.0
 10
43.63660920147114
 20
29.7248046045548
 30
0.0
  0
SPLINE
  5
AD
330
1F
100
AcDbEntity
  8
0
  6
Continuous
 62
     7
370
    25
100
AcDbSpline
210
0.0
220
0.0
230
1.0
 70
     8
 71
     3
 72
    15
 73
    11
 74
     0
 42
0.00000001
 43
0.00000001
 40
0.0
 40
0.0
 40
0.0
 40
0.0
 40
0.1323065044264402
 40
0.2645755999739296
 40
0.399803678967109
 40
0.5350073556765891
 40
0.650196947540502
 40
0.7654045076453764
 40
0.8826909144168966
 40
1.0
 40
1.0
 40
1.0
 40
1.0
 10
43.63660920147113
 20
8.940194913728257
 30
0.0
 10
43.47345011955341
 20
9.239523736498862
 30
0.0
 10
43.1471780879801
 20
9.8380967485918
 30
0.0
 10
42.79612338496021
 20
10.75984652538459
 30
0.0
 10
42.58504659943107
 20
11.69897163913516
 30
0.0
 10
42.54324928914549
 20
12.60407253717834
 30
0.0
 10
42.65170792184625
 20
13.4602692419629
 30
0.0
 10
42.87393383090713
 20
14.2683017507724
 30
0.0
 10
43.19991160419341
 20
15.07268081988234
 30
0.0
 10
43.49103395458687
 20
15.60314194238699
 30
0.0
 10
43.63660920147113
 20
15.86839814400377
 30
0.0
  0
LINE
  5
AE
330
1F
100
AcDbEntity
  8
0
  6
Continuous
 62
     7
370
    25
100
AcDbLine
 10
42.4204748644
 20
22.7966013743
 30
0.0
 11
42.4204748644
 21
34.5466013743
 31
0.0
  0
LINE
  5
AF
330
1F
100
AcDbEntity
  8
0
  6
Continuous
 62
     7
370
    25
100
AcDbLine
 10
42.4204748644
 20
11.0466013743
 30
0.0
 11
42.4204748644
 21
22.7966013743
 31
0.0
  0
SPLINE
  5
B0
330
1F
100
AcDbEntity
  8
0
  6
Continuous
 62
     7
370
    25
100
AcDbSpline
210
0.0
220
0.0
230
1.0
 70
     8
 71
     3
 72
    10
 73
     6
 74
     0
 42
0.00000001
 43
0.00000001
 40
0.0
 40
0.0
 40
0.0
 40
0.0
 40
0.289683021423757
 40
0.5812913727325415
 40
1.0
 40
1.0
 40
1.0
 40
1.0
 10
58.05963094620574
 20
34.70057954749853
 30
0.0
 10
58.12823297842428
 20
34.40970010490872
 30
0.0
 10
58.26589299482625
 20
33.82600793803035
 30
0.0
 10
58.30649684626046
 20
32.81290850882622
 30
0.0
 10
58.15118323837346
 20
32.09840773161449
 30
0.0
 10
58.05963094620574
 20
31.67723289188658
 30
0.0
  0
SPLINE
  5
B1
330
1F
100
AcDbEntity
  8
0
  6
Continuous
 62
     7
370
    25
100
AcDbSpline
210
0.0
220
0.0
230
1.0
 70
     8
 71
     3
 72
     9
 73
     5
 74
     0
 42
0.00000001
 43
0.00000001
 40
0.0
 40
0.0
 40
0.0
 40
0.0
 40
0.4986680494787147
 40
1.0
 40
1.0
 40
1.0
 40
1.0
 10
58.05963094620574
 20
31.67723289188658
 30
0.0
 10
57.95182405562144
 20
31.34893354182028
 30
0.0
 10
57.73563436651465
 20
30.69058105581383
 30
0.0
 10
57.38175270902855
 20
30.0473012995123
 30
0.0
 10
57.20434052742735
 20
29.7248046045548
 30
0.0
  0
LINE
  5
B2
330
1F
100
AcDbEntity
  8
0
  6
Continuous
 62
     7
370
    25
100
AcDbLine
 10
57.2043405274
 20
29.7248046046
 30
0.0
 11
43.6366092015
 21
29.7248046046
 31
0.0
  0
LINE
  5
B3
330
1F
100
AcDbEntity
  8
0
  6
Continuous
 62
     7
370
    25
100
AcDbLine
 10
57.2043405274
 20
36.6530078348
 30
0.0
 11
43.6366092015
 21
36.6530078348
 31
0.0
  0
SPLINE
  5
B4
330
1F
100
AcDbEntity
  8
0
  6
Continuous
 62
     7
370
    25
100
AcDbSpline
210
0.0
220
0.0
230
1.0
 70
     8
 71
     3
 72
     9
 73
     5
 74
     0
 42
0.00000001
 43
0.00000001
 40
0.0
 40
0.0
 40
0.0
 40
0.0
 40
0.4988470384231432
 40
1.0
 40
1.0
 40
1.0
 40
1.0
 10
57.20434052742735
 20
36.65300783483031
 30
0.0
 10
57.38091652776586
 20
36.33211751489605
 30
0.0
 10
57.73488475196677
 20
35.68885355777488
 30
0.0
 10
57.95121593376575
 20
35.03051024728489
 30
0.0
 10
58.05963094620574
 20
34.70057954749853
 30
0.0
  0
SPLINE
  5
B5
330
1F
100
AcDbEntity
  8
0
  6
Continuous
 62
     7
370
    25
100
AcDbSpline
210
0.0
220
0.0
230
1.0
 70
     8
 71
     3
 72
    10
 73
     6
 74
     0
 42
0.00000001
 43
0.00000001
 40
0.0
 40
0.0
 40
0.0
 40
0.0
 40
0.2130338126352574
 40
0.6040068415968868
 40
0.9999999999999999
 40
0.9999999999999999
 40
0.9999999999999999
 40
0.9999999999999999
 10
58.05963094620574
 20
25.81994802989124
 30
0.0
 10
58.11237404345994
 20
25.39254114049051
 30
0.0
 10
58.26191458444013
 20
24.18073029154474
 30
0.0
 10
58.32141188659028
 20
22.15226932896428
 30
0.0
 10
58.1472615666184
 20
20.5696248667954
 30
0.0
 10
58.05963094620573
 20
19.77325471866732
 30
0.0
  0
SPLINE
  5
B6
330
1F
100
AcDbEntity
  8
0
  6
Continuous
 62
     7
370
    25
100
AcDbSpline
210
0.0
220
0.0
230
1.0
 70
     8
 71
     3
 72
     9
 73
     5
 74
     0
 42
0.00000001
 43
0.00000001
 40
0.0
 40
0.0
 40
0.0
 40
0.0
 40
0.5939658769315153
 40
1.0
 40
1.0
 40
1.0
 40
1.0
 10
58.05963094620573
 20
19.77325471866732
 30
0.0
 10
57.92803707424118
 20
18.99161153071782
 30
0.0
 10
57.70648584196439
 20
17.67563831018947
 30
0.0
 10
57.34934990457962
 20
16.39029243092899
 30
0.0
 10
57.20434052742735
 20
15.86839814400377
 30
0.0
  0
LINE
  5
B7
330
1F
100
AcDbEntity
  8
0
  6
Continuous
 62
     7
370
    25
100
AcDbLine
 10
57.2043405274
 20
15.868398144
 30
0.0
 11
43.6366092015
 21
15.868398144
 31
0.0
  0
SPLINE
  5
B8
330
1F
100
AcDbEntity
  8
0
  6
Continuous
 62
     7
370
    25
100
AcDbSpline
210
0.0
220
0.0
230
1.0
 70
     8
 71
     3
 72
     9
 73
     5
 74
     0
 42
0.00000001
 43
0.00000001
 40
0.0
 40
0.0
 40
0.0
 40
0.0
 40
0.4988470384231434
 40
1.0
 40
1.0
 40
1.0
 40
1.0
 10
57.20434052742735
 20
29.7248046045548
 30
0.0
 10
57.38091652776587
 20
29.08302396468629
 30
0.0
 10
57.73488475196677
 20
27.79649605044394
 30
0.0
 10
57.95121593376575
 20
26.47980942946397
 30
0.0
 10
58.05963094620574
 20
25.81994802989124
 30
0.0
  0
SPLINE
  5
B9
330
1F
100
AcDbEntity
  8
0
  6
Continuous
 62
     7
370
    25
100
AcDbSpline
210
0.0
220
0.0
230
1.0
 70
     8
 71
     3
 72
    10
 73
     6
 74
     0
 42
0.00000001
 43
0.00000001
 40
0.0
 40
0.0
 40
0.0
 40
0.0
 40
0.2896830214237569
 40
0.5812913727325415
 40
1.0
 40
1.0
 40
1.0
 40
1.0
 10
58.05963094620573
 20
13.91596985667199
 30
0.0
 10
58.12823297842428
 20
13.62509041408218
 30
0.0
 10
58.26589299482624
 20
13.04139824720382
 30
0.0
 10
58.30649684626047
 20
12.02829881799968
 30
0.0
 10
58.15118323837346
 20
11.31379804078794
 30
0.0
 10
58.05963094620573
 20
10.89262320106004
 30
0.0
  0
SPLINE
  5
BA
330
1F
100
AcDbEntity
  8
0
  6
Continuous
 62
     7
370
    25
100
AcDbSpline
210
0.0
220
0.0
230
1.0
 70
     8
 71
     3
 72
     9
 73
     5
 74
     0
 42
0.00000001
 43
0.00000001
 40
0.0
 40
0.0
 40
0.0
 40
0.0
 40
0.4986680494787146
 40
1.0
 40
1.0
 40
1.0
 40
1.0
 10
58.05963094620573
 20
10.89262320106004
 30
0.0
 10
57.95182405562143
 20
10.56432385099374
 30
0.0
 10
57.73563436651465
 20
9.905971364987282
 30
0.0
 10
57.38175270902855
 20
9.262691608685758
 30
0.0
 10
57.20434052742734
 20
8.940194913728254
 30
0.0
  0
LINE
  5
BB
330
1F
100
AcDbEntity
  8
0
  6
Continuous
 62
     7
370
    25
100
AcDbLine
 10
57.2043405274
 20
8.9401949137
 30
0.0
 11
43.6366092015
 21
8.9401949137
 31
0.0
  0
SPLINE
  5
BC
330
1F
100
AcDbEntity
  8
0
  6
Continuous
 62
     7
370
    25
100
AcDbSpline
210
0.0
220
0.0
230
1.0
 70
     8
 71
     3
 72
     9
 73
     5
 74
     0
 42
0.00000001
 43
0.00000001
 40
0.0
 40
0.0
 40
0.0
 40
0.0
 40
0.4988470384231433
 40
1.0
 40
1.0
 40
1.0
 40
1.0
 10
57.20434052742735
 20
15.86839814400377
 30
0.0
 10
57.38091652776587
 20
15.54750782406952
 30
0.0
 10
57.73488475196678
 20
14.90424386694834
 30
0.0
 10
57.95121593376575
 20
14.24590055645836
 30
0.0
 10
58.05963094620573
 20
13.91596985667199
 30
0.0
  0
LINE
  5
BD
330
1F
100
AcDbEntity
  8
0
  6
Continuous
 62
     7
370
    25
100
AcDbLine
 10
58.0596309462
 20
25.8199480299
 30
0.0
 11
58.0596309462
 21
31.6772328919
 31
0.0
  0
ARC
  5
BE
330
1F
100
AcDbEntity
  8
0
  6
Continuous
 62
     7
370
    25
100
AcDbCircle
 10
59.0849641295
 20
32.6213104583
 30
0.0
 40
1.393768484391395
100
AcDbArc
 50
222.6373822127
 51
272.352009954
  0
LINE
  5
BF
330
1F
100
AcDbEntity
  8
0
  6
Continuous
 62
     7
370
    25
100
AcDbLine
 10
59.1421627009
 20
31.2287161486
 30
0.0
 11
59.1421627009
 21
25.6672537544
 31
0.0
  0
ARC
  5
C0
330
1F
100
AcDbEntity
  8
0
  6
Continuous
 62
     7
370
    25
100
AcDbCircle
 10
59.0312694891
 20
28.7947439367
 30
0.0
 40
3.129455566915799
100
AcDbArc
 50
251.9117403692
 51
272.0307185446
  0
LINE
  5
C1
330
1F
100
AcDbEntity
  8
0
  6
Continuous
 62
     7
370
    25
100
AcDbLine
 10
58.0596309462
 20
13.9159698567
 30
0.0
 11
58.0596309462
 21
19.7732547187
 31
0.0
  0
SPLINE
  5
C2
330
1F
100
AcDbEntity
  8
0
  6
Continuous
 62
     7
370
    25
100
AcDbSpline
210
0.0
220
0.0
230
1.0
 70
     8
 71
     3
 72
    11
 73
     7
 74
     0
 42
0.00000001
 43
0.00000001
 40
0.0
 40
0.0
 40
0.0
 40
0.0
 40
0.2219160282079469
 40
0.446660301815356
 40
0.7206213487886721
 40
1.0
 40
1.0
 40
1.0
 40
1.0
 10
59.14216270093628
 20
25.66725375435528
 30
0.0
 10
59.12923083135076
 20
25.24780170197481
 30
0.0
 10
59.10320227983628
 20
24.40355182139487
 30
0.0
 10
58.99670883704346
 20
23.01297974434989
 30
0.0
 10
59.07704606310354
 20
21.5025250322359
 30
0.0
 10
59.12031594030908
 20
20.45489336940187
 30
0.0
 10
59.14216270093628
 20
19.92594899420328
 30
0.0
  0
ARC
  5
C3
330
1F
100
AcDbEntity
  8
0
  6
Continuous
 62
     7
370
    25
100
AcDbCircle
 10
59.0312694891
 20
16.7984588118
 30
0.0
 40
3.129455566919661
100
AcDbArc
 50
87.9692814554
 51
108.0882596308
  0
LINE
  5
C4
330
1F
100
AcDbEntity
  8
0
  6
Continuous
 62
     7
370
    25
100
AcDbLine
 10
59.1421627009
 20
19.9259489942
 30
0.0
 11
59.1421627009
 21
14.3644866
 31
0.0
  0
ARC
  5
C5
330
1F
100
AcDbEntity
  8
0
  6
Continuous
 62
     7
370
    25
100
AcDbCircle
 10
59.0849641295
 20
12.9718922903
 30
0.0
 40
1.393768484391421
100
AcDbArc
 50
87.647990046
 51
137.3626177873
  0
LINE
  5
C6
330
1F
100
AcDbEntity
  8
0
  6
Continuous
 62
     7
370
    25
100
AcDbLine
 10
60.4204748644
 20
34.3466013743
 30
0.0
 11
60.4204748644
 21
11.2466013743
 31
0.0
  0
LINE
  5
C7
330
1F
100
AcDbEntity
  8
0
  6
Continuous
 62
     7
370
    25
100
AcDbLine
 10
60.2204748644
 20
11.0466013743
 30
0.0
 11
60.2204748644
 21
34.5466013743
 31
0.0
  0
SPLINE
  5
C8
330
1F
100
AcDbEntity
  8
0
  6
Continuous
 62
     7
370
    25
100
AcDbSpline
210
0.0
220
0.0
230
1.0
 70
     8
 71
     3
 72
    11
 73
     7
 74
     0
 42
0.00000001
 43
0.00000001
 40
0.0
 40
0.0
 40
0.0
 40
0.0
 40
0.2219160282077384
 40
0.4466603018149318
 40
0.7206213487884529
 40
1.0
 40
1.0
 40
1.0
 40
1.0
 10
59.14216270093628
 20
14.36448659998549
 30
0.0
 10
59.12923083135079
 20
14.07528565101817
 30
0.0
 10
59.10320227983636
 20
13.49319798392101
 30
0.0
 10
58.99670883704351
 20
12.70844408958046
 30
0.0
 10
59.0770460631034
 20
11.99477185605049
 30
0.0
 10
59.12031594030904
 20
11.66189978640936
 30
0.0
 10
59.14216270093628
 20
11.49383421990949
 30
0.0
  0
SPLINE
  5
C9
330
1F
100
AcDbEntity
  8
0
  6
Continuous
 62
     7
370
    25
100
AcDbSpline
210
0.0
220
0.0
230
1.0
 70
     8
 71
     3
 72
    11
 73
     7
 74
     0
 42
0.00000001
 43
0.00000001
 40
0.0
 40
0.0
 40
0.0
 40
0.0
 40
0.221916028207736
 40
0.4466603018149271
 40
0.7206213487884506
 40
0.9999999999999999
 40
0.9999999999999999
 40
0.9999999999999999
 40
0.9999999999999999
 10
59.14216270093629
 20
34.09936852864907
 30
0.0
 10
59.1292308313508
 20
33.96911742523631
 30
0.0
 10
59.10320227983636
 20
33.70695521175435
 30
0.0
 10
58.99670883704351
 20
33.10113702905038
 30
0.0
 10
59.07704606310342
 20
32.30435455046593
 30
0.0
 10
59.12031594030903
 20
31.58959495727222
 30
0.0
 10
59.14216270093628
 20
31.22871614857308
 30
0.0
  0
ARC
  5
CA
330
1F
100
AcDbEntity
  8
0
  6
Continuous
 62
     7
370
    25
100
AcDbCircle
 10
59.1333559866
 20
10.2344905403
 30
0.0
 40
1.259374472362049
100
AcDbArc
 50
89.599331506
 51
148.4940606845
  0
ARC
  5
CB
330
1F
100
AcDbEntity
  8
0
  6
Continuous
 62
     7
370
    25
100
AcDbCircle
 10
59.1333559866
 20
35.3587122083
 30
0.0
 40
1.259374472359683
100
AcDbArc
 50
211.5059393155
 51
270.400668494
  0
LINE
  5
CC
330
1F
100
AcDbEntity
  8
0
  6
Continuous
 62
     7
370
    25
100
AcDbLine
 10
39.5188963336
 20
12.3191013743
 30
0.0
 11
39.5188963336
 21
33.2741013743
 31
0.0
  0
LINE
  5
CD
330
1F
100
AcDbEntity
  8
0
  6
Continuous
 62
     7
370
    25
100
AcDbLine
 10
24.3608904517
 20
37.9546072562
 30
0.0
 11
13.8833904517
 21
37.9546072562
 31
0.0
  0
LINE
  5
CE
330
1F
100
AcDbEntity
  8
0
  6
Continuous
 62
     7
370
    25
100
AcDbLine
 10
34.8383904517
 20
37.9546072562
 30
0.0
 11
24.3608904517
 21
37.9546072562
 31
0.0
  0
SPLINE
  5
CF
330
1F
100
AcDbEntity
  8
0
  6
Continuous
 62
     7
370
    25
100
AcDbSpline
210
0.0
220
0.0
230
1.0
 70
    24
 71
     3
 72
     8
 73
     4
 74
     0
 42
0.00000001
 43
0.00000001
 40
0.0
 40
0.0
 40
0.0
 40
0.0
 40
1.0
 40
1.0
 40
1.0
 40
1.0
 10
24.36089045166844
 20
31.29660137427928
 30
0.0
 10
25.33754379443127
 20
31.29660137427928
 30
0.0
 10
26.31396862880773
 20
31.29660137427928
 30
0.0
 10
27.23317177493745
 20
31.29660137427928
 30
0.0
  0
SPLINE
  5
D0
330
1F
100
AcDbEntity
  8
0
  6
Continuous
 62
     7
370
    25
100
AcDbSpline
210
0.0
220
0.0
230
1.0
 70
    24
 71
     3
 72
     8
 73
     4
 74
     0
 42
0.00000001
 43
0.00000001
 40
0.0
 40
0.0
 40
0.0
 40
0.0
 40
1.0
 40
1.0
 40
1.0
 40
1.0
 10
21.48860912839942
 20
31.29660137427928
 30
0.0
 10
22.40781227452914
 20
31.29660137427928
 30
0.0
 10
23.38423710890561
 20
31.29660137427928
 30
0.0
 10
24.36089045166844
 20
31.29660137427928
 30
0.0
  0
SPLINE
  5
D1
330
1F
100
AcDbEntity
  8
0
  6
Continuous
 62
     7
370
    25
100
AcDbSpline
210
0.0
220
0.0
230
1.0
 70
     8
 71
     3
 72
     8
 73
     4
 74
     0
 42
0.00000001
 43
0.00000001
 40
0.0
 40
0.0
 40
0.0
 40
0.0
 40
1.0
 40
1.0
 40
1.0
 40
1.0
 10
17.46886607562333
 20
31.1069509974246
 30
0.0
 10
17.3967998292809
 20
31.01591906714552
 30
0.0
 10
17.3363068717147
 20
30.90596383697125
 30
0.0
 10
17.27755711833511
 20
30.79660137427928
 30
0.0
  0
LINE
  5
D2
330
1F
100
AcDbEntity
  8
0
  6
Continuous
 62
     7
370
    25
100
AcDbLine
 10
17.2775571183
 20
30.7966013743
 30
0.0
 11
17.2775571183
 21
18.7966013743
 31
0.0
  0
SPLINE
  5
D3
330
1F
100
AcDbEntity
  8
0
  6
Continuous
 62
     7
370
    25
100
AcDbSpline
210
0.0
220
0.0
230
1.0
 70
     8
 71
     3
 72
    10
 73
     6
 74
     0
 42
0.00000001
 43
0.00000001
 40
0.0
 40
0.0
 40
0.0
 40
0.0
 40
0.0280934765544326
 40
0.0280934765544326
 40
0.0561869531088653
 40
0.0561869531088653
 40
0.0561869531088653
 40
0.0561869531088653
 10
17.27755711833511
 20
18.79660137427928
 30
0.0
 10
17.27755711833511
 20
18.70295645243117
 30
0.0
 10
17.28113461257968
 20
18.6089005472266
 30
0.0
 10
17.29529609064021
 20
18.42262983512058
 30
0.0
 10
17.3058753624865
 20
18.33044736583645
 30
0.0
 10
17.31955636827829
 20
18.24044402620331
 30
0.0
  0
ELLIPSE
  5
D4
330
1F
100
AcDbEntity
  8
0
  6
Continuous
 62
     7
370
    25
100
AcDbEllipse
 10
29.3608904517
 20
21.2577504822
 30
0.0
 11
0.5653269642954513
 21
1.222133505507372E-12
 31
0.0
210
0.0
220
0.0
230
1.0
 40
0.9531667975
 41
0.4357918987532555
 42
2.705800754832194
  0
LINE
  5
D5
330
1F
100
AcDbEntity
  8
0
  6
Continuous
 62
     7
370
    25
100
AcDbLine
 10
27.7563054702
 20
18.431763265
 30
0.0
 11
28.8484011821
 21
21.485214757
 31
0.0
  0
ELLIPSE
  5
D6
330
1F
100
AcDbEntity
  8
0
  6
Continuous
 62
     7
370
    25
100
AcDbEllipse
 10
27.1994662051
 20
18.6127044124
 30
0.0
 11
-0.5883077352006651
 21
2.131628207280301E-14
 31
0.0
210
0.0
220
0.0
230
1.0
 40
0.9531667975
 41
1.047197551197047
 42
2.813039483038256
  0
LINE
  5
D7
330
1F
100
AcDbEntity
  8
0
  6
Continuous
 62
     7
370
    25
100
AcDbLine
 10
26.8605825771
 20
18.1516912747
 30
0.0
 11
26.9053123375
 21
18.1270759908
 31
0.0
  0
LINE
  5
D8
330
1F
100
AcDbEntity
  8
0
  6
Continuous
 62
     7
370
    25
100
AcDbLine
 10
27.5510927053
 20
16.8353486194
 30
0.0
 11
26.8605825771
 21
18.1516912747
 31
0.0
  0
ELLIPSE
  5
D9
330
1F
100
AcDbEntity
  8
0
  6
Continuous
 62
     7
370
    25
100
AcDbEllipse
 10
27.6168675097
 20
16.8666957993
 30
0.0
 11
0.07353846690022081
 21
3.552713678800501E-15
 31
0.0
210
0.0
220
0.0
230
1.0
 40
0.9531667975
 41
3.605240262590528
 42
5.462183310215075
  0
ELLIPSE
  5
DA
330
1F
100
AcDbEntity
  8
0
  6
Continuous
 62
     7
370
    25
100
AcDbEllipse
 10
29.3608904517
 20
15.0815554601
 30
0.0
 11
2.48560018122744
 21
-1.705302565824240E-13
 31
0.0
210
0.0
220
0.0
230
1.0
 40
0.9531667975
 41
0.8210019969645102
 42
2.320590656625381
  0
ELLIPSE
  5
DB
330
1F
100
AcDbEntity
  8
0
  6
Continuous
 62
     7
370
    25
100
AcDbEllipse
 10
31.1049133936
 20
16.8666957993
 30
0.0
 11
0.07353846690018884
 21
2.842170943040401E-14
 31
0.0
210
0.0
220
0.0
230
1.0
 40
0.9531667975
 41
3.962594650553761
 42
5.819537698178436
  0
LINE
  5
DC
330
1F
100
AcDbEntity
  8
0
  6
Continuous
 62
     7
370
    25
100
AcDbLine
 10
31.8611983263
 20
18.1516912747
 30
0.0
 11
31.170688198
 21
16.8353486194
 31
0.0
  0
LINE
  5
DD
330
1F
100
AcDbEntity
  8
0
  6
Continuous
 62
     7
370
    25
100
AcDbLine
 10
31.8250799045
 20
18.1310510295
 30
0.0
 11
31.8611983263
 21
18.1516912747
 31
0.0
  0
ELLIPSE
  5
DE
330
1F
100
AcDbEntity
  8
0
  6
Continuous
 62
     7
370
    25
100
AcDbEllipse
 10
31.5225692559
 20
18.6119926805
 30
0.0
 11
-0.5883077352015924
 21
-1.527666881884215E-13
 31
0.0
210
0.0
220
0.0
230
1.0
 40
0.9531667975
 41
0.3285531705512085
 42
2.110876526947635
  0
LINE
  5
DF
330
1F
100
AcDbEntity
  8
0
  6
Continuous
 62
     7
370
    25
100
AcDbLine
 10
29.8733797212
 20
21.485214757
 30
0.0
 11
30.9657299907
 21
18.4310515331
 31
0.0
  0
SPLINE
  5
E0
330
1F
100
AcDbEntity
  8
0
  6
Continuous
 62
     7
370
    25
100
AcDbSpline
210
0.0
220
0.0
230
1.0
 70
     8
 71
     3
 72
    10
 73
     6
 74
     0
 42
0.00000001
 43
0.00000001
 40
-0.2904940295525288
 40
-0.2904940295525288
 40
-0.2904940295525288
 40
-0.2904940295525288
 40
-0.1303072746110114
 40
-0.1303072746110114
 40
0.001056361752625
 40
0.001056361752625
 40
0.001056361752625
 40
0.001056361752625
 10
32.86089045166844
 20
22.79660137427928
 30
0.0
 10
32.73138713589412
 20
22.27858811118218
 30
0.0
 10
32.59959615774449
 20
21.75466230753808
 30
0.0
 10
32.42117221830376
 20
20.79625984394291
 30
0.0
 10
32.36089045166844
 20
20.36219883888906
 30
0.0
 10
32.36089045166844
 20
19.92432005101027
 30
0.0
  0
LINE
  5
E1
330
1F
100
AcDbEntity
  8
0
  6
Continuous
 62
     7
370
    25
100
AcDbLine
 10
32.3608904517
 20
19.924320051
 30
0.0
 11
32.3608904517
 21
16.2966013743
 31
0.0
  0
LINE
  5
E2
330
1F
100
AcDbEntity
  8
0
  6
Continuous
 62
     7
370
    25
100
AcDbLine
 10
32.3608904517
 20
16.2966013743
 30
0.0
 11
20.3608904517
 21
16.2966013743
 31
0.0
  0
ARC
  5
E3
330
1F
100
AcDbEntity
  8
0
  6
Continuous
 62
     7
370
    25
100
AcDbCircle
 10
20.3608904517
 20
18.7966013743
 30
0.0
 40
2.500000000000004
100
AcDbArc
 50
180.0
 51
270.0
  0
LINE
  5
E4
330
1F
100
AcDbEntity
  8
0
  6
Continuous
 62
     7
370
    25
100
AcDbLine
 10
17.8608904517
 20
18.7966013743
 30
0.0
 11
17.8608904517
 21
30.7966013743
 31
0.0
  0
LINE
  5
E5
330
1F
100
AcDbEntity
  8
0
  6
Continuous
 62
     7
370
    25
100
AcDbLine
 10
17.8608904517
 20
30.7966013743
 30
0.0
 11
21.4886091284
 21
30.7966013743
 31
0.0
  0
SPLINE
  5
E6
330
1F
100
AcDbEntity
  8
0
  6
Continuous
 62
     7
370
    25
100
AcDbSpline
210
0.0
220
0.0
230
1.0
 70
     8
 71
     3
 72
    10
 73
     6
 74
     0
 42
0.00000001
 43
0.00000001
 40
-0.8711658249657241
 40
-0.8711658249657241
 40
-0.8711658249657241
 40
-0.8711658249657241
 40
-0.7398021886020881
 40
-0.7398021886020881
 40
-0.5796154507864705
 40
-0.5796154507864705
 40
-0.5796154507864705
 40
-0.5796154507864705
 10
21.48860912839942
 20
30.79660137427928
 30
0.0
 10
21.92648791627821
 20
30.79660137427928
 30
0.0
 10
22.3605489213326
 20
30.85688314091469
 30
0.0
 10
23.31895132863019
 20
31.03530706987464
 30
0.0
 10
23.84287724393777
 20
31.16709807234654
 30
0.0
 10
24.36089045166844
 20
31.29660137427928
 30
0.0
  0
SPLINE
  5
E7
330
1F
100
AcDbEntity
  8
0
  6
Continuous
 62
     7
370
    25
100
AcDbSpline
210
0.0
220
0.0
230
1.0
 70
     8
 71
     3
 72
    10
 73
     6
 74
     0
 42
0.00000001
 43
0.00000001
 40
-0.2904940295525327
 40
-0.2904940295525327
 40
-0.2904940295525327
 40
-0.2904940295525327
 40
-0.130307291676468
 40
-0.130307291676468
 40
0.0010563446871674
 40
0.0010563446871674
 40
0.0010563446871674
 40
0.0010563446871674
 10
24.36089045166844
 20
31.29660137427928
 30
0.0
 10
24.87890365959461
 20
31.16709807229773
 30
0.0
 10
25.40282957450799
 20
31.03530706991163
 30
0.0
 10
26.36123198200428
 20
30.85688314091469
 30
0.0
 10
26.79529298705867
 20
30.79660137427928
 30
0.0
 10
27.23317177493746
 20
30.79660137427928
 30
0.0
  0
LINE
  5
E8
330
1F
100
AcDbEntity
  8
0
  6
Continuous
 62
     7
370
    25
100
AcDbLine
 10
27.2331717749
 20
30.7966013743
 30
0.0
 11
30.8608904517
 21
30.7966013743
 31
0.0
  0
ARC
  5
E9
330
1F
100
AcDbEntity
  8
0
  6
Continuous
 62
     7
370
    25
100
AcDbCircle
 10
32.3608904517
 20
30.7966013743
 30
0.0
 40
1.500000000000004
100
AcDbArc
 50
180.0
 51
270.0
  0
LINE
  5
EA
330
1F
100
AcDbEntity
  8
0
  6
Continuous
 62
     7
370
    25
100
AcDbLine
 10
32.3608904517
 20
29.2966013743
 30
0.0
 11
32.3608904517
 21
25.6688826975
 31
0.0
  0
SPLINE
  5
EB
330
1F
100
AcDbEntity
  8
0
  6
Continuous
 62
     7
370
    25
100
AcDbSpline
210
0.0
220
0.0
230
1.0
 70
     8
 71
     3
 72
    10
 73
     6
 74
     0
 42
0.00000001
 43
0.00000001
 40
-0.8711658421011628
 40
-0.8711658421011628
 40
-0.8711658421011628
 40
-0.8711658421011628
 40
-0.739802205737527
 40
-0.739802205737527
 40
-0.579615450786466
 40
-0.579615450786466
 40
-0.579615450786466
 40
-0.579615450786466
 10
32.36089045166844
 20
25.6688826975483
 30
0.0
 10
32.36089045166844
 20
25.23100390966951
 30
0.0
 10
32.42117221830376
 20
24.79694290461567
 30
0.0
 10
32.59959615775032
 20
23.83854044098912
 30
0.0
 10
32.73138713588639
 20
23.31461463740722
 30
0.0
 10
32.86089045166844
 20
22.79660137427928
 30
0.0
  0
SPLINE
  5
EC
330
1F
100
AcDbEntity
  8
0
  6
Continuous
 62
     7
370
    25
100
AcDbSpline
210
0.0
220
0.0
230
1.0
 70
    24
 71
     3
 72
     8
 73
     4
 74
     0
 42
0.00000001
 43
0.00000001
 40
0.0
 40
0.0
 40
0.0
 40
0.0
 40
1.0
 40
1.0
 40
1.0
 40
1.0
 10
32.86089045166844
 20
22.79660137427928
 30
0.0
 10
32.86089045166844
 20
21.81994803151645
 30
0.0
 10
32.86089045166844
 20
20.84352319713999
 30
0.0
 10
32.86089045166844
 20
19.92432005101027
 30
0.0
  0
SPLINE
  5
ED
330
1F
100
AcDbEntity
  8
0
  6
Continuous
 62
     7
370
    25
100
AcDbSpline
210
0.0
220
0.0
230
1.0
 70
    24
 71
     3
 72
     8
 73
     4
 74
     0
 42
0.00000001
 43
0.00000001
 40
0.0
 40
0.0
 40
0.0
 40
0.0
 40
1.0
 40
1.0
 40
1.0
 40
1.0
 10
32.86089045166844
 20
25.6688826975483
 30
0.0
 10
32.86089045166844
 20
24.74967955141857
 30
0.0
 10
32.86089045166844
 20
23.77325471704211
 30
0.0
 10
32.86089045166844
 20
22.79660137427928
 30
0.0
  0
SPLINE
  5
EE
330
1F
100
AcDbEntity
  8
0
  6
Continuous
 62
     7
370
    25
100
AcDbSpline
210
0.0
220
0.0
230
1.0
 70
     8
 71
     3
 72
    10
 73
     6
 74
     0
 42
0.00000001
 43
0.00000001
 40
0.0
 40
0.0
 40
0.0
 40
0.0
 40
0.0280934765544328
 40
0.0280934765544328
 40
0.0561869531088657
 40
0.0561869531088657
 40
0.0561869531088657
 40
0.0561869531088657
 10
19.80473310359246
 20
15.75526729088913
 30
0.0
 10
19.8947364432256
 20
15.74158628509734
 30
0.0
 10
19.98691891250973
 20
15.73100701325105
 30
0.0
 10
20.17318962461576
 20
15.71684553519052
 30
0.0
 10
20.26724552982033
 20
15.71326804094595
 30
0.0
 10
20.36089045166844
 20
15.71326804094595
 30
0.0
  0
LINE
  5
EF
330
1F
100
AcDbEntity
  8
0
  6
Continuous
 62
     7
370
    25
100
AcDbLine
 10
20.3608870186
 20
15.7132680409
 30
0.0
 11
32.3608904517
 21
15.7132680409
 31
0.0
  0
SPLINE
  5
F0
330
1F
100
AcDbEntity
  8
0
  6
Continuous
 62
     7
370
    25
100
AcDbSpline
210
0.0
220
0.0
230
1.0
 70
     8
 71
     3
 72
     8
 73
     4
 74
     0
 42
0.00000001
 43
0.00000001
 40
0.0
 40
0.0
 40
0.0
 40
0.0
 40
1.0
 40
1.0
 40
1.0
 40
1.0
 10
32.67124007481377
 20
15.90457699823417
 30
0.0
 10
32.58020814453468
 20
15.83251075189174
 30
0.0
 10
32.47025291436315
 20
15.77201779432398
 30
0.0
 10
32.36089045166844
 20
15.71326804094595
 30
0.0
  0
LINE
  5
F1
330
1F
100
AcDbEntity
  8
0
  6
Continuous
 62
     7
370
    25
100
AcDbLine
 10
32.8608904517
 20
25.6688826975
 30
0.0
 11
32.8608904517
 21
29.2966013743
 31
0.0
  0
SPLINE
  5
F2
330
1F
100
AcDbEntity
  8
0
  6
Continuous
 62
     7
370
    25
100
AcDbSpline
210
0.0
220
0.0
230
1.0
 70
    24
 71
     3
 72
    10
 73
     6
 74
     0
 42
0.00000001
 43
0.00000001
 40
0.0
 40
0.0
 40
0.0
 40
0.0
 40
0.5
 40
0.5
 40
1.0
 40
1.0
 40
1.0
 40
1.0
 10
32.36089045166844
 20
25.6688826975483
 30
0.0
 10
32.49179014556802
 20
25.6688826975483
 30
0.0
 10
32.62188378105008
 20
25.6688826975483
 30
0.0
 10
32.80700390347334
 20
25.6688826975483
 30
0.0
 10
32.86089045166844
 20
25.6688826975483
 30
0.0
 10
32.86089045166844
 20
25.6688826975483
 30
0.0
  0
LINE
  5
F3
330
1F
100
AcDbEntity
  8
0
  6
Continuous
 62
     7
370
    25
100
AcDbLine
 10
32.3608904517
 20
29.2966013743
 30
0.0
 11
32.8608904517
 21
29.2966013743
 31
0.0
  0
SPLINE
  5
F4
330
1F
100
AcDbEntity
  8
0
  6
Continuous
 62
     7
370
    25
100
AcDbSpline
210
0.0
220
0.0
230
1.0
 70
    24
 71
     3
 72
    10
 73
     6
 74
     0
 42
0.00000001
 43
0.00000001
 40
0.0
 40
0.0
 40
0.0
 40
0.0
 40
0.5
 40
0.5
 40
1.0
 40
1.0
 40
1.0
 40
1.0
 10
32.86089045166844
 20
19.92432005101027
 30
0.0
 10
32.86089045166844
 20
19.92432005101027
 30
0.0
 10
32.80700390347335
 20
19.92432005101027
 30
0.0
 10
32.62188378105008
 20
19.92432005101027
 30
0.0
 10
32.49179014556802
 20
19.92432005101027
 30
0.0
 10
32.36089045166844
 20
19.92432005101027
 30
0.0
  0
LINE
  5
F5
330
1F
100
AcDbEntity
  8
0
  6
Continuous
 62
     7
370
    25
100
AcDbLine
 10
32.8608904517
 20
16.2966013743
 30
0.0
 11
32.8608904517
 21
19.924320051
 31
0.0
  0
LINE
  5
F6
330
1F
100
AcDbEntity
  8
0
  6
Continuous
 62
     7
370
    25
100
AcDbLine
 10
32.3608904517
 20
16.2966013743
 30
0.0
 11
32.8608904517
 21
16.2966013743
 31
0.0
  0
LINE
  5
F7
330
1F
100
AcDbEntity
  8
0
  6
Continuous
 62
     7
370
    25
100
AcDbLine
 10
31.3608904517
 20
31.2966013743
 30
0.0
 11
27.2331717749
 21
31.2966013743
 31
0.0
  0
LINE
  5
F8
330
1F
100
AcDbEntity
  8
0
  6
Continuous
 62
     7
370
    25
100
AcDbLine
 10
30.8608904517
 20
30.7966013743
 30
0.0
 11
31.3608904517
 21
31.2966013743
 31
0.0
  0
SPLINE
  5
F9
330
1F
100
AcDbEntity
  8
0
  6
Continuous
 62
     7
370
    25
100
AcDbSpline
210
0.0
220
0.0
230
1.0
 70
    24
 71
     3
 72
    10
 73
     6
 74
     0
 42
0.00000001
 43
0.00000001
 40
0.0
 40
0.0
 40
0.0
 40
0.0
 40
0.5
 40
0.5
 40
1.0
 40
1.0
 40
1.0
 40
1.0
 10
27.23317177493746
 20
31.29660137427929
 30
0.0
 10
27.23317177493746
 20
31.29660137427929
 30
0.0
 10
27.23317177493746
 20
31.24271482608419
 30
0.0
 10
27.23317177493746
 20
31.05759470366093
 30
0.0
 10
27.23317177493746
 20
30.92750106817886
 30
0.0
 10
27.23317177493746
 20
30.79660137427929
 30
0.0
  0
SPLINE
  5
FA
330
1F
100
AcDbEntity
  8
0
  6
Continuous
 62
     7
370
    25
100
AcDbSpline
210
0.0
220
0.0
230
1.0
 70
    24
 71
     3
 72
    10
 73
     6
 74
     0
 42
0.00000001
 43
0.00000001
 40
0.0
 40
0.0
 40
0.0
 40
0.0
 40
0.5
 40
0.5
 40
1.0
 40
1.0
 40
1.0
 40
1.0
 10
21.48860912839942
 20
30.79660137427928
 30
0.0
 10
21.48860912839942
 20
30.92750106817886
 30
0.0
 10
21.48860912839942
 20
31.05759470366093
 30
0.0
 10
21.48860912839942
 20
31.24271482608419
 30
0.0
 10
21.48860912839942
 20
31.29660137427929
 30
0.0
 10
21.48860912839942
 20
31.29660137427928
 30
0.0
  0
LINE
  5
FB
330
1F
100
AcDbEntity
  8
0
  6
Continuous
 62
     7
370
    25
100
AcDbLine
 10
17.8608904517
 20
31.2966013743
 30
0.0
 11
17.8608904517
 21
30.7966013743
 31
0.0
  0
LINE
  5
FC
330
1F
100
AcDbEntity
  8
0
  6
Continuous
 62
     7
370
    25
100
AcDbLine
 10
21.4886091284
 20
31.2966013743
 30
0.0
 11
17.8608904517
 21
31.2966013743
 31
0.0
  0
ELLIPSE
  5
FD
330
1F
100
AcDbEntity
  8
0
  6
Continuous
 62
     7
370
    25
100
AcDbEllipse
 10
29.097549563
 20
18.5021633997
 30
0.0
 11
-0.07353846690022081
 21
0.0
 31
0.0
210
0.0
220
0.0
230
1.0
 40
0.9531667975
 41
5.940161364898039
 42
7.853981633974531
  0
LINE
  5
FE
330
1F
100
AcDbEntity
  8
0
  6
Continuous
 62
     7
370
    25
100
AcDbLine
 10
29.2916361971
 20
19.2285605228
 30
0.0
 11
29.0282953067
 21
18.5257387062
 31
0.0
  0
ELLIPSE
  5
FF
330
1F
100
AcDbEntity
  8
0
  6
Continuous
 62
     7
370
    25
100
AcDbEllipse
 10
29.3608904534
 20
19.2049852164
 30
0.0
 11
0.07353846690022081
 21
0.0
 31
0.0
210
0.0
220
0.0
230
1.0
 40
0.9531667975
 41
0.3430239394902976
 42
2.798568712238679
  0
LINE
  5
100
330
1F
100
AcDbEntity
  8
0
  6
Continuous
 62
     7
370
    25
100
AcDbLine
 10
29.6934855972
 20
18.5257387059
 30
0.0
 11
29.4301447098
 21
19.2285605227
 31
0.0
  0
ELLIPSE
  5
101
330
1F
100
AcDbEntity
  8
0
  6
Continuous
 62
     7
370
    25
100
AcDbEllipse
 10
29.6242313407
 20
18.5021633997
 30
0.0
 11
0.07353846690022081
 21
1.421085471520200E-14
 31
0.0
210
0.0
220
0.0
230
1.0
 40
0.9531667975
 41
4.712388980384518
 42
6.626209245739235
  0
LINE
  5
102
330
1F
100
AcDbEntity
  8
0
  6
Continuous
 62
     7
370
    25
100
AcDbLine
 10
29.097549563
 20
18.4320689747
 30
0.0
 11
29.6242313407
 21
18.4320689747
 31
0.0
  0
ARC
  5
103
330
1F
100
AcDbEntity
  8
0
  6
Continuous
 62
     7
370
    25
100
AcDbCircle
 10
17.8608904517
 20
30.7966013743
 30
0.0
 40
0.5
100
AcDbArc
 50
90.0
 51
180.0
  0
LINE
  5
104
330
1F
100
AcDbEntity
  8
0
  6
Continuous
 62
     7
370
    25
100
AcDbLine
 10
17.8608904517
 20
30.7966013743
 30
0.0
 11
17.3608904517
 21
30.7966013743
 31
0.0
  0
LINE
  5
105
330
1F
100
AcDbEntity
  8
0
  6
Continuous
 62
     7
370
    25
100
AcDbLine
 10
32.3608904517
 20
29.2966013743
 30
0.0
 11
32.3608904517
 21
29.7966013743
 31
0.0
  0
ARC
  5
106
330
1F
100
AcDbEntity
  8
0
  6
Continuous
 62
     7
370
    25
100
AcDbCircle
 10
32.3608904517
 20
29.2966013743
 30
0.0
 40
0.5
100
AcDbArc
 50
0.0
 51
90.0
  0
LINE
  5
107
330
1F
100
AcDbEntity
  8
0
  6
Continuous
 62
     7
370
    25
100
AcDbLine
 10
20.3608904517
 20
16.2966013743
 30
0.0
 11
20.3608904517
 21
15.7966013743
 31
0.0
  0
ARC
  5
108
330
1F
100
AcDbEntity
  8
0
  6
Continuous
 62
     7
370
    25
100
AcDbCircle
 10
20.3608904517
 20
18.7966013743
 30
0.0
 40
3.000000000000002
100
AcDbArc
 50
180.0
 51
270.0
  0
LINE
  5
109
330
1F
100
AcDbEntity
  8
0
  6
Continuous
 62
     7
370
    25
100
AcDbLine
 10
17.8608904517
 20
18.7966013743
 30
0.0
 11
17.3608904517
 21
18.7966013743
 31
0.0
  0
LINE
  5
10A
330
1F
100
AcDbEntity
  8
0
  6
Continuous
 62
     7
370
    25
100
AcDbLine
 10
17.3608904517
 20
30.7966013743
 30
0.0
 11
17.3608904517
 21
18.7966013743
 31
0.0
  0
ARC
  5
10B
330
1F
100
AcDbEntity
  8
0
  6
Continuous
 62
     7
370
    25
100
AcDbCircle
 10
32.3608904517
 20
16.2966013743
 30
0.0
 40
0.5
100
AcDbArc
 50
270.0
 51
0.0
  0
LINE
  5
10C
330
1F
100
AcDbEntity
  8
0
  6
Continuous
 62
     7
370
    25
100
AcDbLine
 10
32.3608904517
 20
15.7966013743
 30
0.0
 11
32.3608904517
 21
16.2966013743
 31
0.0
  0
LINE
  5
10D
330
1F
100
AcDbEntity
  8
0
  6
Continuous
 62
     7
370
    25
100
AcDbLine
 10
20.3608904517
 20
15.7966013743
 30
0.0
 11
32.3608904517
 21
15.7966013743
 31
0.0
  0
LINE
  5
10E
330
1F
100
AcDbEntity
  8
0
  6
Continuous
 62
     7
370
    25
100
AcDbLine
 10
31.3608904517
 20
30.7966013743
 30
0.0
 11
31.3608904517
 21
31.2966013743
 31
0.0
  0
LINE
  5
10F
330
1F
100
AcDbEntity
  8
0
  6
Continuous
 62
     7
370
    25
100
AcDbLine
 10
30.8608904517
 20
30.7966013743
 30
0.0
 11
31.3608904517
 21
30.7966013743
 31
0.0
  0
ARC
  5
110
330
1F
100
AcDbEntity
  8
0
  6
Continuous
 62
     7
370
    25
100
AcDbCircle
 10
32.3608904517
 20
30.7966013743
 30
0.0
 40
1.0
100
AcDbArc
 50
180.0
 51
270.0
  0
LWPOLYLINE
  5
111
330
1F
100
AcDbEntity
  8
0
  6
Continuous
 62
     7
370
    25
100
AcDbPolyline
 90
        9
 70
   128
 43
0.0
 10
19.8841841533
 20
15.8347183406
 10
19.8753047606
 20
15.8346609474
 10
19.8660110788
 20
15.8317059488
 10
19.8563576664
 20
15.8258706921
 10
19.8464011934
 20
15.817189433
 10
19.836200109
 20
15.8057131347
 10
19.8258142984
 20
15.7915091684
 10
19.8153047312
 20
15.774660918
 10
19.8047331036
 20
15.7552672909
  0
SPLINE
  5
112
330
1F
100
AcDbEntity
  8
0
  6
Continuous
 62
     7
370
    25
100
AcDbSpline
210
0.0
220
0.0
230
1.0
 70
     8
 71
     3
 72
    14
 73
    10
 74
     0
 42
0.00000001
 43
0.00000001
 40
-0.4399100083495733
 40
-0.4399100083495733
 40
-0.4399100083495733
 40
-0.4399100083495733
 40
-0.2980125372576002
 40
-0.2980125372576002
 40
-0.1727985319285605
 40
-0.1727985319285605
 40
-0.0664609738186771
 40
-0.0664609738186771
 40
0.0
 40
0.0
 40
0.0
 40
0.0
 10
17.31955636827829
 20
18.24044402620331
 30
0.0
 10
17.37718115585408
 20
17.84569921411176
 30
0.0
 10
17.51659854317511
 20
17.45707836316139
 30
0.0
 10
17.9195029016563
 20
16.80695257675967
 30
0.0
 10
18.16587259414381
 20
16.53615084539788
 30
0.0
 10
18.69774081920123
 20
16.13433631414243
 30
0.0
 10
18.96806821774197
 20
15.99019648798421
 30
0.0
 10
19.43484181922418
 20
15.82719575955983
 30
0.0
 10
19.61984520939969
 20
15.78225719753729
 30
0.0
 10
19.80473310359246
 20
15.75526729088913
 30
0.0
  0
LWPOLYLINE
  5
113
330
1F
100
AcDbEntity
  8
0
  6
Continuous
 62
     7
370
    25
100
AcDbPolyline
 90
        9
 70
   128
 43
0.0
 10
17.399007418
 20
18.3198950759
 10
17.3989500248
 20
18.3110156832
 10
17.3959950262
 20
18.3017220014
 10
17.3901597695
 20
18.292068589
 10
17.3814785104
 20
18.282112116
 10
17.3700022121
 20
18.2719110316
 10
17.3557982457
 20
18.261525221
 10
17.3389499954
 20
18.2510156538
 10
17.3195563683
 20
18.2404440262
  0
LINE
  5
114
330
1F
100
AcDbEntity
  8
0
  6
Continuous
 62
     7
370
    25
100
AcDbLine
 10
17.3608904517
 20
18.7966013743
 30
0.0
 11
17.2775571183
 21
18.7966013743
 31
0.0
  0
LWPOLYLINE
  5
115
330
1F
100
AcDbEntity
  8
0
  6
Continuous
 62
     7
370
    25
100
AcDbPolyline
 90
        9
 70
   128
 43
0.0
 10
20.3608904517
 20
15.7966013743
 10
20.3608904517
 20
15.7952620213
 10
20.3608904517
 20
15.7912511377
 10
20.3608904517
 20
15.7845902116
 10
20.3608904517
 20
15.7753149282
 10
20.3608904517
 20
15.763474979
 10
20.3608904517
 20
15.7491337956
 10
20.3608904517
 20
15.7323682095
 10
20.3608870186
 20
15.7132680409
  0
LINE
  5
116
330
1F
100
AcDbEntity
  8
0
  6
Continuous
 62
     7
370
    25
100
AcDbLine
 10
17.3608904517
 20
30.7966013743
 30
0.0
 11
17.2775571183
 21
30.7966013743
 31
0.0
  0
LINE
  5
117
330
1F
100
AcDbEntity
  8
0
  6
Continuous
 62
     7
370
    25
100
AcDbLine
 10
32.3608904517
 20
15.7132680409
 30
0.0
 11
32.3608904517
 21
15.7966013743
 31
0.0
  0
LINE
  5
118
330
1F
100
AcDbEntity
  8
0
  6
Continuous
 62
     7
370
    25
100
AcDbLine
 10
19.8841841533
 20
15.8347183406
 30
0.0
 11
20.1206769777
 21
15.8073676274
 31
0.0
  0
LINE
  5
119
330
1F
100
AcDbEntity
  8
0
  6
Continuous
 62
     7
370
    25
100
AcDbLine
 10
12.6108904517
 20
57.5778736235
 30
0.0
 11
13.0581232973
 21
57.5778736235
 31
0.0
  0
LINE
  5
11A
330
1F
100
AcDbEntity
  8
0
  6
Continuous
 62
     7
370
    25
100
AcDbLine
 10
35.663657606
 20
57.5778736235
 30
0.0
 11
36.1108904517
 21
57.5778736235
 31
0.0
  0
LINE
  5
11B
330
1F
100
AcDbEntity
  8
0
  6
Continuous
 62
     7
370
    25
100
AcDbLine
 10
36.7358904517
 20
56.4953418688
 30
0.0
 11
36.2648686249
 21
56.4953418688
 31
0.0
  0
LINE
  5
11C
330
1F
100
AcDbEntity
  8
0
  6
Continuous
 62
     7
370
    25
100
AcDbLine
 10
12.4569122784
 20
56.4953418688
 30
0.0
 11
11.9858904517
 21
56.4953418688
 31
0.0
  0
LINE
  5
11D
330
1F
100
AcDbEntity
  8
0
  6
Continuous
 62
     7
370
    25
100
AcDbLine
 10
59.1421627009
 20
11.4938342199
 30
0.0
 11
59.1421627009
 21
11.0466013743
 31
0.0
  0
LINE
  5
11E
330
1F
100
AcDbEntity
  8
0
  6
Continuous
 62
     7
370
    25
100
AcDbLine
 10
59.1421627009
 20
34.5466013743
 30
0.0
 11
59.1421627009
 21
34.0993685286
 31
0.0
  0
LINE
  5
11F
330
1F
100
AcDbEntity
  8
0
  6
Continuous
 62
     7
370
    25
100
AcDbLine
 10
58.0596309462
 20
34.7005795475
 30
0.0
 11
58.0596309462
 21
35.1716013743
 31
0.0
  0
LINE
  5
120
330
1F
100
AcDbEntity
  8
0
  6
Continuous
 62
     7
370
    25
100
AcDbLine
 10
58.0596309462
 20
10.4216013743
 30
0.0
 11
58.0596309462
 21
10.8926232011
 31
0.0
  0
LINE
  5
121
330
1F
100
AcDbEntity
  8
0
  6
Continuous
 62
     7
370
    25
100
AcDbLine
 10
39.0934618391
 20
32.6716013743
 30
0.0
 11
39.0934618391
 21
12.9216013743
 31
0.0
  0
LINE
  5
122
330
1F
100
AcDbEntity
  8
0
  6
Continuous
 62
     7
370
    25
100
AcDbLine
 10
14.4858904517
 20
37.5291727617
 30
0.0
 11
34.2358904517
 21
37.5291727617
 31
0.0
  0
LINE
  5
123
330
1F
100
AcDbEntity
  8
0
  6
Continuous
 62
     7
370
    25
100
AcDbLine
 10
15.8608904517
 20
35.2966013743
 30
0.0
 11
32.8608904517
 21
35.2966013743
 31
0.0
  0
LINE
  5
124
330
1F
100
AcDbEntity
  8
0
  6
Continuous
 62
     7
370
    25
100
AcDbLine
 10
36.8608904517
 20
31.2966013743
 30
0.0
 11
36.8608904517
 21
14.2966013743
 31
0.0
  0
SPLINE
  5
125
330
1F
100
AcDbEntity
  8
0
  6
Continuous
 62
     7
370
    25
100
AcDbSpline
210
0.0
220
0.0
230
1.0
 70
    24
 71
     3
 72
    12
 73
     8
 74
     0
 42
0.00000001
 43
0.00000001
 40
-0.5788447217180464
 40
-0.5788447217180464
 40
-0.5788447217180464
 40
-0.5788447217180464
 40
-0.3728576618289314
 40
-0.3728576618289314
 40
-0.0432783660063474
 40
-0.0432783660063474
 40
0.0
 40
0.0
 40
0.0
 40
0.0
 10
32.86089045166844
 20
31.79660137427928
 30
0.0
 10
32.86089045166862
 20
31.79660137427948
 30
0.0
 10
32.80056869547531
 20
31.73273127948654
 30
0.0
 10
32.49020186091395
 20
31.40410757230394
 30
0.0
 10
32.14726677667186
 20
31.04099983604761
 30
0.0
 10
31.6081407606749
 20
30.470160524992
 30
0.0
 10
31.54325159252468
 20
30.40145434695059
 30
0.0
 10
31.47612834163755
 20
30.33038266954069
 30
0.0
  0
SPLINE
  5
126
330
1F
100
AcDbEntity
  8
0
  6
Continuous
 62
     7
370
    25
100
AcDbSpline
210
0.0
220
0.0
230
1.0
 70
     8
 71
     3
 72
    12
 73
     8
 74
     0
 42
0.00000001
 43
0.00000001
 40
0.0
 40
0.0
 40
0.0
 40
0.0
 40
0.0430206627346149
 40
0.0430206627346149
 40
0.3824319177041577
 40
0.3824319177041577
 40
0.594563952060122
 40
0.594563952060122
 40
0.594563952060122
 40
0.594563952060122
 10
17.31960756035802
 20
18.24044401294788
 30
0.0
 10
17.25130275169818
 20
18.19624648194304
 30
0.0
 10
17.18517703350422
 20
18.15345896059665
 30
0.0
 10
16.61738841670639
 20
17.78606382067482
 30
0.0
 10
16.25390111490423
 20
17.55086454495521
 30
0.0
 10
15.92487906874397
 20
17.33796644398021
 30
0.0
 10
15.86089045193349
 20
17.29656175131301
 30
0.0
 10
15.86089045193349
 20
17.29656175131301
 30
0.0
  0
SPLINE
  5
127
330
1F
100
AcDbEntity
  8
0
  6
Continuous
 62
     7
370
    25
100
AcDbSpline
210
0.0
220
0.0
230
1.0
 70
    24
 71
     3
 72
    12
 73
     8
 74
     0
 42
0.00000001
 43
0.00000001
 40
-0.5788447217180465
 40
-0.5788447217180465
 40
-0.5788447217180465
 40
-0.5788447217180465
 40
-0.535566355711699
 40
-0.535566355711699
 40
-0.205987059889115
 40
-0.205987059889115
 40
0.0
 40
0.0
 40
0.0
 40
0.0
 10
31.89467174692985
 20
29.91183926424839
 30
0.0
 10
31.96574342433975
 20
29.97896251513551
 30
0.0
 10
32.03444960238116
 20
30.04385168328574
 30
0.0
 10
32.60528891343677
 20
30.5829776992827
 30
0.0
 10
32.9683966496931
 20
30.92591278352479
 30
0.0
 10
33.29702035687571
 20
31.23627961808614
 30
0.0
 10
33.36089045166864
 20
31.29660137427946
 30
0.0
 10
33.36089045166845
 20
31.29660137427928
 30
0.0
  0
SPLINE
  5
128
330
1F
100
AcDbEntity
  8
0
  6
Continuous
 62
     7
370
    25
100
AcDbSpline
210
0.0
220
0.0
230
1.0
 70
     8
 71
     3
 72
    12
 73
     8
 74
     0
 42
0.00000001
 43
0.00000001
 40
0.0
 40
0.0
 40
0.0
 40
0.0
 40
0.2121320343559643
 40
0.2121320343559643
 40
0.5515432893255071
 40
0.5515432893255071
 40
0.5945639520601226
 40
0.5945639520601226
 40
0.5945639520601226
 40
0.5945639520601226
 10
18.86085082870217
 20
14.29660137454433
 30
0.0
 10
18.86085082870217
 20
14.29660137454433
 30
0.0
 10
18.90225552136937
 20
14.36058999135481
 30
0.0
 10
19.11515362234437
 20
14.68961203751507
 30
0.0
 10
19.35035289806397
 20
15.05309933931724
 30
0.0
 10
19.71774803798581
 20
15.62088795611506
 30
0.0
 10
19.76053555933219
 20
15.68701367430902
 30
0.0
 10
19.80473309033704
 20
15.75531848296886
 30
0.0
  0
LINE
  5
129
330
1F
100
AcDbEntity
  8
0
  6
CENTERX2
 62
     7
370
    18
100
AcDbLine
 10
64.0497204694
 20
22.7966013743
 30
0.0
 11
11.7414893991
 21
22.7966013743
 31
0.0
  0
LINE
  5
12A
330
1F
100
AcDbEntity
  8
0
  6
CENTERX2
 62
     7
370
    18
100
AcDbLine
 10
24.3608904517
 20
61.9855331435
 30
0.0
 11
24.3608904517
 21
11.6009709
 31
0.0
  0
LINE
  5
12B
330
1F
100
AcDbEntity
  8
0
  6
Continuous
 62
     7
370
    25
100
AcDbLine
 10
77.4245662423
 20
41.0005233544
 30
0.0
 11
77.6745662423
 21
40.8561857871
 31
0.0
  0
LINE
  5
12C
330
1F
100
AcDbEntity
  8
0
  6
Continuous
 62
     7
370
    25
100
AcDbLine
 10
101.1745662423
 20
40.8561857871
 30
0.0
 11
101.4245662423
 21
41.0005233544
 31
0.0
  0
LINE
  5
12D
330
1F
100
AcDbEntity
  8
0
  6
Continuous
 62
     7
370
    25
100
AcDbLine
 10
77.6745662423
 20
58.6561857871
 30
0.0
 11
77.6745662423
 21
57.4736350818
 31
0.0
  0
LINE
  5
12E
330
1F
100
AcDbEntity
  8
0
  6
Continuous
 62
     7
370
    25
100
AcDbLine
 10
101.1745662423
 20
57.4736350818
 30
0.0
 11
101.1745662423
 21
58.6561857871
 31
0.0
  0
LINE
  5
12F
330
1F
100
AcDbEntity
  8
0
  6
Continuous
 62
     7
370
    25
100
AcDbLine
 10
101.1745662423
 20
58.6561857871
 30
0.0
 11
100.9745662423
 21
58.8561857871
 31
0.0
  0
LINE
  5
130
330
1F
100
AcDbEntity
  8
0
  6
Continuous
 62
     7
370
    25
100
AcDbLine
 10
77.8745662423
 20
58.8561857871
 30
0.0
 11
77.6745662423
 21
58.6561857871
 31
0.0
  0
SPLINE
  5
131
330
1F
100
AcDbEntity
  8
0
  6
Continuous
 62
     7
370
    25
100
AcDbSpline
210
0.0
220
0.0
230
1.0
 70
     8
 71
     3
 72
    12
 73
     8
 74
     0
 42
0.00000001
 43
0.00000001
 40
0.0
 40
0.0
 40
0.0
 40
0.0
 40
0.1836468167159068
 40
0.4143319219445244
 40
0.6715808819039553
 40
0.9594044130210817
 40
1.0
 40
1.0
 40
1.0
 40
1.0
 10
101.442545845967
 20
56.69330993173989
 30
0.0
 10
101.4147276381367
 20
56.73059439204109
 30
0.0
 10
101.3519660192776
 20
56.8147131498367
 30
0.0
 10
101.2636947477045
 20
56.9852244105018
 30
0.0
 10
101.1990698032404
 20
57.19658386772605
 30
0.0
 10
101.1674810560789
 20
57.36576772378103
 30
0.0
 10
101.1767674496242
 20
57.46015075433951
 30
0.0
 10
101.1779153322416
 20
57.47181735447103
 30
0.0
  0
SPLINE
  5
132
330
1F
100
AcDbEntity
  8
0
  6
Continuous
 62
     7
370
    25
100
AcDbSpline
210
0.0
220
0.0
230
1.0
 70
     8
 71
     3
 72
    13
 73
     9
 74
     0
 42
0.00000001
 43
0.00000001
 40
0.0
 40
0.0
 40
0.0
 40
0.0
 40
0.0360334893837399
 40
0.3026557473116234
 40
0.5466274597268245
 40
0.7669956923097505
 40
0.961007584049577
 40
1.0
 40
1.0
 40
1.0
 40
1.0
 10
77.67184576550557
 20
57.47198732890935
 30
0.0
 10
77.67278365942553
 20
57.46171676909578
 30
0.0
 10
77.68066130297608
 20
57.37545135298315
 30
0.0
 10
77.6541152623098
 20
57.2193008382326
 30
0.0
 10
77.59831898163311
 20
57.01873651030359
 30
0.0
 10
77.51852178177506
 20
56.85400874858126
 30
0.0
 10
77.45078318470291
 20
56.74726743677601
 30
0.0
 10
77.4168490252808
 20
56.70679214145845
 30
0.0
 10
77.41117026821304
 20
56.70001874929937
 30
0.0
  0
LINE
  5
133
330
1F
100
AcDbEntity
  8
0
  6
Continuous
 62
     7
370
    25
100
AcDbLine
 10
99.9020662423
 20
37.9546072562
 30
0.0
 11
99.9020662423
 21
40.8561857871
 31
0.0
  0
LINE
  5
134
330
1F
100
AcDbEntity
  8
0
  6
Continuous
 62
     7
370
    25
100
AcDbLine
 10
78.9470662423
 20
40.8561857871
 30
0.0
 11
78.9470662423
 21
37.9546072562
 31
0.0
  0
ARC
  5
135
330
1F
100
AcDbEntity
  8
0
  6
Continuous
 62
     7
370
    25
100
AcDbCircle
 10
98.1745662423
 20
39.7617441492
 30
0.0
 40
2.500000000000003
100
AcDbArc
 50
296.7436839504
 51
313.7093197495
  0
ARC
  5
136
330
1F
100
AcDbEntity
  8
0
  6
Continuous
 62
     7
370
    25
100
AcDbCircle
 10
80.6745662423
 20
39.7617441492
 30
0.0
 40
2.500000000000009
100
AcDbArc
 50
226.2906802505
 51
243.2563160496
  0
ARC
  5
137
330
1F
100
AcDbEntity
  8
0
  6
Continuous
 62
     7
370
    25
100
AcDbCircle
 10
100.4245662423
 20
35.2966013743
 30
0.0
 40
2.5
100
AcDbArc
 50
116.7436839504
 51
180.0
  0
ARC
  5
138
330
1F
100
AcDbEntity
  8
0
  6
Continuous
 62
     7
370
    25
100
AcDbCircle
 10
78.4245662423
 20
35.2966013743
 30
0.0
 40
2.500000000000014
100
AcDbArc
 50
0.0
 51
63.2563160496
  0
LINE
  5
139
330
1F
100
AcDbEntity
  8
0
  6
Continuous
 62
     7
370
    25
100
AcDbLine
 10
80.9245662423
 20
35.2966013743
 30
0.0
 11
80.9245662423
 21
31.7455305467
 31
0.0
  0
LINE
  5
13A
330
1F
100
AcDbEntity
  8
0
  6
Continuous
 62
     7
370
    25
100
AcDbLine
 10
97.9245662423
 20
31.7455305467
 30
0.0
 11
97.9245662423
 21
35.2966013743
 31
0.0
  0
SPLINE
  5
13B
330
1F
100
AcDbEntity
  8
0
  6
Continuous
 62
     7
370
    25
100
AcDbSpline
210
0.0
220
0.0
230
1.0
 70
     8
 71
     3
 72
    10
 73
     6
 74
     0
 42
0.00000001
 43
0.00000001
 40
0.0
 40
0.0
 40
0.0
 40
0.0
 40
0.2896830214237568
 40
0.5812913727325414
 40
0.9999999999999999
 40
0.9999999999999999
 40
0.9999999999999999
 40
0.9999999999999999
 10
92.80627123407346
 20
56.49534186881657
 30
0.0
 10
93.31008920751633
 20
56.56394390103511
 30
0.0
 10
94.32107369652962
 20
56.70160391743706
 30
0.0
 10
96.07581338103022
 20
56.7422077688713
 30
0.0
 10
97.31336502920838
 20
56.58689416098429
 30
0.0
 10
98.0428612504868
 20
56.49534186881657
 30
0.0
  0
SPLINE
  5
13C
330
1F
100
AcDbEntity
  8
0
  6
Continuous
 62
     7
370
    25
100
AcDbSpline
210
0.0
220
0.0
230
1.0
 70
     8
 71
     3
 72
     9
 73
     5
 74
     0
 42
0.00000001
 43
0.00000001
 40
0.0
 40
0.0
 40
0.0
 40
0.0
 40
0.4986680494787146
 40
1.0
 40
1.0
 40
1.0
 40
1.0
 10
98.0428612504868
 20
56.49534186881657
 30
0.0
 10
98.61149240489347
 20
56.38753497823226
 30
0.0
 10
99.75179235994592
 20
56.17134528912547
 30
0.0
 10
100.8659855813407
 20
55.81746363163938
 30
0.0
 10
101.4245662422801
 20
55.64005145003819
 30
0.0
  0
LINE
  5
13D
330
1F
100
AcDbEntity
  8
0
  6
Continuous
 62
     7
370
    25
100
AcDbLine
 10
101.4245662423
 20
55.64005145
 30
0.0
 11
101.4245662423
 21
42.0723201241
 31
0.0
  0
SPLINE
  5
13E
330
1F
100
AcDbEntity
  8
0
  6
Continuous
 62
     7
370
    25
100
AcDbSpline
210
0.0
220
0.0
230
1.0
 70
     8
 71
     3
 72
    15
 73
    11
 74
     0
 42
0.00000001
 43
0.00000001
 40
0.0
 40
0.0
 40
0.0
 40
0.0
 40
0.1323065044264403
 40
0.2645755999739298
 40
0.3998036789671092
 40
0.5350073556765891
 40
0.6501969475405018
 40
0.7654045076453763
 40
0.8826909144168966
 40
0.9999999999999999
 40
0.9999999999999999
 40
0.9999999999999999
 40
0.9999999999999999
 10
101.4245662422801
 20
42.07232012408198
 30
0.0
 10
100.9061135130717
 20
41.90916104216424
 30
0.0
 10
99.86935464408715
 20
41.58288901059094
 30
0.0
 10
98.27283719881677
 20
41.23183430757104
 30
0.0
 10
96.6462247871369
 20
41.02075752204191
 30
0.0
 10
95.07854404574987
 20
40.97896021175633
 30
0.0
 10
93.59556785178998
 20
41.08741884445709
 30
0.0
 10
92.19601449236458
 20
41.30964475351796
 30
0.0
 10
90.80278907612121
 20
41.63562252680425
 30
0.0
 10
89.88400346050314
 20
41.92674487719771
 30
0.0
 10
89.42456624228012
 20
42.07232012408197
 30
0.0
  0
LINE
  5
13F
330
1F
100
AcDbEntity
  8
0
  6
Continuous
 62
     7
370
    25
100
AcDbLine
 10
89.4245662423
 20
55.64005145
 30
0.0
 11
89.4245662423
 21
42.0723201241
 31
0.0
  0
SPLINE
  5
140
330
1F
100
AcDbEntity
  8
0
  6
Continuous
 62
     7
370
    25
100
AcDbSpline
210
0.0
220
0.0
230
1.0
 70
     8
 71
     3
 72
     9
 73
     5
 74
     0
 42
0.00000001
 43
0.00000001
 40
0.0
 40
0.0
 40
0.0
 40
0.0
 40
0.498847038423143
 40
1.0
 40
1.0
 40
1.0
 40
1.0
 10
89.42456624228012
 20
55.64005145003819
 30
0.0
 10
89.98036458006328
 20
55.8166274503767
 30
0.0
 10
91.09453043647497
 20
56.1705956745776
 30
0.0
 10
92.23481449906672
 20
56.38692685637658
 30
0.0
 10
92.80627123407346
 20
56.49534186881657
 30
0.0
  0
SPLINE
  5
141
330
1F
100
AcDbEntity
  8
0
  6
Continuous
 62
     7
370
    25
100
AcDbSpline
210
0.0
220
0.0
230
1.0
 70
    24
 71
     3
 72
    11
 73
     7
 74
     0
 42
0.00000001
 43
0.00000001
 40
0.0
 40
0.0
 40
0.0
 40
0.0
 40
0.0000980514193795
 40
0.2567815758851587
 40
0.626456113259286
 40
1.0
 40
1.0
 40
1.0
 40
1.0
 10
101.4245662422801
 20
41.00126758736621
 30
0.0
 10
101.4245662422801
 20
41.00125778414214
 30
0.0
 10
101.4245662422796
 20
40.97558464914694
 30
0.0
 10
101.4245662422805
 20
41.08325411442632
 30
0.0
 10
101.42456624228
 20
41.39357215503961
 30
0.0
 10
101.4245662422801
 20
41.84528689417363
 30
0.0
 10
101.4245662422801
 20
42.07232012408198
 30
0.0
  0
SPLINE
  5
142
330
1F
100
AcDbEntity
  8
0
  6
Continuous
 62
     7
370
    25
100
AcDbSpline
210
0.0
220
0.0
230
1.0
 70
    24
 71
     3
 72
    11
 73
     7
 74
     0
 42
0.00000001
 43
0.00000001
 40
0.0
 40
0.0
 40
0.0
 40
0.0
 40
0.3699763682645034
 40
0.7432124049460069
 40
0.993462517472961
 40
1.0
 40
1.0
 40
1.0
 40
1.0
 10
77.42456624228012
 20
42.07232012408198
 30
0.0
 10
77.42456624228012
 20
41.84741322996628
 30
0.0
 10
77.42456624228014
 20
41.39561790463575
 30
0.0
 10
77.42456624228011
 20
41.08483359928648
 30
0.0
 10
77.42456624228015
 20
40.97809171860504
 30
0.0
 10
77.42456624228012
 20
41.00241654743574
 30
0.0
 10
77.42456624228012
 20
41.00303582635152
 30
0.0
  0
SPLINE
  5
143
330
1F
100
AcDbEntity
  8
0
  6
Continuous
 62
     7
370
    25
100
AcDbSpline
210
0.0
220
0.0
230
1.0
 70
     8
 71
     3
 72
    15
 73
    11
 74
     0
 42
0.00000001
 43
0.00000001
 40
0.0
 40
0.0
 40
0.0
 40
0.0
 40
0.1323065044264403
 40
0.2645755999739298
 40
0.3998036789671094
 40
0.5350073556765895
 40
0.6501969475405023
 40
0.7654045076453767
 40
0.8826909144168968
 40
1.0
 40
1.0
 40
1.0
 40
1.0
 10
89.42456624228012
 20
42.07232012408197
 30
0.0
 10
88.90611351307166
 20
41.90916104216424
 30
0.0
 10
87.86935464408714
 20
41.58288901059094
 30
0.0
 10
86.27283719881677
 20
41.23183430757105
 30
0.0
 10
84.6462247871369
 20
41.0207575220419
 30
0.0
 10
83.07854404574985
 20
40.97896021175633
 30
0.0
 10
81.59556785178998
 20
41.0874188444571
 30
0.0
 10
80.19601449236458
 20
41.30964475351796
 30
0.0
 10
78.8027890761212
 20
41.63562252680425
 30
0.0
 10
77.88400346050314
 20
41.92674487719771
 30
0.0
 10
77.42456624228012
 20
42.07232012408197
 30
0.0
  0
LINE
  5
144
330
1F
100
AcDbEntity
  8
0
  6
Continuous
 62
     7
370
    25
100
AcDbLine
 10
101.1745662423
 20
40.8561857871
 30
0.0
 11
77.6745662423
 21
40.8561857871
 31
0.0
  0
SPLINE
  5
145
330
1F
100
AcDbEntity
  8
0
  6
Continuous
 62
     7
370
    25
100
AcDbSpline
210
0.0
220
0.0
230
1.0
 70
     8
 71
     3
 72
     9
 73
     5
 74
     0
 42
0.00000001
 43
0.00000001
 40
0.0
 40
0.0
 40
0.0
 40
0.0
 40
0.4986680494787146
 40
1.0
 40
1.0
 40
1.0
 40
1.0
 10
86.04286125048678
 20
56.49534186881657
 30
0.0
 10
86.61149240489347
 20
56.38753497823226
 30
0.0
 10
87.75179235994591
 20
56.17134528912548
 30
0.0
 10
88.8659855813407
 20
55.81746363163938
 30
0.0
 10
89.42456624228012
 20
55.64005145003819
 30
0.0
  0
LINE
  5
146
330
1F
100
AcDbEntity
  8
0
  6
Continuous
 62
     7
370
    25
100
AcDbLine
 10
92.8062712341
 20
56.4953418688
 30
0.0
 11
86.0428612505
 21
56.4953418688
 31
0.0
  0
SPLINE
  5
147
330
1F
100
AcDbEntity
  8
0
  6
Continuous
 62
     7
370
    25
100
AcDbSpline
210
0.0
220
0.0
230
1.0
 70
     8
 71
     3
 72
    10
 73
     6
 74
     0
 42
0.00000001
 43
0.00000001
 40
0.0
 40
0.0
 40
0.0
 40
0.0
 40
0.2896830214237577
 40
0.581291372732543
 40
1.0
 40
1.0
 40
1.0
 40
1.0
 10
80.80627123407346
 20
56.49534186881657
 30
0.0
 10
81.31008920751633
 20
56.56394390103511
 30
0.0
 10
82.32107369652962
 20
56.70160391743708
 30
0.0
 10
84.07581338103022
 20
56.74220776887129
 30
0.0
 10
85.31336502920838
 20
56.58689416098429
 30
0.0
 10
86.04286125048678
 20
56.49534186881657
 30
0.0
  0
LINE
  5
148
330
1F
100
AcDbEntity
  8
0
  6
Continuous
 62
     7
370
    25
100
AcDbLine
 10
77.4245662423
 20
55.64005145
 30
0.0
 11
77.4245662423
 21
42.0723201241
 31
0.0
  0
SPLINE
  5
149
330
1F
100
AcDbEntity
  8
0
  6
Continuous
 62
     7
370
    25
100
AcDbSpline
210
0.0
220
0.0
230
1.0
 70
     8
 71
     3
 72
     9
 73
     5
 74
     0
 42
0.00000001
 43
0.00000001
 40
0.0
 40
0.0
 40
0.0
 40
0.0
 40
0.498847038423143
 40
1.0
 40
1.0
 40
1.0
 40
1.0
 10
77.42456624228012
 20
55.64005145003819
 30
0.0
 10
77.98036458006328
 20
55.8166274503767
 30
0.0
 10
79.09453043647498
 20
56.1705956745776
 30
0.0
 10
80.23481449906672
 20
56.38692685637658
 30
0.0
 10
80.80627123407346
 20
56.49534186881657
 30
0.0
  0
ARC
  5
14A
330
1F
100
AcDbEntity
  8
0
  6
Continuous
 62
     7
370
    25
100
AcDbCircle
 10
83.3892401007
 20
57.4687480061
 30
0.0
 40
2.826521663600398
100
AcDbArc
 50
339.8558609029
 51
2.2126105423
  0
LINE
  5
14B
330
1F
100
AcDbEntity
  8
0
  6
Continuous
 62
     7
370
    25
100
AcDbLine
 10
86.2136544319
 20
57.5778736235
 30
0.0
 11
92.6354780527
 21
57.5778736235
 31
0.0
  0
ARC
  5
14C
330
1F
100
AcDbEntity
  8
0
  6
Continuous
 62
     7
370
    25
100
AcDbCircle
 10
95.4598923839
 20
57.4687480061
 30
0.0
 40
2.826521663600682
100
AcDbArc
 50
177.7873894577
 51
200.1441390971
  0
SPLINE
  5
14D
330
1F
100
AcDbEntity
  8
0
  6
Continuous
 62
     7
370
    25
100
AcDbSpline
210
0.0
220
0.0
230
1.0
 70
     8
 71
     3
 72
    11
 73
     7
 74
     0
 42
0.00000001
 43
0.00000001
 40
0.0
 40
0.0
 40
0.0
 40
0.0
 40
0.2219160282077361
 40
0.4466603018149273
 40
0.7206213487884507
 40
1.0
 40
1.0
 40
1.0
 40
1.0
 10
92.63547805266977
 20
57.57787362354712
 30
0.0
 10
93.04461905375972
 20
57.56494175396164
 30
0.0
 10
93.86811542086588
 20
57.5389132024472
 30
0.0
 10
95.12404045602021
 20
57.43241975965434
 30
0.0
 10
96.40814074679992
 20
57.51275698571426
 30
0.0
 10
97.2051749483622
 20
57.55602686291987
 30
0.0
 10
97.6075938258299
 20
57.57787362354712
 30
0.0
  0
ARC
  5
14E
330
1F
100
AcDbEntity
  8
0
  6
Continuous
 62
     7
370
    25
100
AcDbCircle
 10
99.0203348364
 20
57.5171398633
 30
0.0
 40
1.414045880661616
100
AcDbArc
 50
177.5383691894
 51
226.2700553519
  0
ARC
  5
14F
330
1F
100
AcDbEntity
  8
0
  6
Continuous
 62
     7
370
    25
100
AcDbCircle
 10
79.8287976481
 20
57.5171398633
 30
0.0
 40
1.414045880661621
100
AcDbArc
 50
313.7299446481
 51
2.4616308106
  0
SPLINE
  5
150
330
1F
100
AcDbEntity
  8
0
  6
Continuous
 62
     7
370
    25
100
AcDbSpline
210
0.0
220
0.0
230
1.0
 70
     8
 71
     3
 72
    11
 73
     7
 74
     0
 42
0.00000001
 43
0.00000001
 40
0.0
 40
0.0
 40
0.0
 40
0.0
 40
0.2219160282077372
 40
0.4466603018149288
 40
0.7206213487884514
 40
1.0
 40
1.0
 40
1.0
 40
1.0
 10
81.24153865873036
 20
57.57787362354712
 30
0.0
 10
81.55890992370173
 20
57.56494175396163
 30
0.0
 10
82.19769724404256
 20
57.5389132024472
 30
0.0
 10
83.35031369791591
 20
57.43241975965435
 30
0.0
 10
84.68239771105021
 20
57.51275698571423
 30
0.0
 10
85.69991477713572
 20
57.55602686291989
 30
0.0
 10
86.21365443189048
 20
57.57787362354712
 30
0.0
  0
LINE
  5
151
330
1F
100
AcDbEntity
  8
0
  6
Continuous
 62
     7
370
    25
100
AcDbLine
 10
101.1745662423
 20
58.6561857871
 30
0.0
 11
77.6745662423
 21
58.6561857871
 31
0.0
  0
LINE
  5
152
330
1F
100
AcDbEntity
  8
0
  6
Continuous
 62
     7
370
    25
100
AcDbLine
 10
97.6075938258
 20
57.5778736235
 30
0.0
 11
100.8185056362
 21
57.5778736235
 31
0.0
  0
LINE
  5
153
330
1F
100
AcDbEntity
  8
0
  6
Continuous
 62
     7
370
    25
100
AcDbLine
 10
78.0306268483
 20
57.5778736235
 30
0.0
 11
81.2415386587
 21
57.5778736235
 31
0.0
  0
LINE
  5
154
330
1F
100
AcDbEntity
  8
0
  6
Continuous
 62
     7
370
    25
100
AcDbLine
 10
77.8745662423
 20
58.8561857871
 30
0.0
 11
100.9745662423
 21
58.8561857871
 31
0.0
  0
LINE
  5
155
330
1F
100
AcDbEntity
  8
0
  6
Continuous
 62
     7
370
    25
100
AcDbLine
 10
101.4245662423
 20
56.4953418688
 30
0.0
 11
98.0428612505
 21
56.4953418688
 31
0.0
  0
SPLINE
  5
156
330
1F
100
AcDbEntity
  8
0
  6
Continuous
 62
     7
370
    25
100
AcDbSpline
210
0.0
220
0.0
230
1.0
 70
    24
 71
     3
 72
     9
 73
     5
 74
     0
 42
0.00000001
 43
0.00000001
 40
0.0
 40
0.0
 40
0.0
 40
0.0
 40
0.4988470384231428
 40
1.0
 40
1.0
 40
1.0
 40
1.0
 10
101.4245662422801
 20
55.64005145003819
 30
0.0
 10
101.4245662422801
 20
55.8166274503767
 30
0.0
 10
101.4245662422801
 20
56.1705956745776
 30
0.0
 10
101.4245662422801
 20
56.38692685637658
 30
0.0
 10
101.4245662422801
 20
56.49534186881657
 30
0.0
  0
ARC
  5
157
330
1F
100
AcDbEntity
  8
0
  6
Continuous
 62
     7
370
    25
100
AcDbCircle
 10
102.0757596974
 20
57.5708345037
 30
0.0
 40
1.257273766365389
100
AcDbArc
 50
179.6792154745
 51
238.8057704957
  0
LINE
  5
158
330
1F
100
AcDbEntity
  8
0
  6
Continuous
 62
     7
370
    25
100
AcDbLine
 10
80.8062712341
 20
56.4953418688
 30
0.0
 11
77.4245662423
 21
56.4953418688
 31
0.0
  0
ARC
  5
159
330
1F
100
AcDbEntity
  8
0
  6
Continuous
 62
     7
370
    25
100
AcDbCircle
 10
76.7733727871
 20
57.5708345037
 30
0.0
 40
1.257273766365368
100
AcDbArc
 50
301.1942295043
 51
0.3207845255
  0
SPLINE
  5
15A
330
1F
100
AcDbEntity
  8
0
  6
Continuous
 62
     7
370
    25
100
AcDbSpline
210
0.0
220
0.0
230
1.0
 70
    24
 71
     3
 72
     9
 73
     5
 74
     0
 42
0.00000001
 43
0.00000001
 40
0.0
 40
0.0
 40
0.0
 40
0.0
 40
0.4986680494787147
 40
1.0
 40
1.0
 40
1.0
 40
1.0
 10
77.42456624228012
 20
56.49534186881657
 30
0.0
 10
77.42456624228012
 20
56.38753497823226
 30
0.0
 10
77.42456624228012
 20
56.17134528912547
 30
0.0
 10
77.42456624228012
 20
55.81746363163939
 30
0.0
 10
77.42456624228012
 20
55.64005145003819
 30
0.0
  0
SPLINE
  5
15B
330
1F
100
AcDbEntity
  8
0
  6
Continuous
 62
     7
370
    25
100
AcDbSpline
210
0.0
220
0.0
230
1.0
 70
    24
 71
     3
 72
     9
 73
     5
 74
     0
 42
0.00000001
 43
0.00000001
 40
0.0
 40
0.0
 40
0.0
 40
0.0
 40
0.4552559709909297
 40
0.9999999999999999
 40
0.9999999999999999
 40
0.9999999999999999
 40
0.9999999999999999
 10
101.4245662422801
 20
56.49534186881657
 30
0.0
 10
101.4245662422801
 20
56.55170959011982
 30
0.0
 10
101.4245662422801
 20
56.67552503658298
 30
0.0
 10
101.4245662422801
 20
56.67868915904946
 30
0.0
 10
101.4245662422801
 20
56.68041279587013
 30
0.0
  0
SPLINE
  5
15C
330
1F
100
AcDbEntity
  8
0
  6
Continuous
 62
     7
370
    25
100
AcDbSpline
210
0.0
220
0.0
230
1.0
 70
    24
 71
     3
 72
     9
 73
     5
 74
     0
 42
0.00000001
 43
0.00000001
 40
0.0
 40
0.0
 40
0.0
 40
0.0
 40
0.5992879846213561
 40
1.0
 40
1.0
 40
1.0
 40
1.0
 10
77.42456624228012
 20
56.68925980289226
 30
0.0
 10
77.42456624228012
 20
56.68920173265892
 30
0.0
 10
77.42456624228012
 20
56.68910483394772
 30
0.0
 10
77.42456624228014
 20
56.5507730690997
 30
0.0
 10
77.42456624228012
 20
56.49534186881657
 30
0.0
  0
CIRCLE
  5
15D
330
1F
100
AcDbEntity
  8
0
  6
Continuous
 62
     7
370
    25
100
AcDbCircle
 10
89.4245662423
 20
22.7966013743
 30
0.0
 40
11.55000000000003
  0
CIRCLE
  5
15E
330
1F
100
AcDbEntity
  8
0
  6
Continuous
 62
     7
370
    25
100
AcDbCircle
 10
89.4245662423
 20
22.7966013743
 30
0.0
 40
11.75000000000001
  0
CIRCLE
  5
15F
330
1F
100
AcDbEntity
  8
0
  6
Continuous
 62
     7
370
    25
100
AcDbCircle
 10
89.4245662423
 20
22.7966013743
 30
0.0
 40
6.174999999999997
  0
CIRCLE
  5
160
330
1F
100
AcDbEntity
  8
0
  6
Continuous
 62
     7
370
    25
100
AcDbCircle
 10
89.4245662423
 20
22.7966013743
 30
0.0
 40
6.075000000000003
  0
LINE
  5
161
330
1F
100
AcDbEntity
  8
0
  6
Continuous
 62
     7
370
    25
100
AcDbLine
 10
101.4245662423
 20
25.8199480299
 30
0.0
 11
100.8185056362
 21
25.6672537544
 31
0.0
  0
SPLINE
  5
162
330
1F
100
AcDbEntity
  8
0
  6
Continuous
 62
     7
370
    25
100
AcDbSpline
210
0.0
220
0.0
230
1.0
 70
    24
 71
     3
 72
    10
 73
     6
 74
     0
 42
0.00000001
 43
0.00000001
 40
0.0
 40
0.0
 40
0.0
 40
0.0
 40
0.3910406133635747
 40
0.7869660949554499
 40
0.9999999999999999
 40
0.9999999999999999
 40
0.9999999999999999
 40
0.9999999999999999
 10
101.4245662422801
 20
19.77325471866728
 30
0.0
 10
101.4245662422801
 20
20.55960915279593
 30
0.0
 10
101.4245662422801
 20
22.14214113829523
 30
0.0
 10
101.4245662422801
 20
24.1707960045194
 30
0.0
 10
101.4245662422801
 20
25.39254150537008
 30
0.0
 10
101.4245662422801
 20
25.81994802989127
 30
0.0
  0
LINE
  5
163
330
1F
100
AcDbEntity
  8
0
  6
Continuous
 62
     7
370
    25
100
AcDbLine
 10
100.8185056362
 20
19.9259489942
 30
0.0
 11
101.4245662423
 21
19.7732547187
 31
0.0
  0
SPLINE
  5
164
330
1F
100
AcDbEntity
  8
0
  6
Continuous
 62
     7
370
    25
100
AcDbSpline
210
0.0
220
0.0
230
1.0
 70
    24
 71
     3
 72
    10
 73
     6
 74
     0
 42
0.00000001
 43
0.00000001
 40
0.0
 40
0.0
 40
0.0
 40
0.0
 40
0.2896830214237576
 40
0.5812913727325432
 40
0.9999999999999999
 40
0.9999999999999999
 40
0.9999999999999999
 40
0.9999999999999999
 10
98.04286125048681
 20
31.67723289188659
 30
0.0
 10
97.53904327704394
 20
31.96811233447639
 30
0.0
 10
96.52805878803063
 20
32.55180450135475
 30
0.0
 10
94.77331910353006
 20
33.56490393055888
 30
0.0
 10
93.53576745535189
 20
34.27940470777062
 30
0.0
 10
92.80627123407349
 20
34.70057954749852
 30
0.0
  0
LINE
  5
165
330
1F
100
AcDbEntity
  8
0
  6
Continuous
 62
     7
370
    25
100
AcDbLine
 10
98.0428612505
 20
31.6772328919
 30
0.0
 11
97.6075938258
 21
31.2287161486
 31
0.0
  0
LINE
  5
166
330
1F
100
AcDbEntity
  8
0
  6
Continuous
 62
     7
370
    25
100
AcDbLine
 10
92.8062712341
 20
34.7005795475
 30
0.0
 11
92.6354780527
 21
34.0993685286
 31
0.0
  0
LINE
  5
167
330
1F
100
AcDbEntity
  8
0
  6
Continuous
 62
     7
370
    25
100
AcDbLine
 10
97.6075938258
 20
14.3644866
 30
0.0
 11
98.0428612505
 21
13.9159698567
 31
0.0
  0
SPLINE
  5
168
330
1F
100
AcDbEntity
  8
0
  6
Continuous
 62
     7
370
    25
100
AcDbSpline
210
0.0
220
0.0
230
1.0
 70
    24
 71
     3
 72
    10
 73
     6
 74
     0
 42
0.00000001
 43
0.00000001
 40
0.0
 40
0.0
 40
0.0
 40
0.0
 40
0.2896830214237567
 40
0.5812913727325408
 40
0.9999999999999999
 40
0.9999999999999999
 40
0.9999999999999999
 40
0.9999999999999999
 10
92.80627123407346
 20
10.89262320106003
 30
0.0
 10
93.31008920751633
 20
11.18350264364984
 30
0.0
 10
94.32107369652964
 20
11.76719481052821
 30
0.0
 10
96.07581338103023
 20
12.78029423973235
 30
0.0
 10
97.3133650292084
 20
13.49479501694409
 30
0.0
 10
98.04286125048682
 20
13.91596985667199
 30
0.0
  0
LINE
  5
169
330
1F
100
AcDbEntity
  8
0
  6
Continuous
 62
     7
370
    25
100
AcDbLine
 10
92.6354780527
 20
11.4938342199
 30
0.0
 11
92.8062712341
 21
10.8926232011
 31
0.0
  0
SPLINE
  5
16A
330
1F
100
AcDbEntity
  8
0
  6
Continuous
 62
     7
370
    25
100
AcDbSpline
210
0.0
220
0.0
230
1.0
 70
    24
 71
     3
 72
    10
 73
     6
 74
     0
 42
0.00000001
 43
0.00000001
 40
0.0
 40
0.0
 40
0.0
 40
0.0
 40
0.289683021423757
 40
0.5812913727325415
 40
1.0
 40
1.0
 40
1.0
 40
1.0
 10
86.0428612504868
 20
34.70057954749853
 30
0.0
 10
85.53904327704394
 20
34.40970010490872
 30
0.0
 10
84.52805878803065
 20
33.82600793803035
 30
0.0
 10
82.77331910353004
 20
32.81290850882622
 30
0.0
 10
81.53576745535187
 20
32.09840773161449
 30
0.0
 10
80.80627123407346
 20
31.67723289188658
 30
0.0
  0
LINE
  5
16B
330
1F
100
AcDbEntity
  8
0
  6
Continuous
 62
     7
370
    25
100
AcDbLine
 10
86.0428612505
 20
34.7005795475
 30
0.0
 11
86.2136544319
 21
34.0993685286
 31
0.0
  0
LINE
  5
16C
330
1F
100
AcDbEntity
  8
0
  6
Continuous
 62
     7
370
    25
100
AcDbLine
 10
80.8062712341
 20
31.6772328919
 30
0.0
 11
81.2415386587
 21
31.2287161486
 31
0.0
  0
LINE
  5
16D
330
1F
100
AcDbEntity
  8
0
  6
Continuous
 62
     7
370
    25
100
AcDbLine
 10
86.2136544319
 20
11.4938342199
 30
0.0
 11
86.0428612505
 21
10.8926232011
 31
0.0
  0
SPLINE
  5
16E
330
1F
100
AcDbEntity
  8
0
  6
Continuous
 62
     7
370
    25
100
AcDbSpline
210
0.0
220
0.0
230
1.0
 70
    24
 71
     3
 72
    10
 73
     6
 74
     0
 42
0.00000001
 43
0.00000001
 40
0.0
 40
0.0
 40
0.0
 40
0.0
 40
0.2896830214237569
 40
0.5812913727325415
 40
1.0
 40
1.0
 40
1.0
 40
1.0
 10
80.80627123407346
 20
13.91596985667199
 30
0.0
 10
81.31008920751633
 20
13.62509041408218
 30
0.0
 10
82.32107369652962
 20
13.04139824720382
 30
0.0
 10
84.07581338103022
 20
12.02829881799968
 30
0.0
 10
85.3133650292084
 20
11.31379804078794
 30
0.0
 10
86.0428612504868
 20
10.89262320106004
 30
0.0
  0
LINE
  5
16F
330
1F
100
AcDbEntity
  8
0
  6
Continuous
 62
     7
370
    25
100
AcDbLine
 10
81.2415386587
 20
14.3644866
 30
0.0
 11
80.8062712341
 21
13.9159698567
 31
0.0
  0
LINE
  5
170
330
1F
100
AcDbEntity
  8
0
  6
Continuous
 62
     7
370
    25
100
AcDbLine
 10
78.0306268483
 20
19.9259489942
 30
0.0
 11
77.4245662423
 21
19.7732547187
 31
0.0
  0
SPLINE
  5
171
330
1F
100
AcDbEntity
  8
0
  6
Continuous
 62
     7
370
    25
100
AcDbSpline
210
0.0
220
0.0
230
1.0
 70
    24
 71
     3
 72
    10
 73
     6
 74
     0
 42
0.00000001
 43
0.00000001
 40
0.0
 40
0.0
 40
0.0
 40
0.0
 40
0.2130338126352574
 40
0.6040068415968868
 40
0.9999999999999999
 40
0.9999999999999999
 40
0.9999999999999999
 40
0.9999999999999999
 10
77.42456624228012
 20
25.81994802989124
 30
0.0
 10
77.42456624228012
 20
25.39254114049051
 30
0.0
 10
77.42456624228014
 20
24.18073029154474
 30
0.0
 10
77.42456624228012
 20
22.15226932896428
 30
0.0
 10
77.42456624228012
 20
20.5696248667954
 30
0.0
 10
77.42456624228012
 20
19.77325471866732
 30
0.0
  0
LINE
  5
172
330
1F
100
AcDbEntity
  8
0
  6
Continuous
 62
     7
370
    25
100
AcDbLine
 10
77.4245662423
 20
25.8199480299
 30
0.0
 11
78.0306268483
 21
25.6672537544
 31
0.0
  0
ARC
  5
173
330
1F
100
AcDbEntity
  8
0
  6
Continuous
 62
     7
370
    25
100
AcDbCircle
 10
89.4245662423
 20
22.7966013743
 30
0.0
 40
12.37500000000001
100
AcDbArc
 50
314.1411102339
 51
345.8588897661
  0
ARC
  5
174
330
1F
100
AcDbEntity
  8
0
  6
Continuous
 62
     7
370
    25
100
AcDbCircle
 10
89.4245662423
 20
22.7966013743
 30
0.0
 40
12.37500000000001
100
AcDbArc
 50
14.1411102339
 51
45.8588897661
  0
ARC
  5
175
330
1F
100
AcDbEntity
  8
0
  6
Continuous
 62
     7
370
    25
100
AcDbCircle
 10
89.4245662423
 20
22.7966013743
 30
0.0
 40
12.37500000000001
100
AcDbArc
 50
74.1411102339
 51
105.8588897661
  0
ARC
  5
176
330
1F
100
AcDbEntity
  8
0
  6
Continuous
 62
     7
370
    25
100
AcDbCircle
 10
89.4245662423
 20
22.7966013743
 30
0.0
 40
12.37500000000001
100
AcDbArc
 50
254.1411102339
 51
285.8588897661
  0
ARC
  5
177
330
1F
100
AcDbEntity
  8
0
  6
Continuous
 62
     7
370
    25
100
AcDbCircle
 10
89.4245662423
 20
22.7966013743
 30
0.0
 40
12.37500000000001
100
AcDbArc
 50
134.1411102339
 51
165.8588897661
  0
ARC
  5
178
330
1F
100
AcDbEntity
  8
0
  6
Continuous
 62
     7
370
    25
100
AcDbCircle
 10
89.4245662423
 20
22.7966013743
 30
0.0
 40
12.37500000000001
100
AcDbArc
 50
194.1411102339
 51
225.8588897661
  0
SPLINE
  5
179
330
1F
100
AcDbEntity
  8
0
  6
Continuous
 62
     7
370
    25
100
AcDbSpline
210
0.0
220
0.0
230
1.0
 70
    24
 71
     3
 72
     9
 73
     5
 74
     0
 42
0.00000001
 43
0.00000001
 40
0.0
 40
0.0
 40
0.0
 40
0.0
 40
0.4988470384231433
 40
1.0
 40
1.0
 40
1.0
 40
1.0
 10
101.4245662422801
 20
29.7248046045548
 30
0.0
 10
100.868767904497
 20
30.04569492448905
 30
0.0
 10
99.75460204808529
 20
30.68895888161023
 30
0.0
 10
98.61431798549354
 20
31.34730219210022
 30
0.0
 10
98.04286125048681
 20
31.67723289188659
 30
0.0
  0
SPLINE
  5
17A
330
1F
100
AcDbEntity
  8
0
  6
Continuous
 62
     7
370
    25
100
AcDbSpline
210
0.0
220
0.0
230
1.0
 70
    24
 71
     3
 72
     9
 73
     5
 74
     0
 42
0.00000001
 43
0.00000001
 40
0.0
 40
0.0
 40
0.0
 40
0.0
 40
0.4986680494787144
 40
1.0
 40
1.0
 40
1.0
 40
1.0
 10
101.4245662422801
 20
25.81994802989127
 30
0.0
 10
101.4245662422801
 20
26.47654673002386
 30
0.0
 10
101.4245662422801
 20
27.79325170203676
 30
0.0
 10
101.4245662422801
 20
29.0798112146398
 30
0.0
 10
101.4245662422801
 20
29.7248046045548
 30
0.0
  0
SPLINE
  5
17B
330
1F
100
AcDbEntity
  8
0
  6
Continuous
 62
     7
370
    25
100
AcDbSpline
210
0.0
220
0.0
230
1.0
 70
    24
 71
     3
 72
     9
 73
     5
 74
     0
 42
0.00000001
 43
0.00000001
 40
0.0
 40
0.0
 40
0.0
 40
0.0
 40
0.4986680494787145
 40
1.0
 40
1.0
 40
1.0
 40
1.0
 10
98.04286125048682
 20
13.91596985667199
 30
0.0
 10
98.61149240489348
 20
14.24426920673829
 30
0.0
 10
99.75179235994594
 20
14.90262169274474
 30
0.0
 10
100.8659855813407
 20
15.54590144904626
 30
0.0
 10
101.4245662422801
 20
15.86839814400376
 30
0.0
  0
SPLINE
  5
17C
330
1F
100
AcDbEntity
  8
0
  6
Continuous
 62
     7
370
    25
100
AcDbSpline
210
0.0
220
0.0
230
1.0
 70
    24
 71
     3
 72
     9
 73
     5
 74
     0
 42
0.00000001
 43
0.00000001
 40
0.0
 40
0.0
 40
0.0
 40
0.0
 40
0.4060341230684885
 40
1.0
 40
1.0
 40
1.0
 40
1.0
 10
101.4245662422801
 20
15.86839814400376
 30
0.0
 10
101.4245662422801
 20
16.39029243092898
 30
0.0
 10
101.4245662422801
 20
17.67563831018945
 30
0.0
 10
101.4245662422801
 20
18.99161153071778
 30
0.0
 10
101.4245662422801
 20
19.77325471866728
 30
0.0
  0
SPLINE
  5
17D
330
1F
100
AcDbEntity
  8
0
  6
Continuous
 62
     7
370
    25
100
AcDbSpline
210
0.0
220
0.0
230
1.0
 70
    24
 71
     3
 72
     9
 73
     5
 74
     0
 42
0.00000001
 43
0.00000001
 40
0.0
 40
0.0
 40
0.0
 40
0.0
 40
0.4988470384231432
 40
1.0
 40
1.0
 40
1.0
 40
1.0
 10
89.42456624228014
 20
36.65300783483031
 30
0.0
 10
88.86876790449698
 20
36.33211751489605
 30
0.0
 10
87.75460204808529
 20
35.68885355777488
 30
0.0
 10
86.61431798549354
 20
35.03051024728489
 30
0.0
 10
86.0428612504868
 20
34.70057954749853
 30
0.0
  0
SPLINE
  5
17E
330
1F
100
AcDbEntity
  8
0
  6
Continuous
 62
     7
370
    25
100
AcDbSpline
210
0.0
220
0.0
230
1.0
 70
    24
 71
     3
 72
     9
 73
     5
 74
     0
 42
0.00000001
 43
0.00000001
 40
0.0
 40
0.0
 40
0.0
 40
0.0
 40
0.498668049478715
 40
1.0
 40
1.0
 40
1.0
 40
1.0
 10
92.80627123407349
 20
34.70057954749852
 30
0.0
 10
92.2376400796668
 20
35.02887889756482
 30
0.0
 10
91.09734012461436
 20
35.68723138357127
 30
0.0
 10
89.98314690321958
 20
36.3305111398728
 30
0.0
 10
89.42456624228014
 20
36.65300783483031
 30
0.0
  0
SPLINE
  5
17F
330
1F
100
AcDbEntity
  8
0
  6
Continuous
 62
     7
370
    25
100
AcDbSpline
210
0.0
220
0.0
230
1.0
 70
    24
 71
     3
 72
     9
 73
     5
 74
     0
 42
0.00000001
 43
0.00000001
 40
0.0
 40
0.0
 40
0.0
 40
0.0
 40
0.4986680494787146
 40
1.0
 40
1.0
 40
1.0
 40
1.0
 10
86.0428612504868
 20
10.89262320106004
 30
0.0
 10
86.61149240489348
 20
10.56432385099374
 30
0.0
 10
87.75179235994592
 20
9.905971364987282
 30
0.0
 10
88.86598558134071
 20
9.262691608685758
 30
0.0
 10
89.42456624228014
 20
8.940194913728254
 30
0.0
  0
SPLINE
  5
180
330
1F
100
AcDbEntity
  8
0
  6
Continuous
 62
     7
370
    25
100
AcDbSpline
210
0.0
220
0.0
230
1.0
 70
    24
 71
     3
 72
     9
 73
     5
 74
     0
 42
0.00000001
 43
0.00000001
 40
0.0
 40
0.0
 40
0.0
 40
0.0
 40
0.4988470384231434
 40
1.0
 40
1.0
 40
1.0
 40
1.0
 10
89.42456624228014
 20
8.940194913728254
 30
0.0
 10
89.9803645800633
 20
9.261085233662508
 30
0.0
 10
91.09453043647497
 20
9.904349190783687
 30
0.0
 10
92.23481449906672
 20
10.56269250127367
 30
0.0
 10
92.80627123407346
 20
10.89262320106003
 30
0.0
  0
SPLINE
  5
181
330
1F
100
AcDbEntity
  8
0
  6
Continuous
 62
     7
370
    25
100
AcDbSpline
210
0.0
220
0.0
230
1.0
 70
    24
 71
     3
 72
     9
 73
     5
 74
     0
 42
0.00000001
 43
0.00000001
 40
0.0
 40
0.0
 40
0.0
 40
0.0
 40
0.4988470384231434
 40
1.0
 40
1.0
 40
1.0
 40
1.0
 10
77.42456624228012
 20
29.7248046045548
 30
0.0
 10
77.42456624228012
 20
29.08302396468629
 30
0.0
 10
77.42456624228012
 20
27.79649605044394
 30
0.0
 10
77.42456624228012
 20
26.47980942946397
 30
0.0
 10
77.42456624228012
 20
25.81994802989124
 30
0.0
  0
SPLINE
  5
182
330
1F
100
AcDbEntity
  8
0
  6
Continuous
 62
     7
370
    25
100
AcDbSpline
210
0.0
220
0.0
230
1.0
 70
    24
 71
     3
 72
     9
 73
     5
 74
     0
 42
0.00000001
 43
0.00000001
 40
0.0
 40
0.0
 40
0.0
 40
0.0
 40
0.4986680494787147
 40
1.0
 40
1.0
 40
1.0
 40
1.0
 10
80.80627123407346
 20
31.67723289188658
 30
0.0
 10
80.2376400796668
 20
31.34893354182028
 30
0.0
 10
79.09734012461433
 20
30.69058105581383
 30
0.0
 10
77.98314690321958
 20
30.0473012995123
 30
0.0
 10
77.42456624228012
 20
29.7248046045548
 30
0.0
  0
SPLINE
  5
183
330
1F
100
AcDbEntity
  8
0
  6
Continuous
 62
     7
370
    25
100
AcDbSpline
210
0.0
220
0.0
230
1.0
 70
    24
 71
     3
 72
     9
 73
     5
 74
     0
 42
0.00000001
 43
0.00000001
 40
0.0
 40
0.0
 40
0.0
 40
0.0
 40
0.5939658769315153
 40
1.0
 40
1.0
 40
1.0
 40
1.0
 10
77.42456624228012
 20
19.77325471866732
 30
0.0
 10
77.42456624228012
 20
18.99161153071782
 30
0.0
 10
77.42456624228014
 20
17.67563831018947
 30
0.0
 10
77.42456624228012
 20
16.39029243092899
 30
0.0
 10
77.42456624228012
 20
15.86839814400377
 30
0.0
  0
SPLINE
  5
184
330
1F
100
AcDbEntity
  8
0
  6
Continuous
 62
     7
370
    25
100
AcDbSpline
210
0.0
220
0.0
230
1.0
 70
    24
 71
     3
 72
     9
 73
     5
 74
     0
 42
0.00000001
 43
0.00000001
 40
0.0
 40
0.0
 40
0.0
 40
0.0
 40
0.4988470384231433
 40
1.0
 40
1.0
 40
1.0
 40
1.0
 10
77.42456624228012
 20
15.86839814400377
 30
0.0
 10
77.98036458006328
 20
15.54750782406952
 30
0.0
 10
79.09453043647498
 20
14.90424386694834
 30
0.0
 10
80.23481449906672
 20
14.24590055645836
 30
0.0
 10
80.80627123407346
 20
13.91596985667199
 30
0.0
  0
CIRCLE
  5
185
330
1F
100
AcDbEntity
  8
0
  6
Continuous
 62
     7
370
    25
100
AcDbCircle
 10
89.4245662423
 20
22.7966013743
 30
0.0
 40
5.0
  0
LINE
  5
186
330
1F
100
AcDbEntity
  8
0
  6
Continuous
 62
     7
370
    25
100
AcDbLine
 10
99.9020662423
 20
37.9546072562
 30
0.0
 11
78.9470662423
 21
37.9546072562
 31
0.0
  0
LINE
  5
187
330
1F
100
AcDbEntity
  8
0
  6
Continuous
 62
     7
370
    25
100
AcDbLine
 10
94.3235457278
 20
21.7966013743
 30
0.0
 11
84.5255867567
 21
21.7966013743
 31
0.0
  0
SPLINE
  5
188
330
1F
100
AcDbEntity
  8
0
  6
Continuous
 62
     7
370
    25
100
AcDbSpline
210
0.0
220
0.0
230
1.0
 70
     8
 71
     3
 72
     8
 73
     4
 74
     0
 42
0.00000001
 43
0.00000001
 40
0.0
 40
0.0
 40
0.0
 40
0.0
 40
1.0
 40
1.0
 40
1.0
 40
1.0
 10
84.52558675671379
 20
21.79660137427928
 30
0.0
 10
84.5379181323171
 20
22.46541738016066
 30
0.0
 10
84.53783912880567
 20
23.13207027664055
 30
0.0
 10
84.52558675671379
 20
23.79660137427929
 30
0.0
  0
SPLINE
  5
189
330
1F
100
AcDbEntity
  8
0
  6
Continuous
 62
     7
370
    25
100
AcDbSpline
210
0.0
220
0.0
230
1.0
 70
     8
 71
     3
 72
    26
 73
    22
 74
     0
 42
0.00000001
 43
0.00000001
 40
0.0
 40
0.0
 40
0.0
 40
0.0
 40
0.1250000000000001
 40
0.1250000000000001
 40
0.2500000000000002
 40
0.2500000000000002
 40
0.3125000000000002
 40
0.3125000000000002
 40
0.3750000000000003
 40
0.3750000000000003
 40
0.5000000000000003
 40
0.5000000000000003
 40
0.5625000000000003
 40
0.5625000000000003
 40
0.6250000000000002
 40
0.6250000000000002
 40
0.7500000000000001
 40
0.7500000000000001
 40
0.8750000000000001
 40
0.8750000000000001
 40
1.0
 40
1.0
 40
1.0
 40
1.0
 10
94.32354572784648
 20
21.79660137427928
 30
0.0
 10
93.93905847361805
 20
21.65249722012464
 30
0.0
 10
93.55195398517114
 20
21.51265734480159
 30
0.0
 10
92.76848685790607
 20
21.24806196618776
 30
0.0
 10
92.37222800432968
 20
21.12313736484443
 30
0.0
 10
91.76492054300746
 20
20.95679977874075
 30
0.0
 10
91.56028933202201
 20
20.9049308825584
 30
0.0
 10
91.14491792132256
 20
20.81114651015644
 30
0.0
 10
90.93352711725585
 20
20.76917987528596
 30
0.0
 10
90.29805598771274
 20
20.66540666013723
 30
0.0
 10
89.86994418273751
 20
20.62570181228248
 30
0.0
 10
89.21890741454885
 20
20.62470488153815
 30
0.0
 10
88.99893163725004
 20
20.63414861564263
 30
0.0
 10
88.56451832049066
 20
20.67114842183759
 30
0.0
 10
88.3504139332881
 20
20.69844605031493
 30
0.0
 10
87.71550475156789
 20
20.80133586929948
 30
0.0
 10
87.30170603917597
 20
20.89757257881196
 30
0.0
 10
86.48591161427065
 20
21.1203373058108
 30
0.0
 10
86.08739363867817
 20
21.24586085167103
 30
0.0
 10
85.30009850819968
 20
21.51159428984038
 30
0.0
 10
84.91144116134654
 20
21.65198481808673
 30
0.0
 10
84.52558675671379
 20
21.79660137427928
 30
0.0
  0
SPLINE
  5
18A
330
1F
100
AcDbEntity
  8
0
  6
Continuous
 62
     7
370
    25
100
AcDbSpline
210
0.0
220
0.0
230
1.0
 70
     8
 71
     3
 72
    10
 73
     6
 74
     0
 42
0.00000001
 43
0.00000001
 40
0.0
 40
0.0
 40
0.0
 40
0.0
 40
0.4437627670065551
 40
0.8931811417417364
 40
1.0
 40
1.0
 40
1.0
 40
1.0
 10
100.8185056362195
 20
57.57787362354712
 30
0.0
 10
100.90739900469
 20
57.56667394668906
 30
0.0
 10
101.0863186578174
 20
57.5441318568452
 30
0.0
 10
101.190666729244
 20
57.45056395944874
 30
0.0
 10
101.1630093615475
 20
57.46991830582785
 30
0.0
 10
101.1576980873923
 20
57.47363508180027
 30
0.0
  0
SPLINE
  5
18B
330
1F
100
AcDbEntity
  8
0
  6
Continuous
 62
     7
370
    25
100
AcDbSpline
210
0.0
220
0.0
230
1.0
 70
     8
 71
     3
 72
     9
 73
     5
 74
     0
 42
0.00000001
 43
0.00000001
 40
0.0
 40
0.0
 40
0.0
 40
0.0
 40
0.4411554392043017
 40
1.0
 40
1.0
 40
1.0
 40
1.0
 10
77.69143439717249
 20
57.47363508180366
 30
0.0
 10
77.69626435664226
 20
57.48393287466004
 30
0.0
 10
77.70721278669782
 20
57.50727565124456
 30
0.0
 10
77.91468315916256
 20
57.55256430546837
 30
0.0
 10
78.03062684834073
 20
57.57787362354712
 30
0.0
  0
LINE
  5
18C
330
1F
100
AcDbEntity
  8
0
  6
Continuous
 62
     7
370
    25
100
AcDbLine
 10
89.4245662423
 20
37.5291727617
 30
0.0
 11
99.2995662423
 21
37.5291727617
 31
0.0
  0
LINE
  5
18D
330
1F
100
AcDbEntity
  8
0
  6
Continuous
 62
     7
370
    25
100
AcDbLine
 10
79.5495662423
 20
37.5291727617
 30
0.0
 11
89.4245662423
 21
37.5291727617
 31
0.0
  0
LINE
  5
18E
330
1F
100
AcDbEntity
  8
0
  6
Continuous
 62
     7
370
    25
100
AcDbLine
 10
91.7857054953
 20
35.2966013743
 30
0.0
 11
97.9245662423
 21
35.2966013743
 31
0.0
  0
LINE
  5
18F
330
1F
100
AcDbEntity
  8
0
  6
Continuous
 62
     7
370
    25
100
AcDbLine
 10
80.9245662423
 20
35.2966013743
 30
0.0
 11
87.0695573119
 21
35.2966013743
 31
0.0
  0
INSERT
  5
19B
330
1F
100
AcDbEntity
  8
0
  6
Continuous
 62
     7
370
    18
100
AcDbBlockReference
  2
SW_CENTERMARKSYMBOL_0
 10
89.4245662423
 20
22.7966013743
 30
0.0
  0
LINE
  5
19C
330
1F
100
AcDbEntity
  8
0
  6
Continuous
 62
     7
370
    25
100
AcDbLine
 10
42.5648124317
 20
99.4079438392
 30
0.0
 11
42.4204748644
 21
99.1579438392
 31
0.0
  0
LINE
  5
19D
330
1F
100
AcDbEntity
  8
0
  6
Continuous
 62
     7
370
    25
100
AcDbLine
 10
42.4204748644
 20
75.6579438392
 30
0.0
 11
42.5648124317
 21
75.4079438392
 31
0.0
  0
LINE
  5
19E
330
1F
100
AcDbEntity
  8
0
  6
Continuous
 62
     7
370
    25
100
AcDbLine
 10
60.2204748644
 20
99.1579438392
 30
0.0
 11
59.0379241592
 21
99.1579438392
 31
0.0
  0
LINE
  5
19F
330
1F
100
AcDbEntity
  8
0
  6
Continuous
 62
     7
370
    25
100
AcDbLine
 10
59.0379241592
 20
75.6579438392
 30
0.0
 11
60.2204748644
 21
75.6579438392
 31
0.0
  0
LINE
  5
1A0
330
1F
100
AcDbEntity
  8
0
  6
Continuous
 62
     7
370
    25
100
AcDbLine
 10
60.2204748644
 20
75.6579438392
 30
0.0
 11
60.4204748644
 21
75.8579438392
 31
0.0
  0
LINE
  5
1A1
330
1F
100
AcDbEntity
  8
0
  6
Continuous
 62
     7
370
    25
100
AcDbLine
 10
60.4204748644
 20
98.9579438392
 30
0.0
 11
60.2204748644
 21
99.1579438392
 31
0.0
  0
SPLINE
  5
1A2
330
1F
100
AcDbEntity
  8
0
  6
Continuous
 62
     7
370
    25
100
AcDbSpline
210
0.0
220
0.0
230
1.0
 70
     8
 71
     3
 72
    13
 73
     9
 74
     0
 42
0.00000001
 43
0.00000001
 40
0.0
 40
0.0
 40
0.0
 40
0.0
 40
0.0360550581085304
 40
0.3026757062067773
 40
0.5466458070048528
 40
0.7670122500039166
 40
0.9610222028312982
 40
1.0
 40
1.0
 40
1.0
 40
1.0
 10
59.03627658766474
 20
99.16066568509108
 30
0.0
 10
59.02599987288968
 20
99.15972733273746
 30
0.0
 10
58.93972870692283
 20
99.15185003406711
 30
0.0
 10
58.78357351186417
 20
99.17839781117253
 30
0.0
 10
58.58301140837877
 20
99.23419667779342
 30
0.0
 10
58.41828661900789
 20
99.31399473531012
 30
0.0
 10
58.31155019697291
 20
99.3817314169855
 30
0.0
 10
58.27107845164085
 20
99.41566292721446
 30
0.0
 10
58.26430771163139
 20
99.42133951546151
 30
0.0
  0
SPLINE
  5
1A3
330
1F
100
AcDbEntity
  8
0
  6
Continuous
 62
     7
370
    25
100
AcDbSpline
210
0.0
220
0.0
230
1.0
 70
     8
 71
     3
 72
    12
 73
     8
 74
     0
 42
0.00000001
 43
0.00000001
 40
0.0
 40
0.0
 40
0.0
 40
0.0
 40
0.1836468167154745
 40
0.4143319219438072
 40
0.671580881902903
 40
0.9594044130200876
 40
1.0
 40
1.0
 40
1.0
 40
1.0
 10
58.25759900912904
 20
75.38996423551761
 30
0.0
 10
58.29488346943015
 20
75.41778244334789
 30
0.0
 10
58.37900222722558
 20
75.4805440622068
 30
0.0
 10
58.54951348789034
 20
75.56881533377987
 30
0.0
 10
58.76087294511445
 20
75.63344027824407
 30
0.0
 10
58.93005680116954
 20
75.66502902540567
 30
0.0
 10
59.02443983172839
 20
75.65574263186033
 30
0.0
 10
59.03610643186018
 20
75.65459474924289
 30
0.0
  0
ARC
  5
1A4
330
1F
100
AcDbEntity
  8
0
  6
Continuous
 62
     7
370
    25
100
AcDbCircle
 10
41.3260332265
 20
78.6579438392
 30
0.0
 40
2.500000000000009
100
AcDbArc
 50
206.7436839504
 51
223.7093197495
  0
ARC
  5
1A5
330
1F
100
AcDbEntity
  8
0
  6
Continuous
 62
     7
370
    25
100
AcDbCircle
 10
41.3260332265
 20
96.1579438392
 30
0.0
 40
2.500000000000009
100
AcDbArc
 50
136.2906802505
 51
153.2563160496
  0
LINE
  5
1A6
330
1F
100
AcDbEntity
  8
0
  6
Continuous
 62
     7
370
    25
100
AcDbLine
 10
39.5188963336
 20
76.9304438392
 30
0.0
 11
42.4204748644
 21
76.9304438392
 31
0.0
  0
LINE
  5
1A7
330
1F
100
AcDbEntity
  8
0
  6
Continuous
 62
     7
370
    25
100
AcDbLine
 10
42.4204748644
 20
97.8854438392
 30
0.0
 11
39.5188963336
 21
97.8854438392
 31
0.0
  0
ARC
  5
1A8
330
1F
100
AcDbEntity
  8
0
  6
Continuous
 62
     7
370
    25
100
AcDbCircle
 10
36.8608904517
 20
76.4079438392
 30
0.0
 40
2.5
100
AcDbArc
 50
26.7436839504
 51
90.0
  0
ARC
  5
1A9
330
1F
100
AcDbEntity
  8
0
  6
Continuous
 62
     7
370
    25
100
AcDbCircle
 10
36.8608904517
 20
98.4079438392
 30
0.0
 40
2.5
100
AcDbArc
 50
270.0
 51
333.2563160496
  0
LINE
  5
1AA
330
1F
100
AcDbEntity
  8
0
  6
Continuous
 62
     7
370
    25
100
AcDbLine
 10
36.8608904517
 20
95.9079438392
 30
0.0
 11
33.3098196241
 21
95.9079438392
 31
0.0
  0
LINE
  5
1AB
330
1F
100
AcDbEntity
  8
0
  6
Continuous
 62
     7
370
    25
100
AcDbLine
 10
33.3098196241
 20
78.9079438392
 30
0.0
 11
36.8608904517
 21
78.9079438392
 31
0.0
  0
CIRCLE
  5
1AC
330
1F
100
AcDbEntity
  8
0
  6
Continuous
 62
     7
370
    25
100
AcDbCircle
 10
24.3608904517
 20
87.4079438392
 30
0.0
 40
11.55000000000001
  0
CIRCLE
  5
1AD
330
1F
100
AcDbEntity
  8
0
  6
Continuous
 62
     7
370
    25
100
AcDbCircle
 10
24.3608904517
 20
87.4079438392
 30
0.0
 40
6.175000000000011
  0
CIRCLE
  5
1AE
330
1F
100
AcDbEntity
  8
0
  6
Continuous
 62
     7
370
    25
100
AcDbCircle
 10
24.3608904517
 20
87.4079438392
 30
0.0
 40
11.75
  0
CIRCLE
  5
1AF
330
1F
100
AcDbEntity
  8
0
  6
Continuous
 62
     7
370
    25
100
AcDbCircle
 10
24.3608904517
 20
87.4079438392
 30
0.0
 40
6.075000000000003
  0
LINE
  5
1B0
330
1F
100
AcDbEntity
  8
0
  6
Continuous
 62
     7
370
    25
100
AcDbLine
 10
27.3842371073
 20
75.4079438392
 30
0.0
 11
27.2315428317
 21
76.0140044453
 31
0.0
  0
SPLINE
  5
1B1
330
1F
100
AcDbEntity
  8
0
  6
Continuous
 62
     7
370
    25
100
AcDbSpline
210
0.0
220
0.0
230
1.0
 70
    24
 71
     3
 72
    10
 73
     6
 74
     0
 42
0.00000001
 43
0.00000001
 40
0.0
 40
0.0
 40
0.0
 40
0.0
 40
0.3910406133635747
 40
0.78696609495545
 40
1.0
 40
1.0
 40
1.0
 40
1.0
 10
21.33754379605645
 20
75.40794383920448
 30
0.0
 10
22.1238982301851
 20
75.40794383920449
 30
0.0
 10
23.7064302156844
 20
75.40794383920449
 30
0.0
 10
25.73508508190857
 20
75.40794383920448
 30
0.0
 10
26.95683058275925
 20
75.40794383920448
 30
0.0
 10
27.38423710728044
 20
75.40794383920448
 30
0.0
  0
LINE
  5
1B2
330
1F
100
AcDbEntity
  8
0
  6
Continuous
 62
     7
370
    25
100
AcDbLine
 10
21.4902380716
 20
76.0140044453
 30
0.0
 11
21.3375437961
 21
75.4079438392
 31
0.0
  0
LINE
  5
1B3
330
1F
100
AcDbEntity
  8
0
  6
Continuous
 62
     7
370
    25
100
AcDbLine
 10
13.0581232973
 20
90.6188556496
 30
0.0
 11
12.4569122784
 21
90.789648831
 31
0.0
  0
SPLINE
  5
1B4
330
1F
100
AcDbEntity
  8
0
  6
Continuous
 62
     7
370
    25
100
AcDbSpline
210
0.0
220
0.0
230
1.0
 70
    24
 71
     3
 72
    10
 73
     6
 74
     0
 42
0.00000001
 43
0.00000001
 40
0.0
 40
0.0
 40
0.0
 40
0.0
 40
0.2896830214237572
 40
0.5812913727325417
 40
0.9999999999999999
 40
0.9999999999999999
 40
0.9999999999999999
 40
0.9999999999999999
 10
15.48025893406116
 20
96.02623884741115
 30
0.0
 10
15.18937949147135
 20
95.52242087396829
 30
0.0
 10
14.60568732459298
 20
94.51143638495499
 30
0.0
 10
13.59258789538885
 20
92.75669670045438
 30
0.0
 10
12.87808711817712
 20
91.51914505227622
 30
0.0
 10
12.45691227844921
 20
90.78964883099782
 30
0.0
  0
LINE
  5
1B5
330
1F
100
AcDbEntity
  8
0
  6
Continuous
 62
     7
370
    25
100
AcDbLine
 10
15.9287756774
 20
95.5909714228
 30
0.0
 11
15.4802589341
 21
96.0262388474
 31
0.0
  0
SPLINE
  5
1B6
330
1F
100
AcDbEntity
  8
0
  6
Continuous
 62
     7
370
    25
100
AcDbSpline
210
0.0
220
0.0
230
1.0
 70
    24
 71
     3
 72
    10
 73
     6
 74
     0
 42
0.00000001
 43
0.00000001
 40
0.0
 40
0.0
 40
0.0
 40
0.0
 40
0.2896830214237568
 40
0.5812913727325414
 40
0.9999999999999999
 40
0.9999999999999999
 40
0.9999999999999999
 40
0.9999999999999999
 10
36.26486862488769
 20
90.78964883099782
 30
0.0
 10
35.97398918229788
 20
91.29346680444067
 30
0.0
 10
35.39029701541952
 20
92.30445129345397
 30
0.0
 10
34.37719758621539
 20
94.05919097795457
 30
0.0
 10
33.66269680900365
 20
95.29674262613273
 30
0.0
 10
33.24152196927574
 20
96.02623884741114
 30
0.0
  0
LINE
  5
1B7
330
1F
100
AcDbEntity
  8
0
  6
Continuous
 62
     7
370
    25
100
AcDbLine
 10
36.2648686249
 20
90.789648831
 30
0.0
 11
35.663657606
 21
90.6188556496
 31
0.0
  0
LINE
  5
1B8
330
1F
100
AcDbEntity
  8
0
  6
Continuous
 62
     7
370
    25
100
AcDbLine
 10
33.2415219693
 20
96.0262388474
 30
0.0
 11
32.793005226
 21
95.5909714228
 31
0.0
  0
SPLINE
  5
1B9
330
1F
100
AcDbEntity
  8
0
  6
Continuous
 62
     7
370
    25
100
AcDbSpline
210
0.0
220
0.0
230
1.0
 70
    24
 71
     3
 72
    10
 73
     6
 74
     0
 42
0.00000001
 43
0.00000001
 40
0.0
 40
0.0
 40
0.0
 40
0.0
 40
0.2896830214237577
 40
0.581291372732543
 40
1.0
 40
1.0
 40
1.0
 40
1.0
 10
33.24152196927575
 20
78.78964883099782
 30
0.0
 10
33.53240141186556
 20
79.29346680444067
 30
0.0
 10
34.11609357874393
 20
80.30445129345397
 30
0.0
 10
35.12919300794805
 20
82.05919097795457
 30
0.0
 10
35.84369378515979
 20
83.29674262613274
 30
0.0
 10
36.26486862488769
 20
84.02623884741114
 30
0.0
  0
LINE
  5
1BA
330
1F
100
AcDbEntity
  8
0
  6
Continuous
 62
     7
370
    25
100
AcDbLine
 10
33.2415219693
 20
78.789648831
 30
0.0
 11
32.793005226
 21
79.2249162557
 31
0.0
  0
LINE
  5
1BB
330
1F
100
AcDbEntity
  8
0
  6
Continuous
 62
     7
370
    25
100
AcDbLine
 10
36.2648686249
 20
84.0262388474
 30
0.0
 11
35.663657606
 21
84.1970320288
 31
0.0
  0
LINE
  5
1BC
330
1F
100
AcDbEntity
  8
0
  6
Continuous
 62
     7
370
    25
100
AcDbLine
 10
15.9287756774
 20
79.2249162557
 30
0.0
 11
15.4802589341
 21
78.789648831
 31
0.0
  0
SPLINE
  5
1BD
330
1F
100
AcDbEntity
  8
0
  6
Continuous
 62
     7
370
    25
100
AcDbSpline
210
0.0
220
0.0
230
1.0
 70
    24
 71
     3
 72
    10
 73
     6
 74
     0
 42
0.00000001
 43
0.00000001
 40
0.0
 40
0.0
 40
0.0
 40
0.0
 40
0.2896830214237568
 40
0.5812913727325408
 40
1.0
 40
1.0
 40
1.0
 40
1.0
 10
12.4569122784492
 20
84.02623884741116
 30
0.0
 10
12.74779172103901
 20
83.5224208739683
 30
0.0
 10
13.33148388791738
 20
82.51143638495499
 30
0.0
 10
14.34458331712152
 20
80.7566967004544
 30
0.0
 10
15.05908409433326
 20
79.51914505227622
 30
0.0
 10
15.48025893406116
 20
78.7896488309978
 30
0.0
  0
LINE
  5
1BE
330
1F
100
AcDbEntity
  8
0
  6
Continuous
 62
     7
370
    25
100
AcDbLine
 10
13.0581232973
 20
84.1970320288
 30
0.0
 11
12.4569122784
 21
84.0262388474
 31
0.0
  0
LINE
  5
1BF
330
1F
100
AcDbEntity
  8
0
  6
Continuous
 62
     7
370
    25
100
AcDbLine
 10
21.4902380716
 20
98.8018832331
 30
0.0
 11
21.3375437961
 21
99.4079438392
 31
0.0
  0
SPLINE
  5
1C0
330
1F
100
AcDbEntity
  8
0
  6
Continuous
 62
     7
370
    25
100
AcDbSpline
210
0.0
220
0.0
230
1.0
 70
    24
 71
     3
 72
    10
 73
     6
 74
     0
 42
0.00000001
 43
0.00000001
 40
0.0
 40
0.0
 40
0.0
 40
0.0
 40
0.2130338126352573
 40
0.6040068415968867
 40
0.9999999999999999
 40
0.9999999999999999
 40
0.9999999999999999
 40
0.9999999999999999
 10
27.38423710728041
 20
99.40794383920448
 30
0.0
 10
26.95683021787968
 20
99.40794383920448
 30
0.0
 10
25.74501936893391
 20
99.40794383920448
 30
0.0
 10
23.71655840635345
 20
99.40794383920448
 30
0.0
 10
22.13391394418457
 20
99.40794383920448
 30
0.0
 10
21.33754379605649
 20
99.40794383920448
 30
0.0
  0
LINE
  5
1C1
330
1F
100
AcDbEntity
  8
0
  6
Continuous
 62
     7
370
    25
100
AcDbLine
 10
27.3842371073
 20
99.4079438392
 30
0.0
 11
27.2315428317
 21
98.8018832331
 31
0.0
  0
ARC
  5
1C2
330
1F
100
AcDbEntity
  8
0
  6
Continuous
 62
     7
370
    25
100
AcDbCircle
 10
24.3608904517
 20
87.4079438392
 30
0.0
 40
12.375
100
AcDbArc
 50
104.1411102339
 51
135.8588897661
  0
ARC
  5
1C3
330
1F
100
AcDbEntity
  8
0
  6
Continuous
 62
     7
370
    25
100
AcDbCircle
 10
24.3608904517
 20
87.4079438392
 30
0.0
 40
12.375
100
AcDbArc
 50
44.1411102339
 51
75.8588897661
  0
ARC
  5
1C4
330
1F
100
AcDbEntity
  8
0
  6
Continuous
 62
     7
370
    25
100
AcDbCircle
 10
24.3608904517
 20
87.4079438392
 30
0.0
 40
12.375
100
AcDbArc
 50
344.1411102339
 51
15.8588897661
  0
ARC
  5
1C5
330
1F
100
AcDbEntity
  8
0
  6
Continuous
 62
     7
370
    25
100
AcDbCircle
 10
24.3608904517
 20
87.4079438392
 30
0.0
 40
12.375
100
AcDbArc
 50
164.1411102339
 51
195.8588897661
  0
ARC
  5
1C6
330
1F
100
AcDbEntity
  8
0
  6
Continuous
 62
     7
370
    25
100
AcDbCircle
 10
24.3608904517
 20
87.4079438392
 30
0.0
 40
12.37500000000001
100
AcDbArc
 50
284.1411102339
 51
315.8588897661
  0
ARC
  5
1C7
330
1F
100
AcDbEntity
  8
0
  6
Continuous
 62
     7
370
    25
100
AcDbCircle
 10
24.3608904517
 20
87.4079438392
 30
0.0
 40
12.37500000000001
100
AcDbArc
 50
224.1411102339
 51
255.8588897661
  0
SPLINE
  5
1C8
330
1F
100
AcDbEntity
  8
0
  6
Continuous
 62
     7
370
    25
100
AcDbSpline
210
0.0
220
0.0
230
1.0
 70
    24
 71
     3
 72
     9
 73
     5
 74
     0
 42
0.00000001
 43
0.00000001
 40
0.0
 40
0.0
 40
0.0
 40
0.0
 40
0.5939658769315154
 40
1.0
 40
1.0
 40
1.0
 40
1.0
 10
21.33754379605649
 20
99.40794383920448
 30
0.0
 10
20.55590060810699
 20
99.40794383920448
 30
0.0
 10
19.23992738757864
 20
99.40794383920448
 30
0.0
 10
17.95458150831816
 20
99.40794383920448
 30
0.0
 10
17.43268722139294
 20
99.40794383920448
 30
0.0
  0
SPLINE
  5
1C9
330
1F
100
AcDbEntity
  8
0
  6
Continuous
 62
     7
370
    25
100
AcDbSpline
210
0.0
220
0.0
230
1.0
 70
    24
 71
     3
 72
     9
 73
     5
 74
     0
 42
0.00000001
 43
0.00000001
 40
0.0
 40
0.0
 40
0.0
 40
0.0
 40
0.4988470384231426
 40
1.0
 40
1.0
 40
1.0
 40
1.0
 10
17.43268722139294
 20
99.40794383920448
 30
0.0
 10
17.11179690145869
 20
98.85214550142132
 30
0.0
 10
16.46853294433751
 20
97.73797964500963
 30
0.0
 10
15.81018963384752
 20
96.59769558241788
 30
0.0
 10
15.48025893406116
 20
96.02623884741115
 30
0.0
  0
SPLINE
  5
1CA
330
1F
100
AcDbEntity
  8
0
  6
Continuous
 62
     7
370
    25
100
AcDbSpline
210
0.0
220
0.0
230
1.0
 70
    24
 71
     3
 72
     9
 73
     5
 74
     0
 42
0.00000001
 43
0.00000001
 40
0.0
 40
0.0
 40
0.0
 40
0.0
 40
0.4988470384231428
 40
1.0
 40
1.0
 40
1.0
 40
1.0
 10
31.28909368194396
 20
99.40794383920448
 30
0.0
 10
30.64731304207546
 20
99.40794383920448
 30
0.0
 10
29.3607851278331
 20
99.40794383920448
 30
0.0
 10
28.04409850685314
 20
99.40794383920448
 30
0.0
 10
27.38423710728041
 20
99.40794383920448
 30
0.0
  0
SPLINE
  5
1CB
330
1F
100
AcDbEntity
  8
0
  6
Continuous
 62
     7
370
    25
100
AcDbSpline
210
0.0
220
0.0
230
1.0
 70
    24
 71
     3
 72
     9
 73
     5
 74
     0
 42
0.00000001
 43
0.00000001
 40
0.0
 40
0.0
 40
0.0
 40
0.0
 40
0.4986680494787146
 40
1.0
 40
1.0
 40
1.0
 40
1.0
 10
33.24152196927574
 20
96.02623884741114
 30
0.0
 10
32.91322261920945
 20
96.59487000181782
 30
0.0
 10
32.25487013320299
 20
97.73516995687028
 30
0.0
 10
31.61159037690146
 20
98.84936317826504
 30
0.0
 10
31.28909368194396
 20
99.40794383920448
 30
0.0
  0
SPLINE
  5
1CC
330
1F
100
AcDbEntity
  8
0
  6
Continuous
 62
     7
370
    25
100
AcDbSpline
210
0.0
220
0.0
230
1.0
 70
    24
 71
     3
 72
     9
 73
     5
 74
     0
 42
0.00000001
 43
0.00000001
 40
0.0
 40
0.0
 40
0.0
 40
0.0
 40
0.498847038423143
 40
1.0
 40
1.0
 40
1.0
 40
1.0
 10
10.50448399111743
 20
87.40794383920449
 30
0.0
 10
10.82537431105168
 20
86.85214550142133
 30
0.0
 10
11.46863826817286
 20
85.73797964500963
 30
0.0
 10
12.12698157866284
 20
84.5976955824179
 30
0.0
 10
12.4569122784492
 20
84.02623884741116
 30
0.0
  0
SPLINE
  5
1CD
330
1F
100
AcDbEntity
  8
0
  6
Continuous
 62
     7
370
    25
100
AcDbSpline
210
0.0
220
0.0
230
1.0
 70
    24
 71
     3
 72
     9
 73
     5
 74
     0
 42
0.00000001
 43
0.00000001
 40
0.0
 40
0.0
 40
0.0
 40
0.0
 40
0.4986680494787148
 40
1.0
 40
1.0
 40
1.0
 40
1.0
 10
12.45691227844921
 20
90.78964883099782
 30
0.0
 10
12.12861292838291
 20
90.22101767659113
 30
0.0
 10
11.47026044237646
 20
89.08071772153868
 30
0.0
 10
10.82698068607493
 20
87.96652450014392
 30
0.0
 10
10.50448399111743
 20
87.40794383920449
 30
0.0
  0
SPLINE
  5
1CE
330
1F
100
AcDbEntity
  8
0
  6
Continuous
 62
     7
370
    25
100
AcDbSpline
210
0.0
220
0.0
230
1.0
 70
    24
 71
     3
 72
     9
 73
     5
 74
     0
 42
0.00000001
 43
0.00000001
 40
0.0
 40
0.0
 40
0.0
 40
0.0
 40
0.4986680494787146
 40
1.0
 40
1.0
 40
1.0
 40
1.0
 10
36.26486862488769
 20
84.02623884741114
 30
0.0
 10
36.59316797495399
 20
84.59487000181781
 30
0.0
 10
37.25152046096045
 20
85.73516995687027
 30
0.0
 10
37.89480021726197
 20
86.84936317826504
 30
0.0
 10
38.21729691221948
 20
87.40794383920448
 30
0.0
  0
SPLINE
  5
1CF
330
1F
100
AcDbEntity
  8
0
  6
Continuous
 62
     7
370
    25
100
AcDbSpline
210
0.0
220
0.0
230
1.0
 70
    24
 71
     3
 72
     9
 73
     5
 74
     0
 42
0.00000001
 43
0.00000001
 40
0.0
 40
0.0
 40
0.0
 40
0.0
 40
0.498847038423143
 40
1.0
 40
1.0
 40
1.0
 40
1.0
 10
38.21729691221948
 20
87.40794383920448
 30
0.0
 10
37.89640659228522
 20
87.96374217698764
 30
0.0
 10
37.25314263516403
 20
89.07790803339932
 30
0.0
 10
36.59479932467406
 20
90.21819209599107
 30
0.0
 10
36.26486862488769
 20
90.78964883099782
 30
0.0
  0
SPLINE
  5
1D0
330
1F
100
AcDbEntity
  8
0
  6
Continuous
 62
     7
370
    25
100
AcDbSpline
210
0.0
220
0.0
230
1.0
 70
    24
 71
     3
 72
     9
 73
     5
 74
     0
 42
0.00000001
 43
0.00000001
 40
0.0
 40
0.0
 40
0.0
 40
0.0
 40
0.4060341230684889
 40
1.0
 40
1.0
 40
1.0
 40
1.0
 10
17.43268722139294
 20
75.40794383920449
 30
0.0
 10
17.95458150831815
 20
75.40794383920448
 30
0.0
 10
19.23992738757862
 20
75.40794383920448
 30
0.0
 10
20.55590060810696
 20
75.40794383920449
 30
0.0
 10
21.33754379605645
 20
75.40794383920448
 30
0.0
  0
SPLINE
  5
1D1
330
1F
100
AcDbEntity
  8
0
  6
Continuous
 62
     7
370
    25
100
AcDbSpline
210
0.0
220
0.0
230
1.0
 70
    24
 71
     3
 72
     9
 73
     5
 74
     0
 42
0.00000001
 43
0.00000001
 40
0.0
 40
0.0
 40
0.0
 40
0.0
 40
0.4986680494787148
 40
1.0
 40
1.0
 40
1.0
 40
1.0
 10
15.48025893406116
 20
78.7896488309978
 30
0.0
 10
15.80855828412746
 20
78.22101767659112
 30
0.0
 10
16.46691077013391
 20
77.08071772153869
 30
0.0
 10
17.11019052643544
 20
75.96652450014392
 30
0.0
 10
17.43268722139294
 20
75.40794383920449
 30
0.0
  0
SPLINE
  5
1D2
330
1F
100
AcDbEntity
  8
0
  6
Continuous
 62
     7
370
    25
100
AcDbSpline
210
0.0
220
0.0
230
1.0
 70
    24
 71
     3
 72
     9
 73
     5
 74
     0
 42
0.00000001
 43
0.00000001
 40
0.0
 40
0.0
 40
0.0
 40
0.0
 40
0.4986680494787147
 40
1.0
 40
1.0
 40
1.0
 40
1.0
 10
27.38423710728044
 20
75.40794383920448
 30
0.0
 10
28.04083580741304
 20
75.40794383920448
 30
0.0
 10
29.35754077942593
 20
75.40794383920448
 30
0.0
 10
30.64410029202897
 20
75.40794383920448
 30
0.0
 10
31.28909368194397
 20
75.40794383920448
 30
0.0
  0
SPLINE
  5
1D3
330
1F
100
AcDbEntity
  8
0
  6
Continuous
 62
     7
370
    25
100
AcDbSpline
210
0.0
220
0.0
230
1.0
 70
    24
 71
     3
 72
     9
 73
     5
 74
     0
 42
0.00000001
 43
0.00000001
 40
0.0
 40
0.0
 40
0.0
 40
0.0
 40
0.498847038423143
 40
1.0
 40
1.0
 40
1.0
 40
1.0
 10
31.28909368194397
 20
75.40794383920448
 30
0.0
 10
31.60998400187822
 20
75.96374217698764
 30
0.0
 10
32.2532479589994
 20
77.07790803339932
 30
0.0
 10
32.91159126948938
 20
78.21819209599107
 30
0.0
 10
33.24152196927575
 20
78.78964883099782
 30
0.0
  0
SPLINE
  5
1D4
330
1F
100
AcDbEntity
  8
0
  6
Continuous
 62
     7
370
    25
100
AcDbSpline
210
0.0
220
0.0
230
1.0
 70
     8
 71
     3
 72
    10
 73
     6
 74
     0
 42
0.00000001
 43
0.00000001
 40
0.0
 40
0.0
 40
0.0
 40
0.0
 40
0.2896830214237576
 40
0.5812913727325432
 40
0.9999999999999999
 40
0.9999999999999999
 40
0.9999999999999999
 40
0.9999999999999999
 10
58.05963094620573
 20
96.02623884741115
 30
0.0
 10
58.12823297842427
 20
95.5224208739683
 30
0.0
 10
58.26589299482622
 20
94.51143638495499
 30
0.0
 10
58.30649684626046
 20
92.7566967004544
 30
0.0
 10
58.15118323837347
 20
91.51914505227623
 30
0.0
 10
58.05963094620574
 20
90.78964883099783
 30
0.0
  0
SPLINE
  5
1D5
330
1F
100
AcDbEntity
  8
0
  6
Continuous
 62
     7
370
    25
100
AcDbSpline
210
0.0
220
0.0
230
1.0
 70
     8
 71
     3
 72
     9
 73
     5
 74
     0
 42
0.00000001
 43
0.00000001
 40
0.0
 40
0.0
 40
0.0
 40
0.0
 40
0.498668049478715
 40
1.0
 40
1.0
 40
1.0
 40
1.0
 10
58.05963094620574
 20
90.78964883099783
 30
0.0
 10
57.95182405562144
 20
90.22101767659116
 30
0.0
 10
57.73563436651463
 20
89.0807177215387
 30
0.0
 10
57.38175270902855
 20
87.96652450014393
 30
0.0
 10
57.20434052742735
 20
87.40794383920449
 30
0.0
  0
LINE
  5
1D6
330
1F
100
AcDbEntity
  8
0
  6
Continuous
 62
     7
370
    25
100
AcDbLine
 10
57.2043405274
 20
87.4079438392
 30
0.0
 11
43.6366092015
 21
87.4079438392
 31
0.0
  0
SPLINE
  5
1D7
330
1F
100
AcDbEntity
  8
0
  6
Continuous
 62
     7
370
    25
100
AcDbSpline
210
0.0
220
0.0
230
1.0
 70
     8
 71
     3
 72
    15
 73
    11
 74
     0
 42
0.00000001
 43
0.00000001
 40
0.0
 40
0.0
 40
0.0
 40
0.0
 40
0.1323065044264403
 40
0.2645755999739298
 40
0.3998036789671094
 40
0.5350073556765895
 40
0.6501969475405022
 40
0.7654045076453767
 40
0.8826909144168967
 40
1.0
 40
1.0
 40
1.0
 40
1.0
 10
43.63660920147114
 20
87.40794383920449
 30
0.0
 10
43.47345011955342
 20
87.92639656841294
 30
0.0
 10
43.14717808798012
 20
88.96315543739746
 30
0.0
 10
42.79612338496021
 20
90.55967288266785
 30
0.0
 10
42.58504659943107
 20
92.18628529434773
 30
0.0
 10
42.54324928914549
 20
93.75396603573476
 30
0.0
 10
42.65170792184625
 20
95.23694222969465
 30
0.0
 10
42.87393383090713
 20
96.63649558912003
 30
0.0
 10
43.19991160419341
 20
98.0297210053634
 30
0.0
 10
43.49103395458687
 20
98.94850662098148
 30
0.0
 10
43.63660920147113
 20
99.40794383920448
 30
0.0
  0
LINE
  5
1D8
330
1F
100
AcDbEntity
  8
0
  6
Continuous
 62
     7
370
    25
100
AcDbLine
 10
57.2043405274
 20
99.4079438392
 30
0.0
 11
43.6366092015
 21
99.4079438392
 31
0.0
  0
SPLINE
  5
1D9
330
1F
100
AcDbEntity
  8
0
  6
Continuous
 62
     7
370
    25
100
AcDbSpline
210
0.0
220
0.0
230
1.0
 70
     8
 71
     3
 72
     9
 73
     5
 74
     0
 42
0.00000001
 43
0.00000001
 40
0.0
 40
0.0
 40
0.0
 40
0.0
 40
0.4988470384231433
 40
1.0
 40
1.0
 40
1.0
 40
1.0
 10
57.20434052742735
 20
99.40794383920448
 30
0.0
 10
57.38091652776587
 20
98.85214550142132
 30
0.0
 10
57.73488475196678
 20
97.73797964500963
 30
0.0
 10
57.95121593376575
 20
96.59769558241788
 30
0.0
 10
58.05963094620573
 20
96.02623884741115
 30
0.0
  0
SPLINE
  5
1DA
330
1F
100
AcDbEntity
  8
0
  6
Continuous
 62
     7
370
    25
100
AcDbSpline
210
0.0
220
0.0
230
1.0
 70
     8
 71
     3
 72
    15
 73
    11
 74
     0
 42
0.00000001
 43
0.00000001
 40
0.0
 40
0.0
 40
0.0
 40
0.0
 40
0.1323065044264404
 40
0.2645755999739298
 40
0.3998036789671092
 40
0.5350073556765892
 40
0.6501969475405018
 40
0.7654045076453764
 40
0.8826909144168966
 40
1.0
 40
1.0
 40
1.0
 40
1.0
 10
43.63660920147114
 20
75.40794383920448
 30
0.0
 10
43.47345011955342
 20
75.92639656841295
 30
0.0
 10
43.14717808798011
 20
76.96315543739746
 30
0.0
 10
42.79612338496021
 20
78.55967288266784
 30
0.0
 10
42.58504659943108
 20
80.18628529434771
 30
0.0
 10
42.54324928914549
 20
81.75396603573475
 30
0.0
 10
42.65170792184627
 20
83.23694222969463
 30
0.0
 10
42.87393383090712
 20
84.63649558912003
 30
0.0
 10
43.19991160419342
 20
86.02972100536341
 30
0.0
 10
43.49103395458688
 20
86.94850662098149
 30
0.0
 10
43.63660920147114
 20
87.40794383920449
 30
0.0
  0
SPLINE
  5
1DB
330
1F
100
AcDbEntity
  8
0
  6
Continuous
 62
     7
370
    25
100
AcDbSpline
210
0.0
220
0.0
230
1.0
 70
    24
 71
     3
 72
    11
 73
     7
 74
     0
 42
0.00000001
 43
0.00000001
 40
0.0
 40
0.0
 40
0.0
 40
0.0
 40
0.0000980514193687
 40
0.2567815758851507
 40
0.6264561132592819
 40
0.9999999999999999
 40
0.9999999999999999
 40
0.9999999999999999
 40
0.9999999999999999
 10
42.56555666475536
 20
75.40794383920448
 30
0.0
 10
42.5655468615313
 20
75.40794383920448
 30
0.0
 10
42.53987372653182
 20
75.4079438392058
 30
0.0
 10
42.64754319181836
 20
75.40794383920358
 30
0.0
 10
42.95786123242794
 20
75.40794383920473
 30
0.0
 10
43.40957597156252
 20
75.40794383920456
 30
0.0
 10
43.63660920147114
 20
75.40794383920448
 30
0.0
  0
SPLINE
  5
1DC
330
1F
100
AcDbEntity
  8
0
  6
Continuous
 62
     7
370
    25
100
AcDbSpline
210
0.0
220
0.0
230
1.0
 70
    24
 71
     3
 72
    11
 73
     7
 74
     0
 42
0.00000001
 43
0.00000001
 40
0.0
 40
0.0
 40
0.0
 40
0.0
 40
0.3699763682644986
 40
0.743212404945997
 40
0.9934625174729479
 40
0.9999999999999999
 40
0.9999999999999999
 40
0.9999999999999999
 40
0.9999999999999999
 10
43.63660920147113
 20
99.40794383920448
 30
0.0
 10
43.41170230735543
 20
99.40794383920448
 30
0.0
 10
42.95990698202493
 20
99.40794383920448
 30
0.0
 10
42.64912267667558
 20
99.40794383920446
 30
0.0
 10
42.5423807959943
 20
99.40794383920449
 30
0.0
 10
42.5667056248249
 20
99.40794383920448
 30
0.0
 10
42.56732490374068
 20
99.40794383920448
 30
0.0
  0
LINE
  5
1DD
330
1F
100
AcDbEntity
  8
0
  6
Continuous
 62
     7
370
    25
100
AcDbLine
 10
42.4204748644
 20
75.6579438392
 30
0.0
 11
42.4204748644
 21
99.1579438392
 31
0.0
  0
LINE
  5
1DE
330
1F
100
AcDbEntity
  8
0
  6
Continuous
 62
     7
370
    25
100
AcDbLine
 10
58.0596309462
 20
84.0262388474
 30
0.0
 11
58.0596309462
 21
90.789648831
 31
0.0
  0
SPLINE
  5
1DF
330
1F
100
AcDbEntity
  8
0
  6
Continuous
 62
     7
370
    25
100
AcDbSpline
210
0.0
220
0.0
230
1.0
 70
     8
 71
     3
 72
     9
 73
     5
 74
     0
 42
0.00000001
 43
0.00000001
 40
0.0
 40
0.0
 40
0.0
 40
0.0
 40
0.4988470384231432
 40
1.0
 40
1.0
 40
1.0
 40
1.0
 10
57.20434052742735
 20
87.40794383920449
 30
0.0
 10
57.38091652776586
 20
86.85214550142133
 30
0.0
 10
57.73488475196677
 20
85.73797964500963
 30
0.0
 10
57.95121593376575
 20
84.5976955824179
 30
0.0
 10
58.05963094620574
 20
84.02623884741115
 30
0.0
  0
SPLINE
  5
1E0
330
1F
100
AcDbEntity
  8
0
  6
Continuous
 62
     7
370
    25
100
AcDbSpline
210
0.0
220
0.0
230
1.0
 70
     8
 71
     3
 72
    10
 73
     6
 74
     0
 42
0.00000001
 43
0.00000001
 40
0.0
 40
0.0
 40
0.0
 40
0.0
 40
0.289683021423757
 40
0.5812913727325415
 40
1.0
 40
1.0
 40
1.0
 40
1.0
 10
58.05963094620574
 20
84.02623884741115
 30
0.0
 10
58.12823297842428
 20
83.52242087396829
 30
0.0
 10
58.26589299482625
 20
82.51143638495499
 30
0.0
 10
58.30649684626046
 20
80.7566967004544
 30
0.0
 10
58.15118323837346
 20
79.51914505227623
 30
0.0
 10
58.05963094620574
 20
78.78964883099782
 30
0.0
  0
SPLINE
  5
1E1
330
1F
100
AcDbEntity
  8
0
  6
Continuous
 62
     7
370
    25
100
AcDbSpline
210
0.0
220
0.0
230
1.0
 70
     8
 71
     3
 72
     9
 73
     5
 74
     0
 42
0.00000001
 43
0.00000001
 40
0.0
 40
0.0
 40
0.0
 40
0.0
 40
0.4986680494787147
 40
1.0
 40
1.0
 40
1.0
 40
1.0
 10
58.05963094620574
 20
78.78964883099782
 30
0.0
 10
57.95182405562144
 20
78.22101767659115
 30
0.0
 10
57.73563436651465
 20
77.08071772153869
 30
0.0
 10
57.38175270902855
 20
75.96652450014392
 30
0.0
 10
57.20434052742735
 20
75.40794383920448
 30
0.0
  0
LINE
  5
1E2
330
1F
100
AcDbEntity
  8
0
  6
Continuous
 62
     7
370
    25
100
AcDbLine
 10
57.2043405274
 20
75.4079438392
 30
0.0
 11
43.6366092015
 21
75.4079438392
 31
0.0
  0
ARC
  5
1E3
330
1F
100
AcDbEntity
  8
0
  6
Continuous
 62
     7
370
    25
100
AcDbCircle
 10
59.0330370835
 20
93.4432699808
 30
0.0
 40
2.826521663601345
100
AcDbArc
 50
249.8558609029
 51
272.2126105423
  0
LINE
  5
1E4
330
1F
100
AcDbEntity
  8
0
  6
Continuous
 62
     7
370
    25
100
AcDbLine
 10
59.1421627009
 20
90.6188556496
 30
0.0
 11
59.1421627009
 21
84.1970320288
 31
0.0
  0
ARC
  5
1E5
330
1F
100
AcDbEntity
  8
0
  6
Continuous
 62
     7
370
    25
100
AcDbCircle
 10
59.0330370835
 20
81.3726176976
 30
0.0
 40
2.826521663601385
100
AcDbArc
 50
87.7873894577
 51
110.1441390971
  0
ARC
  5
1E6
330
1F
100
AcDbEntity
  8
0
  6
Continuous
 62
     7
370
    25
100
AcDbCircle
 10
59.0814289406
 20
97.0037124333
 30
0.0
 40
1.414045880661665
100
AcDbArc
 50
223.7299446481
 51
272.4616308106
  0
SPLINE
  5
1E7
330
1F
100
AcDbEntity
  8
0
  6
Continuous
 62
     7
370
    25
100
AcDbSpline
210
0.0
220
0.0
230
1.0
 70
     8
 71
     3
 72
    11
 73
     7
 74
     0
 42
0.00000001
 43
0.00000001
 40
0.0
 40
0.0
 40
0.0
 40
0.0
 40
0.221916028207737
 40
0.4466603018149286
 40
0.7206213487884514
 40
1.0
 40
1.0
 40
1.0
 40
1.0
 10
59.14216270093628
 20
95.59097142275425
 30
0.0
 10
59.12923083135078
 20
95.27360015778287
 30
0.0
 10
59.10320227983635
 20
94.63481283744206
 30
0.0
 10
58.99670883704351
 20
93.48219638356872
 30
0.0
 10
59.0770460631034
 20
92.15011237043441
 30
0.0
 10
59.12031594030904
 20
91.1325953043489
 30
0.0
 10
59.14216270093628
 20
90.61885564959412
 30
0.0
  0
SPLINE
  5
1E8
330
1F
100
AcDbEntity
  8
0
  6
Continuous
 62
     7
370
    25
100
AcDbSpline
210
0.0
220
0.0
230
1.0
 70
     8
 71
     3
 72
    11
 73
     7
 74
     0
 42
0.00000001
 43
0.00000001
 40
0.0
 40
0.0
 40
0.0
 40
0.0
 40
0.221916028207736
 40
0.4466603018149271
 40
0.7206213487884506
 40
0.9999999999999999
 40
0.9999999999999999
 40
0.9999999999999999
 40
0.9999999999999999
 10
59.14216270093629
 20
84.19703202881486
 30
0.0
 10
59.1292308313508
 20
83.78789102772491
 30
0.0
 10
59.10320227983636
 20
82.96439466061874
 30
0.0
 10
58.99670883704351
 20
81.70846962546439
 30
0.0
 10
59.07704606310342
 20
80.42436933468471
 30
0.0
 10
59.12031594030903
 20
79.62733513312241
 30
0.0
 10
59.14216270093628
 20
79.22491625565472
 30
0.0
  0
ARC
  5
1E9
330
1F
100
AcDbEntity
  8
0
  6
Continuous
 62
     7
370
    25
100
AcDbCircle
 10
59.0814289406
 20
77.8121752451
 30
0.0
 40
1.414045880661628
100
AcDbArc
 50
87.5383691894
 51
136.2700553519
  0
LINE
  5
1EA
330
1F
100
AcDbEntity
  8
0
  6
Continuous
 62
     7
370
    25
100
AcDbLine
 10
60.2204748644
 20
75.6579438392
 30
0.0
 11
60.2204748644
 21
99.1579438392
 31
0.0
  0
LINE
  5
1EB
330
1F
100
AcDbEntity
  8
0
  6
Continuous
 62
     7
370
    25
100
AcDbLine
 10
59.1421627009
 20
79.2249162557
 30
0.0
 11
59.1421627009
 21
76.0140044453
 31
0.0
  0
LINE
  5
1EC
330
1F
100
AcDbEntity
  8
0
  6
Continuous
 62
     7
370
    25
100
AcDbLine
 10
59.1421627009
 20
98.8018832331
 30
0.0
 11
59.1421627009
 21
95.5909714228
 31
0.0
  0
LINE
  5
1ED
330
1F
100
AcDbEntity
  8
0
  6
Continuous
 62
     7
370
    25
100
AcDbLine
 10
60.4204748644
 20
98.9579438392
 30
0.0
 11
60.4204748644
 21
75.8579438392
 31
0.0
  0
LINE
  5
1EE
330
1F
100
AcDbEntity
  8
0
  6
Continuous
 62
     7
370
    25
100
AcDbLine
 10
58.0596309462
 20
96.0262388474
 30
0.0
 11
58.0596309462
 21
99.4079438392
 31
0.0
  0
ARC
  5
1EF
330
1F
100
AcDbEntity
  8
0
  6
Continuous
 62
     7
370
    25
100
AcDbCircle
 10
59.135123581
 20
100.0591372943
 30
0.0
 40
1.257273766365415
100
AcDbArc
 50
211.1942295043
 51
270.3207845255
  0
SPLINE
  5
1F0
330
1F
100
AcDbEntity
  8
0
  6
Continuous
 62
     7
370
    25
100
AcDbSpline
210
0.0
220
0.0
230
1.0
 70
    24
 71
     3
 72
     9
 73
     5
 74
     0
 42
0.00000001
 43
0.00000001
 40
0.0
 40
0.0
 40
0.0
 40
0.0
 40
0.4986680494787144
 40
1.0
 40
1.0
 40
1.0
 40
1.0
 10
58.05963094620573
 20
99.40794383920448
 30
0.0
 10
57.95182405562143
 20
99.40794383920448
 30
0.0
 10
57.73563436651464
 20
99.40794383920448
 30
0.0
 10
57.38175270902856
 20
99.40794383920448
 30
0.0
 10
57.20434052742735
 20
99.40794383920448
 30
0.0
  0
LINE
  5
1F1
330
1F
100
AcDbEntity
  8
0
  6
Continuous
 62
     7
370
    25
100
AcDbLine
 10
58.0596309462
 20
75.4079438392
 30
0.0
 11
58.0596309462
 21
78.789648831
 31
0.0
  0
ARC
  5
1F2
330
1F
100
AcDbEntity
  8
0
  6
Continuous
 62
     7
370
    25
100
AcDbCircle
 10
59.135123581
 20
74.7567503841
 30
0.0
 40
1.257273766365375
100
AcDbArc
 50
89.6792154745
 51
148.8057704957
  0
SPLINE
  5
1F3
330
1F
100
AcDbEntity
  8
0
  6
Continuous
 62
     7
370
    25
100
AcDbSpline
210
0.0
220
0.0
230
1.0
 70
    24
 71
     3
 72
     9
 73
     5
 74
     0
 42
0.00000001
 43
0.00000001
 40
0.0
 40
0.0
 40
0.0
 40
0.0
 40
0.4988470384231434
 40
1.0
 40
1.0
 40
1.0
 40
1.0
 10
57.20434052742735
 20
75.40794383920448
 30
0.0
 10
57.38091652776587
 20
75.40794383920448
 30
0.0
 10
57.73488475196677
 20
75.40794383920448
 30
0.0
 10
57.95121593376575
 20
75.40794383920448
 30
0.0
 10
58.05963094620574
 20
75.40794383920448
 30
0.0
  0
SPLINE
  5
1F4
330
1F
100
AcDbEntity
  8
0
  6
Continuous
 62
     7
370
    25
100
AcDbSpline
210
0.0
220
0.0
230
1.0
 70
    24
 71
     3
 72
     9
 73
     5
 74
     0
 42
0.00000001
 43
0.00000001
 40
0.0
 40
0.0
 40
0.0
 40
0.0
 40
0.599287846646717
 40
0.9999999999999999
 40
0.9999999999999999
 40
0.9999999999999999
 40
0.9999999999999999
 10
58.2535488516567
 20
99.40794383920448
 30
0.0
 10
58.25349077764667
 20
99.40794383920448
 30
0.0
 10
58.25339387261119
 20
99.40794383920448
 30
0.0
 10
58.11506214903644
 20
99.40794383920448
 30
0.0
 10
58.05963094620574
 20
99.40794383920448
 30
0.0
  0
SPLINE
  5
1F5
330
1F
100
AcDbEntity
  8
0
  6
Continuous
 62
     7
370
    25
100
AcDbSpline
210
0.0
220
0.0
230
1.0
 70
    24
 71
     3
 72
     9
 73
     5
 74
     0
 42
0.00000001
 43
0.00000001
 40
0.0
 40
0.0
 40
0.0
 40
0.0
 40
0.4552559709909602
 40
0.9999999999999999
 40
0.9999999999999999
 40
0.9999999999999999
 40
0.9999999999999999
 10
58.05963094620574
 20
75.40794383920448
 30
0.0
 10
58.11599866750899
 20
75.40794383920448
 30
0.0
 10
58.23981411397211
 20
75.40794383920449
 30
0.0
 10
58.2429782364386
 20
75.40794383920449
 30
0.0
 10
58.24470187325929
 20
75.40794383920448
 30
0.0
  0
CIRCLE
  5
1F6
330
1F
100
AcDbEntity
  8
0
  6
Continuous
 62
     7
370
    25
100
AcDbCircle
 10
24.3608904517
 20
87.4079438392
 30
0.0
 40
4.999999999999986
  0
LINE
  5
1F7
330
1F
100
AcDbEntity
  8
0
  6
Continuous
 62
     7
370
    25
100
AcDbLine
 10
39.5188963336
 20
76.9304438392
 30
0.0
 11
39.5188963336
 21
97.8854438392
 31
0.0
  0
LINE
  5
1F8
330
1F
100
AcDbEntity
  8
0
  6
Continuous
 62
     7
370
    25
100
AcDbLine
 10
23.3608904517
 20
82.5089643536
 30
0.0
 11
23.3608904517
 21
92.3069233248
 31
0.0
  0
SPLINE
  5
1F9
330
1F
100
AcDbEntity
  8
0
  6
Continuous
 62
     7
370
    25
100
AcDbSpline
210
0.0
220
0.0
230
1.0
 70
     8
 71
     3
 72
     8
 73
     4
 74
     0
 42
0.00000001
 43
0.00000001
 40
0.0
 40
0.0
 40
0.0
 40
0.0
 40
1.0
 40
1.0
 40
1.0
 40
1.0
 10
25.36089045166845
 20
92.30692332477084
 30
0.0
 10
24.69635935402971
 20
92.29467095267894
 30
0.0
 10
24.02970645754981
 20
92.29459194916751
 30
0.0
 10
23.36089045166844
 20
92.30692332477084
 30
0.0
  0
SPLINE
  5
1FA
330
1F
100
AcDbEntity
  8
0
  6
Continuous
 62
     7
370
    25
100
AcDbSpline
210
0.0
220
0.0
230
1.0
 70
     8
 71
     3
 72
    26
 73
    22
 74
     0
 42
0.00000001
 43
0.00000001
 40
0.0
 40
0.0
 40
0.0
 40
0.0
 40
0.1250000000000001
 40
0.1250000000000001
 40
0.2500000000000002
 40
0.2500000000000002
 40
0.3125000000000002
 40
0.3125000000000002
 40
0.3750000000000003
 40
0.3750000000000003
 40
0.5000000000000003
 40
0.5000000000000003
 40
0.5625000000000003
 40
0.5625000000000003
 40
0.6250000000000002
 40
0.6250000000000002
 40
0.7500000000000001
 40
0.7500000000000001
 40
0.8750000000000001
 40
0.8750000000000001
 40
1.0
 40
1.0
 40
1.0
 40
1.0
 10
23.36089045166844
 20
92.30692332477084
 30
0.0
 10
23.2167862975138
 20
91.9224360705424
 30
0.0
 10
23.07694642219075
 20
91.53533158209548
 30
0.0
 10
22.81235104357691
 20
90.75186445483041
 30
0.0
 10
22.68742644223359
 20
90.35560560125404
 30
0.0
 10
22.5210888561299
 20
89.7482981399318
 30
0.0
 10
22.46921995994756
 20
89.54366692894637
 30
0.0
 10
22.37543558754559
 20
89.12829551824692
 30
0.0
 10
22.33346895267512
 20
88.91690471418019
 30
0.0
 10
22.22969573752638
 20
88.2814335846371
 30
0.0
 10
22.18999088967163
 20
87.85332177966185
 30
0.0
 10
22.1889939589273
 20
87.20228501147321
 30
0.0
 10
22.19843769303179
 20
86.98230923417438
 30
0.0
 10
22.23543749922674
 20
86.547895917415
 30
0.0
 10
22.26273512770408
 20
86.33379153021244
 30
0.0
 10
22.36562494668863
 20
85.69888234849223
 30
0.0
 10
22.46186165620111
 20
85.28508363610032
 30
0.0
 10
22.68462638319995
 20
84.46928921119499
 30
0.0
 10
22.81014992906019
 20
84.0707712356025
 30
0.0
 10
23.07588336722954
 20
83.28347610512402
 30
0.0
 10
23.21627389547589
 20
82.8948187582709
 30
0.0
 10
23.36089045166844
 20
82.50896435363813
 30
0.0
  0
SPLINE
  5
1FB
330
1F
100
AcDbEntity
  8
0
  6
Continuous
 62
     7
370
    25
100
AcDbSpline
210
0.0
220
0.0
230
1.0
 70
     8
 71
     3
 72
    10
 73
     6
 74
     0
 42
0.00000001
 43
0.00000001
 40
0.0
 40
0.0
 40
0.0
 40
0.0
 40
0.4437627670065674
 40
0.8931811417417613
 40
1.0
 40
1.0
 40
1.0
 40
1.0
 10
59.14216270093628
 20
76.01400444526509
 30
0.0
 10
59.13096302407823
 20
75.92511107679465
 30
0.0
 10
59.10842093423437
 20
75.74619142366714
 30
0.0
 10
59.01485303683788
 20
75.64184335224058
 30
0.0
 10
59.03420738321702
 20
75.66950071993708
 30
0.0
 10
59.03792415918943
 20
75.67481199409231
 30
0.0
  0
SPLINE
  5
1FC
330
1F
100
AcDbEntity
  8
0
  6
Continuous
 62
     7
370
    25
100
AcDbSpline
210
0.0
220
0.0
230
1.0
 70
     8
 71
     3
 72
     9
 73
     5
 74
     0
 42
0.00000001
 43
0.00000001
 40
0.0
 40
0.0
 40
0.0
 40
0.0
 40
0.4411554392043174
 40
1.0
 40
1.0
 40
1.0
 40
1.0
 10
59.03792415919281
 20
99.14107568431211
 30
0.0
 10
59.0482219520492
 20
99.13624572484235
 30
0.0
 10
59.0715647286337
 20
99.12529729478678
 30
0.0
 10
59.11685338285753
 20
98.91782692232205
 30
0.0
 10
59.14216270093628
 20
98.80188323314387
 30
0.0
  0
LINE
  5
1FD
330
1F
100
AcDbEntity
  8
0
  6
Continuous
 62
     7
370
    25
100
AcDbLine
 10
39.0934618391
 20
87.4079438392
 30
0.0
 11
39.0934618391
 21
77.5329438392
 31
0.0
  0
LINE
  5
1FE
330
1F
100
AcDbEntity
  8
0
  6
Continuous
 62
     7
370
    25
100
AcDbLine
 10
39.0934618391
 20
97.2829438392
 30
0.0
 11
39.0934618391
 21
87.4079438392
 31
0.0
  0
LINE
  5
1FF
330
1F
100
AcDbEntity
  8
0
  6
Continuous
 62
     7
370
    25
100
AcDbLine
 10
36.8608904517
 20
85.0468045861
 30
0.0
 11
36.8608904517
 21
78.9079438392
 31
0.0
  0
LINE
  5
200
330
1F
100
AcDbEntity
  8
0
  6
Continuous
 62
     7
370
    25
100
AcDbLine
 10
36.8608904517
 20
95.9079438392
 30
0.0
 11
36.8608904517
 21
89.7629527696
 31
0.0
  0
MTEXT
  5
202
330
1F
100
AcDbEntity
  8
0
  6
Continuous
 62
     7
370
     0
100
AcDbMText
 10
47.8812714924
 20
68.8523593832
 30
0.0
 40
3.5
 41
0.0
 71
     1
 72
     1
  1
両口リングエルボ RL-2412R
  7
SLDTEXTSTYLE0
 73
     1
 44
1.0
  0
INSERT
  5
20E
330
1F
100
AcDbEntity
  8
0
  6
Continuous
 62
     7
370
    18
100
AcDbBlockReference
  2
SW_CENTERMARKSYMBOL_1
 10
24.3608904517
 20
87.4079438392
 30
0.0
  0
ENDSEC
  0
SECTION
  2
OBJECTS
  0
DICTIONARY
  5
C
330
0
100
AcDbDictionary
281
     1
  3
ACAD_GROUP
350
D
  3
ACAD_LAYOUT
350
1A
  3
ACAD_MLINESTYLE
350
17
  3
ACAD_PLOTSETTINGS
350
19
  3
ACAD_PLOTSTYLENAME
350
E
  3
ACAD_SCALELIST
350
47
  3
DWGPROPS
350
20F
  0
DICTIONARY
  5
D
102
{ACAD_REACTORS
330
C
102
}
330
C
100
AcDbDictionary
281
     1
  0
DICTIONARY
  5
1A
102
{ACAD_REACTORS
330
C
102
}
330
C
100
AcDbDictionary
281
     1
  3
Layout1
350
1E
  3
Layout2
350
26
  3
Model
350
22
  0
DICTIONARY
  5
17
102
{ACAD_REACTORS
330
C
102
}
330
C
100
AcDbDictionary
281
     1
  3
Standard
350
18
  0
DICTIONARY
  5
19
102
{ACAD_REACTORS
330
C
102
}
330
C
100
AcDbDictionary
281
     1
  0
ACDBDICTIONARYWDFLT
  5
E
102
{ACAD_REACTORS
330
C
102
}
330
C
100
AcDbDictionary
281
     1
  3
Normal
350
F
100
AcDbDictionaryWithDefault
340
F
  0
DICTIONARY
  5
47
102
{ACAD_REACTORS
330
C
102
}
330
C
100
AcDbDictionary
281
     1
  3
A0
350
48
  3
A1
350
49
  3
A2
350
4A
  3
A3
350
4B
  3
A4
350
4C
  3
A5
350
4D
  3
A6
350
4E
  3
A7
350
4F
  3
A8
350
50
  3
A9
350
51
  3
B0
350
52
  3
B1
350
53
  3
B2
350
54
  3
B3
350
55
  3
B4
350
56
  3
B5
350
57
  3
B6
350
58
  0
XRECORD
  5
20F
102
{ACAD_REACTORS
330
C
102
}
330
C
100
AcDbXrecord
280
     1
  1
DWGPROPS COOKIE
  2

  3

  4

  6

  7

  8
user52
  9

300
=
301
=
302
=
303
=
304
=
305
=
306
=
307
=
308
=
309
=
 40
0.0
 41
2460279.284682928
 42
2460279.284683287
  1

 90
        0
  0
LAYOUT
  5
1E
102
{ACAD_REACTORS
330
1A
102
}
330
1A
100
AcDbPlotSettings
  1

  2
none_device
  4

  6

 40
0.0
 41
0.0
 42
0.0
 43
0.0
 44
0.0
 45
0.0
 46
0.0
 47
0.0
 48
0.0
 49
0.0
140
0.0
141
0.0
142
1.0
143
1.0
 70
   688
 72
     1
 73
     0
 74
     5
  7

 75
    16
147
1.0
148
0.0
149
0.0
100
AcDbLayout
  1
Layout1
 70
     1
 71
     1
 10
0.0
 20
0.0
 11
420.0
 21
297.0
 12
0.0
 22
0.0
 32
0.0
 14
1.0000000000E+20
 24
1.0000000000E+20
 34
1.0000000000E+20
 15
-1.0000000000E+20
 25
-1.0000000000E+20
 35
-1.0000000000E+20
146
0.0
 13
0.0
 23
0.0
 33
0.0
 16
1.0
 26
0.0
 36
0.0
 17
0.0
 27
1.0
 37
0.0
 76
     0
330
1B
  0
LAYOUT
  5
26
102
{ACAD_REACTORS
330
1A
102
}
330
1A
100
AcDbPlotSettings
  1

  2
none_device
  4

  6

 40
0.0
 41
0.0
 42
0.0
 43
0.0
 44
0.0
 45
0.0
 46
0.0
 47
0.0
 48
0.0
 49
0.0
140
0.0
141
0.0
142
1.0
143
1.0
 70
   688
 72
     1
 73
     0
 74
     5
  7

 75
    16
147
1.0
148
0.0
149
0.0
100
AcDbLayout
  1
Layout2
 70
     1
 71
     2
 10
0.0
 20
0.0
 11
0.0
 21
0.0
 12
0.0
 22
0.0
 32
0.0
 14
0.0
 24
0.0
 34
0.0
 15
0.0
 25
0.0
 35
0.0
146
0.0
 13
0.0
 23
0.0
 33
0.0
 16
1.0
 26
0.0
 36
0.0
 17
0.0
 27
1.0
 37
0.0
 76
     0
330
23
  0
LAYOUT
  5
22
102
{ACAD_REACTORS
330
1A
102
}
330
1A
100
AcDbPlotSettings
  1

  2
none_device
  4
Letter_(8.50_x_11.00_Inches)
  6

 40
6.35
 41
6.35
 42
6.35000508
 43
6.35000508
 44
215.9
 45
279.4
 46
0.0
 47
0.0
 48
0.0
 49
0.0
140
0.0
141
0.0
142
1.0
143
1.0
 70
  1712
 72
     1
 73
     0
 74
     0
  7

 75
     0
147
1.0
148
0.0
149
0.0
100
AcDbLayout
  1
Model
 70
     1
 71
     0
 10
0.0
 20
0.0
 11
431.8
 21
279.4
 12
0.0
 22
0.0
 32
0.0
 14
0.0
 24
0.0
 34
0.0
 15
431.8
 25
279.4
 35
0.0
146
0.0
 13
0.0
 23
0.0
 33
0.0
 16
1.0
 26
0.0
 36
0.0
 17
0.0
 27
1.0
 37
0.0
 76
     0
330
1F
331
29
  0
MLINESTYLE
  5
18
102
{ACAD_REACTORS
330
17
102
}
330
17
100
AcDbMlineStyle
  2
Standard
 70
     0
  3

 62
   256
 51
90.0
 52
90.0
 71
     2
 49
0.5
 62
   256
  6
BYLAYER
 49
-0.5
 62
   256
  6
BYLAYER
  0
ACDBPLACEHOLDER
  5
F
102
{ACAD_REACTORS
330
E
102
}
330
E
  0
SCALE
  5
48
102
{ACAD_REACTORS
330
47
102
}
330
47
100
AcDbScale
 70
     0
300
1:1
140
1.0
141
1.0
290
     1
  0
SCALE
  5
49
102
{ACAD_REACTORS
330
47
102
}
330
47
100
AcDbScale
 70
     0
300
1:2
140
1.0
141
2.0
290
     0
  0
SCALE
  5
4A
102
{ACAD_REACTORS
330
47
102
}
330
47
100
AcDbScale
 70
     0
300
1:4
140
1.0
141
4.0
290
     0
  0
SCALE
  5
4B
102
{ACAD_REACTORS
330
47
102
}
330
47
100
AcDbScale
 70
     0
300
1:5
140
1.0
141
5.0
290
     0
  0
SCALE
  5
4C
102
{ACAD_REACTORS
330
47
102
}
330
47
100
AcDbScale
 70
     0
300
1:8
140
1.0
141
8.0
290
     0
  0
SCALE
  5
4D
102
{ACAD_REACTORS
330
47
102
}
330
47
100
AcDbScale
 70
     0
300
1:10
140
1.0
141
10.0
290
     0
  0
SCALE
  5
4E
102
{ACAD_REACTORS
330
47
102
}
330
47
100
AcDbScale
 70
     0
300
1:16
140
1.0
141
16.0
290
     0
  0
SCALE
  5
4F
102
{ACAD_REACTORS
330
47
102
}
330
47
100
AcDbScale
 70
     0
300
1:20
140
1.0
141
20.0
290
     0
  0
SCALE
  5
50
102
{ACAD_REACTORS
330
47
102
}
330
47
100
AcDbScale
 70
     0
300
1:30
140
1.0
141
30.0
290
     0
  0
SCALE
  5
51
102
{ACAD_REACTORS
330
47
102
}
330
47
100
AcDbScale
 70
     0
300
1:40
140
1.0
141
40.0
290
     0
  0
SCALE
  5
52
102
{ACAD_REACTORS
330
47
102
}
330
47
100
AcDbScale
 70
     0
300
1:50
140
1.0
141
50.0
290
     0
  0
SCALE
  5
53
102
{ACAD_REACTORS
330
47
102
}
330
47
100
AcDbScale
 70
     0
300
1:100
140
1.0
141
100.0
290
     0
  0
SCALE
  5
54
102
{ACAD_REACTORS
330
47
102
}
330
47
100
AcDbScale
 70
     0
300
2:1
140
2.0
141
1.0
290
     0
  0
SCALE
  5
55
102
{ACAD_REACTORS
330
47
102
}
330
47
100
AcDbScale
 70
     0
300
4:1
140
4.0
141
1.0
290
     0
  0
SCALE
  5
56
102
{ACAD_REACTORS
330
47
102
}
330
47
100
AcDbScale
 70
     0
300
8:1
140
8.0
141
1.0
290
     0
  0
SCALE
  5
57
102
{ACAD_REACTORS
330
47
102
}
330
47
100
AcDbScale
 70
     0
300
10:1
140
10.0
141
1.0
290
     0
  0
SCALE
  5
58
102
{ACAD_REACTORS
330
47
102
}
330
47
100
AcDbScale
 70
     0
300
100:1
140
100.0
141
1.0
290
     0
  0
ENDSEC
  0
EOF
