  0
SECTION
  2
HEADER
  9
$ACADVER
  1
AC1015
  9
$ACADMAINTVER
 70
     6
  9
$DWGCODEPAGE
  3
DOS932
  9
$INSBASE
 10
0.0
 20
0.0
 30
0.0
  9
$EXTMIN
 10
0.0
 20
0.0
 30
0.0
  9
$EXTMAX
 10
431.8
 20
279.4
 30
0.0
  9
$LIMMIN
 10
0.0
 20
0.0
  9
$LIMMAX
 10
431.8
 20
279.4
  9
$ORTHOMODE
 70
     0
  9
$REGENMODE
 70
     1
  9
$FILLMODE
 70
     1
  9
$QTEXTMODE
 70
     0
  9
$MIRRTEXT
 70
     1
  9
$LTSCALE
 40
1.0
  9
$ATTMODE
 70
     1
  9
$TEXTSIZE
 40
3.5
  9
$TRACEWID
 40
1.0
  9
$TEXTSTYLE
  7
Standard
  9
$CLAYER
  8
0
  9
$CELTYPE
  6
ByLayer
  9
$CECOLOR
 62
   256
  9
$CELTSCALE
 40
1.0
  9
$DISPSILH
 70
     0
  9
$DIMSCALE
 40
1.0
  9
$DIMASZ
 40
3.556
  9
$DIMEXO
 40
1.0
  9
$DIMDLI
 40
3.75
  9
$DIMRND
 40
0.0
  9
$DIMDLE
 40
0.0
  9
$DIMEXE
 40
1.0
  9
$DIMTP
 40
0.0
  9
$DIMTM
 40
0.0
  9
$DIMTXT
 40
3.5
  9
$DIMCEN
 40
2.5
  9
$DIMTSZ
 40
0.0
  9
$DIMTOL
 70
     0
  9
$DIMLIM
 70
     0
  9
$DIMTIH
 70
     1
  9
$DIMTOH
 70
     1
  9
$DIMSE1
 70
     0
  9
$DIMSE2
 70
     0
  9
$DIMTAD
 70
     1
  9
$DIMZIN
 70
     0
  9
$DIMBLK
  1

  9
$DIMASO
 70
     1
  9
$DIMSHO
 70
     1
  9
$DIMPOST
  1

  9
$DIMAPOST
  1

  9
$DIMALT
 70
     0
  9
$DIMALTD
 70
     3
  9
$DIMALTF
 40
0.0393700787
  9
$DIMLFAC
 40
1.0
  9
$DIMTOFL
 70
     1
  9
$DIMTVP
 40
0.0
  9
$DIMTIX
 70
     0
  9
$DIMSOXD
 70
     0
  9
$DIMSAH
 70
     0
  9
$DIMBLK1
  1

  9
$DIMBLK2
  1

  9
$DIMSTYLE
  2
ISO-25
  9
$DIMCLRD
 70
     0
  9
$DIMCLRE
 70
     0
  9
$DIMCLRT
 70
     0
  9
$DIMTFAC
 40
1.0
  9
$DIMGAP
 40
1.524
  9
$DIMJUST
 70
     0
  9
$DIMSD1
 70
     0
  9
$DIMSD2
 70
     0
  9
$DIMTOLJ
 70
     0
  9
$DIMTZIN
 70
     0
  9
$DIMALTZ
 70
     0
  9
$DIMALTTZ
 70
     0
  9
$DIMUPT
 70
     0
  9
$DIMDEC
 70
     3
  9
$DIMTDEC
 70
     3
  9
$DIMALTU
 70
     2
  9
$DIMALTTD
 70
     3
  9
$DIMTXSTY
  7
Standard
  9
$DIMAUNIT
 70
     0
  9
$DIMADEC
 70
     2
  9
$DIMALTRND
 40
0.0
  9
$DIMAZIN
 70
     0
  9
$DIMDSEP
 70
    44
  9
$DIMATFIT
 70
     3
  9
$DIMFRAC
 70
     0
  9
$DIMLDRBLK
  1

  9
$DIMLUNIT
 70
     2
  9
$DIMLWD
 70
    -2
  9
$DIMLWE
 70
    -2
  9
$DIMTMOVE
 70
     0
  9
$LUNITS
 70
     2
  9
$LUPREC
 70
     3
  9
$SKETCHINC
 40
1.0
  9
$FILLETRAD
 40
0.0
  9
$AUNITS
 70
     0
  9
$AUPREC
 70
     2
  9
$MENU
  1
.
  9
$ELEVATION
 40
0.0
  9
$PELEVATION
 40
0.0
  9
$THICKNESS
 40
0.0
  9
$LIMCHECK
 70
     0
  9
$CHAMFERA
 40
0.0
  9
$CHAMFERB
 40
0.0
  9
$CHAMFERC
 40
0.0
  9
$CHAMFERD
 40
0.0
  9
$SKPOLY
 70
     0
  9
$TDCREATE
 40
2460279.656780359
  9
$TDUCREATE
 40
2460279.281780359
  9
$TDUPDATE
 40
2460279.656780787
  9
$TDUUPDATE
 40
2460279.281780787
  9
$TDINDWG
 40
0.0000000116
  9
$TDUSRTIMER
 40
0.0000000116
  9
$USRTIMER
 70
     1
  9
$ANGBASE
 50
0.0
  9
$ANGDIR
 70
     0
  9
$PDMODE
 70
     0
  9
$PDSIZE
 40
-1.0
  9
$PLINEWID
 40
0.0
  9
$SPLFRAME
 70
     0
  9
$SPLINETYPE
 70
     6
  9
$SPLINESEGS
 70
     8
  9
$HANDSEED
  5
25A
  9
$SURFTAB1
 70
     6
  9
$SURFTAB2
 70
     6
  9
$SURFTYPE
 70
     6
  9
$SURFU
 70
     6
  9
$SURFV
 70
     6
  9
$UCSBASE
  2

  9
$UCSNAME
  2

  9
$UCSORG
 10
0.0
 20
0.0
 30
0.0
  9
$UCSXDIR
 10
1.0
 20
0.0
 30
0.0
  9
$UCSYDIR
 10
0.0
 20
1.0
 30
0.0
  9
$UCSORTHOREF
  2

  9
$UCSORTHOVIEW
 70
     0
  9
$UCSORGTOP
 10
0.0
 20
0.0
 30
0.0
  9
$UCSORGBOTTOM
 10
0.0
 20
0.0
 30
0.0
  9
$UCSORGLEFT
 10
0.0
 20
0.0
 30
0.0
  9
$UCSORGRIGHT
 10
0.0
 20
0.0
 30
0.0
  9
$UCSORGFRONT
 10
0.0
 20
0.0
 30
0.0
  9
$UCSORGBACK
 10
0.0
 20
0.0
 30
0.0
  9
$PUCSBASE
  2

  9
$PUCSNAME
  2

  9
$PUCSORG
 10
0.0
 20
0.0
 30
0.0
  9
$PUCSXDIR
 10
1.0
 20
0.0
 30
0.0
  9
$PUCSYDIR
 10
0.0
 20
1.0
 30
0.0
  9
$PUCSORTHOREF
  2

  9
$PUCSORTHOVIEW
 70
     0
  9
$PUCSORGTOP
 10
0.0
 20
0.0
 30
0.0
  9
$PUCSORGBOTTOM
 10
0.0
 20
0.0
 30
0.0
  9
$PUCSORGLEFT
 10
0.0
 20
0.0
 30
0.0
  9
$PUCSORGRIGHT
 10
0.0
 20
0.0
 30
0.0
  9
$PUCSORGFRONT
 10
0.0
 20
0.0
 30
0.0
  9
$PUCSORGBACK
 10
0.0
 20
0.0
 30
0.0
  9
$USERI1
 70
     0
  9
$USERI2
 70
     0
  9
$USERI3
 70
     0
  9
$USERI4
 70
     0
  9
$USERI5
 70
     0
  9
$USERR1
 40
0.0
  9
$USERR2
 40
0.0
  9
$USERR3
 40
0.0
  9
$USERR4
 40
0.0
  9
$USERR5
 40
0.0
  9
$WORLDVIEW
 70
     1
  9
$SHADEDGE
 70
     3
  9
$SHADEDIF
 70
    70
  9
$TILEMODE
 70
     1
  9
$MAXACTVP
 70
    64
  9
$PINSBASE
 10
0.0
 20
0.0
 30
0.0
  9
$PLIMCHECK
 70
     0
  9
$PEXTMIN
 10
1.0000000000E+20
 20
1.0000000000E+20
 30
1.0000000000E+20
  9
$PEXTMAX
 10
-1.0000000000E+20
 20
-1.0000000000E+20
 30
-1.0000000000E+20
  9
$PLIMMIN
 10
0.0
 20
0.0
  9
$PLIMMAX
 10
420.0
 20
297.0
  9
$UNITMODE
 70
     0
  9
$VISRETAIN
 70
     1
  9
$PLINEGEN
 70
     0
  9
$PSLTSCALE
 70
     1
  9
$TREEDEPTH
 70
  3020
  9
$CMLSTYLE
  2
Standard
  9
$CMLJUST
 70
     0
  9
$CMLSCALE
 40
20.0
  9
$PROXYGRAPHICS
 70
     1
  9
$MEASUREMENT
 70
     1
  9
$CELWEIGHT
370
    -1
  9
$ENDCAPS
280
     0
  9
$JOINSTYLE
280
     0
  9
$LWDISPLAY
290
     1
  9
$INSUNITS
 70
     4
  9
$HYPERLINKBASE
  1

  9
$STYLESHEET
  1

  9
$XEDIT
290
     1
  9
$CEPSNTYPE
380
     0
  9
$PSTYLEMODE
290
     1
  9
$FINGERPRINTGUID
  2
{2c44fa4d-53a3-4c88-9e49-b2d2a78ae674}
  9
$VERSIONGUID
  2
{FAEB1C32-E019-11D5-929B-00C0DF256EC4}
  9
$EXTNAMES
290
     1
  9
$PSVPSCALE
 40
0.0
  9
$OLESTARTUP
290
     0
  0
ENDSEC
  0
SECTION
  2
CLASSES
  0
CLASS
  1
ACDBDICTIONARYWDFLT
  2
AcDbDictionaryWithDefault
  3
ObjectDBX Classes
 90
        0
280
     0
281
     0
  0
CLASS
  1
VISUALSTYLE
  2
AcDbVisualStyle
  3
ObjectDBX Classes
 90
     4095
280
     0
281
     0
  0
CLASS
  1
MATERIAL
  2
AcDbMaterial
  3
ObjectDBX Classes
 90
     1153
280
     0
281
     0
  0
CLASS
  1
SCALE
  2
AcDbScale
  3
ObjectDBX Classes
 90
     1153
280
     0
281
     0
  0
CLASS
  1
TABLESTYLE
  2
AcDbTableStyle
  3
ObjectDBX Classes
 90
     4095
280
     0
281
     0
  0
CLASS
  1
MLEADERSTYLE
  2
AcDbMLeaderStyle
  3
ACDB_MLEADERSTYLE_CLASS
 90
     4095
280
     0
281
     0
  0
CLASS
  1
SUN
  2
AcDbSun
  3
SCENEOE
 90
     1153
280
     0
281
     0
  0
CLASS
  1
ACDBPLACEHOLDER
  2
AcDbPlaceHolder
  3
ObjectDBX Classes
 90
        0
280
     0
281
     0
  0
CLASS
  1
LAYOUT
  2
AcDbLayout
  3
ObjectDBX Classes
 90
        0
280
     0
281
     0
  0
ENDSEC
  0
SECTION
  2
TABLES
  0
TABLE
  2
VPORT
  5
8
330
0
100
AcDbSymbolTable
 70
     1
  0
VPORT
  5
29
330
8
100
AcDbSymbolTableRecord
100
AcDbViewportTableRecord
  2
*Active
 70
     0
 10
0.0
 20
0.0
 11
1.0
 21
1.0
 12
215.9
 22
139.7
 13
0.0
 23
0.0
 14
10.0
 24
10.0
 15
10.0
 25
10.0
 16
0.0
 26
0.0
 36
1.0
 17
0.0
 27
0.0
 37
0.0
 40
279.4
 41
1.5454545455
 42
50.0
 43
0.0
 44
0.0
 50
0.0
 51
0.0
 71
     0
 72
  2000
 73
     1
 74
     3
 75
     0
 76
     0
 77
     0
 78
     0
281
     0
 65
     1
110
0.0
120
0.0
130
0.0
111
1.0
121
0.0
131
0.0
112
0.0
122
1.0
132
0.0
 79
     0
146
0.0
  0
ENDTAB
  0
TABLE
  2
LTYPE
  5
5
330
0
100
AcDbSymbolTable
 70
     6
  0
LTYPE
  5
14
330
5
100
AcDbSymbolTableRecord
100
AcDbLinetypeTableRecord
  2
ByBlock
 70
     0
  3

 72
    65
 73
     0
 40
0.0
  0
LTYPE
  5
15
330
5
100
AcDbSymbolTableRecord
100
AcDbLinetypeTableRecord
  2
ByLayer
 70
     0
  3

 72
    65
 73
     0
 40
0.0
  0
LTYPE
  5
16
330
5
100
AcDbSymbolTableRecord
100
AcDbLinetypeTableRecord
  2
Continuous
 70
     0
  3
Solid line
 72
    65
 73
     0
 40
0.0
  0
LTYPE
  5
5E
330
5
100
AcDbSymbolTableRecord
100
AcDbLinetypeTableRecord
  2
HIDDEN
 70
     0
  3
Hidden __ __ __ __ __ __ __ __ __ __ __ __ __ __
 72
    65
 73
     2
 40
1.905
 49
1.27
 74
     0
 49
-0.635
 74
     0
  0
LTYPE
  5
5F
330
5
100
AcDbSymbolTableRecord
100
AcDbLinetypeTableRecord
  2
PHANTOM
 70
     0
  3
Phantom ______  __  __  ______  __  __  ______
 72
    65
 73
     6
 40
12.7
 49
6.35
 74
     0
 49
-1.27
 74
     0
 49
1.27
 74
     0
 49
-1.27
 74
     0
 49
1.27
 74
     0
 49
-1.27
 74
     0
  0
LTYPE
  5
60
330
5
100
AcDbSymbolTableRecord
100
AcDbLinetypeTableRecord
  2
CENTER
 70
     0
  3
Center ____ _ ____ _ ____ _ ____ _ ____ _ ____
 72
    65
 73
     4
 40
10.16
 49
6.35
 74
     0
 49
-1.27
 74
     0
 49
1.27
 74
     0
 49
-1.27
 74
     0
  0
LTYPE
  5
61
330
5
100
AcDbSymbolTableRecord
100
AcDbLinetypeTableRecord
  2
CENTERX2
 70
     0
  3
Center (2x) ________  __  ________  __  _____
 72
    65
 73
     4
 40
20.32
 49
12.7
 74
     0
 49
-2.54
 74
     0
 49
2.54
 74
     0
 49
-2.54
 74
     0
  0
LTYPE
  5
62
330
5
100
AcDbSymbolTableRecord
100
AcDbLinetypeTableRecord
  2
DOT2
 70
     0
  3
Dot (.5x) ........................................
 72
    65
 73
     2
 40
0.635
 49
0.0
 74
     0
 49
-0.635
 74
     0
  0
ENDTAB
  0
TABLE
  2
LAYER
  5
2
330
0
100
AcDbSymbolTable
 70
     1
  0
LAYER
  5
10
330
2
100
AcDbSymbolTableRecord
100
AcDbLayerTableRecord
  2
0
 70
     0
 62
     7
  6
Continuous
370
    -3
390
F
  0
ENDTAB
  0
TABLE
  2
STYLE
  5
3
330
0
100
AcDbSymbolTable
 70
     2
  0
STYLE
  5
11
330
3
100
AcDbSymbolTableRecord
100
AcDbTextStyleTableRecord
  2
Standard
 70
     0
 40
0.0
 41
1.0
 50
0.0
 71
     0
 42
3.5
  3
txt
  4
bigfont
  0
STYLE
  5
24B
330
3
100
AcDbSymbolTableRecord
100
AcDbTextStyleTableRecord
  2
SLDTEXTSTYLE0
 70
     0
 40
0.0
 41
0.75
 50
0.0
 71
     0
 42
3.5
  3
TXT
  4
bigfont
  0
ENDTAB
  0
TABLE
  2
VIEW
  5
6
330
0
100
AcDbSymbolTable
 70
     0
  0
ENDTAB
  0
TABLE
  2
UCS
  5
7
330
0
100
AcDbSymbolTable
 70
     0
  0
ENDTAB
  0
TABLE
  2
APPID
  5
9
330
0
100
AcDbSymbolTable
 70
     1
  0
APPID
  5
12
330
9
100
AcDbSymbolTableRecord
100
AcDbRegAppTableRecord
  2
ACAD
 70
     0
  0
ENDTAB
  0
TABLE
  2
DIMSTYLE
  5
A
330
0
100
AcDbSymbolTable
 70
     1
100
AcDbDimStyleTable
  0
DIMSTYLE
105
27
330
A
100
AcDbSymbolTableRecord
100
AcDbDimStyleTableRecord
  2
ISO-25
 70
     0
 41
2.5
 42
0.625
 43
3.75
 44
1.25
 73
     0
 74
     0
 77
     1
 78
     8
140
2.5
141
2.5
143
0.0393700787
147
0.625
171
     3
172
     1
178
     0
271
     2
272
     2
274
     3
278
    44
283
     0
284
     8
340
11
  0
ENDTAB
  0
TABLE
  2
BLOCK_RECORD
  5
1
330
0
100
AcDbSymbolTable
 70
     3
  0
BLOCK_RECORD
  5
1F
330
1
100
AcDbSymbolTableRecord
100
AcDbBlockTableRecord
  2
*Model_Space
340
22
  0
BLOCK_RECORD
  5
1B
330
1
100
AcDbSymbolTableRecord
100
AcDbBlockTableRecord
  2
*Paper_Space
340
1E
  0
BLOCK_RECORD
  5
23
330
1
100
AcDbSymbolTableRecord
100
AcDbBlockTableRecord
  2
*Paper_Space0
340
26
  0
BLOCK_RECORD
  5
1D7
330
1
100
AcDbSymbolTableRecord
100
AcDbBlockTableRecord
  2
SW_CENTERMARKSYMBOL_0
340
0
102
{BLKREFS
331
1E2
102
}
  0
BLOCK_RECORD
  5
24D
330
1
100
AcDbSymbolTableRecord
100
AcDbBlockTableRecord
  2
SW_CENTERMARKSYMBOL_1
340
0
102
{BLKREFS
331
258
102
}
  0
ENDTAB
  0
ENDSEC
  0
SECTION
  2
BLOCKS
  0
BLOCK
  5
20
330
1F
100
AcDbEntity
  8
0
100
AcDbBlockBegin
  2
*Model_Space
 70
     0
 10
0.0
 20
0.0
 30
0.0
  3
*Model_Space
  1

  0
ENDBLK
  5
21
330
1F
100
AcDbEntity
  8
0
100
AcDbBlockEnd
  0
BLOCK
  5
1C
330
1B
100
AcDbEntity
 67
     1
  8
0
100
AcDbBlockBegin
  2
*Paper_Space
 70
     0
 10
0.0
 20
0.0
 30
0.0
  3
*Paper_Space
  1

  0
ENDBLK
  5
1D
330
1B
100
AcDbEntity
 67
     1
  8
0
100
AcDbBlockEnd
  0
BLOCK
  5
24
330
23
100
AcDbEntity
  8
0
100
AcDbBlockBegin
  2
*Paper_Space0
 70
     0
 10
0.0
 20
0.0
 30
0.0
  3
*Paper_Space0
  1

  0
ENDBLK
  5
25
330
23
100
AcDbEntity
  8
0
100
AcDbBlockEnd
  0
BLOCK
  5
1D8
330
1D7
100
AcDbEntity
  8
0
100
AcDbBlockBegin
  2
SW_CENTERMARKSYMBOL_0
 70
     0
 10
0.0
 20
0.0
 30
0.0
  3
SW_CENTERMARKSYMBOL_0
  1

  0
LINE
  5
1DA
330
1D7
100
AcDbEntity
  8
0
  6
Continuous
 62
     0
370
    18
100
AcDbLine
 10
0.0
 20
0.0
 30
0.0
 11
0.0
 21
2.5
 31
0.0
  0
LINE
  5
1DB
330
1D7
100
AcDbEntity
  8
0
  6
Continuous
 62
     0
370
    18
100
AcDbLine
 10
0.0
 20
0.0
 30
0.0
 11
-2.5
 21
0.0
 31
0.0
  0
LINE
  5
1DC
330
1D7
100
AcDbEntity
  8
0
  6
Continuous
 62
     0
370
    18
100
AcDbLine
 10
0.0
 20
0.0
 30
0.0
 11
0.0
 21
-2.5
 31
0.0
  0
LINE
  5
1DD
330
1D7
100
AcDbEntity
  8
0
  6
Continuous
 62
     0
370
    18
100
AcDbLine
 10
0.0
 20
0.0
 30
0.0
 11
2.5
 21
0.0
 31
0.0
  0
LINE
  5
1DE
330
1D7
100
AcDbEntity
  8
0
  6
Continuous
 62
     0
370
    18
100
AcDbLine
 10
0.0
 20
5.0
 30
0.0
 11
0.0
 21
32.0776174126
 31
0.0
  0
LINE
  5
1DF
330
1D7
100
AcDbEntity
  8
0
  6
Continuous
 62
     0
370
    18
100
AcDbLine
 10
-5.0
 20
0.0
 30
0.0
 11
-12.55
 21
0.0
 31
0.0
  0
LINE
  5
1E0
330
1D7
100
AcDbEntity
  8
0
  6
Continuous
 62
     0
370
    18
100
AcDbLine
 10
0.0
 20
-5.0
 30
0.0
 11
0.0
 21
-15.0732459895
 31
0.0
  0
LINE
  5
1E1
330
1D7
100
AcDbEntity
  8
0
  6
Continuous
 62
     0
370
    18
100
AcDbLine
 10
5.0
 20
0.0
 30
0.0
 11
12.55
 21
0.0
 31
0.0
  0
ENDBLK
  5
1D9
330
1D7
100
AcDbEntity
  8
0
100
AcDbBlockEnd
  0
BLOCK
  5
24E
330
24D
100
AcDbEntity
  8
0
100
AcDbBlockBegin
  2
SW_CENTERMARKSYMBOL_1
 70
     0
 10
0.0
 20
0.0
 30
0.0
  3
SW_CENTERMARKSYMBOL_1
  1

  0
LINE
  5
250
330
24D
100
AcDbEntity
  8
0
  6
Continuous
 62
     0
370
    18
100
AcDbLine
 10
0.0
 20
0.0
 30
0.0
 11
0.0
 21
2.5
 31
0.0
  0
LINE
  5
251
330
24D
100
AcDbEntity
  8
0
  6
Continuous
 62
     0
370
    18
100
AcDbLine
 10
0.0
 20
0.0
 30
0.0
 11
-2.5
 21
0.0
 31
0.0
  0
LINE
  5
252
330
24D
100
AcDbEntity
  8
0
  6
Continuous
 62
     0
370
    18
100
AcDbLine
 10
0.0
 20
0.0
 30
0.0
 11
0.0
 21
-2.5
 31
0.0
  0
LINE
  5
253
330
24D
100
AcDbEntity
  8
0
  6
Continuous
 62
     0
370
    18
100
AcDbLine
 10
0.0
 20
0.0
 30
0.0
 11
2.5
 21
0.0
 31
0.0
  0
LINE
  5
254
330
24D
100
AcDbEntity
  8
0
  6
Continuous
 62
     0
370
    18
100
AcDbLine
 10
0.0
 20
5.0
 30
0.0
 11
0.0
 21
12.55
 31
0.0
  0
LINE
  5
255
330
24D
100
AcDbEntity
  8
0
  6
Continuous
 62
     0
370
    18
100
AcDbLine
 10
-5.0
 20
0.0
 30
0.0
 11
-15.5007845405
 21
0.0
 31
0.0
  0
LINE
  5
256
330
24D
100
AcDbEntity
  8
0
  6
Continuous
 62
     0
370
    18
100
AcDbLine
 10
0.0
 20
-5.0
 30
0.0
 11
0.0
 21
-12.55
 31
0.0
  0
LINE
  5
257
330
24D
100
AcDbEntity
  8
0
  6
Continuous
 62
     0
370
    18
100
AcDbLine
 10
5.0
 20
0.0
 30
0.0
 11
32.9088204111
 21
0.0
 31
0.0
  0
ENDBLK
  5
24F
330
24D
100
AcDbEntity
  8
0
100
AcDbBlockEnd
  0
ENDSEC
  0
SECTION
  2
ENTITIES
  0
LINE
  5
63
330
1F
100
AcDbEntity
  8
0
  6
Continuous
 62
     7
370
    25
100
AcDbLine
 10
20.2598153708
 20
37.6101617551
 30
0.0
 11
22.1341710237
 21
36.5280020143
 31
0.0
  0
LINE
  5
64
330
1F
100
AcDbEntity
  8
0
  6
Continuous
 62
     7
370
    25
100
AcDbLine
 10
42.6341710237
 20
36.5280020143
 30
0.0
 11
44.5085266767
 21
37.6101617551
 31
0.0
  0
LINE
  5
65
330
1F
100
AcDbEntity
  8
0
  6
Continuous
 62
     7
370
    25
100
AcDbLine
 10
22.1341710237
 20
51.3280020143
 30
0.0
 11
22.1341710237
 21
50.6053522835
 31
0.0
  0
LINE
  5
66
330
1F
100
AcDbEntity
  8
0
  6
Continuous
 62
     7
370
    25
100
AcDbLine
 10
42.6341710237
 20
50.6053522835
 30
0.0
 11
42.6341710237
 21
51.3280020143
 31
0.0
  0
LINE
  5
67
330
1F
100
AcDbEntity
  8
0
  6
Continuous
 62
     7
370
    25
100
AcDbLine
 10
42.6341710237
 20
51.3280020143
 30
0.0
 11
42.4341710237
 21
51.5280020143
 31
0.0
  0
LINE
  5
68
330
1F
100
AcDbEntity
  8
0
  6
Continuous
 62
     7
370
    25
100
AcDbLine
 10
22.3341710237
 20
51.5280020143
 30
0.0
 11
22.1341710237
 21
51.3280020143
 31
0.0
  0
LINE
  5
69
330
1F
100
AcDbEntity
  8
0
  6
Continuous
 62
     7
370
    25
100
AcDbLine
 10
21.6341710237
 20
49.7393268797
 30
0.0
 11
20.2598153708
 21
48.9458422735
 31
0.0
  0
ARC
  5
6A
330
1F
100
AcDbEntity
  8
0
  6
Continuous
 62
     7
370
    25
100
AcDbCircle
 10
21.1341710237
 20
50.6053522835
 30
0.0
 40
1.0
100
AcDbArc
 50
300.0
 51
0.0
  0
ARC
  5
6B
330
1F
100
AcDbEntity
  8
0
  6
Continuous
 62
     7
370
    25
100
AcDbCircle
 10
43.6341710237
 20
50.6053522835
 30
0.0
 40
1.000000000000002
100
AcDbArc
 50
180.0
 51
240.0
  0
LINE
  5
6C
330
1F
100
AcDbEntity
  8
0
  6
Continuous
 62
     7
370
    25
100
AcDbLine
 10
44.5085266767
 20
48.9458422735
 30
0.0
 11
43.1341710237
 21
49.7393268797
 31
0.0
  0
LINE
  5
6D
330
1F
100
AcDbEntity
  8
0
  6
Continuous
 62
     7
370
    25
100
AcDbLine
 10
48.0455304196
 20
34.0731580122
 30
0.0
 11
46.9633706788
 21
32.1988023592
 31
0.0
  0
LINE
  5
6E
330
1F
100
AcDbEntity
  8
0
  6
Continuous
 62
     7
370
    25
100
AcDbLine
 10
46.9633706788
 20
11.6988023592
 30
0.0
 11
48.0455304196
 21
9.8244467063
 31
0.0
  0
LINE
  5
6F
330
1F
100
AcDbEntity
  8
0
  6
Continuous
 62
     7
370
    25
100
AcDbLine
 10
61.7633706788
 20
11.6988023592
 30
0.0
 11
61.9633706788
 21
11.8988023592
 31
0.0
  0
LINE
  5
70
330
1F
100
AcDbEntity
  8
0
  6
Continuous
 62
     7
370
    25
100
AcDbLine
 10
61.9633706788
 20
31.9988023592
 30
0.0
 11
61.7633706788
 21
32.1988023592
 31
0.0
  0
LINE
  5
71
330
1F
100
AcDbEntity
  8
0
  6
Continuous
 62
     7
370
    25
100
AcDbLine
 10
61.7633706788
 20
32.1988023592
 30
0.0
 11
61.040720948
 21
32.1988023592
 31
0.0
  0
LINE
  5
72
330
1F
100
AcDbEntity
  8
0
  6
Continuous
 62
     7
370
    25
100
AcDbLine
 10
61.040720948
 20
11.6988023592
 30
0.0
 11
61.7633706788
 21
11.6988023592
 31
0.0
  0
LINE
  5
73
330
1F
100
AcDbEntity
  8
0
  6
Continuous
 62
     7
370
    25
100
AcDbLine
 10
60.1746955442
 20
32.6988023592
 30
0.0
 11
59.381210938
 21
34.0731580122
 31
0.0
  0
ARC
  5
74
330
1F
100
AcDbEntity
  8
0
  6
Continuous
 62
     7
370
    25
100
AcDbCircle
 10
61.040720948
 20
33.1988023592
 30
0.0
 40
1.000000000000007
100
AcDbArc
 50
210.0
 51
270.0
  0
ARC
  5
75
330
1F
100
AcDbEntity
  8
0
  6
Continuous
 62
     7
370
    25
100
AcDbCircle
 10
61.040720948
 20
10.6988023592
 30
0.0
 40
1.000000000000002
100
AcDbArc
 50
90.0
 51
150.0
  0
LINE
  5
76
330
1F
100
AcDbEntity
  8
0
  6
Continuous
 62
     7
370
    25
100
AcDbLine
 10
59.381210938
 20
9.8244467063
 30
0.0
 11
60.1746955442
 21
11.1988023592
 31
0.0
  0
LINE
  5
77
330
1F
100
AcDbEntity
  8
0
  6
Continuous
 62
     7
370
    25
100
AcDbLine
 10
46.9633706788
 20
30.2798023592
 30
0.0
 11
44.4405402697
 21
30.2798023592
 31
0.0
  0
LINE
  5
78
330
1F
100
AcDbEntity
  8
0
  6
Continuous
 62
     7
370
    25
100
AcDbLine
 10
44.4405402697
 20
13.6178023592
 30
0.0
 11
46.9633706788
 21
13.6178023592
 31
0.0
  0
ARC
  5
79
330
1F
100
AcDbEntity
  8
0
  6
Continuous
 62
     7
370
    25
100
AcDbCircle
 10
24.3841710237
 20
34.9488023592
 30
0.0
 40
1.0
100
AcDbArc
 50
250.6705173466
 51
270.0
  0
ARC
  5
7A
330
1F
100
AcDbEntity
  8
0
  6
Continuous
 62
     7
370
    25
100
AcDbCircle
 10
40.3841710237
 20
34.9488023592
 30
0.0
 40
1.0
100
AcDbArc
 50
270.0
 51
289.3294826534
  0
ARC
  5
7B
330
1F
100
AcDbEntity
  8
0
  6
Continuous
 62
     7
370
    25
100
AcDbCircle
 10
45.3841710237
 20
29.9488023592
 30
0.0
 40
1.0
100
AcDbArc
 50
160.6705173466
 51
180.0
  0
ARC
  5
7C
330
1F
100
AcDbEntity
  8
0
  6
Continuous
 62
     7
370
    25
100
AcDbCircle
 10
45.3841710237
 20
13.9488023592
 30
0.0
 40
1.0
100
AcDbArc
 50
180.0
 51
199.3294826534
  0
LINE
  5
7D
330
1F
100
AcDbEntity
  8
0
  6
Continuous
 62
     7
370
    25
100
AcDbLine
 10
24.0531710237
 20
36.5280020143
 30
0.0
 11
24.0531710237
 21
34.0051716052
 31
0.0
  0
LINE
  5
7E
330
1F
100
AcDbEntity
  8
0
  6
Continuous
 62
     7
370
    25
100
AcDbLine
 10
40.7151710237
 20
34.0051716052
 30
0.0
 11
40.7151710237
 21
36.5280020143
 31
0.0
  0
ARC
  5
7F
330
1F
100
AcDbEntity
  8
0
  6
Continuous
 62
     7
370
    25
100
AcDbCircle
 10
43.3841710237
 20
29.9488023592
 30
0.0
 40
1.000000000000007
100
AcDbArc
 50
270.0
 51
0.0
  0
ARC
  5
80
330
1F
100
AcDbEntity
  8
0
  6
Continuous
 62
     7
370
    25
100
AcDbCircle
 10
43.3841710237
 20
13.9488023592
 30
0.0
 40
1.000000000000007
100
AcDbArc
 50
0.0
 51
90.0
  0
ARC
  5
81
330
1F
100
AcDbEntity
  8
0
  6
Continuous
 62
     7
370
    25
100
AcDbCircle
 10
24.3841710237
 20
32.9488023592
 30
0.0
 40
1.0
100
AcDbArc
 50
0.0
 51
90.0
  0
ARC
  5
82
330
1F
100
AcDbEntity
  8
0
  6
Continuous
 62
     7
370
    25
100
AcDbCircle
 10
40.3841710237
 20
32.9488023592
 30
0.0
 40
1.0
100
AcDbArc
 50
90.0
 51
180.0
  0
LINE
  5
83
330
1F
100
AcDbEntity
  8
0
  6
Continuous
 62
     7
370
    25
100
AcDbLine
 10
39.3841710237
 20
28.9488023592
 30
0.0
 11
39.3841710237
 21
32.9488023592
 31
0.0
  0
LINE
  5
84
330
1F
100
AcDbEntity
  8
0
  6
Continuous
 62
     7
370
    25
100
AcDbLine
 10
25.3841710237
 20
32.9488023592
 30
0.0
 11
25.3841710237
 21
16.9488023592
 31
0.0
  0
LINE
  5
85
330
1F
100
AcDbEntity
  8
0
  6
Continuous
 62
     7
370
    25
100
AcDbLine
 10
27.3841710237
 20
14.9488023592
 30
0.0
 11
43.3841710237
 21
14.9488023592
 31
0.0
  0
LINE
  5
86
330
1F
100
AcDbEntity
  8
0
  6
Continuous
 62
     7
370
    25
100
AcDbLine
 10
43.3841710237
 20
28.9488023592
 30
0.0
 11
39.3841710237
 21
28.9488023592
 31
0.0
  0
ARC
  5
87
330
1F
100
AcDbEntity
  8
0
  6
Continuous
 62
     7
370
    25
100
AcDbCircle
 10
27.3841710237
 20
16.9488023592
 30
0.0
 40
2.000000000000005
100
AcDbArc
 50
179.9241027957
 51
270.0836093679
  0
SPLINE
  5
88
330
1F
100
AcDbEntity
  8
0
  6
Continuous
 62
     7
370
    25
100
AcDbSpline
210
0.0
220
0.0
230
1.0
 70
     8
 71
     3
 72
    11
 73
     7
 74
     0
 42
0.00000001
 43
0.00000001
 40
0.0
 40
0.0
 40
0.0
 40
0.0
 40
0.273018175748607
 40
0.5498580878450745
 40
0.7738734731546629
 40
1.0
 40
1.0
 40
1.0
 40
1.0
 10
30.18648891474086
 20
50.6053522834836
 30
0.0
 10
30.58317983360253
 20
50.59401406276612
 30
0.0
 10
31.38211459138084
 20
50.57117890775792
 30
0.0
 10
32.52800905018668
 20
50.5300161074642
 30
0.0
 10
33.60040757186943
 20
50.5830010470356
 30
0.0
 10
34.25368333630552
 20
50.59787861300423
 30
0.0
 10
34.58185313275257
 20
50.6053522834836
 30
0.0
  0
ARC
  5
89
330
1F
100
AcDbEntity
  8
0
  6
Continuous
 62
     7
370
    25
100
AcDbCircle
 10
37.4063419959
 20
50.5153435725
 30
0.0
 40
2.825922664582185
100
AcDbArc
 50
178.1747583904
 51
195.9385646811
  0
SPLINE
  5
8A
330
1F
100
AcDbEntity
  8
0
  6
Continuous
 62
     7
370
    25
100
AcDbSpline
210
0.0
220
0.0
230
1.0
 70
     8
 71
     3
 72
    10
 73
     6
 74
     0
 42
0.00000001
 43
0.00000001
 40
0.0
 40
0.0
 40
0.0
 40
0.0
 40
0.1851192069214107
 40
0.5904327338990519
 40
1.0
 40
1.0
 40
1.0
 40
1.0
 10
30.07928490942347
 20
49.73932687969921
 30
0.0
 10
30.36265164418905
 20
49.77047344578485
 30
0.0
 10
31.26644222694969
 20
49.869814580999
 30
0.0
 10
32.8105597584628
 20
49.91832352658243
 30
0.0
 10
34.06071604154435
 20
49.79919970709729
 30
0.0
 10
34.68905713806993
 20
49.73932687969917
 30
0.0
  0
ARC
  5
8B
330
1F
100
AcDbEntity
  8
0
  6
Continuous
 62
     7
370
    25
100
AcDbCircle
 10
27.3620000516
 20
50.5153435725
 30
0.0
 40
2.825922664589921
100
AcDbArc
 50
344.061435319
 51
1.8252416096
  0
SPLINE
  5
8C
330
1F
100
AcDbEntity
  8
0
  6
Continuous
 62
     7
370
    25
100
AcDbSpline
210
0.0
220
0.0
230
1.0
 70
     8
 71
     3
 72
     9
 73
     5
 74
     0
 42
0.00000001
 43
0.00000001
 40
0.0
 40
0.0
 40
0.0
 40
0.0
 40
0.4983188677908568
 40
1.0
 40
1.0
 40
1.0
 40
1.0
 10
24.44334734117168
 20
49.73932687969916
 30
0.0
 10
24.7593126803812
 20
49.64458179945992
 30
0.0
 10
25.39337524479955
 20
49.45445237357794
 30
0.0
 10
26.01176082116354
 20
49.11575856623012
 30
0.0
 10
26.32199319725563
 20
48.94584227348764
 30
0.0
  0
LINE
  5
8D
330
1F
100
AcDbEntity
  8
0
  6
Continuous
 62
     7
370
    25
100
AcDbLine
 10
30.0792849094
 20
49.7393268797
 30
0.0
 11
24.4433473412
 21
49.7393268797
 31
0.0
  0
SPLINE
  5
8E
330
1F
100
AcDbEntity
  8
0
  6
Continuous
 62
     7
370
    25
100
AcDbSpline
210
0.0
220
0.0
230
1.0
 70
     8
 71
     3
 72
     9
 73
     5
 74
     0
 42
0.00000001
 43
0.00000001
 40
0.0
 40
0.0
 40
0.0
 40
0.0
 40
0.4985590461262306
 40
1.0
 40
1.0
 40
1.0
 40
1.0
 10
26.32199319725563
 20
48.94584227348764
 30
0.0
 10
26.9385750215199
 20
49.11475832123323
 30
0.0
 10
28.17530280543049
 20
49.45356683159537
 30
0.0
 10
29.44340602259707
 20
49.64389069838918
 30
0.0
 10
30.07928490942347
 20
49.73932687969921
 30
0.0
  0
SPLINE
  5
8F
330
1F
100
AcDbEntity
  8
0
  6
Continuous
 62
     7
370
    25
100
AcDbSpline
210
0.0
220
0.0
230
1.0
 70
     8
 71
     3
 72
    10
 73
     6
 74
     0
 42
0.00000001
 43
0.00000001
 40
0.0
 40
0.0
 40
0.0
 40
0.0
 40
0.32586849522721
 40
0.6527960511516885
 40
1.0
 40
1.0
 40
1.0
 40
1.0
 10
34.68905713806993
 20
49.73932687969917
 30
0.0
 10
35.10247674522977
 20
49.68030992410791
 30
0.0
 10
35.93065955816007
 20
49.56208420997709
 30
0.0
 10
37.18443885359487
 20
49.2926201493359
 30
0.0
 10
38.01736135903481
 20
49.06372973880657
 30
0.0
 10
38.4463488502378
 20
48.94584227348764
 30
0.0
  0
LINE
  5
90
330
1F
100
AcDbEntity
  8
0
  6
Continuous
 62
     7
370
    25
100
AcDbLine
 10
40.3249947063
 20
49.7393268797
 30
0.0
 11
34.6890571381
 21
49.7393268797
 31
0.0
  0
SPLINE
  5
91
330
1F
100
AcDbEntity
  8
0
  6
Continuous
 62
     7
370
    25
100
AcDbSpline
210
0.0
220
0.0
230
1.0
 70
     8
 71
     3
 72
     9
 73
     5
 74
     0
 42
0.00000001
 43
0.00000001
 40
0.0
 40
0.0
 40
0.0
 40
0.0
 40
0.4985590461262297
 40
1.0
 40
1.0
 40
1.0
 40
1.0
 10
38.4463488502378
 20
48.94584227348764
 30
0.0
 10
38.75463976236994
 20
49.11475832123324
 30
0.0
 10
39.37300365432522
 20
49.4535668315954
 30
0.0
 10
40.00705526290852
 20
49.64389069838916
 30
0.0
 10
40.32499470632172
 20
49.73932687969916
 30
0.0
  0
LINE
  5
92
330
1F
100
AcDbEntity
  8
0
  6
Continuous
 62
     7
370
    25
100
AcDbLine
 10
38.4463488502
 20
48.9458422735
 30
0.0
 11
38.4463488502
 21
37.6101617551
 31
0.0
  0
SPLINE
  5
93
330
1F
100
AcDbEntity
  8
0
  6
Continuous
 62
     7
370
    25
100
AcDbSpline
210
0.0
220
0.0
230
1.0
 70
     8
 71
     3
 72
    15
 73
    11
 74
     0
 42
0.00000001
 43
0.00000001
 40
0.0
 40
0.0
 40
0.0
 40
0.0
 40
0.1151159625715122
 40
0.2406911676657104
 40
0.3662340576124954
 40
0.4948698700451057
 40
0.6235045755561258
 40
0.7171353316368662
 40
0.8107757984548674
 40
1.0
 40
1.0
 40
1.0
 40
1.0
 10
38.44634885023781
 20
37.61016175510032
 30
0.0
 10
37.99087162104721
 20
37.48503689160162
 30
0.0
 10
37.03853326857134
 20
37.22341853019667
 30
0.0
 10
35.56422649223992
 20
36.92688088261434
 30
0.0
 10
34.01828816920797
 20
36.72306342918104
 30
0.0
 10
32.44751986279336
 20
36.65055394644082
 30
0.0
 10
31.00717144578088
 20
36.7069911433575
 30
0.0
 10
29.71905462696265
 20
36.85453975287333
 30
0.0
 10
28.19462349016114
 20
37.11027935005949
 30
0.0
 10
27.07258698277133
 20
37.4097972580964
 30
0.0
 10
26.32199319725563
 20
37.61016175510031
 30
0.0
  0
LINE
  5
94
330
1F
100
AcDbEntity
  8
0
  6
Continuous
 62
     7
370
    25
100
AcDbLine
 10
26.3219931973
 20
48.9458422735
 30
0.0
 11
26.3219931973
 21
37.6101617551
 31
0.0
  0
SPLINE
  5
95
330
1F
100
AcDbEntity
  8
0
  6
Continuous
 62
     7
370
    25
100
AcDbSpline
210
0.0
220
0.0
230
1.0
 70
     8
 71
     3
 72
    15
 73
    11
 74
     0
 42
0.00000001
 43
0.00000001
 40
0.0
 40
0.0
 40
0.0
 40
0.0
 40
0.1323060649947138
 40
0.264574721625891
 40
0.3998023269484414
 40
0.5350055300348282
 40
0.6501955637891814
 40
0.7654035659406108
 40
0.8826904433746946
 40
1.0
 40
1.0
 40
1.0
 40
1.0
 10
26.32199319725563
 20
37.61016175510031
 30
0.0
 10
26.06008135124864
 20
37.46739800607305
 30
0.0
 10
25.53633171248045
 20
37.18191087319929
 30
0.0
 10
24.7298034461774
 20
36.87473848650878
 30
0.0
 10
23.90807187308419
 20
36.69004577456009
 30
0.0
 10
23.11610965436094
 20
36.65347147422731
 30
0.0
 10
22.36693663811249
 20
36.74837129405321
 30
0.0
 10
21.65990536461111
 20
36.94281872972007
 30
0.0
 10
20.95607083643787
 20
37.22804989754456
 30
0.0
 10
20.49191548311888
 20
37.48278292729484
 30
0.0
 10
20.25981537076454
 20
37.61016175510031
 30
0.0
  0
SPLINE
  5
96
330
1F
100
AcDbEntity
  8
0
  6
Continuous
 62
     7
370
    25
100
AcDbSpline
210
0.0
220
0.0
230
1.0
 70
     8
 71
     3
 72
    15
 73
    11
 74
     0
 42
0.00000001
 43
0.00000001
 40
0.0
 40
0.0
 40
0.0
 40
0.0
 40
0.132306064994714
 40
0.2645747216258911
 40
0.3998023269484417
 40
0.5350055300348284
 40
0.6501955637891816
 40
0.765403565940611
 40
0.8826904433746947
 40
1.0
 40
1.0
 40
1.0
 40
1.0
 10
44.50852667672883
 20
37.61016175510031
 30
0.0
 10
44.24661483072185
 20
37.46739800607307
 30
0.0
 10
43.72286519195366
 20
37.1819108731993
 30
0.0
 10
42.91633692565061
 20
36.87473848650879
 30
0.0
 10
42.09460535255742
 20
36.69004577456009
 30
0.0
 10
41.30264313383417
 20
36.65347147422732
 30
0.0
 10
40.55347011758574
 20
36.74837129405322
 30
0.0
 10
39.84643884408436
 20
36.94281872972008
 30
0.0
 10
39.14260431591113
 20
37.22804989754457
 30
0.0
 10
38.67844896259215
 20
37.48278292729485
 30
0.0
 10
38.44634885023781
 20
37.61016175510032
 30
0.0
  0
LINE
  5
97
330
1F
100
AcDbEntity
  8
0
  6
Continuous
 62
     7
370
    25
100
AcDbLine
 10
32.3841710237
 20
36.5280020143
 30
0.0
 11
22.1341710237
 21
36.5280020143
 31
0.0
  0
LINE
  5
98
330
1F
100
AcDbEntity
  8
0
  6
Continuous
 62
     7
370
    25
100
AcDbLine
 10
42.6341710237
 20
36.5280020143
 30
0.0
 11
32.3841710237
 21
36.5280020143
 31
0.0
  0
SPLINE
  5
99
330
1F
100
AcDbEntity
  8
0
  6
Continuous
 62
     7
370
    25
100
AcDbSpline
210
0.0
220
0.0
230
1.0
 70
     8
 71
     3
 72
    10
 73
     6
 74
     0
 42
0.00000001
 43
0.00000001
 40
0.0
 40
0.0
 40
0.0
 40
0.0
 40
0.2958756403265933
 40
0.5933360076831717
 40
0.9999999999999999
 40
0.9999999999999999
 40
0.9999999999999999
 40
0.9999999999999999
 10
22.13846122684847
 20
49.73932687969916
 30
0.0
 10
22.36516497487813
 20
49.78591159057129
 30
0.0
 10
22.81978670931444
 20
49.87933052271938
 30
0.0
 10
23.59126514135465
 20
49.9024356863994
 30
0.0
 10
24.13139669050196
 20
49.79904165650242
 30
0.0
 10
24.44334734117169
 20
49.73932687969916
 30
0.0
  0
LINE
  5
9A
330
1F
100
AcDbEntity
  8
0
  6
Continuous
 62
     7
370
    25
100
AcDbLine
 10
20.2598153708
 20
48.9458422735
 30
0.0
 11
20.2598153708
 21
37.6101617551
 31
0.0
  0
SPLINE
  5
9B
330
1F
100
AcDbEntity
  8
0
  6
Continuous
 62
     7
370
    25
100
AcDbSpline
210
0.0
220
0.0
230
1.0
 70
     8
 71
     3
 72
     9
 73
     5
 74
     0
 42
0.00000001
 43
0.00000001
 40
0.0
 40
0.0
 40
0.0
 40
0.0
 40
0.4985590461262298
 40
1.0
 40
1.0
 40
1.0
 40
1.0
 10
20.25981537076453
 20
48.94584227348764
 30
0.0
 10
20.56810628289667
 20
49.11475832123323
 30
0.0
 10
21.18647017485197
 20
49.45356683159537
 30
0.0
 10
21.82052178343526
 20
49.64389069838915
 30
0.0
 10
22.13846122684847
 20
49.73932687969916
 30
0.0
  0
ARC
  5
9C
330
1F
100
AcDbEntity
  8
0
  6
Continuous
 62
     7
370
    25
100
AcDbCircle
 10
23.7132065459
 20
50.5624862417
 30
0.0
 40
1.100316734465917
100
AcDbArc
 50
311.5729649515
 51
2.2326889081
  0
LINE
  5
9D
330
1F
100
AcDbEntity
  8
0
  6
Continuous
 62
     7
370
    25
100
AcDbLine
 10
24.8126879776
 20
50.6053522835
 30
0.0
 11
30.1864889147
 21
50.6053522835
 31
0.0
  0
LINE
  5
9E
330
1F
100
AcDbEntity
  8
0
  6
Continuous
 62
     7
370
    25
100
AcDbLine
 10
34.5818531328
 20
50.6053522835
 30
0.0
 11
39.9556540699
 21
50.6053522835
 31
0.0
  0
ARC
  5
9F
330
1F
100
AcDbEntity
  8
0
  6
Continuous
 62
     7
370
    25
100
AcDbCircle
 10
41.0551355016
 20
50.5624862417
 30
0.0
 40
1.100316734466007
100
AcDbArc
 50
177.7673110919
 51
228.4270350485
  0
SPLINE
  5
A0
330
1F
100
AcDbEntity
  8
0
  6
Continuous
 62
     7
370
    25
100
AcDbSpline
210
0.0
220
0.0
230
1.0
 70
     8
 71
     3
 72
    10
 73
     6
 74
     0
 42
0.00000001
 43
0.00000001
 40
0.0
 40
0.0
 40
0.0
 40
0.0
 40
0.295875640326593
 40
0.5933360076831716
 40
1.0
 40
1.0
 40
1.0
 40
1.0
 10
40.32499470632172
 20
49.73932687969916
 30
0.0
 10
40.55169845435138
 20
49.78591159057129
 30
0.0
 10
41.00632018878768
 20
49.87933052271938
 30
0.0
 10
41.77779862082788
 20
49.90243568639941
 30
0.0
 10
42.31793016997519
 20
49.79904165650242
 30
0.0
 10
42.62988082064491
 20
49.73932687969916
 30
0.0
  0
SPLINE
  5
A1
330
1F
100
AcDbEntity
  8
0
  6
Continuous
 62
     7
370
    25
100
AcDbSpline
210
0.0
220
0.0
230
1.0
 70
     8
 71
     3
 72
     9
 73
     5
 74
     0
 42
0.00000001
 43
0.00000001
 40
0.0
 40
0.0
 40
0.0
 40
0.0
 40
0.4983188677908571
 40
1.0
 40
1.0
 40
1.0
 40
1.0
 10
42.62988082064491
 20
49.73932687969916
 30
0.0
 10
42.94584615985443
 20
49.64458179945994
 30
0.0
 10
43.57990872427276
 20
49.45445237357795
 30
0.0
 10
44.19829430063675
 20
49.11575856623012
 30
0.0
 10
44.50852667672883
 20
48.94584227348764
 30
0.0
  0
LINE
  5
A2
330
1F
100
AcDbEntity
  8
0
  6
Continuous
 62
     7
370
    25
100
AcDbLine
 10
44.5085266767
 20
48.9458422735
 30
0.0
 11
44.5085266767
 21
37.6101617551
 31
0.0
  0
LINE
  5
A3
330
1F
100
AcDbEntity
  8
0
  6
Continuous
 62
     7
370
    25
100
AcDbLine
 10
42.6341710237
 20
51.3280020143
 30
0.0
 11
22.1341710237
 21
51.3280020143
 31
0.0
  0
SPLINE
  5
A4
330
1F
100
AcDbEntity
  8
0
  6
Continuous
 62
     7
370
    25
100
AcDbSpline
210
0.0
220
0.0
230
1.0
 70
     8
 71
     3
 72
    11
 73
     7
 74
     0
 42
0.00000001
 43
0.00000001
 40
0.0
 40
0.0
 40
0.0
 40
0.0
 40
0.2730181757486083
 40
0.549858087845077
 40
0.7738734731546644
 40
1.0
 40
1.0
 40
1.0
 40
1.0
 10
39.95565406992288
 20
50.6053522834836
 30
0.0
 10
40.21733664031248
 20
50.59401406276613
 30
0.0
 10
40.74436484047636
 20
50.57117890775793
 30
0.0
 10
41.34699671018019
 20
50.53001610746419
 30
0.0
 10
41.82442567463772
 20
50.58300104703562
 30
0.0
 10
42.04335708528918
 20
50.59787861300424
 30
0.0
 10
42.15333617892872
 20
50.6053522834836
 30
0.0
  0
SPLINE
  5
A5
330
1F
100
AcDbEntity
  8
0
  6
Continuous
 62
     7
370
    25
100
AcDbSpline
210
0.0
220
0.0
230
1.0
 70
     8
 71
     3
 72
    11
 73
     7
 74
     0
 42
0.00000001
 43
0.00000001
 40
0.0
 40
0.0
 40
0.0
 40
0.0
 40
0.2730181757485958
 40
0.5498580878450512
 40
0.773873473154651
 40
1.0
 40
1.0
 40
1.0
 40
1.0
 10
22.61500586856466
 20
50.6053522834836
 30
0.0
 10
22.75001421703673
 20
50.59401406276613
 30
0.0
 10
23.02192077465114
 20
50.57117890775793
 30
0.0
 10
23.56518336375315
 20
50.53001610746418
 30
0.0
 10
24.16015292097835
 20
50.58300104703559
 30
0.0
 10
24.594497274763
 20
50.59787861300423
 30
0.0
 10
24.81268797757052
 20
50.6053522834836
 30
0.0
  0
LINE
  5
A6
330
1F
100
AcDbEntity
  8
0
  6
Continuous
 62
     7
370
    25
100
AcDbLine
 10
22.3341710237
 20
51.5280020143
 30
0.0
 11
42.4341710237
 21
51.5280020143
 31
0.0
  0
ARC
  5
A7
330
1F
100
AcDbEntity
  8
0
  6
Continuous
 62
     7
370
    25
100
AcDbCircle
 10
21.6055276523
 20
50.5967082381
 30
0.0
 40
1.009515224607416
100
AcDbArc
 50
301.8643766323
 51
0.4906051505
  0
ARC
  5
A8
330
1F
100
AcDbEntity
  8
0
  6
Continuous
 62
     7
370
    25
100
AcDbCircle
 10
43.1628143952
 20
50.5967082381
 30
0.0
 40
1.009515224614085
100
AcDbArc
 50
179.5093948497
 51
238.1356233675
  0
SPLINE
  5
A9
330
1F
100
AcDbEntity
  8
0
  6
Continuous
 62
     7
370
    25
100
AcDbSpline
210
0.0
220
0.0
230
1.0
 70
     8
 71
     3
 72
    11
 73
     7
 74
     0
 42
0.00000001
 43
0.00000001
 40
0.0
 40
0.0
 40
0.0
 40
0.0
 40
0.2730181757486071
 40
0.5498580878450745
 40
0.7738734731546629
 40
1.0
 40
1.0
 40
1.0
 40
1.0
 10
61.04072094798779
 20
24.14648446824832
 30
0.0
 10
61.02938272727032
 20
23.74979354938664
 30
0.0
 10
61.00654757226212
 20
22.95085879160835
 30
0.0
 10
60.96538477196839
 20
21.80496433280251
 30
0.0
 10
61.01836971153979
 20
20.73256581111976
 30
0.0
 10
61.03324727750842
 20
20.07929004668366
 30
0.0
 10
61.04072094798779
 20
19.75112025023661
 30
0.0
  0
ARC
  5
AA
330
1F
100
AcDbEntity
  8
0
  6
Continuous
 62
     7
370
    25
100
AcDbCircle
 10
60.950712237
 20
16.9266313871
 30
0.0
 40
2.82592266458255
100
AcDbArc
 50
88.1747583904
 51
105.9385646811
  0
SPLINE
  5
AB
330
1F
100
AcDbEntity
  8
0
  6
Continuous
 62
     7
370
    25
100
AcDbSpline
210
0.0
220
0.0
230
1.0
 70
     8
 71
     3
 72
    10
 73
     6
 74
     0
 42
0.00000001
 43
0.00000001
 40
0.0
 40
0.0
 40
0.0
 40
0.0
 40
0.1851192069214107
 40
0.5904327338990519
 40
1.0
 40
1.0
 40
1.0
 40
1.0
 10
60.1746955442034
 20
24.2536884735657
 30
0.0
 10
60.20584211028904
 20
23.97032173880013
 30
0.0
 10
60.30518324550317
 20
23.06653115603949
 30
0.0
 10
60.35369219108662
 20
21.52241362452638
 30
0.0
 10
60.23456837160148
 20
20.27225734144482
 30
0.0
 10
60.17469554420336
 20
19.64391624491925
 30
0.0
  0
ARC
  5
AC
330
1F
100
AcDbEntity
  8
0
  6
Continuous
 62
     7
370
    25
100
AcDbCircle
 10
60.950712237
 20
26.9709733314
 30
0.0
 40
2.825922664589934
100
AcDbArc
 50
254.061435319
 51
271.8252416096
  0
SPLINE
  5
AD
330
1F
100
AcDbEntity
  8
0
  6
Continuous
 62
     7
370
    25
100
AcDbSpline
210
0.0
220
0.0
230
1.0
 70
     8
 71
     3
 72
     9
 73
     5
 74
     0
 42
0.00000001
 43
0.00000001
 40
0.0
 40
0.0
 40
0.0
 40
0.0
 40
0.498318867790857
 40
1.0
 40
1.0
 40
1.0
 40
1.0
 10
60.17469554420335
 20
29.88962604181749
 30
0.0
 10
60.07995046396412
 20
29.57366070260797
 30
0.0
 10
59.88982103808215
 20
28.93959813818963
 30
0.0
 10
59.55112723073431
 20
28.32121256182564
 30
0.0
 10
59.38121093799182
 20
28.01098018573355
 30
0.0
  0
LINE
  5
AE
330
1F
100
AcDbEntity
  8
0
  6
Continuous
 62
     7
370
    25
100
AcDbLine
 10
60.1746955442
 20
24.2536884736
 30
0.0
 11
60.1746955442
 21
29.8896260418
 31
0.0
  0
SPLINE
  5
AF
330
1F
100
AcDbEntity
  8
0
  6
Continuous
 62
     7
370
    25
100
AcDbSpline
210
0.0
220
0.0
230
1.0
 70
     8
 71
     3
 72
     9
 73
     5
 74
     0
 42
0.00000001
 43
0.00000001
 40
0.0
 40
0.0
 40
0.0
 40
0.0
 40
0.4985590461262308
 40
1.0
 40
1.0
 40
1.0
 40
1.0
 10
59.38121093799182
 20
28.01098018573355
 30
0.0
 10
59.55012698573741
 20
27.39439836146928
 30
0.0
 10
59.88893549609956
 20
26.1576705775587
 30
0.0
 10
60.07925936289337
 20
24.88956736039211
 30
0.0
 10
60.1746955442034
 20
24.2536884735657
 30
0.0
  0
SPLINE
  5
B0
330
1F
100
AcDbEntity
  8
0
  6
Continuous
 62
     7
370
    25
100
AcDbSpline
210
0.0
220
0.0
230
1.0
 70
     8
 71
     3
 72
    10
 73
     6
 74
     0
 42
0.00000001
 43
0.00000001
 40
0.0
 40
0.0
 40
0.0
 40
0.0
 40
0.3258684952272098
 40
0.6527960511516884
 40
1.0
 40
1.0
 40
1.0
 40
1.0
 10
60.17469554420335
 20
19.64391624491925
 30
0.0
 10
60.11567858861209
 20
19.2304966377594
 30
0.0
 10
59.99745287448125
 20
18.40231382482912
 30
0.0
 10
59.72798881384008
 20
17.14853452939431
 30
0.0
 10
59.49909840331076
 20
16.31561202395437
 30
0.0
 10
59.38121093799182
 20
15.88662453275138
 30
0.0
  0
LINE
  5
B1
330
1F
100
AcDbEntity
  8
0
  6
Continuous
 62
     7
370
    25
100
AcDbLine
 10
59.381210938
 20
15.8866245328
 30
0.0
 11
48.0455304196
 21
15.8866245328
 31
0.0
  0
SPLINE
  5
B2
330
1F
100
AcDbEntity
  8
0
  6
Continuous
 62
     7
370
    25
100
AcDbSpline
210
0.0
220
0.0
230
1.0
 70
     8
 71
     3
 72
    15
 73
    11
 74
     0
 42
0.00000001
 43
0.00000001
 40
0.0
 40
0.0
 40
0.0
 40
0.0
 40
0.1151159625715122
 40
0.2406911676657105
 40
0.3662340576124954
 40
0.4948698700451058
 40
0.6235045755561259
 40
0.7171353316368662
 40
0.8107757984548674
 40
1.0
 40
1.0
 40
1.0
 40
1.0
 10
48.0455304196045
 20
15.88662453275138
 30
0.0
 10
47.92040555610581
 20
16.34210176194198
 30
0.0
 10
47.65878719470086
 20
17.29444011441785
 30
0.0
 10
47.36224954711852
 20
18.76874689074927
 30
0.0
 10
47.15843209368524
 20
20.31468521378122
 30
0.0
 10
47.085922610945
 20
21.88545352019583
 30
0.0
 10
47.14235980786169
 20
23.3258019372083
 30
0.0
 10
47.28990841737752
 20
24.61391875602653
 30
0.0
 10
47.54564801456369
 20
26.13834989282804
 30
0.0
 10
47.8451659226006
 20
27.26038640021786
 30
0.0
 10
48.0455304196045
 20
28.01098018573355
 30
0.0
  0
LINE
  5
B3
330
1F
100
AcDbEntity
  8
0
  6
Continuous
 62
     7
370
    25
100
AcDbLine
 10
59.381210938
 20
28.0109801857
 30
0.0
 11
48.0455304196
 21
28.0109801857
 31
0.0
  0
SPLINE
  5
B4
330
1F
100
AcDbEntity
  8
0
  6
Continuous
 62
     7
370
    25
100
AcDbSpline
210
0.0
220
0.0
230
1.0
 70
     8
 71
     3
 72
    15
 73
    11
 74
     0
 42
0.00000001
 43
0.00000001
 40
0.0
 40
0.0
 40
0.0
 40
0.0
 40
0.1323060649947138
 40
0.264574721625891
 40
0.3998023269484415
 40
0.5350055300348283
 40
0.6501955637891815
 40
0.7654035659406109
 40
0.8826904433746946
 40
1.0
 40
1.0
 40
1.0
 40
1.0
 10
48.0455304196045
 20
28.01098018573355
 30
0.0
 10
47.90276667057726
 20
28.27289203174054
 30
0.0
 10
47.61727953770349
 20
28.79664167050873
 30
0.0
 10
47.31010715101297
 20
29.60316993681178
 30
0.0
 10
47.12541443906428
 20
30.424901509905
 30
0.0
 10
47.08884013873151
 20
31.21686372862825
 30
0.0
 10
47.18373995855742
 20
31.9660367448767
 30
0.0
 10
47.37818739422427
 20
32.67306801837807
 30
0.0
 10
47.66341856204875
 20
33.37690254655132
 30
0.0
 10
47.91815159179904
 20
33.84105789987031
 30
0.0
 10
48.0455304196045
 20
34.07315801222465
 30
0.0
  0
SPLINE
  5
B5
330
1F
100
AcDbEntity
  8
0
  6
Continuous
 62
     7
370
    25
100
AcDbSpline
210
0.0
220
0.0
230
1.0
 70
     8
 71
     3
 72
    15
 73
    11
 74
     0
 42
0.00000001
 43
0.00000001
 40
0.0
 40
0.0
 40
0.0
 40
0.0
 40
0.132306064994714
 40
0.2645747216258911
 40
0.3998023269484416
 40
0.5350055300348283
 40
0.6501955637891816
 40
0.765403565940611
 40
0.8826904433746947
 40
1.0
 40
1.0
 40
1.0
 40
1.0
 10
48.0455304196045
 20
9.824446706260353
 30
0.0
 10
47.90276667057726
 20
10.08635855226734
 30
0.0
 10
47.61727953770349
 20
10.61010819103553
 30
0.0
 10
47.31010715101297
 20
11.41663645733857
 30
0.0
 10
47.12541443906428
 20
12.23836803043177
 30
0.0
 10
47.08884013873151
 20
13.03033024915502
 30
0.0
 10
47.18373995855741
 20
13.77950326540345
 30
0.0
 10
47.37818739422427
 20
14.48653453890482
 30
0.0
 10
47.66341856204875
 20
15.19036906707806
 30
0.0
 10
47.91815159179904
 20
15.65452442039704
 30
0.0
 10
48.0455304196045
 20
15.88662453275138
 30
0.0
  0
LINE
  5
B6
330
1F
100
AcDbEntity
  8
0
  6
Continuous
 62
     7
370
    25
100
AcDbLine
 10
46.9633706788
 20
21.9488023592
 30
0.0
 11
46.9633706788
 21
32.1988023592
 31
0.0
  0
LINE
  5
B7
330
1F
100
AcDbEntity
  8
0
  6
Continuous
 62
     7
370
    25
100
AcDbLine
 10
46.9633706788
 20
11.6988023592
 30
0.0
 11
46.9633706788
 21
21.9488023592
 31
0.0
  0
SPLINE
  5
B8
330
1F
100
AcDbEntity
  8
0
  6
Continuous
 62
     7
370
    25
100
AcDbSpline
210
0.0
220
0.0
230
1.0
 70
     8
 71
     3
 72
    10
 73
     6
 74
     0
 42
0.00000001
 43
0.00000001
 40
0.0
 40
0.0
 40
0.0
 40
0.0
 40
0.2958756403265933
 40
0.5933360076831717
 40
0.9999999999999999
 40
0.9999999999999999
 40
0.9999999999999999
 40
0.9999999999999999
 10
60.17469554420336
 20
32.19451215614071
 30
0.0
 10
60.22128025507548
 20
31.96780840811105
 30
0.0
 10
60.31469918722357
 20
31.51318667367474
 30
0.0
 10
60.3378043509036
 20
30.74170824163453
 30
0.0
 10
60.23441032100661
 20
30.20157669248722
 30
0.0
 10
60.17469554420335
 20
29.88962604181749
 30
0.0
  0
LINE
  5
B9
330
1F
100
AcDbEntity
  8
0
  6
Continuous
 62
     7
370
    25
100
AcDbLine
 10
59.381210938
 20
34.0731580122
 30
0.0
 11
48.0455304196
 21
34.0731580122
 31
0.0
  0
SPLINE
  5
BA
330
1F
100
AcDbEntity
  8
0
  6
Continuous
 62
     7
370
    25
100
AcDbSpline
210
0.0
220
0.0
230
1.0
 70
     8
 71
     3
 72
     9
 73
     5
 74
     0
 42
0.00000001
 43
0.00000001
 40
0.0
 40
0.0
 40
0.0
 40
0.0
 40
0.49855904612623
 40
1.0
 40
1.0
 40
1.0
 40
1.0
 10
59.38121093799182
 20
34.07315801222465
 30
0.0
 10
59.55012698573743
 20
33.76486710009252
 30
0.0
 10
59.88893549609957
 20
33.14650320813722
 30
0.0
 10
60.07925936289335
 20
32.51245159955392
 30
0.0
 10
60.17469554420335
 20
32.19451215614071
 30
0.0
  0
LINE
  5
BB
330
1F
100
AcDbEntity
  8
0
  6
Continuous
 62
     7
370
    25
100
AcDbLine
 10
60.1746955442
 20
14.0079786767
 30
0.0
 11
60.1746955442
 21
19.6439162449
 31
0.0
  0
SPLINE
  5
BC
330
1F
100
AcDbEntity
  8
0
  6
Continuous
 62
     7
370
    25
100
AcDbSpline
210
0.0
220
0.0
230
1.0
 70
     8
 71
     3
 72
     9
 73
     5
 74
     0
 42
0.00000001
 43
0.00000001
 40
0.0
 40
0.0
 40
0.0
 40
0.0
 40
0.4985590461262299
 40
1.0
 40
1.0
 40
1.0
 40
1.0
 10
59.38121093799183
 20
15.88662453275138
 30
0.0
 10
59.55012698573743
 20
15.57833362061925
 30
0.0
 10
59.88893549609958
 20
14.95996972866396
 30
0.0
 10
60.07925936289335
 20
14.32591812008066
 30
0.0
 10
60.17469554420335
 20
14.00797867666746
 30
0.0
  0
ARC
  5
BD
330
1F
100
AcDbEntity
  8
0
  6
Continuous
 62
     7
370
    25
100
AcDbCircle
 10
60.9978549062
 20
30.6197668371
 30
0.0
 40
1.100316734465927
100
AcDbArc
 50
221.5729649515
 51
272.2326889081
  0
LINE
  5
BE
330
1F
100
AcDbEntity
  8
0
  6
Continuous
 62
     7
370
    25
100
AcDbLine
 10
61.040720948
 20
29.5202854054
 30
0.0
 11
61.040720948
 21
24.1464844682
 31
0.0
  0
LINE
  5
BF
330
1F
100
AcDbEntity
  8
0
  6
Continuous
 62
     7
370
    25
100
AcDbLine
 10
61.040720948
 20
19.7511202502
 30
0.0
 11
61.040720948
 21
14.3773193131
 31
0.0
  0
ARC
  5
C0
330
1F
100
AcDbEntity
  8
0
  6
Continuous
 62
     7
370
    25
100
AcDbCircle
 10
60.9978549062
 20
13.2778378814
 30
0.0
 40
1.100316734465988
100
AcDbArc
 50
87.7673110919
 51
138.4270350485
  0
SPLINE
  5
C1
330
1F
100
AcDbEntity
  8
0
  6
Continuous
 62
     7
370
    25
100
AcDbSpline
210
0.0
220
0.0
230
1.0
 70
     8
 71
     3
 72
    10
 73
     6
 74
     0
 42
0.00000001
 43
0.00000001
 40
0.0
 40
0.0
 40
0.0
 40
0.0
 40
0.295875640326593
 40
0.5933360076831716
 40
1.0
 40
1.0
 40
1.0
 40
1.0
 10
60.17469554420335
 20
14.00797867666746
 30
0.0
 10
60.22128025507548
 20
13.7812749286378
 30
0.0
 10
60.31469918722357
 20
13.3266531942015
 30
0.0
 10
60.3378043509036
 20
12.5551747621613
 30
0.0
 10
60.23441032100661
 20
12.01504321301399
 30
0.0
 10
60.17469554420335
 20
11.70309256234427
 30
0.0
  0
SPLINE
  5
C2
330
1F
100
AcDbEntity
  8
0
  6
Continuous
 62
     7
370
    25
100
AcDbSpline
210
0.0
220
0.0
230
1.0
 70
     8
 71
     3
 72
     9
 73
     5
 74
     0
 42
0.00000001
 43
0.00000001
 40
0.0
 40
0.0
 40
0.0
 40
0.0
 40
0.4983188677908572
 40
1.0
 40
1.0
 40
1.0
 40
1.0
 10
60.17469554420336
 20
11.70309256234427
 30
0.0
 10
60.07995046396412
 20
11.38712722313475
 30
0.0
 10
59.88982103808215
 20
10.75306465871641
 30
0.0
 10
59.55112723073432
 20
10.13467908235244
 30
0.0
 10
59.38121093799182
 20
9.824446706260353
 30
0.0
  0
LINE
  5
C3
330
1F
100
AcDbEntity
  8
0
  6
Continuous
 62
     7
370
    25
100
AcDbLine
 10
59.381210938
 20
9.8244467063
 30
0.0
 11
48.0455304196
 21
9.8244467063
 31
0.0
  0
LINE
  5
C4
330
1F
100
AcDbEntity
  8
0
  6
Continuous
 62
     7
370
    25
100
AcDbLine
 10
61.9633706788
 20
31.9988023592
 30
0.0
 11
61.9633706788
 21
11.8988023592
 31
0.0
  0
LINE
  5
C5
330
1F
100
AcDbEntity
  8
0
  6
Continuous
 62
     7
370
    25
100
AcDbLine
 10
61.7633706788
 20
11.6988023592
 30
0.0
 11
61.7633706788
 21
32.1988023592
 31
0.0
  0
SPLINE
  5
C6
330
1F
100
AcDbEntity
  8
0
  6
Continuous
 62
     7
370
    25
100
AcDbSpline
210
0.0
220
0.0
230
1.0
 70
     8
 71
     3
 72
    11
 73
     7
 74
     0
 42
0.00000001
 43
0.00000001
 40
0.0
 40
0.0
 40
0.0
 40
0.0
 40
0.2730181757486082
 40
0.549858087845077
 40
0.7738734731546644
 40
1.0
 40
1.0
 40
1.0
 40
1.0
 10
61.04072094798779
 20
14.3773193130663
 30
0.0
 10
61.02938272727032
 20
14.11563674267669
 30
0.0
 10
61.00654757226212
 20
13.58860854251282
 30
0.0
 10
60.96538477196838
 20
12.985976672809
 30
0.0
 10
61.0183697115398
 20
12.50854770835146
 30
0.0
 10
61.03324727750843
 20
12.28961629769999
 30
0.0
 10
61.04072094798779
 20
12.17963720406046
 30
0.0
  0
SPLINE
  5
C7
330
1F
100
AcDbEntity
  8
0
  6
Continuous
 62
     7
370
    25
100
AcDbSpline
210
0.0
220
0.0
230
1.0
 70
     8
 71
     3
 72
    11
 73
     7
 74
     0
 42
0.00000001
 43
0.00000001
 40
0.0
 40
0.0
 40
0.0
 40
0.0
 40
0.2730181757485958
 40
0.5498580878450512
 40
0.773873473154651
 40
1.0
 40
1.0
 40
1.0
 40
1.0
 10
61.04072094798779
 20
31.71796751442452
 30
0.0
 10
61.02938272727032
 20
31.58295916595245
 30
0.0
 10
61.00654757226212
 20
31.31105260833804
 30
0.0
 10
60.96538477196839
 20
30.76779001923603
 30
0.0
 10
61.01836971153979
 20
30.17282046201083
 30
0.0
 10
61.03324727750842
 20
29.73847610822618
 30
0.0
 10
61.04072094798779
 20
29.52028540541866
 30
0.0
  0
ARC
  5
C8
330
1F
100
AcDbEntity
  8
0
  6
Continuous
 62
     7
370
    25
100
AcDbCircle
 10
61.0320769026
 20
32.7274457307
 30
0.0
 40
1.009515224607433
100
AcDbArc
 50
211.8643766323
 51
270.4906051505
  0
ARC
  5
C9
330
1F
100
AcDbEntity
  8
0
  6
Continuous
 62
     7
370
    25
100
AcDbCircle
 10
61.0320769026
 20
11.1701589877
 30
0.0
 40
1.009515224614076
100
AcDbArc
 50
89.5093948497
 51
148.1356233675
  0
LINE
  5
CA
330
1F
100
AcDbEntity
  8
0
  6
Continuous
 62
     7
370
    25
100
AcDbLine
 10
44.4405402697
 20
13.6178023592
 30
0.0
 11
44.4405402697
 21
30.2798023592
 31
0.0
  0
LINE
  5
CB
330
1F
100
AcDbEntity
  8
0
  6
Continuous
 62
     7
370
    25
100
AcDbLine
 10
24.3841710334
 20
33.9488023592
 30
0.0
 11
40.3841710237
 21
33.9488023592
 31
0.0
  0
LINE
  5
CC
330
1F
100
AcDbEntity
  8
0
  6
Continuous
 62
     7
370
    25
100
AcDbLine
 10
24.0531710237
 20
34.0051716052
 30
0.0
 11
40.7151710237
 21
34.0051716052
 31
0.0
  0
LINE
  5
CD
330
1F
100
AcDbEntity
  8
0
  6
Continuous
 62
     7
370
    25
100
AcDbLine
 10
44.3841710237
 20
13.9488023592
 30
0.0
 11
44.3841710237
 21
29.9488023592
 31
0.0
  0
LINE
  5
CE
330
1F
100
AcDbEntity
  8
0
  6
Continuous
 62
     7
370
    25
100
AcDbLine
 10
39.6341710237
 20
16.1988023592
 30
0.0
 11
39.6341710237
 21
19.3030510482
 31
0.0
  0
SPLINE
  5
CF
330
1F
100
AcDbEntity
  8
0
  6
Continuous
 62
     7
370
    25
100
AcDbSpline
210
0.0
220
0.0
230
1.0
 70
     8
 71
     3
 72
    10
 73
     6
 74
     0
 42
0.00000001
 43
0.00000001
 40
0.0
 40
0.0
 40
0.0
 40
0.0
 40
0.5
 40
0.5
 40
1.0
 40
1.0
 40
1.0
 40
1.0
 10
39.81094771904183
 20
19.31641699624553
 30
0.0
 10
39.78239311553242
 20
19.31302870659374
 30
0.0
 10
39.74937158045558
 20
19.30968721957683
 30
0.0
 10
39.68643317330964
 20
19.30469839036892
 30
0.0
 10
39.65651630124056
 20
19.30305104817791
 30
0.0
 10
39.6341710237467
 20
19.30305104817791
 30
0.0
  0
SPLINE
  5
D0
330
1F
100
AcDbEntity
  8
0
  6
Continuous
 62
     7
370
    25
100
AcDbSpline
210
0.0
220
0.0
230
1.0
 70
     8
 71
     3
 72
    12
 73
     8
 74
     0
 42
0.00000001
 43
0.00000001
 40
0.0
 40
0.0
 40
0.0
 40
0.0
 40
0.25
 40
0.25
 40
0.5
 40
0.5
 40
1.0
 40
1.0
 40
1.0
 40
1.0
 10
39.81094771904183
 20
19.31641699624553
 30
0.0
 10
39.82522502079652
 20
19.31811114107142
 30
0.0
 10
39.83694012821793
 20
19.32003735062753
 30
0.0
 10
39.8560234860081
 20
19.32295281191803
 30
0.0
 10
39.86339173637688
 20
19.32394206365243
 30
0.0
 10
39.88014249932517
 20
19.32340275119981
 30
0.0
 10
39.8841710237467
 20
19.31836711935701
 30
0.0
 10
39.8841710237467
 20
19.30305104817791
 30
0.0
  0
LINE
  5
D1
330
1F
100
AcDbEntity
  8
0
  6
Continuous
 62
     7
370
    25
100
AcDbLine
 10
39.8841710237
 20
19.3030510482
 30
0.0
 11
39.8841710237
 21
16.1988023592
 31
0.0
  0
LINE
  5
D2
330
1F
100
AcDbEntity
  8
0
  6
Continuous
 62
     7
370
    25
100
AcDbLine
 10
39.6341710237
 20
16.1988023592
 30
0.0
 11
39.8841710237
 21
16.1988023592
 31
0.0
  0
SPLINE
  5
D3
330
1F
100
AcDbEntity
  8
0
  6
Continuous
 62
     7
370
    25
100
AcDbSpline
210
0.0
220
0.0
230
1.0
 70
     8
 71
     3
 72
    12
 73
     8
 74
     0
 42
0.00000001
 43
0.00000001
 40
0.0
 40
0.0
 40
0.0
 40
0.0
 40
0.25
 40
0.25
 40
0.5
 40
0.5
 40
1.0
 40
1.0
 40
1.0
 40
1.0
 10
35.01655638674367
 20
29.37557905453764
 30
0.0
 10
35.01486224191778
 20
29.38985635629233
 30
0.0
 10
35.01293603236167
 20
29.40157146371374
 30
0.0
 10
35.01002057107117
 20
29.42065482150391
 30
0.0
 10
35.00903131933678
 20
29.42802307187269
 30
0.0
 10
35.00957063178939
 20
29.44477383482099
 30
0.0
 10
35.01460626363219
 20
29.4488023592425
 30
0.0
 10
35.02992233481129
 20
29.4488023592425
 30
0.0
  0
LINE
  5
D4
330
1F
100
AcDbEntity
  8
0
  6
Continuous
 62
     7
370
    25
100
AcDbLine
 10
35.0299223348
 20
29.4488023592
 30
0.0
 11
38.1341710237
 21
29.4488023592
 31
0.0
  0
LINE
  5
D5
330
1F
100
AcDbEntity
  8
0
  6
Continuous
 62
     7
370
    25
100
AcDbLine
 10
38.1341710237
 20
29.4488023592
 30
0.0
 11
38.1341710237
 21
29.1988023592
 31
0.0
  0
LINE
  5
D6
330
1F
100
AcDbEntity
  8
0
  6
Continuous
 62
     7
370
    25
100
AcDbLine
 10
38.1341710237
 20
29.1988023592
 30
0.0
 11
35.0299223348
 21
29.1988023592
 31
0.0
  0
SPLINE
  5
D7
330
1F
100
AcDbEntity
  8
0
  6
Continuous
 62
     7
370
    25
100
AcDbSpline
210
0.0
220
0.0
230
1.0
 70
     8
 71
     3
 72
    10
 73
     6
 74
     0
 42
0.00000001
 43
0.00000001
 40
0.0
 40
0.0
 40
0.0
 40
0.0
 40
0.5
 40
0.5
 40
1.0
 40
1.0
 40
1.0
 40
1.0
 10
35.01655638674367
 20
29.37557905453764
 30
0.0
 10
35.01994467639546
 20
29.34702445102824
 30
0.0
 10
35.02328616341236
 20
29.31400291595139
 30
0.0
 10
35.02827499262028
 20
29.25106450880546
 30
0.0
 10
35.02992233481129
 20
29.22114763673637
 30
0.0
 10
35.02992233481129
 20
29.1988023592425
 30
0.0
  0
SPLINE
  5
D8
330
1F
100
AcDbEntity
  8
0
  6
Continuous
 62
     7
370
    25
100
AcDbSpline
210
0.0
220
0.0
230
1.0
 70
     8
 71
     3
 72
     8
 73
     4
 74
     0
 42
0.00000001
 43
0.00000001
 40
0.0
 40
0.0
 40
0.0
 40
0.0
 40
1.0
 40
1.0
 40
1.0
 40
1.0
 10
26.36867005022866
 20
17.65201594958676
 30
0.0
 10
26.35615419254409
 20
17.74943136869812
 30
0.0
 10
26.349688265126
 20
17.84831210622538
 30
0.0
 10
26.349688265126
 20
17.9488023592425
 30
0.0
  0
LINE
  5
D9
330
1F
100
AcDbEntity
  8
0
  6
Continuous
 62
     7
370
    25
100
AcDbLine
 10
38.7524575124
 20
28.3170888479
 30
0.0
 11
39.3841710237
 21
28.9488023592
 31
0.0
  0
SPLINE
  5
DA
330
1F
100
AcDbEntity
  8
0
  6
Continuous
 62
     7
370
    25
100
AcDbSpline
210
0.0
220
0.0
230
1.0
 70
     8
 71
     3
 72
    12
 73
     8
 74
     0
 42
0.00000001
 43
0.00000001
 40
0.0
 40
0.0
 40
0.0
 40
0.0
 40
0.2500000000000002
 40
0.2500000000000002
 40
0.5000000000000004
 40
0.5000000000000004
 40
1.0
 40
1.0
 40
1.0
 40
1.0
 10
38.41865378236739
 20
28.94880235924251
 30
0.0
 10
38.41865378236739
 20
28.86199658212588
 30
0.0
 10
38.43375263530559
 20
28.778511383589
 30
0.0
 10
38.48120449349209
 20
28.63453119485073
 30
0.0
 10
38.51210950540833
 20
28.5752950619275
 30
0.0
 10
38.61144325715748
 20
28.4249814937705
 30
0.0
 10
38.68377552889302
 20
28.36261272084175
 30
0.0
 10
38.75245751244398
 20
28.31708884793979
 30
0.0
  0
LINE
  5
DB
330
1F
100
AcDbEntity
  8
0
  6
Continuous
 62
     7
370
    25
100
AcDbLine
 10
38.4186537824
 20
29.1988023592
 30
0.0
 11
38.4186537824
 21
28.9488023592
 31
0.0
  0
SPLINE
  5
DC
330
1F
100
AcDbEntity
  8
0
  6
Continuous
 62
     7
370
    25
100
AcDbSpline
210
0.0
220
0.0
230
1.0
 70
     8
 71
     3
 72
    14
 73
    10
 74
     0
 42
0.00000001
 43
0.00000001
 40
0.0
 40
0.0
 40
0.0
 40
0.0
 40
0.25
 40
0.25
 40
0.5
 40
0.5
 40
0.75
 40
0.75
 40
1.0
 40
1.0
 40
1.0
 40
1.0
 10
38.41865378236739
 20
29.1988023592425
 30
0.0
 10
38.41865378236739
 20
29.29060475385543
 30
0.0
 10
38.39314358842825
 20
29.37476869277086
 30
0.0
 10
38.32617722063878
 20
29.50186437334224
 30
0.0
 10
38.28436258803733
 20
29.54998684259339
 30
0.0
 10
38.19440207035579
 20
29.62530462237214
 30
0.0
 10
38.14539507825609
 20
29.65268083546547
 30
0.0
 10
38.04408122771681
 20
29.6892426860876
 30
0.0
 10
37.9912126110662
 20
29.6988023592425
 30
0.0
 10
37.93589516167772
 20
29.6988023592425
 30
0.0
  0
LINE
  5
DD
330
1F
100
AcDbEntity
  8
0
  6
Continuous
 62
     7
370
    25
100
AcDbLine
 10
34.938689531
 20
29.6988023592
 30
0.0
 11
37.9358951617
 21
29.6988023592
 31
0.0
  0
SPLINE
  5
DE
330
1F
100
AcDbEntity
  8
0
  6
Continuous
 62
     7
370
    25
100
AcDbSpline
210
0.0
220
0.0
230
1.0
 70
    24
 71
     3
 72
    14
 73
    10
 74
     0
 42
0.00000001
 43
0.00000001
 40
0.0
 40
0.0
 40
0.0
 40
0.0
 40
0.25
 40
0.25
 40
0.5
 40
0.5
 40
0.75
 40
0.75
 40
1.0
 40
1.0
 40
1.0
 40
1.0
 10
32.3841710237467
 20
29.69880235924251
 30
0.0
 10
32.59946725426929
 20
29.69880235924251
 30
0.0
 10
32.81476461541251
 20
29.69880235924251
 30
0.0
 10
33.24449838000854
 20
29.69880235924251
 30
0.0
 10
33.458937049405
 20
29.69880235924251
 30
0.0
 10
33.8860268531151
 20
29.69880235924251
 30
0.0
 10
34.09868026454967
 20
29.69880235924251
 30
0.0
 10
34.52113696706206
 20
29.69880235924251
 30
0.0
 10
34.73094254394732
 20
29.69880235924251
 30
0.0
 10
34.93868953098148
 20
29.69880235924251
 30
0.0
  0
SPLINE
  5
DF
330
1F
100
AcDbEntity
  8
0
  6
Continuous
 62
     7
370
    25
100
AcDbSpline
210
0.0
220
0.0
230
1.0
 70
    24
 71
     3
 72
    14
 73
    10
 74
     0
 42
0.00000001
 43
0.00000001
 40
0.0
 40
0.0
 40
0.0
 40
0.0
 40
0.25
 40
0.25
 40
0.5
 40
0.5
 40
0.75
 40
0.75
 40
1.0
 40
1.0
 40
1.0
 40
1.0
 10
32.3841710237467
 20
29.69880235924251
 30
0.0
 10
32.1688747932241
 20
29.69880235924251
 30
0.0
 10
31.95357743208088
 20
29.69880235924251
 30
0.0
 10
31.52384366748485
 20
29.69880235924251
 30
0.0
 10
31.30940499808838
 20
29.69880235924251
 30
0.0
 10
30.88231519437828
 20
29.69880235924251
 30
0.0
 10
30.66966178294371
 20
29.69880235924251
 30
0.0
 10
30.24720508043132
 20
29.69880235924251
 30
0.0
 10
30.03739950354607
 20
29.69880235924251
 30
0.0
 10
29.82965251651191
 20
29.69880235924251
 30
0.0
  0
LINE
  5
E0
330
1F
100
AcDbEntity
  8
0
  6
Continuous
 62
     7
370
    25
100
AcDbLine
 10
26.8324468858
 20
29.6988023592
 30
0.0
 11
29.8296525165
 21
29.6988023592
 31
0.0
  0
SPLINE
  5
E1
330
1F
100
AcDbEntity
  8
0
  6
Continuous
 62
     7
370
    25
100
AcDbSpline
210
0.0
220
0.0
230
1.0
 70
     8
 71
     3
 72
    14
 73
    10
 74
     0
 42
0.00000001
 43
0.00000001
 40
0.0
 40
0.0
 40
0.0
 40
0.0
 40
0.25
 40
0.25
 40
0.5
 40
0.5
 40
0.75
 40
0.75
 40
1.0
 40
1.0
 40
1.0
 40
1.0
 10
26.83244688581566
 20
29.6988023592425
 30
0.0
 10
26.77716810919007
 20
29.69880235924251
 30
0.0
 10
26.72418943102383
 20
29.68925379500637
 30
0.0
 10
26.62244796329766
 20
29.65246367688155
 30
0.0
 10
26.57340368957525
 20
29.62491262959337
 30
0.0
 10
26.48395564460704
 20
29.54990954202322
 30
0.0
 10
26.44208107628245
 20
29.50172916183123
 30
0.0
 10
26.37520944807876
 20
29.37476578405441
 30
0.0
 10
26.34968826512601
 20
29.29074330396563
 30
0.0
 10
26.34968826512601
 20
29.19880235924251
 30
0.0
  0
LINE
  5
E2
330
1F
100
AcDbEntity
  8
0
  6
Continuous
 62
     7
370
    25
100
AcDbLine
 10
26.3496882651
 20
17.9488023592
 30
0.0
 11
26.3496882651
 21
29.1988023592
 31
0.0
  0
LINE
  5
E3
330
1F
100
AcDbEntity
  8
0
  6
Continuous
 62
     7
370
    25
100
AcDbLine
 10
26.6341710237
 20
29.4488023592
 30
0.0
 11
29.7384197127
 21
29.4488023592
 31
0.0
  0
SPLINE
  5
E4
330
1F
100
AcDbEntity
  8
0
  6
Continuous
 62
     7
370
    25
100
AcDbSpline
210
0.0
220
0.0
230
1.0
 70
     8
 71
     3
 72
    12
 73
     8
 74
     0
 42
0.00000001
 43
0.00000001
 40
0.0
 40
0.0
 40
0.0
 40
0.0
 40
0.25
 40
0.25
 40
0.5
 40
0.5
 40
1.0
 40
1.0
 40
1.0
 40
1.0
 10
29.75178566074971
 20
29.37557905453763
 30
0.0
 10
29.7534798055756
 20
29.38985635629233
 30
0.0
 10
29.75540601513172
 20
29.40157146371374
 30
0.0
 10
29.75832147642222
 20
29.42065482150391
 30
0.0
 10
29.75931072815661
 20
29.42802307187268
 30
0.0
 10
29.75877141570399
 20
29.44477383482099
 30
0.0
 10
29.7537357838612
 20
29.4488023592425
 30
0.0
 10
29.7384197126821
 20
29.4488023592425
 30
0.0
  0
SPLINE
  5
E5
330
1F
100
AcDbEntity
  8
0
  6
Continuous
 62
     7
370
    25
100
AcDbSpline
210
0.0
220
0.0
230
1.0
 70
     8
 71
     3
 72
    10
 73
     6
 74
     0
 42
0.00000001
 43
0.00000001
 40
0.0
 40
0.0
 40
0.0
 40
0.0
 40
0.5
 40
0.5
 40
1.0
 40
1.0
 40
1.0
 40
1.0
 10
29.75178566074971
 20
29.37557905453763
 30
0.0
 10
29.74839737109793
 20
29.34702445102824
 30
0.0
 10
29.74505588408102
 20
29.31400291595139
 30
0.0
 10
29.74006705487311
 20
29.25106450880546
 30
0.0
 10
29.7384197126821
 20
29.22114763673637
 30
0.0
 10
29.7384197126821
 20
29.1988023592425
 30
0.0
  0
LINE
  5
E6
330
1F
100
AcDbEntity
  8
0
  6
Continuous
 62
     7
370
    25
100
AcDbLine
 10
29.7384197127
 20
29.1988023592
 30
0.0
 11
26.6341710237
 21
29.1988023592
 31
0.0
  0
LINE
  5
E7
330
1F
100
AcDbEntity
  8
0
  6
Continuous
 62
     7
370
    25
100
AcDbLine
 10
26.6341710237
 20
29.4488023592
 30
0.0
 11
26.6341710237
 21
29.1988023592
 31
0.0
  0
LINE
  5
E8
330
1F
100
AcDbEntity
  8
0
  6
Continuous
 62
     7
370
    25
100
AcDbLine
 10
39.8841710237
 20
27.6988023592
 30
0.0
 11
39.8841710237
 21
24.5945536703
 31
0.0
  0
SPLINE
  5
E9
330
1F
100
AcDbEntity
  8
0
  6
Continuous
 62
     7
370
    25
100
AcDbSpline
210
0.0
220
0.0
230
1.0
 70
     8
 71
     3
 72
    12
 73
     8
 74
     0
 42
0.00000001
 43
0.00000001
 40
0.0
 40
0.0
 40
0.0
 40
0.0
 40
0.25
 40
0.25
 40
0.5
 40
0.5
 40
1.0
 40
1.0
 40
1.0
 40
1.0
 10
39.81094771904183
 20
24.58118772223948
 30
0.0
 10
39.82522502079652
 20
24.57949357741359
 30
0.0
 10
39.83694012821793
 20
24.57756736785748
 30
0.0
 10
39.8560234860081
 20
24.57465190656698
 30
0.0
 10
39.86339173637688
 20
24.57366265483259
 30
0.0
 10
39.88014249932517
 20
24.5742019672852
 30
0.0
 10
39.8841710237467
 20
24.579237599128
 30
0.0
 10
39.8841710237467
 20
24.5945536703071
 30
0.0
  0
SPLINE
  5
EA
330
1F
100
AcDbEntity
  8
0
  6
Continuous
 62
     7
370
    25
100
AcDbSpline
210
0.0
220
0.0
230
1.0
 70
     8
 71
     3
 72
    10
 73
     6
 74
     0
 42
0.00000001
 43
0.00000001
 40
0.0
 40
0.0
 40
0.0
 40
0.0
 40
0.5
 40
0.5
 40
1.0
 40
1.0
 40
1.0
 40
1.0
 10
39.81094771904183
 20
24.58118772223948
 30
0.0
 10
39.78239311553242
 20
24.58457601189127
 30
0.0
 10
39.74937158045558
 20
24.58791749890817
 30
0.0
 10
39.68643317330964
 20
24.59290632811609
 30
0.0
 10
39.65651630124056
 20
24.59455367030709
 30
0.0
 10
39.6341710237467
 20
24.59455367030709
 30
0.0
  0
LINE
  5
EB
330
1F
100
AcDbEntity
  8
0
  6
Continuous
 62
     7
370
    25
100
AcDbLine
 10
39.6341710237
 20
24.5945536703
 30
0.0
 11
39.6341710237
 21
27.6988023592
 31
0.0
  0
LINE
  5
EC
330
1F
100
AcDbEntity
  8
0
  6
Continuous
 62
     7
370
    25
100
AcDbLine
 10
39.6341710237
 20
27.6988023592
 30
0.0
 11
39.8841710237
 21
27.6988023592
 31
0.0
  0
LINE
  5
ED
330
1F
100
AcDbEntity
  8
0
  6
Continuous
 62
     7
370
    25
100
AcDbLine
 10
38.1341710237
 20
28.9488023592
 30
0.0
 11
38.1341710237
 21
29.1988023592
 31
0.0
  0
ARC
  5
EE
330
1F
100
AcDbEntity
  8
0
  6
Continuous
 62
     7
370
    25
100
AcDbCircle
 10
39.3841710237
 20
28.9488023592
 30
0.0
 40
1.25
100
AcDbArc
 50
180.0
 51
270.0
  0
LINE
  5
EF
330
1F
100
AcDbEntity
  8
0
  6
Continuous
 62
     7
370
    25
100
AcDbLine
 10
39.6341710237
 20
27.6988023592
 30
0.0
 11
39.3841710237
 21
27.6988023592
 31
0.0
  0
LINE
  5
F0
330
1F
100
AcDbEntity
  8
0
  6
Continuous
 62
     7
370
    25
100
AcDbLine
 10
39.6341710237
 20
24.5945536703
 30
0.0
 11
39.6341710237
 21
21.9488023592
 31
0.0
  0
LINE
  5
F1
330
1F
100
AcDbEntity
  8
0
  6
Continuous
 62
     7
370
    25
100
AcDbLine
 10
39.6341710237
 20
21.9488023592
 30
0.0
 11
39.6341710237
 21
19.3030510482
 31
0.0
  0
LINE
  5
F2
330
1F
100
AcDbEntity
  8
0
  6
Continuous
 62
     7
370
    25
100
AcDbLine
 10
28.3841710237
 20
16.1988023592
 30
0.0
 11
39.6341710237
 21
16.1988023592
 31
0.0
  0
ARC
  5
F3
330
1F
100
AcDbEntity
  8
0
  6
Continuous
 62
     7
370
    25
100
AcDbCircle
 10
28.3841710237
 20
17.9488023592
 30
0.0
 40
1.75
100
AcDbArc
 50
180.0
 51
270.0
  0
LINE
  5
F4
330
1F
100
AcDbEntity
  8
0
  6
Continuous
 62
     7
370
    25
100
AcDbLine
 10
26.6341710237
 20
29.1988023592
 30
0.0
 11
26.6341710237
 21
17.9488023592
 31
0.0
  0
LINE
  5
F5
330
1F
100
AcDbEntity
  8
0
  6
Continuous
 62
     7
370
    25
100
AcDbLine
 10
29.7384197127
 20
29.1988023592
 30
0.0
 11
32.3841710237
 21
29.1988023592
 31
0.0
  0
LINE
  5
F6
330
1F
100
AcDbEntity
  8
0
  6
Continuous
 62
     7
370
    25
100
AcDbLine
 10
32.3841710237
 20
29.1988023592
 30
0.0
 11
35.0299223348
 21
29.1988023592
 31
0.0
  0
LINE
  5
F7
330
1F
100
AcDbEntity
  8
0
  6
Continuous
 62
     7
370
    25
100
AcDbLine
 10
37.2360727914
 20
21.7678478639
 30
0.0
 11
38.2113483103
 21
19.0410204843
 31
0.0
  0
SPLINE
  5
F8
330
1F
100
AcDbEntity
  8
0
  6
Continuous
 62
     7
370
    25
100
AcDbSpline
210
0.0
220
0.0
230
1.0
 70
     8
 71
     3
 72
    14
 73
    10
 74
     0
 42
0.00000001
 43
0.00000001
 40
0.0
 40
0.0
 40
0.0
 40
0.0
 40
0.25
 40
0.25
 40
0.5
 40
0.5
 40
0.75
 40
0.75
 40
1.0
 40
1.0
 40
1.0
 40
1.0
 10
35.86242525339292
 20
21.76784786388527
 30
0.0
 10
35.92282167659174
 20
21.89848524419012
 30
0.0
 10
36.02235123824916
 20
22.00854960935564
 30
0.0
 10
36.26343692899554
 20
22.15832689282882
 30
0.0
 10
36.40475396228894
 20
22.19867282996324
 30
0.0
 10
36.69234717640159
 20
22.1989312608928
 30
0.0
 10
36.83380483229049
 20
22.15911022379504
 30
0.0
 10
37.07742476938883
 20
22.00775280963996
 30
0.0
 10
37.17568176835587
 20
21.89847356374031
 30
0.0
 10
37.2360727914356
 20
21.76784786388582
 30
0.0
  0
LINE
  5
F9
330
1F
100
AcDbEntity
  8
0
  6
Continuous
 62
     7
370
    25
100
AcDbLine
 10
34.8873760363
 20
19.041653214
 30
0.0
 11
35.8624252534
 21
21.7678478639
 31
0.0
  0
SPLINE
  5
FA
330
1F
100
AcDbEntity
  8
0
  6
Continuous
 62
     7
370
    25
100
AcDbSpline
210
0.0
220
0.0
230
1.0
 70
     8
 71
     3
 72
    10
 73
     6
 74
     0
 42
0.00000001
 43
0.00000001
 40
0.0
 40
0.0
 40
0.0
 40
0.0
 40
0.5
 40
0.5
 40
1.0
 40
1.0
 40
1.0
 40
1.0
 10
34.48677207792988
 20
18.90561949095757
 30
0.0
 10
34.55722397618688
 20
18.86684902882742
 30
0.0
 10
34.64255597128167
 20
18.85952668877384
 30
0.0
 10
34.79454188444333
 20
18.90849200381623
 30
0.0
 10
34.86024644970838
 20
18.96580008534091
 30
0.0
 10
34.88737603625743
 20
19.04165321398813
 30
0.0
  0
LINE
  5
FB
330
1F
100
AcDbEntity
  8
0
  6
Continuous
 62
     7
370
    25
100
AcDbLine
 10
33.7191625742
 20
19.3280435268
 30
0.0
 11
34.4867720779
 21
18.905619491
 31
0.0
  0
LINE
  5
FC
330
1F
100
AcDbEntity
  8
0
  6
Continuous
 62
     7
370
    25
100
AcDbLine
 10
34.7189499246
 20
17.4221153129
 30
0.0
 11
33.7191625742
 21
19.3280435268
 31
0.0
  0
SPLINE
  5
FD
330
1F
100
AcDbEntity
  8
0
  6
Continuous
 62
     7
370
    25
100
AcDbSpline
210
0.0
220
0.0
230
1.0
 70
     8
 71
     3
 72
    10
 73
     6
 74
     0
 42
0.00000001
 43
0.00000001
 40
0.0
 40
0.0
 40
0.0
 40
0.0
 40
0.5
 40
0.5
 40
1.0
 40
1.0
 40
1.0
 40
1.0
 10
35.20932176813233
 20
17.3335412717373
 30
0.0
 10
35.13721077381027
 20
17.26953550193331
 30
0.0
 10
35.03610664697047
 20
17.24195016367973
 30
0.0
 10
34.84854878893051
 20
17.27575092364348
 30
0.0
 10
34.76374556333814
 20
17.33671988181388
 30
0.0
 10
34.71894992455455
 20
17.42211531293995
 30
0.0
  0
SPLINE
  5
FE
330
1F
100
AcDbEntity
  8
0
  6
Continuous
 62
     7
370
    25
100
AcDbSpline
210
0.0
220
0.0
230
1.0
 70
     8
 71
     3
 72
    14
 73
    10
 74
     0
 42
0.00000001
 43
0.00000001
 40
0.0
 40
0.0
 40
0.0
 40
0.0
 40
0.4999999999999987
 40
0.4999999999999987
 40
0.6249999999999988
 40
0.6249999999999988
 40
0.7499999999999993
 40
0.7499999999999993
 40
1.0
 40
1.0
 40
1.0
 40
1.0
 10
37.88917627669631
 20
17.3335412717372
 30
0.0
 10
37.52115578812641
 20
17.66019651891538
 30
0.0
 10
37.03710800440508
 20
17.83531936230747
 30
0.0
 10
36.42738221833348
 20
17.83534246079664
 30
0.0
 10
36.3042753596928
 20
17.82437557840669
 30
0.0
 10
36.0652072672359
 20
17.78149509447653
 30
0.0
 10
35.94802033512379
 20
17.74964923775006
 30
0.0
 10
35.60378327280119
 20
17.62164287782127
 30
0.0
 10
35.39335248623412
 20
17.49688706790075
 30
0.0
 10
35.20932176813233
 20
17.3335412717373
 30
0.0
  0
SPLINE
  5
FF
330
1F
100
AcDbEntity
  8
0
  6
Continuous
 62
     7
370
    25
100
AcDbSpline
210
0.0
220
0.0
230
1.0
 70
     8
 71
     3
 72
    10
 73
     6
 74
     0
 42
0.00000001
 43
0.00000001
 40
0.0
 40
0.0
 40
0.0
 40
0.0
 40
0.5
 40
0.5
 40
1.0
 40
1.0
 40
1.0
 40
1.0
 10
38.37954812027419
 20
17.42211531294029
 30
0.0
 10
38.33474913088693
 20
17.33671349444555
 30
0.0
 10
38.24946528522939
 20
17.27552504466982
 30
0.0
 10
38.0619754256286
 20
17.24201452659672
 30
0.0
 10
37.9612963603093
 20
17.26952743427209
 30
0.0
 10
37.8891762766963
 20
17.3335412717372
 30
0.0
  0
LINE
  5
100
330
1F
100
AcDbEntity
  8
0
  6
Continuous
 62
     7
370
    25
100
AcDbLine
 10
39.3908950802
 20
19.350079999
 30
0.0
 11
38.3795481203
 21
17.4221153129
 31
0.0
  0
LINE
  5
101
330
1F
100
AcDbEntity
  8
0
  6
Continuous
 62
     7
370
    25
100
AcDbLine
 10
38.6158735146
 20
18.9071859186
 30
0.0
 11
39.3908950802
 21
19.350079999
 31
0.0
  0
SPLINE
  5
102
330
1F
100
AcDbEntity
  8
0
  6
Continuous
 62
     7
370
    25
100
AcDbSpline
210
0.0
220
0.0
230
1.0
 70
     8
 71
     3
 72
    10
 73
     6
 74
     0
 42
0.00000001
 43
0.00000001
 40
0.0
 40
0.0
 40
0.0
 40
0.0
 40
0.5
 40
0.5
 40
1.0
 40
1.0
 40
1.0
 40
1.0
 10
38.21134831030396
 20
19.04102048431225
 30
0.0
 10
38.23879048549413
 20
18.96429337159798
 30
0.0
 10
38.30587311616652
 20
18.90668618623292
 30
0.0
 10
38.45868097062665
 20
18.85873043734947
 30
0.0
 10
38.54527345579155
 20
18.86684078559622
 30
0.0
 10
38.61587351464222
 20
18.90718591859307
 30
0.0
  0
SPLINE
  5
103
330
1F
100
AcDbEntity
  8
0
  6
Continuous
 62
     7
370
    25
100
AcDbSpline
210
0.0
220
0.0
230
1.0
 70
    24
 71
     3
 72
    14
 73
    10
 74
     0
 42
0.00000001
 43
0.00000001
 40
0.0
 40
0.0
 40
0.0
 40
0.0
 40
0.25
 40
0.25
 40
0.5
 40
0.5
 40
0.75
 40
0.75
 40
1.0
 40
1.0
 40
1.0
 40
1.0
 10
40.1341710237467
 20
21.94880235924251
 30
0.0
 10
40.1341710237467
 20
21.73350612871991
 30
0.0
 10
40.1341710237467
 20
21.51820876757669
 30
0.0
 10
40.1341710237467
 20
21.08847500298067
 30
0.0
 10
40.1341710237467
 20
20.8740363335842
 30
0.0
 10
40.1341710237467
 20
20.4469465298741
 30
0.0
 10
40.1341710237467
 20
20.23429311843953
 30
0.0
 10
40.1341710237467
 20
19.81183641592714
 30
0.0
 10
40.1341710237467
 20
19.60203083904188
 30
0.0
 10
40.1341710237467
 20
19.39428385200773
 30
0.0
  0
SPLINE
  5
104
330
1F
100
AcDbEntity
  8
0
  6
Continuous
 62
     7
370
    25
100
AcDbSpline
210
0.0
220
0.0
230
1.0
 70
    24
 71
     3
 72
    14
 73
    10
 74
     0
 42
0.00000001
 43
0.00000001
 40
0.0
 40
0.0
 40
0.0
 40
0.0
 40
0.25
 40
0.25
 40
0.5
 40
0.5
 40
0.75
 40
0.75
 40
1.0
 40
1.0
 40
1.0
 40
1.0
 10
40.1341710237467
 20
21.94880235924251
 30
0.0
 10
40.1341710237467
 20
22.1640985897651
 30
0.0
 10
40.1341710237467
 20
22.37939595090832
 30
0.0
 10
40.1341710237467
 20
22.80912971550435
 30
0.0
 10
40.1341710237467
 20
23.02356838490081
 30
0.0
 10
40.1341710237467
 20
23.45065818861092
 30
0.0
 10
40.1341710237467
 20
23.66331160004549
 30
0.0
 10
40.1341710237467
 20
24.08576830255787
 30
0.0
 10
40.1341710237467
 20
24.29557387944313
 30
0.0
 10
40.1341710237467
 20
24.50332086647728
 30
0.0
  0
LINE
  5
105
330
1F
100
AcDbEntity
  8
0
  6
Continuous
 62
     7
370
    25
100
AcDbLine
 10
40.1341710237
 20
27.5005264972
 30
0.0
 11
40.1341710237
 21
24.5033208665
 31
0.0
  0
SPLINE
  5
106
330
1F
100
AcDbEntity
  8
0
  6
Continuous
 62
     7
370
    25
100
AcDbSpline
210
0.0
220
0.0
230
1.0
 70
     8
 71
     3
 72
    14
 73
    10
 74
     0
 42
0.00000001
 43
0.00000001
 40
0.0
 40
0.0
 40
0.0
 40
0.0
 40
0.25
 40
0.25
 40
0.5
 40
0.5
 40
0.75
 40
0.75
 40
1.0
 40
1.0
 40
1.0
 40
1.0
 10
40.1341710237467
 20
27.50052649717354
 30
0.0
 10
40.1341710237467
 20
27.55580527379912
 30
0.0
 10
40.12462245951056
 20
27.60878395196537
 30
0.0
 10
40.08783234138573
 20
27.71052541969153
 30
0.0
 10
40.06028129409756
 20
27.75956969341394
 30
0.0
 10
39.9852782065274
 20
27.84901773838217
 30
0.0
 10
39.93709782633542
 20
27.89089230670675
 30
0.0
 10
39.81013444855861
 20
27.95776393491044
 30
0.0
 10
39.72611196846982
 20
27.98328511786319
 30
0.0
 10
39.63417102374669
 20
27.98328511786319
 30
0.0
  0
LINE
  5
107
330
1F
100
AcDbEntity
  8
0
  6
Continuous
 62
     7
370
    25
100
AcDbLine
 10
39.3841710237
 20
27.9832851179
 30
0.0
 11
39.6341710237
 21
27.9832851179
 31
0.0
  0
SPLINE
  5
108
330
1F
100
AcDbEntity
  8
0
  6
Continuous
 62
     7
370
    25
100
AcDbSpline
210
0.0
220
0.0
230
1.0
 70
     8
 71
     3
 72
    12
 73
     8
 74
     0
 42
0.00000001
 43
0.00000001
 40
0.0
 40
0.0
 40
0.0
 40
0.0
 40
0.4999999999999991
 40
0.4999999999999991
 40
0.7499999999999996
 40
0.7499999999999996
 40
1.0
 40
1.0
 40
1.0
 40
1.0
 10
38.75245751244398
 20
28.31708884793979
 30
0.0
 10
38.79798138534593
 20
28.24840686438882
 30
0.0
 10
38.86035015827468
 20
28.17607459265329
 30
0.0
 10
39.01066372643169
 20
28.07674084090414
 30
0.0
 10
39.06989985935493
 20
28.0458358289879
 30
0.0
 10
39.21388004809319
 20
27.9983839708014
 30
0.0
 10
39.29736524663007
 20
27.98328511786319
 30
0.0
 10
39.3841710237467
 20
27.98328511786319
 30
0.0
  0
SPLINE
  5
109
330
1F
100
AcDbEntity
  8
0
  6
Continuous
 62
     7
370
    25
100
AcDbSpline
210
0.0
220
0.0
230
1.0
 70
     8
 71
     3
 72
     8
 73
     4
 74
     0
 42
0.00000001
 43
0.00000001
 40
0.0
 40
0.0
 40
0.0
 40
0.0
 40
1.0
 40
1.0
 40
1.0
 40
1.0
 10
28.38417102374669
 20
15.91431960062181
 30
0.0
 10
28.28368077072956
 20
15.91431960062181
 30
0.0
 10
28.18480003320231
 20
15.9207855280399
 30
0.0
 10
28.08738461409096
 20
15.93330138572447
 30
0.0
  0
LINE
  5
10A
330
1F
100
AcDbEntity
  8
0
  6
Continuous
 62
     7
370
    25
100
AcDbLine
 10
39.6341710237
 20
15.9143196006
 30
0.0
 11
28.3841710237
 21
15.9143196006
 31
0.0
  0
SPLINE
  5
10B
330
1F
100
AcDbEntity
  8
0
  6
Continuous
 62
     7
370
    25
100
AcDbSpline
210
0.0
220
0.0
230
1.0
 70
     8
 71
     3
 72
    14
 73
    10
 74
     0
 42
0.00000001
 43
0.00000001
 40
0.0
 40
0.0
 40
0.0
 40
0.0
 40
0.25
 40
0.25
 40
0.5
 40
0.5
 40
0.75
 40
0.75
 40
1.0
 40
1.0
 40
1.0
 40
1.0
 10
39.6341710237467
 20
15.91431960062181
 30
0.0
 10
39.72597341835962
 20
15.91431960062181
 30
0.0
 10
39.81013735727505
 20
15.93982979456094
 30
0.0
 10
39.93723303784643
 20
16.00679616235042
 30
0.0
 10
39.98535550709758
 20
16.04861079495187
 30
0.0
 10
40.06067328687633
 20
16.13857131263341
 30
0.0
 10
40.08804949996966
 20
16.1875783047331
 30
0.0
 10
40.1246113505918
 20
16.28889215527239
 30
0.0
 10
40.1341710237467
 20
16.341760771923
 30
0.0
 10
40.1341710237467
 20
16.39707822131147
 30
0.0
  0
LINE
  5
10C
330
1F
100
AcDbEntity
  8
0
  6
Continuous
 62
     7
370
    25
100
AcDbLine
 10
40.1341710237
 20
19.394283852
 30
0.0
 11
40.1341710237
 21
16.3970782213
 31
0.0
  0
SPLINE
  5
10D
330
1F
100
AcDbEntity
  8
0
  6
Continuous
 62
     7
370
    25
100
AcDbSpline
210
0.0
220
0.0
230
1.0
 70
    24
 71
     3
 72
    10
 73
     6
 74
     0
 42
0.00000001
 43
0.00000001
 40
0.0
 40
0.0
 40
0.0
 40
0.0
 40
0.5
 40
0.5
 40
1.0
 40
1.0
 40
1.0
 40
1.0
 10
39.88589078140101
 20
21.94880235924251
 30
0.0
 10
39.84492238760475
 20
21.94880235924251
 30
0.0
 10
39.80095787786023
 20
21.94880235924251
 30
0.0
 10
39.70991123811641
 20
21.9488023592425
 30
0.0
 10
39.67696279753555
 20
21.9488023592425
 30
0.0
 10
39.6341710237467
 20
21.9488023592425
 30
0.0
  0
SPLINE
  5
10E
330
1F
100
AcDbEntity
  8
0
  6
Continuous
 62
     7
370
    25
100
AcDbSpline
210
0.0
220
0.0
230
1.0
 70
     8
 71
     3
 72
    12
 73
     8
 74
     0
 42
0.00000001
 43
0.00000001
 40
0.0
 40
0.0
 40
0.0
 40
0.0
 40
0.25
 40
0.25
 40
0.5
 40
0.5
 40
1.0
 40
1.0
 40
1.0
 40
1.0
 10
39.88589078140101
 20
21.94880235924251
 30
0.0
 10
39.87564868295195
 20
22.16749144544886
 30
0.0
 10
39.8681094713986
 20
22.3858742468622
 30
0.0
 10
39.85377995577426
 20
22.82414439888992
 30
0.0
 10
39.84698965170325
 20
23.04403174950431
 30
0.0
 10
39.82075680124998
 20
23.70912630332957
 30
0.0
 10
39.81107408456167
 20
24.14231400840162
 30
0.0
 10
39.81094771904183
 20
24.58118772223948
 30
0.0
  0
SPLINE
  5
10F
330
1F
100
AcDbEntity
  8
0
  6
Continuous
 62
     7
370
    25
100
AcDbSpline
210
0.0
220
0.0
230
1.0
 70
     8
 71
     3
 72
    12
 73
     8
 74
     0
 42
0.00000001
 43
0.00000001
 40
0.0
 40
0.0
 40
0.0
 40
0.0
 40
0.25
 40
0.25
 40
0.5
 40
0.5
 40
1.0
 40
1.0
 40
1.0
 40
1.0
 10
39.88589078140101
 20
21.94880235924251
 30
0.0
 10
39.87564868295194
 20
21.73011327303615
 30
0.0
 10
39.8681094713986
 20
21.5117304716228
 30
0.0
 10
39.85377995577426
 20
21.07346031959508
 30
0.0
 10
39.84698965170324
 20
20.8535729689807
 30
0.0
 10
39.82075680124997
 20
20.18847841515544
 30
0.0
 10
39.81107408456167
 20
19.75529071008339
 30
0.0
 10
39.81094771904183
 20
19.31641699624553
 30
0.0
  0
SPLINE
  5
110
330
1F
100
AcDbEntity
  8
0
  6
Continuous
 62
     7
370
    25
100
AcDbSpline
210
0.0
220
0.0
230
1.0
 70
    24
 71
     3
 72
    10
 73
     6
 74
     0
 42
0.00000001
 43
0.00000001
 40
0.0
 40
0.0
 40
0.0
 40
0.0
 40
0.5
 40
0.5
 40
1.0
 40
1.0
 40
1.0
 40
1.0
 10
32.38417102374669
 20
29.45052211689682
 30
0.0
 10
32.38417102374669
 20
29.40955372310056
 30
0.0
 10
32.38417102374669
 20
29.36558921335605
 30
0.0
 10
32.38417102374669
 20
29.27454257361222
 30
0.0
 10
32.38417102374669
 20
29.24159413303137
 30
0.0
 10
32.38417102374669
 20
29.1988023592425
 30
0.0
  0
SPLINE
  5
111
330
1F
100
AcDbEntity
  8
0
  6
Continuous
 62
     7
370
    25
100
AcDbSpline
210
0.0
220
0.0
230
1.0
 70
     8
 71
     3
 72
    12
 73
     8
 74
     0
 42
0.00000001
 43
0.00000001
 40
0.0
 40
0.0
 40
0.0
 40
0.0
 40
0.25
 40
0.25
 40
0.5
 40
0.5
 40
1.0
 40
1.0
 40
1.0
 40
1.0
 10
32.38417102374669
 20
29.45052211689682
 30
0.0
 10
32.16548193754034
 20
29.44028001844775
 30
0.0
 10
31.94709913612699
 20
29.43274080689443
 30
0.0
 10
31.50882898409927
 20
29.41841129127008
 30
0.0
 10
31.28894163348489
 20
29.41162098719906
 30
0.0
 10
30.62384707965962
 20
29.38538813674579
 30
0.0
 10
30.19065937458758
 20
29.37570542005747
 30
0.0
 10
29.75178566074971
 20
29.37557905453763
 30
0.0
  0
SPLINE
  5
112
330
1F
100
AcDbEntity
  8
0
  6
Continuous
 62
     7
370
    25
100
AcDbSpline
210
0.0
220
0.0
230
1.0
 70
     8
 71
     3
 72
    12
 73
     8
 74
     0
 42
0.00000001
 43
0.00000001
 40
0.0
 40
0.0
 40
0.0
 40
0.0
 40
0.25
 40
0.25
 40
0.5
 40
0.5
 40
1.0
 40
1.0
 40
1.0
 40
1.0
 10
32.38417102374669
 20
29.45052211689682
 30
0.0
 10
32.60286010995304
 20
29.44028001844775
 30
0.0
 10
32.82124291136639
 20
29.43274080689442
 30
0.0
 10
33.25951306339412
 20
29.41841129127006
 30
0.0
 10
33.4794004140085
 20
29.41162098719905
 30
0.0
 10
34.14449496783377
 20
29.38538813674578
 30
0.0
 10
34.57768267290581
 20
29.37570542005747
 30
0.0
 10
35.01655638674367
 20
29.37557905453764
 30
0.0
  0
SPLINE
  5
113
330
1F
100
AcDbEntity
  8
0
  6
Continuous
 62
     7
370
    25
100
AcDbSpline
210
0.0
220
0.0
230
1.0
 70
     8
 71
     3
 72
    10
 73
     6
 74
     0
 42
0.00000001
 43
0.00000001
 40
0.0
 40
0.0
 40
0.0
 40
0.0
 40
0.5
 40
0.5
 40
1.0
 40
1.0
 40
1.0
 40
1.0
 10
36.09364606177638
 20
21.6719796564922
 30
0.0
 10
36.09364606177638
 20
21.6719796564922
 30
0.0
 10
36.0686285543423
 20
21.68256058702227
 30
0.0
 10
35.98341167983138
 20
21.7180953780866
 30
0.0
 10
35.92272209334546
 20
21.74317289628032
 30
0.0
 10
35.86242525339292
 20
21.76784786388527
 30
0.0
  0
LINE
  5
114
330
1F
100
AcDbEntity
  8
0
  6
Continuous
 62
     7
370
    25
100
AcDbLine
 10
36.0936460618
 20
21.6719796565
 30
0.0
 11
35.1227729739
 21
18.9574612801
 31
0.0
  0
LINE
  5
115
330
1F
100
AcDbEntity
  8
0
  6
Continuous
 62
     7
370
    25
100
AcDbLine
 10
34.8873760363
 20
19.041653214
 30
0.0
 11
35.1227729739
 21
18.9574612801
 31
0.0
  0
LINE
  5
116
330
1F
100
AcDbEntity
  8
0
  6
Continuous
 62
     7
370
    25
100
AcDbLine
 10
38.2113483103
 20
19.0410204843
 30
0.0
 11
37.9759513726
 21
18.9568285504
 31
0.0
  0
LINE
  5
117
330
1F
100
AcDbEntity
  8
0
  6
Continuous
 62
     7
370
    25
100
AcDbLine
 10
37.9759513726
 20
18.9568285504
 30
0.0
 11
37.0048519831
 21
21.6719796565
 31
0.0
  0
SPLINE
  5
118
330
1F
100
AcDbEntity
  8
0
  6
Continuous
 62
     7
370
    25
100
AcDbSpline
210
0.0
220
0.0
230
1.0
 70
     8
 71
     3
 72
    10
 73
     6
 74
     0
 42
0.00000001
 43
0.00000001
 40
0.0
 40
0.0
 40
0.0
 40
0.0
 40
0.5
 40
0.5
 40
1.0
 40
1.0
 40
1.0
 40
1.0
 10
37.00485198305233
 20
21.67197965649231
 30
0.0
 10
37.00485198305233
 20
21.67197965649231
 30
0.0
 10
37.02986949048613
 20
21.68256058702272
 30
0.0
 10
37.11508636499678
 20
21.71809537808696
 30
0.0
 10
37.17577595148349
 20
21.7431728962813
 30
0.0
 10
37.23607279143566
 20
21.76784786388583
 30
0.0
  0
SPLINE
  5
119
330
1F
100
AcDbEntity
  8
0
  6
Continuous
 62
     7
370
    25
100
AcDbSpline
210
0.0
220
0.0
230
1.0
 70
     8
 71
     3
 72
    14
 73
    10
 74
     0
 42
0.00000001
 43
0.00000001
 40
0.0
 40
0.0
 40
0.0
 40
0.0
 40
0.25
 40
0.25
 40
0.5
 40
0.5
 40
0.75
 40
0.75
 40
1.0
 40
1.0
 40
1.0
 40
1.0
 10
37.00485198305234
 20
21.67197965649232
 30
0.0
 10
36.96340396375047
 20
21.75682210097338
 30
0.0
 10
36.89747790852327
 20
21.82697949026945
 30
0.0
 10
36.73563556906367
 20
21.92386943009213
 30
0.0
 10
36.64303130334772
 20
21.94889883027702
 30
0.0
 10
36.45438508839327
 20
21.94870533347555
 30
0.0
 10
36.36154823031565
 20
21.92313218718129
 30
0.0
 10
36.20193642152866
 20
21.82747836316584
 30
0.0
 10
36.13510126136024
 20
21.75683679872447
 30
0.0
 10
36.09364606177638
 20
21.6719796564922
 30
0.0
  0
SPLINE
  5
11A
330
1F
100
AcDbEntity
  8
0
  6
Continuous
 62
     7
370
    25
100
AcDbSpline
210
0.0
220
0.0
230
1.0
 70
     8
 71
     3
 72
    12
 73
     8
 74
     0
 42
0.00000001
 43
0.00000001
 40
0.0
 40
0.0
 40
0.0
 40
0.0
 40
0.25
 40
0.25
 40
0.5
 40
0.5
 40
1.0
 40
1.0
 40
1.0
 40
1.0
 10
32.38417102374669
 20
29.45052211689682
 30
0.0
 10
32.16548193754034
 20
29.46076421534589
 30
0.0
 10
31.94830303253186
 20
29.47544692980929
 30
0.0
 10
31.51695399795143
 20
29.50726932046716
 30
0.0
 10
31.30278386837949
 20
29.52440899666162
 30
0.0
 10
30.66476926237966
 20
29.56987706239516
 30
0.0
 10
30.2352426390435
 20
29.56304421133102
 30
0.0
 10
29.81507462441287
 20
29.52201965331579
 30
0.0
  0
SPLINE
  5
11B
330
1F
100
AcDbEntity
  8
0
  6
Continuous
 62
     7
370
    25
100
AcDbSpline
210
0.0
220
0.0
230
1.0
 70
     8
 71
     3
 72
    10
 73
     6
 74
     0
 42
0.00000001
 43
0.00000001
 40
0.0
 40
0.0
 40
0.0
 40
0.0
 40
0.5
 40
0.5
 40
1.0
 40
1.0
 40
1.0
 40
1.0
 10
29.81507462441287
 20
29.52201965331579
 30
0.0
 10
29.82236660487051
 20
29.55057347527937
 30
0.0
 10
29.82626376749532
 20
29.5849335070118
 30
0.0
 10
29.82979997147705
 20
29.64797633154092
 30
0.0
 10
29.82965251651191
 20
29.67645524151917
 30
0.0
 10
29.82965251651191
 20
29.69880235924251
 30
0.0
  0
SPLINE
  5
11C
330
1F
100
AcDbEntity
  8
0
  6
Continuous
 62
     7
370
    25
100
AcDbSpline
210
0.0
220
0.0
230
1.0
 70
    24
 71
     3
 72
    10
 73
     6
 74
     0
 42
0.00000001
 43
0.00000001
 40
0.0
 40
0.0
 40
0.0
 40
0.0
 40
0.5
 40
0.5
 40
1.0
 40
1.0
 40
1.0
 40
1.0
 10
32.38417102374669
 20
29.45052211689682
 30
0.0
 10
32.38417102374669
 20
29.49149051069309
 30
0.0
 10
32.38417102374669
 20
29.53494595776502
 30
0.0
 10
32.3841710237467
 20
29.62403180298225
 30
0.0
 10
32.3841710237467
 20
29.65641903159758
 30
0.0
 10
32.3841710237467
 20
29.69880235924251
 30
0.0
  0
SPLINE
  5
11D
330
1F
100
AcDbEntity
  8
0
  6
Continuous
 62
     7
370
    25
100
AcDbSpline
210
0.0
220
0.0
230
1.0
 70
     8
 71
     3
 72
     8
 73
     4
 74
     0
 42
0.00000001
 43
0.00000001
 40
0.0
 40
0.0
 40
0.0
 40
0.0
 40
1.0
 40
1.0
 40
1.0
 40
1.0
 10
34.93868953098147
 20
29.6988023592425
 30
0.0
 10
34.9346843007245
 20
29.63334967880635
 30
0.0
 10
34.94050661364997
 20
29.56830011379812
 30
0.0
 10
34.95326742308052
 20
29.52201965331579
 30
0.0
  0
SPLINE
  5
11E
330
1F
100
AcDbEntity
  8
0
  6
Continuous
 62
     7
370
    25
100
AcDbSpline
210
0.0
220
0.0
230
1.0
 70
     8
 71
     3
 72
    12
 73
     8
 74
     0
 42
0.00000001
 43
0.00000001
 40
0.0
 40
0.0
 40
0.0
 40
0.0
 40
0.25
 40
0.25
 40
0.5
 40
0.5
 40
1.0
 40
1.0
 40
1.0
 40
1.0
 10
32.38417102374669
 20
29.45052211689682
 30
0.0
 10
32.60286010995304
 20
29.46076421534589
 30
0.0
 10
32.82003901496153
 20
29.47544692980929
 30
0.0
 10
33.25138804954195
 20
29.50726932046715
 30
0.0
 10
33.4655581791139
 20
29.52440899666161
 30
0.0
 10
34.10357278511371
 20
29.56987706239516
 30
0.0
 10
34.53309940844989
 20
29.56304421133102
 30
0.0
 10
34.95326742308052
 20
29.52201965331579
 30
0.0
  0
SPLINE
  5
11F
330
1F
100
AcDbEntity
  8
0
  6
Continuous
 62
     7
370
    25
100
AcDbSpline
210
0.0
220
0.0
230
1.0
 70
    24
 71
     3
 72
    10
 73
     6
 74
     0
 42
0.00000001
 43
0.00000001
 40
0.0
 40
0.0
 40
0.0
 40
0.0
 40
0.5
 40
0.5
 40
1.0
 40
1.0
 40
1.0
 40
1.0
 10
39.88589078140101
 20
21.94880235924251
 30
0.0
 10
39.92685917519727
 20
21.94880235924251
 30
0.0
 10
39.9703146222692
 20
21.94880235924251
 30
0.0
 10
40.05940046748644
 20
21.94880235924251
 30
0.0
 10
40.09178769610176
 20
21.94880235924251
 30
0.0
 10
40.1341710237467
 20
21.94880235924251
 30
0.0
  0
SPLINE
  5
120
330
1F
100
AcDbEntity
  8
0
  6
Continuous
 62
     7
370
    25
100
AcDbSpline
210
0.0
220
0.0
230
1.0
 70
     8
 71
     3
 72
    10
 73
     6
 74
     0
 42
0.00000001
 43
0.00000001
 40
0.0
 40
0.0
 40
0.0
 40
0.0
 40
0.5
 40
0.5
 40
1.0
 40
1.0
 40
1.0
 40
1.0
 10
39.95738831781998
 20
19.37970595990868
 30
0.0
 10
39.98594213978355
 20
19.38699794036632
 30
0.0
 10
40.02030217151599
 20
19.39089510299114
 30
0.0
 10
40.08334499604511
 20
19.39443130697286
 30
0.0
 10
40.11182390602336
 20
19.39428385200773
 30
0.0
 10
40.1341710237467
 20
19.39428385200773
 30
0.0
  0
SPLINE
  5
121
330
1F
100
AcDbEntity
  8
0
  6
Continuous
 62
     7
370
    25
100
AcDbSpline
210
0.0
220
0.0
230
1.0
 70
     8
 71
     3
 72
    14
 73
    10
 74
     0
 42
0.00000001
 43
0.00000001
 40
0.0
 40
0.0
 40
0.0
 40
0.0
 40
0.25
 40
0.25
 40
0.5
 40
0.5
 40
0.75
 40
0.75
 40
1.0
 40
1.0
 40
1.0
 40
1.0
 10
39.88589078140101
 20
21.94880235924251
 30
0.0
 10
39.89613287985007
 20
21.73011327303615
 30
0.0
 10
39.91081559431348
 20
21.51293436802767
 30
0.0
 10
39.94263798497133
 20
21.08158533344725
 30
0.0
 10
39.95977766116579
 20
20.8674152038753
 30
0.0
 10
39.99008970498816
 20
20.44207213320875
 30
0.0
 10
39.99595950317772
 20
20.22835470970808
 30
0.0
 10
39.98986494909743
 20
19.8022136267157
 30
0.0
 10
39.97790059682759
 20
19.589789967224
 30
0.0
 10
39.95738831781998
 20
19.37970595990868
 30
0.0
  0
SPLINE
  5
122
330
1F
100
AcDbEntity
  8
0
  6
Continuous
 62
     7
370
    25
100
AcDbSpline
210
0.0
220
0.0
230
1.0
 70
     8
 71
     3
 72
    14
 73
    10
 74
     0
 42
0.00000001
 43
0.00000001
 40
0.0
 40
0.0
 40
0.0
 40
0.0
 40
0.25
 40
0.25
 40
0.5
 40
0.5
 40
0.75
 40
0.75
 40
1.0
 40
1.0
 40
1.0
 40
1.0
 10
39.88589078140101
 20
21.94880235924251
 30
0.0
 10
39.89613287985008
 20
22.16749144544886
 30
0.0
 10
39.91081559431348
 20
22.38467035045734
 30
0.0
 10
39.94263798497134
 20
22.81601938503777
 30
0.0
 10
39.9597776611658
 20
23.03018951460971
 30
0.0
 10
39.99008970498816
 20
23.45553258527625
 30
0.0
 10
39.99595950317772
 20
23.66925000877693
 30
0.0
 10
39.98986494909743
 20
24.09539109176931
 30
0.0
 10
39.97790059682759
 20
24.30781475126101
 30
0.0
 10
39.95738831781998
 20
24.51789875857632
 30
0.0
  0
SPLINE
  5
123
330
1F
100
AcDbEntity
  8
0
  6
Continuous
 62
     7
370
    25
100
AcDbSpline
210
0.0
220
0.0
230
1.0
 70
     8
 71
     3
 72
     8
 73
     4
 74
     0
 42
0.00000001
 43
0.00000001
 40
0.0
 40
0.0
 40
0.0
 40
0.0
 40
1.0
 40
1.0
 40
1.0
 40
1.0
 10
39.95738831781998
 20
24.51789875857632
 30
0.0
 10
40.00366877830231
 20
24.50513794914578
 30
0.0
 10
40.06871834331054
 20
24.49931563622031
 30
0.0
 10
40.1341710237467
 20
24.50332086647728
 30
0.0
  0
SPLINE
  5
124
330
1F
100
AcDbEntity
  8
0
  6
Continuous
 62
     7
370
    25
100
AcDbSpline
210
0.0
220
0.0
230
1.0
 70
     8
 71
     3
 72
    15
 73
    11
 74
     0
 42
0.00000001
 43
0.00000001
 40
0.0
 40
0.0
 40
0.0
 40
0.0
 40
0.0425877399909041
 40
0.1028282325346875
 40
0.1864706729280299
 40
0.2956205441869006
 40
0.4311891005861807
 40
0.5936297641565581
 40
0.7831876993469636
 40
1.0
 40
1.0
 40
1.0
 40
1.0
 10
39.8841710237467
 20
24.59455367030709
 30
0.0
 10
39.88417681684883
 20
24.59173434682659
 30
0.0
 10
39.88419080431223
 20
24.58492708139044
 30
0.0
 10
39.88468250514397
 20
24.57638688504956
 30
0.0
 10
39.88630985910256
 20
24.56708920251917
 30
0.0
 10
39.89013500748664
 20
24.55728146689215
 30
0.0
 10
39.89750731752746
 20
24.54695582084306
 30
0.0
 10
39.91012530650427
 20
24.53648910939109
 30
0.0
 10
39.92936950870845
 20
24.52615587415042
 30
0.0
 10
39.94764025507871
 20
24.52077150310868
 30
0.0
 10
39.95738831781998
 20
24.51789875857632
 30
0.0
  0
SPLINE
  5
125
330
1F
100
AcDbEntity
  8
0
  6
Continuous
 62
     7
370
    25
100
AcDbSpline
210
0.0
220
0.0
230
1.0
 70
     8
 71
     3
 72
    12
 73
     8
 74
     0
 42
0.00000001
 43
0.00000001
 40
0.0
 40
0.0
 40
0.0
 40
0.0
 40
0.25
 40
0.25
 40
0.5
 40
0.5
 40
1.0
 40
1.0
 40
1.0
 40
1.0
 10
29.81507462441287
 20
29.52201965331579
 30
0.0
 10
29.81142863418405
 20
29.507742742334
 30
0.0
 10
29.80687210125161
 20
29.49498020608446
 30
0.0
 10
29.79625348726766
 20
29.47383345320559
 30
0.0
 10
29.79019140621614
 20
29.46544923657624
 30
0.0
 10
29.77022014681517
 20
29.44888842135202
 30
0.0
 10
29.75486935384595
 20
29.4488023592425
 30
0.0
 10
29.7384197126821
 20
29.4488023592425
 30
0.0
  0
SPLINE
  5
126
330
1F
100
AcDbEntity
  8
0
  6
Continuous
 62
     7
370
    25
100
AcDbSpline
210
0.0
220
0.0
230
1.0
 70
     8
 71
     3
 72
    12
 73
     8
 74
     0
 42
0.00000001
 43
0.00000001
 40
0.0
 40
0.0
 40
0.0
 40
0.0
 40
0.25
 40
0.25
 40
0.5
 40
0.5
 40
1.0
 40
1.0
 40
1.0
 40
1.0
 10
39.95738831781998
 20
19.37970595990868
 30
0.0
 10
39.94311140683818
 20
19.37605996967986
 30
0.0
 10
39.93034887058865
 20
19.37150343674743
 30
0.0
 10
39.90920211770977
 20
19.36088482276347
 30
0.0
 10
39.90081790108043
 20
19.35482274171196
 30
0.0
 10
39.88425708585621
 20
19.33485148231099
 30
0.0
 10
39.8841710237467
 20
19.31950068934177
 30
0.0
 10
39.8841710237467
 20
19.30305104817791
 30
0.0
  0
SPLINE
  5
127
330
1F
100
AcDbEntity
  8
0
  6
Continuous
 62
     7
370
    25
100
AcDbSpline
210
0.0
220
0.0
230
1.0
 70
     8
 71
     3
 72
    14
 73
    10
 74
     0
 42
0.00000001
 43
0.00000001
 40
0.0
 40
0.0
 40
0.0
 40
0.0
 40
0.2455893235675696
 40
0.4556181963142487
 40
0.6303106213393677
 40
0.7701164303669036
 40
0.8759901151610805
 40
0.9502659312389182
 40
1.0
 40
1.0
 40
1.0
 40
1.0
 10
34.95326742308052
 20
29.52201965331579
 30
0.0
 10
34.95655900055376
 20
29.51105461400049
 30
0.0
 10
34.96266554691986
 20
29.49071223362834
 30
0.0
 10
34.97458853717907
 20
29.47056022115186
 30
0.0
 10
34.98651761969359
 20
29.45844066168101
 30
0.0
 10
34.99796482705771
 20
29.45223483844861
 30
0.0
 10
35.00885035210452
 20
29.44961513947477
 30
0.0
 10
35.01853761389559
 20
29.44883494512973
 30
0.0
 10
35.02666346748891
 20
29.44881168692685
 30
0.0
 10
35.02992233481128
 20
29.4488023592425
 30
0.0
  0
LINE
  5
128
330
1F
100
AcDbEntity
  8
0
  6
Continuous
 62
     7
370
    25
100
AcDbLine
 10
38.3841710237
 20
29.1988023592
 30
0.0
 11
38.3841710237
 21
28.9488023592
 31
0.0
  0
LINE
  5
129
330
1F
100
AcDbEntity
  8
0
  6
Continuous
 62
     7
370
    25
100
AcDbLine
 10
38.3841710237
 20
28.9488023592
 30
0.0
 11
38.1341710237
 21
28.9488023592
 31
0.0
  0
LINE
  5
12A
330
1F
100
AcDbEntity
  8
0
  6
Continuous
 62
     7
370
    25
100
AcDbLine
 10
38.1341710237
 20
29.1988023592
 30
0.0
 11
38.3841710237
 21
29.1988023592
 31
0.0
  0
LINE
  5
12B
330
1F
100
AcDbEntity
  8
0
  6
Continuous
 62
     7
370
    25
100
AcDbLine
 10
38.6158735146
 20
18.9071859186
 30
0.0
 11
38.739913446
 21
18.6901281027
 31
0.0
  0
SPLINE
  5
12C
330
1F
100
AcDbEntity
  8
0
  6
Continuous
 62
     7
370
    25
100
AcDbSpline
210
0.0
220
0.0
230
1.0
 70
     8
 71
     3
 72
    10
 73
     6
 74
     0
 42
0.00000001
 43
0.00000001
 40
0.0
 40
0.0
 40
0.0
 40
0.0
 40
0.5
 40
0.5
 40
1.0
 40
1.0
 40
1.0
 40
1.0
 10
38.73991344595169
 20
18.69012810269891
 30
0.0
 10
38.60547889835977
 20
18.61330409163899
 30
0.0
 10
38.43981353119823
 20
18.59905460115353
 30
0.0
 10
38.15103408948821
 20
18.69714065619779
 30
0.0
 10
38.02815130104744
 20
18.81087985051543
 30
0.0
 10
37.97595137263391
 20
18.95682855040191
 30
0.0
  0
LINE
  5
12D
330
1F
100
AcDbEntity
  8
0
  6
Continuous
 62
     7
370
    25
100
AcDbLine
 10
34.3264753219
 20
18.7084772808
 30
0.0
 11
34.9403388259
 21
17.5382486602
 31
0.0
  0
LINE
  5
12E
330
1F
100
AcDbEntity
  8
0
  6
Continuous
 62
     7
370
    25
100
AcDbLine
 10
34.9403388259
 20
17.5382486602
 30
0.0
 11
34.7189499246
 21
17.4221153129
 31
0.0
  0
LINE
  5
12F
330
1F
100
AcDbEntity
  8
0
  6
Continuous
 62
     7
370
    25
100
AcDbLine
 10
34.3264753219
 20
18.7084772808
 30
0.0
 11
33.7191625742
 21
19.3280435268
 31
0.0
  0
ELLIPSE
  5
130
330
1F
100
AcDbEntity
  8
0
  6
Continuous
 62
     7
370
    25
100
AcDbEllipse
 10
36.549249024
 20
19.6448555949
 30
0.0
 11
0.06537569707428759
 21
-7.105427357601002E-15
 31
0.0
210
0.0
220
0.0
230
1.0
 40
0.9531667975
 41
0.3430239404203591
 42
2.798568713169679
  0
LINE
  5
131
330
1F
100
AcDbEntity
  8
0
  6
Continuous
 62
     7
370
    25
100
AcDbLine
 10
36.6108160579
 20
19.6658140423
 30
0.0
 11
36.8449261068
 21
19.0410054471
 31
0.0
  0
ELLIPSE
  5
132
330
1F
100
AcDbEntity
  8
0
  6
Continuous
 62
     7
370
    25
100
AcDbEllipse
 10
36.7833590728
 20
19.0200469998
 30
0.0
 11
0.06537569707428759
 21
7.105427357601002E-15
 31
0.0
210
0.0
220
0.0
230
1.0
 40
0.9531667975
 41
4.712388980384491
 42
6.626209245739328
  0
ELLIPSE
  5
133
330
1F
100
AcDbEntity
  8
0
  6
Continuous
 62
     7
370
    25
100
AcDbEllipse
 10
36.3151389724
 20
19.0200469998
 30
0.0
 11
-0.0653756970743089
 21
0.0
 31
0.0
210
0.0
220
0.0
230
1.0
 40
0.9531667975
 41
5.940161364895774
 42
7.853981633974483
  0
LINE
  5
134
330
1F
100
AcDbEntity
  8
0
  6
Continuous
 62
     7
370
    25
100
AcDbLine
 10
36.2535719385
 20
19.0410054473
 30
0.0
 11
36.48768199
 21
19.6658140423
 31
0.0
  0
LINE
  5
135
330
1F
100
AcDbEntity
  8
0
  6
Continuous
 62
     7
370
    25
100
AcDbLine
 10
36.7833590728
 20
18.957733056
 30
0.0
 11
36.3151389724
 21
18.957733056
 31
0.0
  0
LINE
  5
136
330
1F
100
AcDbEntity
  8
0
  6
Continuous
 62
     7
370
    25
100
AcDbLine
 10
38.1581592189
 20
17.5382486602
 30
0.0
 11
38.7720227229
 21
18.7084772808
 31
0.0
  0
LINE
  5
137
330
1F
100
AcDbEntity
  8
0
  6
Continuous
 62
     7
370
    25
100
AcDbLine
 10
38.7720227229
 20
18.7084772808
 30
0.0
 11
39.3908950802
 21
19.350079999
 31
0.0
  0
LINE
  5
138
330
1F
100
AcDbEntity
  8
0
  6
Continuous
 62
     7
370
    25
100
AcDbLine
 10
38.1581592189
 20
17.5382486602
 30
0.0
 11
38.3795481203
 21
17.4221153129
 31
0.0
  0
LINE
  5
139
330
1F
100
AcDbEntity
  8
0
  6
Continuous
 62
     7
370
    25
100
AcDbLine
 10
38.7720227229
 20
18.7084772808
 30
0.0
 11
38.739913446
 21
18.6901281027
 31
0.0
  0
SPLINE
  5
13A
330
1F
100
AcDbEntity
  8
0
  6
Continuous
 62
     7
370
    25
100
AcDbSpline
210
0.0
220
0.0
230
1.0
 70
     8
 71
     3
 72
    23
 73
    19
 74
     0
 42
0.00000001
 43
0.00000001
 40
0.0
 40
0.0
 40
0.0
 40
0.0
 40
0.0000221251499261
 40
0.0000221251499261
 40
0.0000221251499261
 40
0.0000448428854419
 40
0.0000448428854419
 40
0.0000448428854419
 40
0.000067774629955
 40
0.000067774629955
 40
0.000067774629955
 40
0.0000902663208602
 40
0.0000902663208602
 40
0.0000902663208602
 40
0.000111841557339
 40
0.000111841557339
 40
0.000111841557339
 40
0.0001193253350659
 40
0.0001193253350659
 40
0.0001193253350659
 40
0.0001193253350659
 10
38.05513264781569
 20
17.52051314899387
 30
0.0
 10
38.06064835557069
 20
17.51561740287092
 30
0.0
 10
38.06710198986594
 20
17.51163152867988
 30
0.0
 10
38.07392920212433
 20
17.50884216765666
 30
0.0
 10
38.08093857108481
 20
17.50597838375252
 30
0.0
 10
38.08853820326884
 20
17.50429206712294
 30
0.0
 10
38.09609966936433
 20
17.50389616061831
 30
0.0
 10
38.10373110045198
 20
17.50349659085643
 30
0.0
 10
38.11153730365675
 20
17.50440012043932
 30
0.0
 10
38.11887163652524
 20
17.50654626997148
 30
0.0
 10
38.12606555033702
 20
17.50865133051869
 30
0.0
 10
38.13300507519247
 20
17.51201288180132
 30
0.0
 10
38.13908815535029
 20
17.51639235798373
 30
0.0
 10
38.1449251868335
 20
17.52059469293467
 30
0.0
 10
38.15013246341898
 20
17.52585331653692
 30
0.0
 10
38.15423003080173
 20
17.53176436526956
 30
0.0
 10
38.15566984692946
 20
17.53384140818359
 30
0.0
 10
38.15698520986509
 20
17.53601060734693
 30
0.0
 10
38.15815921889186
 20
17.53824866019561
 30
0.0
  0
LINE
  5
13B
330
1F
100
AcDbEntity
  8
0
  6
Continuous
 62
     7
370
    25
100
AcDbLine
 10
38.0551326478
 20
17.520513149
 30
0.0
 11
37.8891762767
 21
17.3335412717
 31
0.0
  0
LINE
  5
13C
330
1F
100
AcDbEntity
  8
0
  6
Continuous
 62
     7
370
    25
100
AcDbLine
 10
26.6341710237
 20
17.9488023592
 30
0.0
 11
26.3841710237
 21
17.9488023592
 31
0.0
  0
LINE
  5
13D
330
1F
100
AcDbEntity
  8
0
  6
Continuous
 62
     7
370
    25
100
AcDbLine
 10
26.3841710237
 20
17.9488023592
 30
0.0
 11
26.3841710237
 21
29.1988023592
 31
0.0
  0
LINE
  5
13E
330
1F
100
AcDbEntity
  8
0
  6
Continuous
 62
     7
370
    25
100
AcDbLine
 10
26.3841710237
 20
29.1988023592
 30
0.0
 11
26.6341710237
 21
29.1988023592
 31
0.0
  0
LINE
  5
13F
330
1F
100
AcDbEntity
  8
0
  6
Continuous
 62
     7
370
    25
100
AcDbLine
 10
39.6341710237
 20
16.1988023592
 30
0.0
 11
39.6341710237
 21
15.9488023592
 31
0.0
  0
LINE
  5
140
330
1F
100
AcDbEntity
  8
0
  6
Continuous
 62
     7
370
    25
100
AcDbLine
 10
39.6341710237
 20
15.9488023592
 30
0.0
 11
28.3841710237
 21
15.9488023592
 31
0.0
  0
LINE
  5
141
330
1F
100
AcDbEntity
  8
0
  6
Continuous
 62
     7
370
    25
100
AcDbLine
 10
28.3841710237
 20
16.1988023592
 30
0.0
 11
28.3841710237
 21
15.9488023592
 31
0.0
  0
SPLINE
  5
142
330
1F
100
AcDbEntity
  8
0
  6
Continuous
 62
     7
370
    25
100
AcDbSpline
210
0.0
220
0.0
230
1.0
 70
     8
 71
     3
 72
    23
 73
    19
 74
     0
 42
0.00000001
 43
0.00000001
 40
0.0
 40
0.0
 40
0.0
 40
0.0
 40
0.0000210594021204
 40
0.0000210594021204
 40
0.0000210594021204
 40
0.0000429122282046
 40
0.0000429122282046
 40
0.0000429122282046
 40
0.0000655452306719
 40
0.0000655452306719
 40
0.0000655452306719
 40
0.000088492665435
 40
0.000088492665435
 40
0.000088492665435
 40
0.0001110534468608
 40
0.0001110534468608
 40
0.0001110534468608
 40
0.000119364715226
 40
0.000119364715226
 40
0.000119364715226
 40
0.000119364715226
 10
34.9403388259367
 20
17.53824866019561
 30
0.0
 10
34.9435997577493
 20
17.53203223633
 30
0.0
 10
34.94800368903899
 20
17.52631073239521
 30
0.0
 10
34.95314260431309
 20
17.52152856220073
 30
0.0
 10
34.95847433720399
 20
17.51656695984773
 30
0.0
 10
34.96474359590791
 20
17.51247414381311
 30
0.0
 10
34.97140988705183
 20
17.5095406414842
 30
0.0
 10
34.9783120349538
 20
17.50650335035667
 30
0.0
 10
34.98583176784427
 20
17.50462130679316
 30
0.0
 10
34.99334866020737
 20
17.50402038062849
 30
0.0
 10
35.00096816109917
 20
17.50341125158601
 30
0.0
 10
35.00879786750288
 20
17.50410121232471
 30
0.0
 10
35.0161906094798
 20
17.50604419922456
 30
0.0
 10
35.023458943972
 20
17.50795448890412
 30
0.0
 10
35.03050678203214
 20
17.51113144228398
 30
0.0
 10
35.03672557797918
 20
17.51535097660893
 30
0.0
 10
35.03904544806664
 20
17.51692503878218
 30
0.0
 10
35.04126871349567
 20
17.51865213121408
 30
0.0
 10
35.04336539701286
 20
17.5205131489939
 30
0.0
  0
LINE
  5
143
330
1F
100
AcDbEntity
  8
0
  6
Continuous
 62
     7
370
    25
100
AcDbLine
 10
35.043365397
 20
17.520513149
 30
0.0
 11
35.2093217681
 21
17.3335412717
 31
0.0
  0
ARC
  5
144
330
1F
100
AcDbEntity
  8
0
  6
Continuous
 62
     7
370
    25
100
AcDbCircle
 10
39.6341710237
 20
27.6988023592
 30
0.0
 40
0.25
100
AcDbArc
 50
0.0
 51
90.0
  0
LINE
  5
145
330
1F
100
AcDbEntity
  8
0
  6
Continuous
 62
     7
370
    25
100
AcDbLine
 10
39.6341710237
 20
27.9488023592
 30
0.0
 11
39.6341710237
 21
27.6988023592
 31
0.0
  0
SPLINE
  5
146
330
1F
100
AcDbEntity
  8
0
  6
Continuous
 62
     7
370
    25
100
AcDbSpline
210
0.0
220
0.0
230
1.0
 70
     8
 71
     3
 72
    10
 73
     6
 74
     0
 42
0.00000001
 43
0.00000001
 40
0.0
 40
0.0
 40
0.0
 40
0.0
 40
0.5
 40
0.5
 40
1.0
 40
1.0
 40
1.0
 40
1.0
 10
35.12277297392743
 20
18.95746128007766
 30
0.0
 10
35.07115605592708
 20
18.81314265161818
 30
0.0
 10
34.95057583185712
 20
18.70002338994644
 30
0.0
 10
34.66400820838197
 20
18.60018363972853
 30
0.0
 10
34.5004005835879
 20
18.6127642774282
 30
0.0
 10
34.36624007891039
 20
18.68659429329217
 30
0.0
  0
LINE
  5
147
330
1F
100
AcDbEntity
  8
0
  6
Continuous
 62
     7
370
    25
100
AcDbLine
 10
34.4867720779
 20
18.905619491
 30
0.0
 11
34.3662400789
 21
18.6865942933
 31
0.0
  0
ARC
  5
148
330
1F
100
AcDbEntity
  8
0
  6
Continuous
 62
     7
370
    25
100
AcDbCircle
 10
38.1341710237
 20
29.1988023592
 30
0.0
 40
0.25
100
AcDbArc
 50
0.0
 51
90.0
  0
ARC
  5
149
330
1F
100
AcDbEntity
  8
0
  6
Continuous
 62
     7
370
    25
100
AcDbCircle
 10
39.6341710237
 20
16.1988023592
 30
0.0
 40
0.2500000000000018
100
AcDbArc
 50
270.0
 51
0.0
  0
LINE
  5
14A
330
1F
100
AcDbEntity
  8
0
  6
Continuous
 62
     7
370
    25
100
AcDbLine
 10
34.3662400789
 20
18.6865942933
 30
0.0
 11
34.3264753219
 21
18.7084772808
 31
0.0
  0
ARC
  5
14B
330
1F
100
AcDbEntity
  8
0
  6
Continuous
 62
     7
370
    25
100
AcDbCircle
 10
39.3841710237
 20
28.9488023592
 30
0.0
 40
1.0
100
AcDbArc
 50
180.0
 51
270.0
  0
LINE
  5
14C
330
1F
100
AcDbEntity
  8
0
  6
Continuous
 62
     7
370
    25
100
AcDbLine
 10
39.3841710237
 20
27.9488023592
 30
0.0
 11
39.3841710237
 21
27.6988023592
 31
0.0
  0
ARC
  5
14D
330
1F
100
AcDbEntity
  8
0
  6
Continuous
 62
     7
370
    25
100
AcDbCircle
 10
26.6341710237
 20
29.1988023592
 30
0.0
 40
0.25
100
AcDbArc
 50
90.0
 51
180.0
  0
ARC
  5
14E
330
1F
100
AcDbEntity
  8
0
  6
Continuous
 62
     7
370
    25
100
AcDbCircle
 10
28.3841710237
 20
17.9488023592
 30
0.0
 40
2.000000000000004
100
AcDbArc
 50
180.0
 51
270.0
  0
SPLINE
  5
14F
330
1F
100
AcDbEntity
  8
0
  6
Continuous
 62
     7
370
    25
100
AcDbSpline
210
0.0
220
0.0
230
1.0
 70
     8
 71
     3
 72
    20
 73
    16
 74
     0
 42
0.00000001
 43
0.00000001
 40
0.0
 40
0.0
 40
0.0
 40
0.0
 40
0.2500000000000003
 40
0.2500000000000003
 40
0.3750000000000002
 40
0.3750000000000002
 40
0.5000000000000002
 40
0.5000000000000002
 40
0.6250000000000002
 40
0.6250000000000002
 40
0.7500000000000001
 40
0.7500000000000001
 40
0.8750000000000001
 40
0.8750000000000001
 40
1.0
 40
1.0
 40
1.0
 40
1.0
 10
35.04336539701286
 20
17.5205131489939
 30
0.0
 10
35.25022061339072
 20
17.7041179860468
 30
0.0
 10
35.48657034003875
 20
17.84455408587135
 30
0.0
 10
35.8734526632985
 20
17.98875866987971
 30
0.0
 10
36.00516145183191
 20
18.02464785779976
 30
0.0
 10
36.2738698343566
 20
18.07297775313008
 30
0.0
 10
36.41225153534868
 20
18.08534270971311
 30
0.0
 10
36.68641118308513
 20
18.08533297252848
 30
0.0
 10
36.82218085060077
 20
18.07327404227597
 30
0.0
 10
37.09111517218123
 20
18.02518881886803
 30
0.0
 10
37.22544797525953
 20
17.98858028024759
 30
0.0
 10
37.48173758518287
 20
17.89310873813908
 30
0.0
 10
37.60455915273591
 20
17.834321158949
 30
0.0
 10
37.83934046753499
 20
17.69419529602116
 30
0.0
 10
37.9517152171666
 20
17.61230653392873
 30
0.0
 10
38.0551326478157
 20
17.52051314899387
 30
0.0
  0
LINE
  5
150
330
1F
100
AcDbEntity
  8
0
  6
Continuous
 62
     7
370
    25
100
AcDbLine
 10
39.3841710237
 20
27.9488023592
 30
0.0
 11
39.6341710237
 21
27.9488023592
 31
0.0
  0
ARC
  5
151
330
1F
100
AcDbEntity
  8
0
  6
Continuous
 62
     7
370
    25
100
AcDbCircle
 10
38.1634064061
 20
29.6756156767
 30
0.0
 40
0.2286897211609479
100
AcDbArc
 50
174.1808239121
 51
262.6552867776
  0
ARC
  5
152
330
1F
100
AcDbEntity
  8
0
  6
Continuous
 62
     7
370
    25
100
AcDbCircle
 10
40.1109843412
 20
16.1695669769
 30
0.0
 40
0.228689721160908
100
AcDbArc
 50
84.1808239121
 51
172.6552867776
  0
ARC
  5
153
330
1F
100
AcDbEntity
  8
0
  6
Continuous
 62
     7
370
    25
100
AcDbCircle
 10
26.6049356414
 20
29.6756156767
 30
0.0
 40
0.228689721160921
100
AcDbArc
 50
277.3447132224
 51
5.8191760879
  0
ARC
  5
154
330
1F
100
AcDbEntity
  8
0
  6
Continuous
 62
     7
370
    25
100
AcDbCircle
 10
40.1109843412
 20
27.7280377416
 30
0.0
 40
0.2286897211609179
100
AcDbArc
 50
187.3447132224
 51
275.8191760879
  0
LINE
  5
155
330
1F
100
AcDbEntity
  8
0
  6
Continuous
 62
     7
370
    25
100
AcDbLine
 10
38.4186537824
 20
29.1988023592
 30
0.0
 11
38.3841710237
 21
29.1988023592
 31
0.0
  0
LINE
  5
156
330
1F
100
AcDbEntity
  8
0
  6
Continuous
 62
     7
370
    25
100
AcDbLine
 10
39.6341710237
 20
15.9488023592
 30
0.0
 11
39.6341710237
 21
15.9143196006
 31
0.0
  0
LINE
  5
157
330
1F
100
AcDbEntity
  8
0
  6
Continuous
 62
     7
370
    25
100
AcDbLine
 10
26.3496882651
 20
29.1988023592
 30
0.0
 11
26.3841710237
 21
29.1988023592
 31
0.0
  0
LINE
  5
158
330
1F
100
AcDbEntity
  8
0
  6
Continuous
 62
     7
370
    25
100
AcDbLine
 10
39.6341710237
 20
27.9488023592
 30
0.0
 11
39.6341710237
 21
27.9832851179
 31
0.0
  0
LWPOLYLINE
  5
159
330
1F
100
AcDbEntity
  8
0
  6
Continuous
 62
     7
370
    25
100
AcDbPolyline
 90
        9
 70
   128
 43
0.0
 10
28.1203608818
 20
15.9662776535
 10
28.1165898119
 20
15.9661808666
 10
28.1126801075
 20
15.9649081797
 10
28.1086503274
 20
15.9624656339
 10
28.1045196009
 20
15.9588648239
 10
28.1003075359
 20
15.9541228424
 10
28.096034127
 20
15.9482621992
 10
28.0917196596
 20
15.9413107143
 10
28.0873846141
 20
15.9333013857
  0
SPLINE
  5
15A
330
1F
100
AcDbEntity
  8
0
  6
Continuous
 62
     7
370
    25
100
AcDbSpline
210
0.0
220
0.0
230
1.0
 70
     8
 71
     3
 72
    14
 73
    10
 74
     0
 42
0.00000001
 43
0.00000001
 40
0.0
 40
0.0
 40
0.0
 40
0.0
 40
0.25
 40
0.25
 40
0.5
 40
0.5
 40
0.75
 40
0.75
 40
1.0
 40
1.0
 40
1.0
 40
1.0
 10
28.08738461409096
 20
15.93330138572447
 30
0.0
 10
27.87152534199323
 20
15.95975232264086
 30
0.0
 10
27.66369384760105
 20
16.02013816849623
 30
0.0
 10
27.26629045669035
 20
16.21241873377683
 30
0.0
 10
27.08780764880997
 20
16.33898652568732
 30
0.0
 10
26.77399183597475
 20
16.65289497015891
 30
0.0
 10
26.64706041188317
 20
16.83217728092387
 30
0.0
 10
26.45539354937234
 20
17.2288074402054
 30
0.0
 10
26.39511979946674
 20
17.43616636982533
 30
0.0
 10
26.36867005022866
 20
17.65201594958676
 30
0.0
  0
LWPOLYLINE
  5
15B
330
1F
100
AcDbEntity
  8
0
  6
Continuous
 62
     7
370
    25
100
AcDbPolyline
 90
        9
 70
   128
 43
0.0
 10
26.401646318
 20
17.6849922173
 10
26.4015495311
 20
17.6812211474
 10
26.4002768442
 20
17.677311443
 10
26.3978342984
 20
17.6732816629
 10
26.3942334884
 20
17.6691509363
 10
26.3894915069
 20
17.6649388714
 10
26.3836308637
 20
17.6606654625
 10
26.3766793788
 20
17.6563509951
 10
26.3686700502
 20
17.6520159496
  0
LINE
  5
15C
330
1F
100
AcDbEntity
  8
0
  6
Continuous
 62
     7
370
    25
100
AcDbLine
 10
28.3841710237
 20
15.9488023592
 30
0.0
 11
28.3841710237
 21
15.9143196006
 31
0.0
  0
LINE
  5
15D
330
1F
100
AcDbEntity
  8
0
  6
Continuous
 62
     7
370
    25
100
AcDbLine
 10
26.3496882651
 20
17.9488023592
 30
0.0
 11
26.3841710237
 21
17.9488023592
 31
0.0
  0
SPLINE
  5
15E
330
1F
100
AcDbEntity
  8
0
  6
Continuous
 62
     7
370
    25
100
AcDbSpline
210
0.0
220
0.0
230
1.0
 70
    24
 71
     3
 72
    10
 73
     6
 74
     0
 42
0.00000001
 43
0.00000001
 40
0.0
 40
0.0
 40
0.0
 40
0.0
 40
0.5
 40
0.5
 40
1.0
 40
1.0
 40
1.0
 40
1.0
 10
38.75245751244398
 20
28.31708884793979
 30
0.0
 10
38.72756614193216
 20
28.29219747742798
 30
0.0
 10
38.70961944476127
 20
28.27425078025708
 30
0.0
 10
38.68410250669478
 20
28.24873384219059
 30
0.0
 10
38.6770642425605
 20
28.24169557805665
 30
0.0
 10
38.67706424255979
 20
28.2416955780556
 30
0.0
  0
LINE
  5
15F
330
1F
100
AcDbEntity
  8
0
  6
Continuous
 62
     7
370
    25
100
AcDbLine
 10
38.4186537824
 20
28.9488023592
 30
0.0
 11
38.3841710237
 21
28.9488023592
 31
0.0
  0
LINE
  5
160
330
1F
100
AcDbEntity
  8
0
  6
Continuous
 62
     7
370
    25
100
AcDbLine
 10
39.3841710237
 20
27.9488023592
 30
0.0
 11
39.3841710237
 21
27.9832851179
 31
0.0
  0
LINE
  5
161
330
1F
100
AcDbEntity
  8
0
  6
Continuous
 62
     7
370
    25
100
AcDbLine
 10
42.1533361789
 20
50.6053522835
 30
0.0
 11
42.6341710237
 21
50.6053522835
 31
0.0
  0
LINE
  5
162
330
1F
100
AcDbEntity
  8
0
  6
Continuous
 62
     7
370
    25
100
AcDbLine
 10
22.1341710237
 20
50.6053522835
 30
0.0
 11
22.6150058686
 21
50.6053522835
 31
0.0
  0
LINE
  5
163
330
1F
100
AcDbEntity
  8
0
  6
Continuous
 62
     7
370
    25
100
AcDbLine
 10
22.1384612268
 20
49.7393268797
 30
0.0
 11
21.6341710237
 21
49.7393268797
 31
0.0
  0
LINE
  5
164
330
1F
100
AcDbEntity
  8
0
  6
Continuous
 62
     7
370
    25
100
AcDbLine
 10
43.1341710237
 20
49.7393268797
 30
0.0
 11
42.6298808206
 21
49.7393268797
 31
0.0
  0
LINE
  5
165
330
1F
100
AcDbEntity
  8
0
  6
Continuous
 62
     7
370
    25
100
AcDbLine
 10
61.040720948
 20
12.1796372041
 30
0.0
 11
61.040720948
 21
11.6988023592
 31
0.0
  0
LINE
  5
166
330
1F
100
AcDbEntity
  8
0
  6
Continuous
 62
     7
370
    25
100
AcDbLine
 10
61.040720948
 20
32.1988023592
 30
0.0
 11
61.040720948
 21
31.7179675144
 31
0.0
  0
LINE
  5
167
330
1F
100
AcDbEntity
  8
0
  6
Continuous
 62
     7
370
    25
100
AcDbLine
 10
60.1746955442
 20
32.1945121561
 30
0.0
 11
60.1746955442
 21
32.6988023592
 31
0.0
  0
LINE
  5
168
330
1F
100
AcDbEntity
  8
0
  6
Continuous
 62
     7
370
    25
100
AcDbLine
 10
60.1746955442
 20
11.1988023592
 30
0.0
 11
60.1746955442
 21
11.7030925623
 31
0.0
  0
LINE
  5
169
330
1F
100
AcDbEntity
  8
0
  6
Continuous
 62
     7
370
    25
100
AcDbLine
 10
43.3841710237
 20
14.9488023592
 30
0.0
 11
43.3841710237
 21
28.9488023592
 31
0.0
  0
LINE
  5
16A
330
1F
100
AcDbEntity
  8
0
  6
Continuous
 62
     7
370
    25
100
AcDbLine
 10
39.3841710237
 20
32.9488023592
 30
0.0
 11
25.3841710237
 21
32.9488023592
 31
0.0
  0
LINE
  5
16B
330
1F
100
AcDbEntity
  8
0
  6
Continuous
 62
     7
370
    25
100
AcDbLine
 10
25.3841710237
 20
16.9488023592
 30
0.0
 11
26.3686700502
 21
17.6520159496
 31
0.0
  0
LINE
  5
16C
330
1F
100
AcDbEntity
  8
0
  6
Continuous
 62
     7
370
    25
100
AcDbLine
 10
28.0873846141
 20
15.9333013857
 30
0.0
 11
27.3841710237
 21
14.9488023592
 31
0.0
  0
LINE
  5
16D
330
1F
100
AcDbEntity
  8
0
  6
CENTERX2
 62
     7
370
    18
100
AcDbLine
 10
32.3841710237
 20
55.2880373005
 30
0.0
 11
32.3841710237
 21
11.4683313857
 31
0.0
  0
LINE
  5
16E
330
1F
100
AcDbEntity
  8
0
  6
CENTERX2
 62
     7
370
    18
100
AcDbLine
 10
65.5061099492
 20
21.9488023592
 30
0.0
 11
22.0150518288
 21
21.9488023592
 31
0.0
  0
LINE
  5
16F
330
1F
100
AcDbEntity
  8
0
  6
Continuous
 62
     7
370
    25
100
AcDbLine
 10
77.9224111648
 20
36.6723395816
 30
0.0
 11
78.1724111648
 21
36.5280020143
 31
0.0
  0
LINE
  5
170
330
1F
100
AcDbEntity
  8
0
  6
Continuous
 62
     7
370
    25
100
AcDbLine
 10
98.6724111648
 20
36.5280020143
 30
0.0
 11
98.9224111648
 21
36.6723395816
 31
0.0
  0
LINE
  5
171
330
1F
100
AcDbEntity
  8
0
  6
Continuous
 62
     7
370
    25
100
AcDbLine
 10
78.1724111648
 20
51.3280020143
 30
0.0
 11
78.1724111648
 21
50.5506899014
 31
0.0
  0
LINE
  5
172
330
1F
100
AcDbEntity
  8
0
  6
Continuous
 62
     7
370
    25
100
AcDbLine
 10
98.6724111648
 20
50.5506899014
 30
0.0
 11
98.6724111648
 21
51.3280020143
 31
0.0
  0
LINE
  5
173
330
1F
100
AcDbEntity
  8
0
  6
Continuous
 62
     7
370
    25
100
AcDbLine
 10
98.6724111648
 20
51.3280020143
 30
0.0
 11
98.4724111648
 21
51.5280020143
 31
0.0
  0
LINE
  5
174
330
1F
100
AcDbEntity
  8
0
  6
Continuous
 62
     7
370
    25
100
AcDbLine
 10
78.3724111648
 20
51.5280020143
 30
0.0
 11
78.1724111648
 21
51.3280020143
 31
0.0
  0
SPLINE
  5
175
330
1F
100
AcDbEntity
  8
0
  6
Continuous
 62
     7
370
    25
100
AcDbSpline
210
0.0
220
0.0
230
1.0
 70
     8
 71
     3
 72
    13
 73
     9
 74
     0
 42
0.00000001
 43
0.00000001
 40
0.0
 40
0.0
 40
0.0
 40
0.0
 40
0.001731702662605
 40
0.2617200191568921
 40
0.4995104604235489
 40
0.7155796924861854
 40
0.9082786497063721
 40
1.0
 40
1.0
 40
1.0
 40
1.0
 10
78.17216822642973
 20
50.54956617681339
 30
0.0
 10
78.17221652461546
 20
50.54913129898182
 30
0.0
 10
78.17951604685314
 20
50.48340625457084
 30
0.0
 10
78.15718174568595
 20
50.35650883692941
 30
0.0
 10
78.10989812552235
 20
50.183105760621
 30
0.0
 10
78.03740977277486
 20
50.03848178877076
 30
0.0
 10
77.96702441713633
 20
49.93496229395292
 30
0.0
 10
77.92396295796665
 20
49.88909998736541
 30
0.0
 10
77.91007627309811
 20
49.87431007055335
 30
0.0
  0
SPLINE
  5
176
330
1F
100
AcDbEntity
  8
0
  6
Continuous
 62
     7
370
    25
100
AcDbSpline
210
0.0
220
0.0
230
1.0
 70
     8
 71
     3
 72
    12
 73
     8
 74
     0
 42
0.00000001
 43
0.00000001
 40
0.0
 40
0.0
 40
0.0
 40
0.0
 40
0.1899388744727084
 40
0.4136645178711256
 40
0.6638427884100968
 40
0.9455973743353475
 40
1.0
 40
1.0
 40
1.0
 40
1.0
 10
98.93070438805047
 20
49.87658745723853
 30
0.0
 10
98.90237653314311
 20
49.91026455984084
 30
0.0
 10
98.8406817985865
 20
49.98360932641355
 30
0.0
 10
98.75838535624506
 20
50.12790280341564
 30
0.0
 10
98.69746851907757
 20
50.30546720403627
 30
0.0
 10
98.66728845289708
 20
50.45219010971265
 30
0.0
 10
98.67508349988135
 20
50.5360951578446
 30
0.0
 10
98.67634502576418
 20
50.54967408689184
 30
0.0
  0
LINE
  5
177
330
1F
100
AcDbEntity
  8
0
  6
Continuous
 62
     7
370
    25
100
AcDbLine
 10
80.0914111648
 20
36.5280020143
 30
0.0
 11
80.0914111648
 21
34.0051716052
 31
0.0
  0
LINE
  5
178
330
1F
100
AcDbEntity
  8
0
  6
Continuous
 62
     7
370
    25
100
AcDbLine
 10
96.7534111648
 20
34.0051716052
 30
0.0
 11
96.7534111648
 21
36.5280020143
 31
0.0
  0
ARC
  5
179
330
1F
100
AcDbEntity
  8
0
  6
Continuous
 62
     7
370
    25
100
AcDbCircle
 10
80.4224111648
 20
34.9488023592
 30
0.0
 40
1.0
100
AcDbArc
 50
250.6705173466
 51
270.0
  0
ARC
  5
17A
330
1F
100
AcDbEntity
  8
0
  6
Continuous
 62
     7
370
    25
100
AcDbCircle
 10
96.4224111648
 20
34.9488023592
 30
0.0
 40
1.0
100
AcDbArc
 50
270.0
 51
289.3294826534
  0
ARC
  5
17B
330
1F
100
AcDbEntity
  8
0
  6
Continuous
 62
     7
370
    25
100
AcDbCircle
 10
80.4224111648
 20
32.9488023592
 30
0.0
 40
1.0
100
AcDbArc
 50
0.0
 51
90.0
  0
ARC
  5
17C
330
1F
100
AcDbEntity
  8
0
  6
Continuous
 62
     7
370
    25
100
AcDbCircle
 10
96.4224111648
 20
32.9488023592
 30
0.0
 40
1.0
100
AcDbArc
 50
90.0
 51
180.0
  0
LINE
  5
17D
330
1F
100
AcDbEntity
  8
0
  6
Continuous
 62
     7
370
    25
100
AcDbLine
 10
95.4224111648
 20
30.0317061279
 30
0.0
 11
95.4224111648
 21
32.9488023592
 31
0.0
  0
LINE
  5
17E
330
1F
100
AcDbEntity
  8
0
  6
Continuous
 62
     7
370
    25
100
AcDbLine
 10
81.4224111648
 20
32.9488023592
 30
0.0
 11
81.4224111648
 21
30.0317061279
 31
0.0
  0
SPLINE
  5
17F
330
1F
100
AcDbEntity
  8
0
  6
Continuous
 62
     7
370
    25
100
AcDbSpline
210
0.0
220
0.0
230
1.0
 70
     8
 71
     3
 72
    10
 73
     6
 74
     0
 42
0.00000001
 43
0.00000001
 40
0.0
 40
0.0
 40
0.0
 40
0.0
 40
0.295875640326593
 40
0.5933360076831716
 40
1.0
 40
1.0
 40
1.0
 40
1.0
 10
81.17632123693862
 20
49.73932687969916
 30
0.0
 10
81.56898364679229
 20
49.78591159057129
 30
0.0
 10
82.35641158906107
 20
49.87933052271938
 30
0.0
 10
83.69265143029827
 20
49.90243568639941
 30
0.0
 10
84.62818671619232
 20
49.79904165650242
 30
0.0
 10
85.16850109260646
 20
49.73932687969916
 30
0.0
  0
SPLINE
  5
180
330
1F
100
AcDbEntity
  8
0
  6
Continuous
 62
     7
370
    25
100
AcDbSpline
210
0.0
220
0.0
230
1.0
 70
     8
 71
     3
 72
     9
 73
     5
 74
     0
 42
0.00000001
 43
0.00000001
 40
0.0
 40
0.0
 40
0.0
 40
0.0
 40
0.4983188677908571
 40
1.0
 40
1.0
 40
1.0
 40
1.0
 10
85.16850109260646
 20
49.73932687969916
 30
0.0
 10
85.71576911354808
 20
49.64458179945994
 30
0.0
 10
86.81399769029805
 20
49.45445237357795
 30
0.0
 10
87.88507292722826
 20
49.11575856623012
 30
0.0
 10
88.42241116477258
 20
48.94584227348764
 30
0.0
  0
LINE
  5
181
330
1F
100
AcDbEntity
  8
0
  6
Continuous
 62
     7
370
    25
100
AcDbLine
 10
88.4224111648
 20
48.9458422735
 30
0.0
 11
88.4224111648
 21
37.6101617551
 31
0.0
  0
SPLINE
  5
182
330
1F
100
AcDbEntity
  8
0
  6
Continuous
 62
     7
370
    25
100
AcDbSpline
210
0.0
220
0.0
230
1.0
 70
     8
 71
     3
 72
    15
 73
    11
 74
     0
 42
0.00000001
 43
0.00000001
 40
0.0
 40
0.0
 40
0.0
 40
0.0
 40
0.132306064994714
 40
0.2645747216258911
 40
0.3998023269484417
 40
0.5350055300348284
 40
0.6501955637891816
 40
0.765403565940611
 40
0.8826904433746947
 40
1.0
 40
1.0
 40
1.0
 40
1.0
 10
88.42241116477258
 20
37.61016175510031
 30
0.0
 10
87.96876654038431
 20
37.46739800607307
 30
0.0
 10
87.06160555559195
 20
37.1819108731993
 30
0.0
 10
85.66465762061462
 20
36.87473848650879
 30
0.0
 10
84.24137678583368
 20
36.69004577456009
 30
0.0
 10
82.86965798533002
 20
36.65347147422732
 30
0.0
 10
81.57205225752809
 20
36.74837129405322
 30
0.0
 10
80.34743816928358
 20
36.94281872972008
 30
0.0
 10
79.12836100636625
 20
37.22804989754457
 30
0.0
 10
78.32442035181266
 20
37.48278292729485
 30
0.0
 10
77.9224111647725
 20
37.61016175510032
 30
0.0
  0
LINE
  5
183
330
1F
100
AcDbEntity
  8
0
  6
Continuous
 62
     7
370
    25
100
AcDbLine
 10
77.9224111648
 20
48.9458422735
 30
0.0
 11
77.9224111648
 21
37.6101617551
 31
0.0
  0
SPLINE
  5
184
330
1F
100
AcDbEntity
  8
0
  6
Continuous
 62
     7
370
    25
100
AcDbSpline
210
0.0
220
0.0
230
1.0
 70
     8
 71
     3
 72
     9
 73
     5
 74
     0
 42
0.00000001
 43
0.00000001
 40
0.0
 40
0.0
 40
0.0
 40
0.0
 40
0.4985590461262297
 40
1.0
 40
1.0
 40
1.0
 40
1.0
 10
77.9224111647725
 20
48.94584227348764
 30
0.0
 10
78.45638668809713
 20
49.11475832123324
 30
0.0
 10
79.52742436652973
 20
49.4535668315954
 30
0.0
 10
80.62563396721679
 20
49.64389069838916
 30
0.0
 10
81.17632123693862
 20
49.73932687969916
 30
0.0
  0
SPLINE
  5
185
330
1F
100
AcDbEntity
  8
0
  6
Continuous
 62
     7
370
    25
100
AcDbSpline
210
0.0
220
0.0
230
1.0
 70
    24
 71
     3
 72
    12
 73
     8
 74
     0
 42
0.00000001
 43
0.00000001
 40
0.0
 40
0.0
 40
0.0
 40
0.0
 40
0.2302430661197522
 40
0.4814056295352626
 40
0.7325035595284713
 40
0.9897876338278162
 40
0.9999999999999999
 40
0.9999999999999999
 40
0.9999999999999999
 40
0.9999999999999999
 10
77.92241116477251
 20
37.61016175510031
 30
0.0
 10
77.9224111647725
 20
37.48522119639662
 30
0.0
 10
77.9224111647725
 20
37.223988190205
 30
0.0
 10
77.9224111647725
 20
36.92435894777047
 30
0.0
 10
77.9224111647725
 20
36.73258870147442
 30
0.0
 10
77.9224111647725
 20
36.65228292793664
 30
0.0
 10
77.92241116477248
 20
36.67469956937164
 30
0.0
 10
77.92241116477248
 20
36.67555538244444
 30
0.0
  0
SPLINE
  5
186
330
1F
100
AcDbEntity
  8
0
  6
Continuous
 62
     7
370
    25
100
AcDbSpline
210
0.0
220
0.0
230
1.0
 70
     8
 71
     3
 72
    15
 73
    11
 74
     0
 42
0.00000001
 43
0.00000001
 40
0.0
 40
0.0
 40
0.0
 40
0.0
 40
0.1323060649947139
 40
0.2645747216258911
 40
0.3998023269484417
 40
0.5350055300348283
 40
0.6501955637891816
 40
0.765403565940611
 40
0.8826904433746947
 40
1.0
 40
1.0
 40
1.0
 40
1.0
 10
98.92241116477254
 20
37.61016175510031
 30
0.0
 10
98.4687665403843
 20
37.46739800607307
 30
0.0
 10
97.56160555559194
 20
37.1819108731993
 30
0.0
 10
96.16465762061462
 20
36.87473848650879
 30
0.0
 10
94.7413767858337
 20
36.6900457745601
 30
0.0
 10
93.36965798533005
 20
36.65347147422732
 30
0.0
 10
92.07205225752813
 20
36.74837129405322
 30
0.0
 10
90.84743816928362
 20
36.94281872972008
 30
0.0
 10
89.6283610063663
 20
37.22804989754457
 30
0.0
 10
88.82442035181273
 20
37.48278292729485
 30
0.0
 10
88.42241116477258
 20
37.61016175510032
 30
0.0
  0
SPLINE
  5
187
330
1F
100
AcDbEntity
  8
0
  6
Continuous
 62
     7
370
    25
100
AcDbSpline
210
0.0
220
0.0
230
1.0
 70
    24
 71
     3
 72
    12
 73
     8
 74
     0
 42
0.00000001
 43
0.00000001
 40
0.0
 40
0.0
 40
0.0
 40
0.0
 40
0.0037724823221442
 40
0.2546188737899079
 40
0.5121521903074241
 40
0.7697567570681748
 40
1.0
 40
1.0
 40
1.0
 40
1.0
 10
98.92241116477248
 20
36.67386636661516
 30
0.0
 10
98.92241116477248
 20
36.67354875002955
 30
0.0
 10
98.92241116477246
 20
36.6521116244401
 30
0.0
 10
98.92241116477251
 20
36.72834513725324
 30
0.0
 10
98.92241116477251
 20
36.91672613547063
 30
0.0
 10
98.92241116477253
 20
37.220536953859
 30
0.0
 10
98.92241116477254
 20
37.48523542794917
 30
0.0
 10
98.92241116477254
 20
37.61016175510031
 30
0.0
  0
LINE
  5
188
330
1F
100
AcDbEntity
  8
0
  6
Continuous
 62
     7
370
    25
100
AcDbLine
 10
98.6724111648
 20
36.5280020143
 30
0.0
 11
78.1724111648
 21
36.5280020143
 31
0.0
  0
SPLINE
  5
189
330
1F
100
AcDbEntity
  8
0
  6
Continuous
 62
     7
370
    25
100
AcDbSpline
210
0.0
220
0.0
230
1.0
 70
     8
 71
     3
 72
    10
 73
     6
 74
     0
 42
0.00000001
 43
0.00000001
 40
0.0
 40
0.0
 40
0.0
 40
0.0
 40
0.2958756403265931
 40
0.5933360076831715
 40
1.0
 40
1.0
 40
1.0
 40
1.0
 10
91.67632123693865
 20
49.73932687969916
 30
0.0
 10
92.06898364679232
 20
49.78591159057129
 30
0.0
 10
92.85641158906111
 20
49.87933052271937
 30
0.0
 10
94.1926514302983
 20
49.90243568639941
 30
0.0
 10
95.12818671619233
 20
49.79904165650241
 30
0.0
 10
95.66850109260645
 20
49.73932687969916
 30
0.0
  0
SPLINE
  5
18A
330
1F
100
AcDbEntity
  8
0
  6
Continuous
 62
     7
370
    25
100
AcDbSpline
210
0.0
220
0.0
230
1.0
 70
     8
 71
     3
 72
     9
 73
     5
 74
     0
 42
0.00000001
 43
0.00000001
 40
0.0
 40
0.0
 40
0.0
 40
0.0
 40
0.4983188677908573
 40
0.9999999999999999
 40
0.9999999999999999
 40
0.9999999999999999
 40
0.9999999999999999
 10
95.66850109260645
 20
49.73932687969916
 30
0.0
 10
96.21576911354808
 20
49.64458179945993
 30
0.0
 10
97.31399769029805
 20
49.45445237357794
 30
0.0
 10
98.38507292722822
 20
49.11575856623011
 30
0.0
 10
98.92241116477254
 20
48.94584227348764
 30
0.0
  0
LINE
  5
18B
330
1F
100
AcDbEntity
  8
0
  6
Continuous
 62
     7
370
    25
100
AcDbLine
 10
98.9224111648
 20
48.9458422735
 30
0.0
 11
98.9224111648
 21
37.6101617551
 31
0.0
  0
SPLINE
  5
18C
330
1F
100
AcDbEntity
  8
0
  6
Continuous
 62
     7
370
    25
100
AcDbSpline
210
0.0
220
0.0
230
1.0
 70
     8
 71
     3
 72
     9
 73
     5
 74
     0
 42
0.00000001
 43
0.00000001
 40
0.0
 40
0.0
 40
0.0
 40
0.0
 40
0.4985590461262303
 40
1.0
 40
1.0
 40
1.0
 40
1.0
 10
88.42241116477258
 20
48.94584227348764
 30
0.0
 10
88.95638668809717
 20
49.11475832123324
 30
0.0
 10
90.02742436652977
 20
49.4535668315954
 30
0.0
 10
91.12563396721681
 20
49.64389069838916
 30
0.0
 10
91.67632123693865
 20
49.73932687969916
 30
0.0
  0
LINE
  5
18D
330
1F
100
AcDbEntity
  8
0
  6
Continuous
 62
     7
370
    25
100
AcDbLine
 10
91.6763212369
 20
49.7393268797
 30
0.0
 11
85.1685010926
 21
49.7393268797
 31
0.0
  0
LINE
  5
18E
330
1F
100
AcDbEntity
  8
0
  6
Continuous
 62
     7
370
    25
100
AcDbLine
 10
85.3198457471
 20
50.6053522835
 30
0.0
 11
91.5249765824
 21
50.6053522835
 31
0.0
  0
ARC
  5
18F
330
1F
100
AcDbEntity
  8
0
  6
Continuous
 62
     7
370
    25
100
AcDbCircle
 10
93.5880335822
 20
50.5196504634
 30
0.0
 40
2.064836309839134
100
AcDbArc
 50
177.621233461
 51
202.2043219725
  0
ARC
  5
190
330
1F
100
AcDbEntity
  8
0
  6
Continuous
 62
     7
370
    25
100
AcDbCircle
 10
83.2567887473
 20
50.5196504634
 30
0.0
 40
2.064836309841924
100
AcDbArc
 50
337.7956780275
 51
2.378766539
  0
LINE
  5
191
330
1F
100
AcDbEntity
  8
0
  6
Continuous
 62
     7
370
    25
100
AcDbLine
 10
98.6724111648
 20
51.3280020143
 30
0.0
 11
78.1724111648
 21
51.3280020143
 31
0.0
  0
SPLINE
  5
192
330
1F
100
AcDbEntity
  8
0
  6
Continuous
 62
     7
370
    25
100
AcDbSpline
210
0.0
220
0.0
230
1.0
 70
     8
 71
     3
 72
    11
 73
     7
 74
     0
 42
0.00000001
 43
0.00000001
 40
0.0
 40
0.0
 40
0.0
 40
0.0
 40
0.2730181757486039
 40
0.5498580878450678
 40
0.7738734731546594
 40
1.0
 40
1.0
 40
1.0
 40
1.0
 10
91.5249765824193
 20
50.6053522834836
 30
0.0
 10
91.90508869366585
 20
50.59401406276613
 30
0.0
 10
92.67063376436923
 20
50.57117890775795
 30
0.0
 10
93.68014591081942
 20
50.53001610746419
 30
0.0
 10
94.57493922713999
 20
50.58300104703562
 30
0.0
 10
95.07850827446593
 20
50.59787861300424
 30
0.0
 10
95.33147365410255
 20
50.6053522834836
 30
0.0
  0
SPLINE
  5
193
330
1F
100
AcDbEntity
  8
0
  6
Continuous
 62
     7
370
    25
100
AcDbSpline
210
0.0
220
0.0
230
1.0
 70
     8
 71
     3
 72
    11
 73
     7
 74
     0
 42
0.00000001
 43
0.00000001
 40
0.0
 40
0.0
 40
0.0
 40
0.0
 40
0.2730181757486083
 40
0.549858087845077
 40
0.7738734731546644
 40
1.0
 40
1.0
 40
1.0
 40
1.0
 10
81.51334867544251
 20
50.6053522834836
 30
0.0
 10
81.8203253905656
 20
50.59401406276613
 30
0.0
 10
82.43857591226697
 20
50.57117890775793
 30
0.0
 10
83.41381118858013
 20
50.53001610746419
 30
0.0
 10
84.37646659777582
 20
50.58300104703562
 30
0.0
 10
85.0044043658066
 20
50.59787861300424
 30
0.0
 10
85.31984574712581
 20
50.6053522834836
 30
0.0
  0
LINE
  5
194
330
1F
100
AcDbEntity
  8
0
  6
Continuous
 62
     7
370
    25
100
AcDbLine
 10
78.4107832578
 20
50.6053522835
 30
0.0
 11
81.5133486754
 21
50.6053522835
 31
0.0
  0
LINE
  5
195
330
1F
100
AcDbEntity
  8
0
  6
Continuous
 62
     7
370
    25
100
AcDbLine
 10
95.3314736541
 20
50.6053522835
 30
0.0
 11
98.4340390717
 21
50.6053522835
 31
0.0
  0
LINE
  5
196
330
1F
100
AcDbEntity
  8
0
  6
Continuous
 62
     7
370
    25
100
AcDbLine
 10
78.3724111648
 20
51.5280020143
 30
0.0
 11
98.4724111648
 21
51.5280020143
 31
0.0
  0
ARC
  5
197
330
1F
100
AcDbEntity
  8
0
  6
Continuous
 62
     7
370
    25
100
AcDbCircle
 10
80.3644484143
 20
50.5538724599
 30
0.0
 40
1.150053034581314
100
AcDbArc
 50
314.9058436706
 51
2.5655882362
  0
ARC
  5
198
330
1F
100
AcDbEntity
  8
0
  6
Continuous
 62
     7
370
    25
100
AcDbCircle
 10
96.4803739153
 20
50.5538724599
 30
0.0
 40
1.15005303458091
100
AcDbArc
 50
177.4344117638
 51
225.0941563294
  0
SPLINE
  5
199
330
1F
100
AcDbEntity
  8
0
  6
Continuous
 62
     7
370
    25
100
AcDbSpline
210
0.0
220
0.0
230
1.0
 70
    24
 71
     3
 72
    10
 73
     6
 74
     0
 42
0.00000001
 43
0.00000001
 40
0.0
 40
0.0
 40
0.0
 40
0.0
 40
0.32586849522721
 40
0.6527960511516885
 40
1.0
 40
1.0
 40
1.0
 40
1.0
 10
77.9224111647725
 20
49.73932687969917
 30
0.0
 10
77.9224111647725
 20
49.68030992410791
 30
0.0
 10
77.9224111647725
 20
49.56208420997709
 30
0.0
 10
77.9224111647725
 20
49.2926201493359
 30
0.0
 10
77.9224111647725
 20
49.06372973880657
 30
0.0
 10
77.92241116477251
 20
48.94584227348764
 30
0.0
  0
LINE
  5
19A
330
1F
100
AcDbEntity
  8
0
  6
Continuous
 62
     7
370
    25
100
AcDbLine
 10
81.1763212369
 20
49.7393268797
 30
0.0
 11
77.9224111648
 21
49.7393268797
 31
0.0
  0
ARC
  5
19B
330
1F
100
AcDbEntity
  8
0
  6
Continuous
 62
     7
370
    25
100
AcDbCircle
 10
77.4064311015
 20
50.601015129
 30
0.0
 40
1.004361520936799
100
AcDbArc
 50
300.9132304404
 51
0.2474222794
  0
LINE
  5
19C
330
1F
100
AcDbEntity
  8
0
  6
Continuous
 62
     7
370
    25
100
AcDbLine
 10
98.9224111648
 20
49.7393268797
 30
0.0
 11
95.6685010926
 21
49.7393268797
 31
0.0
  0
SPLINE
  5
19D
330
1F
100
AcDbEntity
  8
0
  6
Continuous
 62
     7
370
    25
100
AcDbSpline
210
0.0
220
0.0
230
1.0
 70
    24
 71
     3
 72
    10
 73
     6
 74
     0
 42
0.00000001
 43
0.00000001
 40
0.0
 40
0.0
 40
0.0
 40
0.0
 40
0.347203973793914
 40
0.6731184750787441
 40
1.0
 40
1.0
 40
1.0
 40
1.0
 10
98.92241116477254
 20
48.94584227348764
 30
0.0
 10
98.92241116477254
 20
49.06373035078311
 30
0.0
 10
98.92241116477253
 20
49.29227797353062
 30
0.0
 10
98.92241116477253
 20
49.56183882650283
 30
0.0
 10
98.92241116477251
 20
49.68010579678533
 30
0.0
 10
98.92241116477251
 20
49.73932687969916
 30
0.0
  0
ARC
  5
19E
330
1F
100
AcDbEntity
  8
0
  6
Continuous
 62
     7
370
    25
100
AcDbCircle
 10
99.438391228
 20
50.601015129
 30
0.0
 40
1.004361520936671
100
AcDbArc
 50
179.7525777206
 51
239.0867695596
  0
SPLINE
  5
19F
330
1F
100
AcDbEntity
  8
0
  6
Continuous
 62
     7
370
    25
100
AcDbSpline
210
0.0
220
0.0
230
1.0
 70
    24
 71
     3
 72
     9
 73
     5
 74
     0
 42
0.00000001
 43
0.00000001
 40
0.0
 40
0.0
 40
0.0
 40
0.0
 40
0.2291984573524128
 40
1.0
 40
1.0
 40
1.0
 40
1.0
 10
77.92241116477248
 20
49.86292686998614
 30
0.0
 10
77.92241116477248
 20
49.87043414728143
 30
0.0
 10
77.92241116477248
 20
49.90318863167898
 30
0.0
 10
77.92241116477248
 20
49.81065327521276
 30
0.0
 10
77.9224111647725
 20
49.73932687969916
 30
0.0
  0
SPLINE
  5
1A0
330
1F
100
AcDbEntity
  8
0
  6
Continuous
 62
     7
370
    25
100
AcDbSpline
210
0.0
220
0.0
230
1.0
 70
    24
 71
     3
 72
     9
 73
     5
 74
     0
 42
0.00000001
 43
0.00000001
 40
0.0
 40
0.0
 40
0.0
 40
0.0
 40
0.8624645479934607
 40
1.0
 40
1.0
 40
1.0
 40
1.0
 10
98.92241116477251
 20
49.73932687969916
 30
0.0
 10
98.9224111647725
 20
49.81316270541715
 30
0.0
 10
98.9224111647725
 20
49.89877297877826
 30
0.0
 10
98.92241116477248
 20
49.87357364291769
 30
0.0
 10
98.92241116477248
 20
49.87010784086984
 30
0.0
  0
CIRCLE
  5
1A1
330
1F
100
AcDbEntity
  8
0
  6
Continuous
 62
     7
370
    25
100
AcDbCircle
 10
88.4224111648
 20
21.9488023592
 30
0.0
 40
10.05
  0
CIRCLE
  5
1A2
330
1F
100
AcDbEntity
  8
0
  6
Continuous
 62
     7
370
    25
100
AcDbCircle
 10
88.4224111648
 20
21.9488023592
 30
0.0
 40
10.25
  0
CIRCLE
  5
1A3
330
1F
100
AcDbEntity
  8
0
  6
Continuous
 62
     7
370
    25
100
AcDbCircle
 10
88.4224111648
 20
21.9488023592
 30
0.0
 40
5.075000000000003
  0
CIRCLE
  5
1A4
330
1F
100
AcDbEntity
  8
0
  6
Continuous
 62
     7
370
    25
100
AcDbCircle
 10
88.4224111648
 20
21.9488023592
 30
0.0
 40
5.175000000000011
  0
LINE
  5
1A5
330
1F
100
AcDbEntity
  8
0
  6
Continuous
 62
     7
370
    25
100
AcDbLine
 10
98.9224111648
 20
24.2536884736
 30
0.0
 11
98.4340390717
 21
24.1464844682
 31
0.0
  0
SPLINE
  5
1A6
330
1F
100
AcDbEntity
  8
0
  6
Continuous
 62
     7
370
    25
100
AcDbSpline
210
0.0
220
0.0
230
1.0
 70
    24
 71
     3
 72
    10
 73
     6
 74
     0
 42
0.00000001
 43
0.00000001
 40
0.0
 40
0.0
 40
0.0
 40
0.0
 40
0.4053531160021641
 40
0.814880754313758
 40
1.0
 40
1.0
 40
1.0
 40
1.0
 10
98.92241116477251
 20
19.6439162449194
 30
0.0
 10
98.9224111647725
 20
20.26576304904296
 30
0.0
 10
98.92241116477248
 20
21.5158607362385
 30
0.0
 10
98.92241116477247
 20
23.06008134273938
 30
0.0
 10
98.92241116477246
 20
23.97032190595942
 30
0.0
 10
98.92241116477246
 20
24.25368847356583
 30
0.0
  0
LINE
  5
1A7
330
1F
100
AcDbEntity
  8
0
  6
Continuous
 62
     7
370
    25
100
AcDbLine
 10
98.4340390717
 20
19.7511202502
 30
0.0
 11
98.9224111648
 21
19.6439162449
 31
0.0
  0
SPLINE
  5
1A8
330
1F
100
AcDbEntity
  8
0
  6
Continuous
 62
     7
370
    25
100
AcDbSpline
210
0.0
220
0.0
230
1.0
 70
    24
 71
     3
 72
    10
 73
     6
 74
     0
 42
0.00000001
 43
0.00000001
 40
0.0
 40
0.0
 40
0.0
 40
0.0
 40
0.2958756403266055
 40
0.5933360076831963
 40
1.0
 40
1.0
 40
1.0
 40
1.0
 10
95.6685010926062
 20
29.88962604181768
 30
0.0
 10
95.27583868275255
 20
30.11632978984732
 30
0.0
 10
94.48841074048381
 20
30.57095152428361
 30
0.0
 10
93.15217089924671
 20
31.34242995632375
 30
0.0
 10
92.21663561335276
 20
31.882561505471
 30
0.0
 10
91.6763212369387
 20
32.19451215614068
 30
0.0
  0
LINE
  5
1A9
330
1F
100
AcDbEntity
  8
0
  6
Continuous
 62
     7
370
    25
100
AcDbLine
 10
95.6685010926
 20
29.8896260418
 30
0.0
 11
95.3314736541
 21
29.5202854054
 31
0.0
  0
LINE
  5
1AA
330
1F
100
AcDbEntity
  8
0
  6
Continuous
 62
     7
370
    25
100
AcDbLine
 10
91.6763212369
 20
32.1945121561
 30
0.0
 11
91.5249765824
 21
31.7179675144
 31
0.0
  0
LINE
  5
1AB
330
1F
100
AcDbEntity
  8
0
  6
Continuous
 62
     7
370
    25
100
AcDbLine
 10
85.3198457471
 20
12.1796372041
 30
0.0
 11
85.1685010926
 21
11.7030925623
 31
0.0
  0
SPLINE
  5
1AC
330
1F
100
AcDbEntity
  8
0
  6
Continuous
 62
     7
370
    25
100
AcDbSpline
210
0.0
220
0.0
230
1.0
 70
    24
 71
     3
 72
    10
 73
     6
 74
     0
 42
0.00000001
 43
0.00000001
 40
0.0
 40
0.0
 40
0.0
 40
0.0
 40
0.295875640326593
 40
0.5933360076831716
 40
1.0
 40
1.0
 40
1.0
 40
1.0
 10
81.17632123693862
 20
14.00797867666746
 30
0.0
 10
81.56898364679229
 20
13.7812749286378
 30
0.0
 10
82.35641158906107
 20
13.3266531942015
 30
0.0
 10
83.69265143029827
 20
12.5551747621613
 30
0.0
 10
84.62818671619232
 20
12.01504321301399
 30
0.0
 10
85.16850109260646
 20
11.70309256234427
 30
0.0
  0
LINE
  5
1AD
330
1F
100
AcDbEntity
  8
0
  6
Continuous
 62
     7
370
    25
100
AcDbLine
 10
81.5133486754
 20
14.3773193131
 30
0.0
 11
81.1763212369
 21
14.0079786767
 31
0.0
  0
LINE
  5
1AE
330
1F
100
AcDbEntity
  8
0
  6
Continuous
 62
     7
370
    25
100
AcDbLine
 10
78.4107832578
 20
19.7511202502
 30
0.0
 11
77.9224111648
 21
19.6439162449
 31
0.0
  0
SPLINE
  5
1AF
330
1F
100
AcDbEntity
  8
0
  6
Continuous
 62
     7
370
    25
100
AcDbSpline
210
0.0
220
0.0
230
1.0
 70
    24
 71
     3
 72
    10
 73
     6
 74
     0
 42
0.00000001
 43
0.00000001
 40
0.0
 40
0.0
 40
0.0
 40
0.0
 40
0.1851192069214107
 40
0.5904327338990519
 40
1.0
 40
1.0
 40
1.0
 40
1.0
 10
77.92241116477247
 20
24.2536884735657
 30
0.0
 10
77.92241116477248
 20
23.97032173880013
 30
0.0
 10
77.92241116477248
 20
23.06653115603949
 30
0.0
 10
77.92241116477248
 20
21.52241362452638
 30
0.0
 10
77.92241116477248
 20
20.27225734144482
 30
0.0
 10
77.9224111647725
 20
19.64391624491925
 30
0.0
  0
LINE
  5
1B0
330
1F
100
AcDbEntity
  8
0
  6
Continuous
 62
     7
370
    25
100
AcDbLine
 10
77.9224111648
 20
24.2536884736
 30
0.0
 11
78.4107832578
 21
24.1464844682
 31
0.0
  0
LINE
  5
1B1
330
1F
100
AcDbEntity
  8
0
  6
Continuous
 62
     7
370
    25
100
AcDbLine
 10
95.3314736541
 20
14.3773193131
 30
0.0
 11
95.6685010926
 21
14.0079786767
 31
0.0
  0
SPLINE
  5
1B2
330
1F
100
AcDbEntity
  8
0
  6
Continuous
 62
     7
370
    25
100
AcDbSpline
210
0.0
220
0.0
230
1.0
 70
    24
 71
     3
 72
    10
 73
     6
 74
     0
 42
0.00000001
 43
0.00000001
 40
0.0
 40
0.0
 40
0.0
 40
0.0
 40
0.2958756403265931
 40
0.5933360076831715
 40
1.0
 40
1.0
 40
1.0
 40
1.0
 10
91.67632123693865
 20
11.70309256234431
 30
0.0
 10
92.06898364679232
 20
11.92979631037398
 30
0.0
 10
92.85641158906111
 20
12.3844180448103
 30
0.0
 10
94.1926514302983
 20
13.15589647685051
 30
0.0
 10
95.12818671619233
 20
13.69602802599784
 30
0.0
 10
95.66850109260645
 20
14.00797867666756
 30
0.0
  0
LINE
  5
1B3
330
1F
100
AcDbEntity
  8
0
  6
Continuous
 62
     7
370
    25
100
AcDbLine
 10
91.5249765824
 20
12.1796372041
 30
0.0
 11
91.6763212369
 21
11.7030925623
 31
0.0
  0
SPLINE
  5
1B4
330
1F
100
AcDbEntity
  8
0
  6
Continuous
 62
     7
370
    25
100
AcDbSpline
210
0.0
220
0.0
230
1.0
 70
    24
 71
     3
 72
    10
 73
     6
 74
     0
 42
0.00000001
 43
0.00000001
 40
0.0
 40
0.0
 40
0.0
 40
0.0
 40
0.2958756403265933
 40
0.5933360076831717
 40
0.9999999999999999
 40
0.9999999999999999
 40
0.9999999999999999
 40
0.9999999999999999
 10
85.16850109260639
 20
32.19451215614071
 30
0.0
 10
84.77583868275272
 20
31.96780840811105
 30
0.0
 10
83.98841074048394
 20
31.51318667367474
 30
0.0
 10
82.65217089924673
 20
30.74170824163453
 30
0.0
 10
81.7166356133527
 20
30.20157669248722
 30
0.0
 10
81.17632123693856
 20
29.88962604181749
 30
0.0
  0
LINE
  5
1B5
330
1F
100
AcDbEntity
  8
0
  6
Continuous
 62
     7
370
    25
100
AcDbLine
 10
85.1685010926
 20
32.1945121561
 30
0.0
 11
85.3198457471
 21
31.7179675144
 31
0.0
  0
LINE
  5
1B6
330
1F
100
AcDbEntity
  8
0
  6
Continuous
 62
     7
370
    25
100
AcDbLine
 10
81.1763212369
 20
29.8896260418
 30
0.0
 11
81.5133486754
 21
29.5202854054
 31
0.0
  0
ARC
  5
1B7
330
1F
100
AcDbEntity
  8
0
  6
Continuous
 62
     7
370
    25
100
AcDbCircle
 10
88.4224111648
 20
21.9488023592
 30
0.0
 40
10.75
100
AcDbArc
 50
192.3807989171
 51
227.6192010829
  0
ARC
  5
1B8
330
1F
100
AcDbEntity
  8
0
  6
Continuous
 62
     7
370
    25
100
AcDbCircle
 10
88.4224111648
 20
21.9488023592
 30
0.0
 40
10.75000000000001
100
AcDbArc
 50
132.3807989171
 51
167.6192010829
  0
ARC
  5
1B9
330
1F
100
AcDbEntity
  8
0
  6
Continuous
 62
     7
370
    25
100
AcDbCircle
 10
88.4224111648
 20
21.9488023592
 30
0.0
 40
10.75
100
AcDbArc
 50
312.3807989171
 51
347.6192010829
  0
ARC
  5
1BA
330
1F
100
AcDbEntity
  8
0
  6
Continuous
 62
     7
370
    25
100
AcDbCircle
 10
88.4224111648
 20
21.9488023592
 30
0.0
 40
10.75000000000001
100
AcDbArc
 50
12.3807989171
 51
47.6192010829
  0
ARC
  5
1BB
330
1F
100
AcDbEntity
  8
0
  6
Continuous
 62
     7
370
    25
100
AcDbCircle
 10
88.4224111648
 20
21.9488023592
 30
0.0
 40
10.75
100
AcDbArc
 50
252.3807989171
 51
287.6192010829
  0
ARC
  5
1BC
330
1F
100
AcDbEntity
  8
0
  6
Continuous
 62
     7
370
    25
100
AcDbCircle
 10
88.4224111648
 20
21.9488023592
 30
0.0
 40
10.75
100
AcDbArc
 50
72.3807989171
 51
107.6192010829
  0
SPLINE
  5
1BD
330
1F
100
AcDbEntity
  8
0
  6
Continuous
 62
     7
370
    25
100
AcDbSpline
210
0.0
220
0.0
230
1.0
 70
    24
 71
     3
 72
     9
 73
     5
 74
     0
 42
0.00000001
 43
0.00000001
 40
0.0
 40
0.0
 40
0.0
 40
0.0
 40
0.498318867790857
 40
1.0
 40
1.0
 40
1.0
 40
1.0
 10
81.17632123693856
 20
29.88962604181749
 30
0.0
 10
80.62905321599695
 20
29.57366070260797
 30
0.0
 10
79.53082463924696
 20
28.93959813818963
 30
0.0
 10
78.45974940231679
 20
28.32121256182564
 30
0.0
 10
77.92241116477247
 20
28.01098018573355
 30
0.0
  0
SPLINE
  5
1BE
330
1F
100
AcDbEntity
  8
0
  6
Continuous
 62
     7
370
    25
100
AcDbSpline
210
0.0
220
0.0
230
1.0
 70
    24
 71
     3
 72
     9
 73
     5
 74
     0
 42
0.00000001
 43
0.00000001
 40
0.0
 40
0.0
 40
0.0
 40
0.0
 40
0.4985590461262308
 40
1.0
 40
1.0
 40
1.0
 40
1.0
 10
77.92241116477247
 20
28.01098018573355
 30
0.0
 10
77.92241116477247
 20
27.39439836146928
 30
0.0
 10
77.92241116477247
 20
26.1576705775587
 30
0.0
 10
77.92241116477247
 20
24.88956736039211
 30
0.0
 10
77.92241116477247
 20
24.2536884735657
 30
0.0
  0
SPLINE
  5
1BF
330
1F
100
AcDbEntity
  8
0
  6
Continuous
 62
     7
370
    25
100
AcDbSpline
210
0.0
220
0.0
230
1.0
 70
    24
 71
     3
 72
     9
 73
     5
 74
     0
 42
0.00000001
 43
0.00000001
 40
0.0
 40
0.0
 40
0.0
 40
0.0
 40
0.4983188677908567
 40
1.0
 40
1.0
 40
1.0
 40
1.0
 10
91.6763212369387
 20
32.19451215614067
 30
0.0
 10
91.12905321599708
 20
32.51047749535019
 30
0.0
 10
90.03082463924706
 20
33.14454005976855
 30
0.0
 10
88.95974940231682
 20
33.76292563613256
 30
0.0
 10
88.42241116477248
 20
34.07315801222465
 30
0.0
  0
SPLINE
  5
1C0
330
1F
100
AcDbEntity
  8
0
  6
Continuous
 62
     7
370
    25
100
AcDbSpline
210
0.0
220
0.0
230
1.0
 70
    24
 71
     3
 72
     9
 73
     5
 74
     0
 42
0.00000001
 43
0.00000001
 40
0.0
 40
0.0
 40
0.0
 40
0.0
 40
0.49855904612623
 40
1.0
 40
1.0
 40
1.0
 40
1.0
 10
88.42241116477248
 20
34.07315801222465
 30
0.0
 10
87.88843564144788
 20
33.76486710009252
 30
0.0
 10
86.81739796301527
 20
33.14650320813722
 30
0.0
 10
85.71918836232823
 20
32.51245159955392
 30
0.0
 10
85.16850109260639
 20
32.19451215614071
 30
0.0
  0
SPLINE
  5
1C1
330
1F
100
AcDbEntity
  8
0
  6
Continuous
 62
     7
370
    25
100
AcDbSpline
210
0.0
220
0.0
230
1.0
 70
    24
 71
     3
 72
     9
 73
     5
 74
     0
 42
0.00000001
 43
0.00000001
 40
0.0
 40
0.0
 40
0.0
 40
0.0
 40
0.49855904612623
 40
1.0
 40
1.0
 40
1.0
 40
1.0
 10
88.42241116477258
 20
9.82444670626035
 30
0.0
 10
88.95638668809717
 20
10.13273761839249
 30
0.0
 10
90.02742436652977
 20
10.75110151034779
 30
0.0
 10
91.12563396721681
 20
11.3851531189311
 30
0.0
 10
91.67632123693865
 20
11.70309256234431
 30
0.0
  0
SPLINE
  5
1C2
330
1F
100
AcDbEntity
  8
0
  6
Continuous
 62
     7
370
    25
100
AcDbSpline
210
0.0
220
0.0
230
1.0
 70
    24
 71
     3
 72
     9
 73
     5
 74
     0
 42
0.00000001
 43
0.00000001
 40
0.0
 40
0.0
 40
0.0
 40
0.0
 40
0.4983188677908572
 40
1.0
 40
1.0
 40
1.0
 40
1.0
 10
85.16850109260646
 20
11.70309256234427
 30
0.0
 10
85.71576911354808
 20
11.38712722313475
 30
0.0
 10
86.81399769029805
 20
10.75306465871641
 30
0.0
 10
87.88507292722826
 20
10.13467908235244
 30
0.0
 10
88.42241116477258
 20
9.824446706260353
 30
0.0
  0
SPLINE
  5
1C3
330
1F
100
AcDbEntity
  8
0
  6
Continuous
 62
     7
370
    25
100
AcDbSpline
210
0.0
220
0.0
230
1.0
 70
    24
 71
     3
 72
    10
 73
     6
 74
     0
 42
0.00000001
 43
0.00000001
 40
0.0
 40
0.0
 40
0.0
 40
0.0
 40
0.3472039737939141
 40
0.6731184750787441
 40
0.9999999999999999
 40
0.9999999999999999
 40
0.9999999999999999
 40
0.9999999999999999
 10
98.92241116477254
 20
15.88662453275153
 30
0.0
 10
98.92241116477254
 20
16.31561196160121
 30
0.0
 10
98.92241116477253
 20
17.14728263858097
 30
0.0
 10
98.92241116477251
 20
18.40103531395945
 30
0.0
 10
98.92241116477251
 20
19.22921365880805
 30
0.0
 10
98.92241116477251
 20
19.6439162449194
 30
0.0
  0
SPLINE
  5
1C4
330
1F
100
AcDbEntity
  8
0
  6
Continuous
 62
     7
370
    25
100
AcDbSpline
210
0.0
220
0.0
230
1.0
 70
    24
 71
     3
 72
     9
 73
     5
 74
     0
 42
0.00000001
 43
0.00000001
 40
0.0
 40
0.0
 40
0.0
 40
0.0
 40
0.4983188677908572
 40
1.0
 40
1.0
 40
1.0
 40
1.0
 10
95.66850109260646
 20
14.00797867666756
 30
0.0
 10
96.21576911354808
 20
14.32394401587708
 30
0.0
 10
97.31399769029805
 20
14.95800658029544
 30
0.0
 10
98.38507292722824
 20
15.57639215665943
 30
0.0
 10
98.92241116477254
 20
15.88662453275153
 30
0.0
  0
SPLINE
  5
1C5
330
1F
100
AcDbEntity
  8
0
  6
Continuous
 62
     7
370
    25
100
AcDbSpline
210
0.0
220
0.0
230
1.0
 70
    24
 71
     3
 72
     9
 73
     5
 74
     0
 42
0.00000001
 43
0.00000001
 40
0.0
 40
0.0
 40
0.0
 40
0.0
 40
0.4985590461262299
 40
1.0
 40
1.0
 40
1.0
 40
1.0
 10
77.9224111647725
 20
15.88662453275138
 30
0.0
 10
78.45638668809713
 20
15.57833362061925
 30
0.0
 10
79.52742436652973
 20
14.95996972866396
 30
0.0
 10
80.62563396721677
 20
14.32591812008066
 30
0.0
 10
81.17632123693862
 20
14.00797867666746
 30
0.0
  0
SPLINE
  5
1C6
330
1F
100
AcDbEntity
  8
0
  6
Continuous
 62
     7
370
    25
100
AcDbSpline
210
0.0
220
0.0
230
1.0
 70
    24
 71
     3
 72
    10
 73
     6
 74
     0
 42
0.00000001
 43
0.00000001
 40
0.0
 40
0.0
 40
0.0
 40
0.0
 40
0.3258684952272098
 40
0.6527960511516884
 40
1.0
 40
1.0
 40
1.0
 40
1.0
 10
77.9224111647725
 20
19.64391624491925
 30
0.0
 10
77.9224111647725
 20
19.2304966377594
 30
0.0
 10
77.9224111647725
 20
18.40231382482912
 30
0.0
 10
77.9224111647725
 20
17.14853452939431
 30
0.0
 10
77.9224111647725
 20
16.31561202395437
 30
0.0
 10
77.92241116477251
 20
15.88662453275138
 30
0.0
  0
SPLINE
  5
1C7
330
1F
100
AcDbEntity
  8
0
  6
Continuous
 62
     7
370
    25
100
AcDbSpline
210
0.0
220
0.0
230
1.0
 70
    24
 71
     3
 72
     9
 73
     5
 74
     0
 42
0.00000001
 43
0.00000001
 40
0.0
 40
0.0
 40
0.0
 40
0.0
 40
0.4985590461262292
 40
1.0
 40
1.0
 40
1.0
 40
1.0
 10
98.92241116477241
 20
28.0109801857337
 30
0.0
 10
98.3884356414478
 20
28.31927109786584
 30
0.0
 10
97.31739796301515
 20
28.93763498982115
 30
0.0
 10
96.21918836232807
 20
29.57168659840447
 30
0.0
 10
95.6685010926062
 20
29.88962604181768
 30
0.0
  0
SPLINE
  5
1C8
330
1F
100
AcDbEntity
  8
0
  6
Continuous
 62
     7
370
    25
100
AcDbSpline
210
0.0
220
0.0
230
1.0
 70
    24
 71
     3
 72
     9
 73
     5
 74
     0
 42
0.00000001
 43
0.00000001
 40
0.0
 40
0.0
 40
0.0
 40
0.0
 40
0.4983188677908569
 40
1.0
 40
1.0
 40
1.0
 40
1.0
 10
98.92241116477246
 20
24.25368847356583
 30
0.0
 10
98.92241116477246
 20
24.88561915198486
 30
0.0
 10
98.92241116477244
 20
26.15374428082155
 30
0.0
 10
98.92241116477243
 20
27.39051543354952
 30
0.0
 10
98.92241116477241
 20
28.0109801857337
 30
0.0
  0
CIRCLE
  5
1C9
330
1F
100
AcDbEntity
  8
0
  6
Continuous
 62
     7
370
    25
100
AcDbCircle
 10
88.4224111648
 20
21.9488023592
 30
0.0
 40
5.050000000000018
  0
CIRCLE
  5
1CA
330
1F
100
AcDbEntity
  8
0
  6
Continuous
 62
     7
370
    25
100
AcDbCircle
 10
88.4224111648
 20
21.9488023592
 30
0.0
 40
3.999999999999986
  0
LINE
  5
1CB
330
1F
100
AcDbEntity
  8
0
  6
Continuous
 62
     7
370
    25
100
AcDbLine
 10
88.5408310528
 20
34.0051716052
 30
0.0
 11
96.7534111648
 21
34.0051716052
 31
0.0
  0
LINE
  5
1CC
330
1F
100
AcDbEntity
  8
0
  6
Continuous
 62
     7
370
    25
100
AcDbLine
 10
80.0914111648
 20
34.0051716052
 30
0.0
 11
88.3046486968
 21
34.0051716052
 31
0.0
  0
LINE
  5
1CD
330
1F
100
AcDbEntity
  8
0
  6
Continuous
 62
     7
370
    25
100
AcDbLine
 10
88.639047578
 20
33.9488023592
 30
0.0
 11
96.4224111648
 21
33.9488023592
 31
0.0
  0
LINE
  5
1CE
330
1F
100
AcDbEntity
  8
0
  6
Continuous
 62
     7
370
    25
100
AcDbLine
 10
80.4224111648
 20
33.9488023592
 30
0.0
 11
88.2068011735
 21
33.9488023592
 31
0.0
  0
SPLINE
  5
1CF
330
1F
100
AcDbEntity
  8
0
  6
Continuous
 62
     7
370
    25
100
AcDbSpline
210
0.0
220
0.0
230
1.0
 70
     8
 71
     3
 72
    12
 73
     8
 74
     0
 42
0.00000001
 43
0.00000001
 40
0.0
 40
0.0
 40
0.0
 40
0.0
 40
0.25
 40
0.25
 40
0.5
 40
0.5
 40
1.0
 40
1.0
 40
1.0
 40
1.0
 10
92.13051040832032
 20
23.44880235924249
 30
0.0
 10
92.1019502549827
 20
23.20606510868938
 30
0.0
 10
92.07528435338584
 20
22.96058289526291
 30
0.0
 10
92.03631743412235
 20
22.4597509021411
 30
0.0
 10
92.02450280670385
 20
22.20079892569999
 30
0.0
 10
92.02480436090377
 20
21.4344028635222
 30
0.0
 10
92.07295975171947
 20
20.93793447228426
 30
0.0
 10
92.13051040832032
 20
20.44880235924251
 30
0.0
  0
LINE
  5
1D0
330
1F
100
AcDbEntity
  8
0
  6
Continuous
 62
     7
370
    25
100
AcDbLine
 10
92.1305104083
 20
20.4488023592
 30
0.0
 11
84.7143119212
 21
20.4488023592
 31
0.0
  0
SPLINE
  5
1D1
330
1F
100
AcDbEntity
  8
0
  6
Continuous
 62
     7
370
    25
100
AcDbSpline
210
0.0
220
0.0
230
1.0
 70
     8
 71
     3
 72
    12
 73
     8
 74
     0
 42
0.00000001
 43
0.00000001
 40
0.0
 40
0.0
 40
0.0
 40
0.0
 40
0.25
 40
0.25
 40
0.5
 40
0.5
 40
1.0
 40
1.0
 40
1.0
 40
1.0
 10
84.71431192122466
 20
20.44880235924251
 30
0.0
 10
84.74296576005162
 20
20.69233585755491
 30
0.0
 10
84.76968899479496
 20
20.93847653662742
 30
0.0
 10
84.8086418716368
 20
21.44010423235313
 30
0.0
 10
84.82040286122145
 20
21.69922800921204
 30
0.0
 10
84.81984639466266
 20
22.46711698610002
 30
0.0
 10
84.77163227796059
 20
22.9616276010985
 30
0.0
 10
84.71431192122466
 20
23.44880235924249
 30
0.0
  0
SPLINE
  5
1D2
330
1F
100
AcDbEntity
  8
0
  6
Continuous
 62
     7
370
    25
100
AcDbSpline
210
0.0
220
0.0
230
1.0
 70
     8
 71
     3
 72
    20
 73
    16
 74
     0
 42
0.00000001
 43
0.00000001
 40
0.0
 40
0.0
 40
0.0
 40
0.0
 40
0.2499999999999998
 40
0.2499999999999998
 40
0.3749999999999998
 40
0.3749999999999998
 40
0.4999999999999999
 40
0.4999999999999999
 40
0.5624999999999999
 40
0.5624999999999999
 40
0.6249999999999998
 40
0.6249999999999998
 40
0.7499999999999998
 40
0.7499999999999998
 40
1.0
 40
1.0
 40
1.0
 40
1.0
 10
92.13051040832032
 20
20.44880235924251
 30
0.0
 10
91.56982790265329
 20
20.19392479180652
 30
0.0
 10
90.99147775767376
 20
19.96503840235784
 30
0.0
 10
90.06608982719919
 20
19.70683168298559
 30
0.0
 10
89.74418756750008
 20
19.63499165533844
 30
0.0
 10
89.09337144206513
 20
19.53718979344297
 30
0.0
 10
88.76434285034723
 20
19.51091813274416
 30
0.0
 10
88.26460299170071
 20
19.51024336087686
 30
0.0
 10
88.09600325708645
 20
19.51655224670696
 30
0.0
 10
87.76355796413498
 20
19.54163462561508
 30
0.0
 10
87.59934596155158
 20
19.56031219903454
 30
0.0
 10
87.1120906084881
 20
19.63276640659258
 30
0.0
 10
86.7941058328109
 20
19.70300864067109
 30
0.0
 10
85.85827711478693
 20
19.96275525265804
 30
0.0
 10
85.27685795455001
 20
20.19307766104785
 30
0.0
 10
84.71431192122466
 20
20.44880235924251
 30
0.0
  0
SPLINE
  5
1D3
330
1F
100
AcDbEntity
  8
0
  6
Continuous
 62
     7
370
    25
100
AcDbSpline
210
0.0
220
0.0
230
1.0
 70
     8
 71
     3
 72
    10
 73
     6
 74
     0
 42
0.00000001
 43
0.00000001
 40
0.0
 40
0.0
 40
0.0
 40
0.0
 40
0.0997807576585926
 40
0.5477793887365398
 40
0.9999999999999999
 40
0.9999999999999999
 40
0.9999999999999999
 40
0.9999999999999999
 10
78.18324875329607
 20
50.55068990140876
 30
0.0
 10
78.1798037193192
 20
50.54890097715897
 30
0.0
 10
78.16089106872089
 20
50.53908008728961
 30
0.0
 10
78.23005525745046
 20
50.58579467550042
 30
0.0
 10
78.35035252842118
 20
50.59881272949647
 30
0.0
 10
78.41078325779574
 20
50.6053522834836
 30
0.0
  0
SPLINE
  5
1D4
330
1F
100
AcDbEntity
  8
0
  6
Continuous
 62
     7
370
    25
100
AcDbSpline
210
0.0
220
0.0
230
1.0
 70
     8
 71
     3
 72
     9
 73
     5
 74
     0
 42
0.00000001
 43
0.00000001
 40
0.0
 40
0.0
 40
0.0
 40
0.0
 40
0.5460755271406197
 40
1.0
 40
1.0
 40
1.0
 40
1.0
 10
98.43403907174925
 20
50.6053522834836
 30
0.0
 10
98.51007311098628
 20
50.59233509848296
 30
0.0
 10
98.64931033268556
 20
50.56849739773703
 30
0.0
 10
98.65774491356267
 20
50.5562495150881
 30
0.0
 10
98.66157357624108
 20
50.55068990141303
 30
0.0
  0
LINE
  5
1D5
330
1F
100
AcDbEntity
  8
0
  6
Continuous
 62
     7
370
    25
100
AcDbLine
 10
86.4650284018
 20
32.9488023592
 30
0.0
 11
81.4224111648
 21
32.9488023592
 31
0.0
  0
LINE
  5
1D6
330
1F
100
AcDbEntity
  8
0
  6
Continuous
 62
     7
370
    25
100
AcDbLine
 10
95.4224111648
 20
32.9488023592
 30
0.0
 11
90.375008133
 21
32.9488023592
 31
0.0
  0
INSERT
  5
1E2
330
1F
100
AcDbEntity
  8
0
  6
Continuous
 62
     7
370
    18
100
AcDbBlockReference
  2
SW_CENTERMARKSYMBOL_0
 10
88.4224111648
 20
21.9488023592
 30
0.0
  0
LINE
  5
1E3
330
1F
100
AcDbEntity
  8
0
  6
Continuous
 62
     7
370
    25
100
AcDbLine
 10
47.1077082461
 20
92.5170596078
 30
0.0
 11
46.9633706788
 21
92.2670596078
 31
0.0
  0
LINE
  5
1E4
330
1F
100
AcDbEntity
  8
0
  6
Continuous
 62
     7
370
    25
100
AcDbLine
 10
46.9633706788
 20
71.7670596078
 30
0.0
 11
47.1077082461
 21
71.5170596078
 31
0.0
  0
LINE
  5
1E5
330
1F
100
AcDbEntity
  8
0
  6
Continuous
 62
     7
370
    25
100
AcDbLine
 10
61.7633706788
 20
71.7670596078
 30
0.0
 11
61.9633706788
 21
71.9670596078
 31
0.0
  0
LINE
  5
1E6
330
1F
100
AcDbEntity
  8
0
  6
Continuous
 62
     7
370
    25
100
AcDbLine
 10
61.9633706788
 20
92.0670596078
 30
0.0
 11
61.7633706788
 21
92.2670596078
 31
0.0
  0
LINE
  5
1E7
330
1F
100
AcDbEntity
  8
0
  6
Continuous
 62
     7
370
    25
100
AcDbLine
 10
61.7633706788
 20
92.2670596078
 30
0.0
 11
60.9860585659
 21
92.2670596078
 31
0.0
  0
LINE
  5
1E8
330
1F
100
AcDbEntity
  8
0
  6
Continuous
 62
     7
370
    25
100
AcDbLine
 10
60.9860585659
 20
71.7670596078
 30
0.0
 11
61.7633706788
 21
71.7670596078
 31
0.0
  0
SPLINE
  5
1E9
330
1F
100
AcDbEntity
  8
0
  6
Continuous
 62
     7
370
    25
100
AcDbSpline
210
0.0
220
0.0
230
1.0
 70
     8
 71
     3
 72
    13
 73
     9
 74
     0
 42
0.00000001
 43
0.00000001
 40
0.0
 40
0.0
 40
0.0
 40
0.0
 40
0.0017388838130402
 40
0.2637224662319842
 40
0.50333782844965
 40
0.7210653373680506
 40
0.9152433263068982
 40
1.0
 40
1.0
 40
1.0
 40
1.0
 10
60.98493483918147
 20
92.26730205603201
 30
0.0
 10
60.98450148301934
 20
92.26725392569679
 30
0.0
 10
60.91877785331187
 20
92.25995438641243
 30
0.0
 10
60.79188716646505
 20
92.28228965955923
 30
0.0
 10
60.6184609385238
 20
92.32956719215365
 30
0.0
 10
60.47390780035881
 20
92.40207214906458
 30
0.0
 10
60.37177018349001
 20
92.47134185281305
 30
0.0
 10
60.32705959861664
 20
92.51323352484117
 30
0.0
 10
60.31347390648006
 20
92.5259626662933
 30
0.0
  0
SPLINE
  5
1EA
330
1F
100
AcDbEntity
  8
0
  6
Continuous
 62
     7
370
    25
100
AcDbSpline
210
0.0
220
0.0
230
1.0
 70
     8
 71
     3
 72
    13
 73
     9
 74
     0
 42
0.00000001
 43
0.00000001
 40
0.0
 40
0.0
 40
0.0
 40
0.0
 40
0.002379799166118
 40
0.1941029663680541
 40
0.4166785556016316
 40
0.6655707931407331
 40
0.9458770290895506
 40
1.0
 40
1.0
 40
1.0
 40
1.0
 10
60.30939627394023
 20
71.50651314827557
 30
0.0
 10
60.3097399778004
 20
71.50686099695778
 30
0.0
 10
60.33777341010066
 20
71.5352324923451
 30
0.0
 10
60.4218285339954
 20
71.5988069762347
 30
0.0
 10
60.56215999593766
 20
71.68096891417932
 30
0.0
 10
60.74120547689938
 20
71.74204099502403
 30
0.0
 10
60.88754418130642
 20
71.77218079005785
 30
0.0
 10
60.9714617896215
 20
71.76438705960551
 30
0.0
 10
60.98504275139324
 20
71.76312574678384
 30
0.0
  0
ARC
  5
1EB
330
1F
100
AcDbEntity
  8
0
  6
Continuous
 62
     7
370
    25
100
AcDbCircle
 10
45.3841710237
 20
90.0170596078
 30
0.0
 40
1.0
100
AcDbArc
 50
160.6705173466
 51
180.0
  0
ARC
  5
1EC
330
1F
100
AcDbEntity
  8
0
  6
Continuous
 62
     7
370
    25
100
AcDbCircle
 10
45.3841710237
 20
74.0170596078
 30
0.0
 40
1.0
100
AcDbArc
 50
180.0
 51
199.3294826534
  0
LINE
  5
1ED
330
1F
100
AcDbEntity
  8
0
  6
Continuous
 62
     7
370
    25
100
AcDbLine
 10
46.9633706788
 20
90.3480596078
 30
0.0
 11
44.4405402697
 21
90.3480596078
 31
0.0
  0
LINE
  5
1EE
330
1F
100
AcDbEntity
  8
0
  6
Continuous
 62
     7
370
    25
100
AcDbLine
 10
44.4405402697
 20
73.6860596078
 30
0.0
 11
46.9633706788
 21
73.6860596078
 31
0.0
  0
ARC
  5
1EF
330
1F
100
AcDbEntity
  8
0
  6
Continuous
 62
     7
370
    25
100
AcDbCircle
 10
43.3841710237
 20
90.0170596078
 30
0.0
 40
1.000000000000007
100
AcDbArc
 50
270.0
 51
0.0
  0
ARC
  5
1F0
330
1F
100
AcDbEntity
  8
0
  6
Continuous
 62
     7
370
    25
100
AcDbCircle
 10
43.3841710237
 20
74.0170596078
 30
0.0
 40
1.000000000000007
100
AcDbArc
 50
0.0
 51
90.0
  0
LINE
  5
1F1
330
1F
100
AcDbEntity
  8
0
  6
Continuous
 62
     7
370
    25
100
AcDbLine
 10
40.4670747924
 20
75.0170596078
 30
0.0
 11
43.3841710237
 21
75.0170596078
 31
0.0
  0
LINE
  5
1F2
330
1F
100
AcDbEntity
  8
0
  6
Continuous
 62
     7
370
    25
100
AcDbLine
 10
43.3841710237
 20
89.0170596078
 30
0.0
 11
40.4670747924
 21
89.0170596078
 31
0.0
  0
CIRCLE
  5
1F3
330
1F
100
AcDbEntity
  8
0
  6
Continuous
 62
     7
370
    25
100
AcDbCircle
 10
32.3841710237
 20
82.0170596078
 30
0.0
 40
10.05
  0
CIRCLE
  5
1F4
330
1F
100
AcDbEntity
  8
0
  6
Continuous
 62
     7
370
    25
100
AcDbCircle
 10
32.3841710237
 20
82.0170596078
 30
0.0
 40
10.25
  0
CIRCLE
  5
1F5
330
1F
100
AcDbEntity
  8
0
  6
Continuous
 62
     7
370
    25
100
AcDbCircle
 10
32.3841710237
 20
82.0170596078
 30
0.0
 40
5.175000000000011
  0
CIRCLE
  5
1F6
330
1F
100
AcDbEntity
  8
0
  6
Continuous
 62
     7
370
    25
100
AcDbCircle
 10
32.3841710237
 20
82.0170596078
 30
0.0
 40
5.075000000000003
  0
LINE
  5
1F7
330
1F
100
AcDbEntity
  8
0
  6
Continuous
 62
     7
370
    25
100
AcDbLine
 10
30.0792849094
 20
92.5170596078
 30
0.0
 11
30.1864889147
 21
92.0286875148
 31
0.0
  0
SPLINE
  5
1F8
330
1F
100
AcDbEntity
  8
0
  6
Continuous
 62
     7
370
    25
100
AcDbSpline
210
0.0
220
0.0
230
1.0
 70
    24
 71
     3
 72
    10
 73
     6
 74
     0
 42
0.00000001
 43
0.00000001
 40
0.0
 40
0.0
 40
0.0
 40
0.0
 40
0.4053531160021642
 40
0.8148807543137582
 40
1.0
 40
1.0
 40
1.0
 40
1.0
 10
34.68905713806978
 20
92.51705960778148
 30
0.0
 10
34.06721033394622
 20
92.51705960778146
 30
0.0
 10
32.81711264675068
 20
92.51705960778145
 30
0.0
 10
31.2728920402498
 20
92.51705960778143
 30
0.0
 10
30.36265147702976
 20
92.51705960778143
 30
0.0
 10
30.07928490942335
 20
92.51705960778142
 30
0.0
  0
LINE
  5
1F9
330
1F
100
AcDbEntity
  8
0
  6
Continuous
 62
     7
370
    25
100
AcDbLine
 10
34.5818531328
 20
92.0286875148
 30
0.0
 11
34.6890571381
 21
92.5170596078
 31
0.0
  0
SPLINE
  5
1FA
330
1F
100
AcDbEntity
  8
0
  6
Continuous
 62
     7
370
    25
100
AcDbSpline
210
0.0
220
0.0
230
1.0
 70
    24
 71
     3
 72
    10
 73
     6
 74
     0
 42
0.00000001
 43
0.00000001
 40
0.0
 40
0.0
 40
0.0
 40
0.0
 40
0.2958756403266055
 40
0.5933360076831963
 40
1.0
 40
1.0
 40
1.0
 40
1.0
 10
24.44334734117151
 20
89.26314953561517
 30
0.0
 10
24.21664359314186
 20
88.87048712576151
 30
0.0
 10
23.76202185870557
 20
88.08305918349276
 30
0.0
 10
22.99054342666544
 20
86.74681934225568
 30
0.0
 10
22.45041187751818
 20
85.81128405636173
 30
0.0
 10
22.13846122684851
 20
85.27096967994767
 30
0.0
  0
LINE
  5
1FB
330
1F
100
AcDbEntity
  8
0
  6
Continuous
 62
     7
370
    25
100
AcDbLine
 10
24.4433473412
 20
89.2631495356
 30
0.0
 11
24.8126879776
 21
88.9261220971
 31
0.0
  0
LINE
  5
1FC
330
1F
100
AcDbEntity
  8
0
  6
Continuous
 62
     7
370
    25
100
AcDbLine
 10
22.1384612268
 20
85.2709696799
 30
0.0
 11
22.6150058686
 21
85.1196250254
 31
0.0
  0
LINE
  5
1FD
330
1F
100
AcDbEntity
  8
0
  6
Continuous
 62
     7
370
    25
100
AcDbLine
 10
39.9556540699
 20
88.9261220971
 30
0.0
 11
40.3249947063
 21
89.2631495356
 31
0.0
  0
SPLINE
  5
1FE
330
1F
100
AcDbEntity
  8
0
  6
Continuous
 62
     7
370
    25
100
AcDbSpline
210
0.0
220
0.0
230
1.0
 70
    24
 71
     3
 72
    10
 73
     6
 74
     0
 42
0.00000001
 43
0.00000001
 40
0.0
 40
0.0
 40
0.0
 40
0.0
 40
0.2958756403265931
 40
0.5933360076831715
 40
1.0
 40
1.0
 40
1.0
 40
1.0
 10
42.62988082064486
 20
85.27096967994763
 30
0.0
 10
42.40317707261521
 20
85.66363208980128
 30
0.0
 10
41.94855533817888
 20
86.45106003207006
 30
0.0
 10
41.17707690613867
 20
87.78729987330726
 30
0.0
 10
40.63694535699135
 20
88.7228351592013
 30
0.0
 10
40.32499470632162
 20
89.26314953561543
 30
0.0
  0
LINE
  5
1FF
330
1F
100
AcDbEntity
  8
0
  6
Continuous
 62
     7
370
    25
100
AcDbLine
 10
42.1533361789
 20
85.1196250254
 30
0.0
 11
42.6298808206
 21
85.2709696799
 31
0.0
  0
LINE
  5
200
330
1F
100
AcDbEntity
  8
0
  6
Continuous
 62
     7
370
    25
100
AcDbLine
 10
42.1533361789
 20
78.9144941901
 30
0.0
 11
42.6298808206
 21
78.7631495356
 31
0.0
  0
SPLINE
  5
201
330
1F
100
AcDbEntity
  8
0
  6
Continuous
 62
     7
370
    25
100
AcDbSpline
210
0.0
220
0.0
230
1.0
 70
    24
 71
     3
 72
    10
 73
     6
 74
     0
 42
0.00000001
 43
0.00000001
 40
0.0
 40
0.0
 40
0.0
 40
0.0
 40
0.295875640326593
 40
0.5933360076831716
 40
1.0
 40
1.0
 40
1.0
 40
1.0
 10
40.32499470632172
 20
74.7709696799476
 30
0.0
 10
40.55169845435138
 20
75.16363208980124
 30
0.0
 10
41.00632018878768
 20
75.95106003207003
 30
0.0
 10
41.77779862082788
 20
77.28729987330725
 30
0.0
 10
42.31793016997519
 20
78.22283515920128
 30
0.0
 10
42.62988082064491
 20
78.76314953561541
 30
0.0
  0
LINE
  5
202
330
1F
100
AcDbEntity
  8
0
  6
Continuous
 62
     7
370
    25
100
AcDbLine
 10
39.9556540699
 20
75.1079971185
 30
0.0
 11
40.3249947063
 21
74.7709696799
 31
0.0
  0
LINE
  5
203
330
1F
100
AcDbEntity
  8
0
  6
Continuous
 62
     7
370
    25
100
AcDbLine
 10
34.5818531328
 20
72.0054317008
 30
0.0
 11
34.6890571381
 21
71.5170596078
 31
0.0
  0
SPLINE
  5
204
330
1F
100
AcDbEntity
  8
0
  6
Continuous
 62
     7
370
    25
100
AcDbSpline
210
0.0
220
0.0
230
1.0
 70
    24
 71
     3
 72
    10
 73
     6
 74
     0
 42
0.00000001
 43
0.00000001
 40
0.0
 40
0.0
 40
0.0
 40
0.0
 40
0.1851192069214107
 40
0.5904327338990519
 40
1.0
 40
1.0
 40
1.0
 40
1.0
 10
30.07928490942347
 20
71.51705960778145
 30
0.0
 10
30.36265164418905
 20
71.51705960778145
 30
0.0
 10
31.26644222694969
 20
71.51705960778145
 30
0.0
 10
32.8105597584628
 20
71.51705960778146
 30
0.0
 10
34.06071604154435
 20
71.51705960778146
 30
0.0
 10
34.68905713806993
 20
71.51705960778146
 30
0.0
  0
LINE
  5
205
330
1F
100
AcDbEntity
  8
0
  6
Continuous
 62
     7
370
    25
100
AcDbLine
 10
30.0792849094
 20
71.5170596078
 30
0.0
 11
30.1864889147
 21
72.0054317008
 31
0.0
  0
SPLINE
  5
206
330
1F
100
AcDbEntity
  8
0
  6
Continuous
 62
     7
370
    25
100
AcDbSpline
210
0.0
220
0.0
230
1.0
 70
    24
 71
     3
 72
    10
 73
     6
 74
     0
 42
0.00000001
 43
0.00000001
 40
0.0
 40
0.0
 40
0.0
 40
0.0
 40
0.2958756403265933
 40
0.5933360076831717
 40
0.9999999999999999
 40
0.9999999999999999
 40
0.9999999999999999
 40
0.9999999999999999
 10
22.13846122684847
 20
78.76314953561536
 30
0.0
 10
22.36516497487813
 20
78.37048712576168
 30
0.0
 10
22.81978670931444
 20
77.58305918349289
 30
0.0
 10
23.59126514135465
 20
76.24681934225569
 30
0.0
 10
24.13139669050196
 20
75.31128405636166
 30
0.0
 10
24.44334734117169
 20
74.77096967994754
 30
0.0
  0
LINE
  5
207
330
1F
100
AcDbEntity
  8
0
  6
Continuous
 62
     7
370
    25
100
AcDbLine
 10
22.1384612268
 20
78.7631495356
 30
0.0
 11
22.6150058686
 21
78.9144941901
 31
0.0
  0
LINE
  5
208
330
1F
100
AcDbEntity
  8
0
  6
Continuous
 62
     7
370
    25
100
AcDbLine
 10
24.4433473412
 20
74.7709696799
 30
0.0
 11
24.8126879776
 21
75.1079971185
 31
0.0
  0
ARC
  5
209
330
1F
100
AcDbEntity
  8
0
  6
Continuous
 62
     7
370
    25
100
AcDbCircle
 10
32.3841710237
 20
82.0170596078
 30
0.0
 40
10.75000000000001
100
AcDbArc
 50
42.3807989171
 51
77.6192010829
  0
ARC
  5
20A
330
1F
100
AcDbEntity
  8
0
  6
Continuous
 62
     7
370
    25
100
AcDbCircle
 10
32.3841710237
 20
82.0170596078
 30
0.0
 40
10.75
100
AcDbArc
 50
102.3807989171
 51
137.6192010829
  0
ARC
  5
20B
330
1F
100
AcDbEntity
  8
0
  6
Continuous
 62
     7
370
    25
100
AcDbCircle
 10
32.3841710237
 20
82.0170596078
 30
0.0
 40
10.75000000000001
100
AcDbArc
 50
342.3807989171
 51
17.6192010829
  0
ARC
  5
20C
330
1F
100
AcDbEntity
  8
0
  6
Continuous
 62
     7
370
    25
100
AcDbCircle
 10
32.3841710237
 20
82.0170596078
 30
0.0
 40
10.74999999999999
100
AcDbArc
 50
162.3807989171
 51
197.6192010829
  0
ARC
  5
20D
330
1F
100
AcDbEntity
  8
0
  6
Continuous
 62
     7
370
    25
100
AcDbCircle
 10
32.3841710237
 20
82.0170596078
 30
0.0
 40
10.74999999999999
100
AcDbArc
 50
282.3807989171
 51
317.6192010829
  0
ARC
  5
20E
330
1F
100
AcDbEntity
  8
0
  6
Continuous
 62
     7
370
    25
100
AcDbCircle
 10
32.3841710237
 20
82.0170596078
 30
0.0
 40
10.74999999999999
100
AcDbArc
 50
222.3807989171
 51
257.6192010829
  0
SPLINE
  5
20F
330
1F
100
AcDbEntity
  8
0
  6
Continuous
 62
     7
370
    25
100
AcDbSpline
210
0.0
220
0.0
230
1.0
 70
    24
 71
     3
 72
    10
 73
     6
 74
     0
 42
0.00000001
 43
0.00000001
 40
0.0
 40
0.0
 40
0.0
 40
0.0
 40
0.347203973793914
 40
0.6731184750787441
 40
1.0
 40
1.0
 40
1.0
 40
1.0
 10
38.44634885023765
 20
92.51705960778152
 30
0.0
 10
38.01736142138797
 20
92.5170596077815
 30
0.0
 10
37.18569074440821
 20
92.5170596077815
 30
0.0
 10
35.93193806902973
 20
92.51705960778149
 30
0.0
 10
35.10375972418113
 20
92.51705960778148
 30
0.0
 10
34.68905713806978
 20
92.51705960778148
 30
0.0
  0
SPLINE
  5
210
330
1F
100
AcDbEntity
  8
0
  6
Continuous
 62
     7
370
    25
100
AcDbSpline
210
0.0
220
0.0
230
1.0
 70
    24
 71
     3
 72
     9
 73
     5
 74
     0
 42
0.00000001
 43
0.00000001
 40
0.0
 40
0.0
 40
0.0
 40
0.0
 40
0.4983188677908573
 40
0.9999999999999999
 40
0.9999999999999999
 40
0.9999999999999999
 40
0.9999999999999999
 10
40.32499470632162
 20
89.26314953561543
 30
0.0
 10
40.00902936711209
 20
89.81041755655704
 30
0.0
 10
39.37496680269374
 20
90.90864613330702
 30
0.0
 10
38.75658122632974
 20
91.9797213702372
 30
0.0
 10
38.44634885023765
 20
92.51705960778152
 30
0.0
  0
SPLINE
  5
211
330
1F
100
AcDbEntity
  8
0
  6
Continuous
 62
     7
370
    25
100
AcDbSpline
210
0.0
220
0.0
230
1.0
 70
    24
 71
     3
 72
     9
 73
     5
 74
     0
 42
0.00000001
 43
0.00000001
 40
0.0
 40
0.0
 40
0.0
 40
0.0
 40
0.4985590461262294
 40
1.0
 40
1.0
 40
1.0
 40
1.0
 10
26.32199319725548
 20
92.51705960778139
 30
0.0
 10
26.01370228512334
 20
91.98308408445675
 30
0.0
 10
25.39533839316802
 20
90.91204640602412
 30
0.0
 10
24.76128678458472
 20
89.81383680533703
 30
0.0
 10
24.44334734117151
 20
89.26314953561517
 30
0.0
  0
SPLINE
  5
212
330
1F
100
AcDbEntity
  8
0
  6
Continuous
 62
     7
370
    25
100
AcDbSpline
210
0.0
220
0.0
230
1.0
 70
    24
 71
     3
 72
     9
 73
     5
 74
     0
 42
0.00000001
 43
0.00000001
 40
0.0
 40
0.0
 40
0.0
 40
0.0
 40
0.4983188677908572
 40
1.0
 40
1.0
 40
1.0
 40
1.0
 10
30.07928490942335
 20
92.51705960778142
 30
0.0
 10
29.44735423100432
 20
92.51705960778142
 30
0.0
 10
28.17922910216763
 20
92.5170596077814
 30
0.0
 10
26.94245794943966
 20
92.51705960778139
 30
0.0
 10
26.32199319725548
 20
92.51705960778139
 30
0.0
  0
SPLINE
  5
213
330
1F
100
AcDbEntity
  8
0
  6
Continuous
 62
     7
370
    25
100
AcDbSpline
210
0.0
220
0.0
230
1.0
 70
    24
 71
     3
 72
     9
 73
     5
 74
     0
 42
0.00000001
 43
0.00000001
 40
0.0
 40
0.0
 40
0.0
 40
0.0
 40
0.4985590461262306
 40
1.0
 40
1.0
 40
1.0
 40
1.0
 10
26.32199319725563
 20
71.51705960778143
 30
0.0
 10
26.9385750215199
 20
71.51705960778143
 30
0.0
 10
28.17530280543049
 20
71.51705960778143
 30
0.0
 10
29.44340602259707
 20
71.51705960778145
 30
0.0
 10
30.07928490942347
 20
71.51705960778145
 30
0.0
  0
SPLINE
  5
214
330
1F
100
AcDbEntity
  8
0
  6
Continuous
 62
     7
370
    25
100
AcDbSpline
210
0.0
220
0.0
230
1.0
 70
    24
 71
     3
 72
     9
 73
     5
 74
     0
 42
0.00000001
 43
0.00000001
 40
0.0
 40
0.0
 40
0.0
 40
0.0
 40
0.4983188677908568
 40
1.0
 40
1.0
 40
1.0
 40
1.0
 10
24.44334734117168
 20
74.77096967994754
 30
0.0
 10
24.7593126803812
 20
74.22370165900591
 30
0.0
 10
25.39337524479955
 20
73.12547308225594
 30
0.0
 10
26.01176082116354
 20
72.05439784532575
 30
0.0
 10
26.32199319725563
 20
71.51705960778143
 30
0.0
  0
SPLINE
  5
215
330
1F
100
AcDbEntity
  8
0
  6
Continuous
 62
     7
370
    25
100
AcDbSpline
210
0.0
220
0.0
230
1.0
 70
    24
 71
     3
 72
     9
 73
     5
 74
     0
 42
0.00000001
 43
0.00000001
 40
0.0
 40
0.0
 40
0.0
 40
0.0
 40
0.4983188677908571
 40
1.0
 40
1.0
 40
1.0
 40
1.0
 10
42.62988082064491
 20
78.76314953561541
 30
0.0
 10
42.94584615985443
 20
79.31041755655703
 30
0.0
 10
43.57990872427276
 20
80.40864613330703
 30
0.0
 10
44.19829430063675
 20
81.47972137023721
 30
0.0
 10
44.50852667672883
 20
82.01705960778153
 30
0.0
  0
SPLINE
  5
216
330
1F
100
AcDbEntity
  8
0
  6
Continuous
 62
     7
370
    25
100
AcDbSpline
210
0.0
220
0.0
230
1.0
 70
    24
 71
     3
 72
     9
 73
     5
 74
     0
 42
0.00000001
 43
0.00000001
 40
0.0
 40
0.0
 40
0.0
 40
0.0
 40
0.4985590461262303
 40
1.0
 40
1.0
 40
1.0
 40
1.0
 10
44.50852667672883
 20
82.01705960778153
 30
0.0
 10
44.20023576459669
 20
82.55103513110615
 30
0.0
 10
43.58187187264139
 20
83.62207280953875
 30
0.0
 10
42.94782026405808
 20
84.72028241022578
 30
0.0
 10
42.62988082064486
 20
85.27096967994763
 30
0.0
  0
SPLINE
  5
217
330
1F
100
AcDbEntity
  8
0
  6
Continuous
 62
     7
370
    25
100
AcDbSpline
210
0.0
220
0.0
230
1.0
 70
    24
 71
     3
 72
     9
 73
     5
 74
     0
 42
0.00000001
 43
0.00000001
 40
0.0
 40
0.0
 40
0.0
 40
0.0
 40
0.4985590461262298
 40
1.0
 40
1.0
 40
1.0
 40
1.0
 10
20.25981537076453
 20
82.01705960778145
 30
0.0
 10
20.56810628289667
 20
81.48308408445685
 30
0.0
 10
21.18647017485197
 20
80.41204640602423
 30
0.0
 10
21.82052178343526
 20
79.31383680533719
 30
0.0
 10
22.13846122684847
 20
78.76314953561536
 30
0.0
  0
SPLINE
  5
218
330
1F
100
AcDbEntity
  8
0
  6
Continuous
 62
     7
370
    25
100
AcDbSpline
210
0.0
220
0.0
230
1.0
 70
    24
 71
     3
 72
     9
 73
     5
 74
     0
 42
0.00000001
 43
0.00000001
 40
0.0
 40
0.0
 40
0.0
 40
0.0
 40
0.4983188677908568
 40
1.0
 40
1.0
 40
1.0
 40
1.0
 10
22.13846122684851
 20
85.27096967994767
 30
0.0
 10
21.82249588763899
 20
84.72370165900604
 30
0.0
 10
21.18843332322063
 20
83.62547308225601
 30
0.0
 10
20.57004774685663
 20
82.55439784532578
 30
0.0
 10
20.25981537076453
 20
82.01705960778145
 30
0.0
  0
SPLINE
  5
219
330
1F
100
AcDbEntity
  8
0
  6
Continuous
 62
     7
370
    25
100
AcDbSpline
210
0.0
220
0.0
230
1.0
 70
    24
 71
     3
 72
    10
 73
     6
 74
     0
 42
0.00000001
 43
0.00000001
 40
0.0
 40
0.0
 40
0.0
 40
0.0
 40
0.32586849522721
 40
0.6527960511516885
 40
1.0
 40
1.0
 40
1.0
 40
1.0
 10
34.68905713806993
 20
71.51705960778146
 30
0.0
 10
35.10247674522977
 20
71.51705960778146
 30
0.0
 10
35.93065955816007
 20
71.51705960778146
 30
0.0
 10
37.18443885359487
 20
71.51705960778146
 30
0.0
 10
38.01736135903481
 20
71.51705960778148
 30
0.0
 10
38.4463488502378
 20
71.51705960778148
 30
0.0
  0
SPLINE
  5
21A
330
1F
100
AcDbEntity
  8
0
  6
Continuous
 62
     7
370
    25
100
AcDbSpline
210
0.0
220
0.0
230
1.0
 70
    24
 71
     3
 72
     9
 73
     5
 74
     0
 42
0.00000001
 43
0.00000001
 40
0.0
 40
0.0
 40
0.0
 40
0.0
 40
0.4985590461262297
 40
1.0
 40
1.0
 40
1.0
 40
1.0
 10
38.4463488502378
 20
71.51705960778148
 30
0.0
 10
38.75463976236994
 20
72.05103513110609
 30
0.0
 10
39.37300365432522
 20
73.1220728095387
 30
0.0
 10
40.00705526290852
 20
74.22028241022574
 30
0.0
 10
40.32499470632172
 20
74.7709696799476
 30
0.0
  0
SPLINE
  5
21B
330
1F
100
AcDbEntity
  8
0
  6
Continuous
 62
     7
370
    25
100
AcDbSpline
210
0.0
220
0.0
230
1.0
 70
     8
 71
     3
 72
    15
 73
    11
 74
     0
 42
0.00000001
 43
0.00000001
 40
0.0
 40
0.0
 40
0.0
 40
0.0
 40
0.1323060649947138
 40
0.264574721625891
 40
0.3998023269484415
 40
0.5350055300348283
 40
0.6501955637891815
 40
0.7654035659406109
 40
0.8826904433746946
 40
1.0
 40
1.0
 40
1.0
 40
1.0
 10
48.0455304196045
 20
71.51705960778143
 30
0.0
 10
47.90276667057726
 20
71.97070423216968
 30
0.0
 10
47.61727953770349
 20
72.87786521696205
 30
0.0
 10
47.31010715101297
 20
74.27481315193937
 30
0.0
 10
47.12541443906428
 20
75.6980939867203
 30
0.0
 10
47.08884013873151
 20
77.06981278722395
 30
0.0
 10
47.18373995855742
 20
78.36741851502588
 30
0.0
 10
47.37818739422427
 20
79.59203260327038
 30
0.0
 10
47.66341856204875
 20
80.81110976618771
 30
0.0
 10
47.91815159179904
 20
81.61505042074128
 30
0.0
 10
48.0455304196045
 20
82.01705960778145
 30
0.0
  0
SPLINE
  5
21C
330
1F
100
AcDbEntity
  8
0
  6
Continuous
 62
     7
370
    25
100
AcDbSpline
210
0.0
220
0.0
230
1.0
 70
    24
 71
     3
 72
    11
 73
     7
 74
     0
 42
0.00000001
 43
0.00000001
 40
0.0
 40
0.0
 40
0.0
 40
0.0
 40
0.2470455849895251
 40
0.4342980363995207
 40
0.6215699083443196
 40
1.0
 40
1.0
 40
1.0
 40
1.0
 10
47.11092404694864
 20
71.51705960778145
 30
0.0
 10
47.12152288232012
 20
71.51705960778145
 30
0.0
 10
47.14015528730786
 20
71.51705960778145
 30
0.0
 10
47.29096378848063
 20
71.51705960778143
 30
0.0
 10
47.54505477567299
 20
71.51705960778145
 30
0.0
 10
47.84492813865235
 20
71.51705960778143
 30
0.0
 10
48.0455304196045
 20
71.51705960778143
 30
0.0
  0
SPLINE
  5
21D
330
1F
100
AcDbEntity
  8
0
  6
Continuous
 62
     7
370
    25
100
AcDbSpline
210
0.0
220
0.0
230
1.0
 70
    24
 71
     3
 72
    11
 73
     7
 74
     0
 42
0.00000001
 43
0.00000001
 40
0.0
 40
0.0
 40
0.0
 40
0.0
 40
0.3746970924178629
 40
0.563834863108794
 40
0.7529524053945598
 40
1.0
 40
1.0
 40
1.0
 40
1.0
 10
48.0455304196045
 20
92.51705960778139
 30
0.0
 10
47.84679615592283
 20
92.51705960778139
 30
0.0
 10
47.5477457799647
 20
92.5170596077814
 30
0.0
 10
47.29233493517214
 20
92.51705960778142
 30
0.0
 10
47.14059503456262
 20
92.51705960778143
 30
0.0
 10
47.12057471063689
 20
92.51705960778145
 30
0.0
 10
47.10923503111935
 20
92.51705960778145
 30
0.0
  0
SPLINE
  5
21E
330
1F
100
AcDbEntity
  8
0
  6
Continuous
 62
     7
370
    25
100
AcDbSpline
210
0.0
220
0.0
230
1.0
 70
     8
 71
     3
 72
    15
 73
    11
 74
     0
 42
0.00000001
 43
0.00000001
 40
0.0
 40
0.0
 40
0.0
 40
0.0
 40
0.1323060649947156
 40
0.2645747216258945
 40
0.3998023269484466
 40
0.5350055300348351
 40
0.6501955637891869
 40
0.7654035659406145
 40
0.8826904433746966
 40
1.0
 40
1.0
 40
1.0
 40
1.0
 10
48.0455304196045
 20
82.01705960778145
 30
0.0
 10
47.90276667057726
 20
82.47070423216971
 30
0.0
 10
47.61727953770349
 20
83.37786521696206
 30
0.0
 10
47.31010715101299
 20
84.77481315193941
 30
0.0
 10
47.1254144390643
 20
86.19809398672034
 30
0.0
 10
47.08884013873153
 20
87.569812787224
 30
0.0
 10
47.18373995855745
 20
88.86741851502589
 30
0.0
 10
47.37818739422429
 20
90.0920326032704
 30
0.0
 10
47.66341856204877
 20
91.31110976618768
 30
0.0
 10
47.91815159179904
 20
92.11505042074123
 30
0.0
 10
48.0455304196045
 20
92.51705960778139
 30
0.0
  0
LINE
  5
21F
330
1F
100
AcDbEntity
  8
0
  6
Continuous
 62
     7
370
    25
100
AcDbLine
 10
46.9633706788
 20
71.7670596078
 30
0.0
 11
46.9633706788
 21
92.2670596078
 31
0.0
  0
SPLINE
  5
220
330
1F
100
AcDbEntity
  8
0
  6
Continuous
 62
     7
370
    25
100
AcDbSpline
210
0.0
220
0.0
230
1.0
 70
     8
 71
     3
 72
    10
 73
     6
 74
     0
 42
0.00000001
 43
0.00000001
 40
0.0
 40
0.0
 40
0.0
 40
0.0
 40
0.2958756403266055
 40
0.5933360076831963
 40
1.0
 40
1.0
 40
1.0
 40
1.0
 10
60.17469554420335
 20
89.26314953561517
 30
0.0
 10
60.22128025507546
 20
88.87048712576151
 30
0.0
 10
60.31469918722352
 20
88.08305918349276
 30
0.0
 10
60.33780435090358
 20
86.74681934225568
 30
0.0
 10
60.23441032100661
 20
85.81128405636173
 30
0.0
 10
60.17469554420336
 20
85.27096967994767
 30
0.0
  0
SPLINE
  5
221
330
1F
100
AcDbEntity
  8
0
  6
Continuous
 62
     7
370
    25
100
AcDbSpline
210
0.0
220
0.0
230
1.0
 70
     8
 71
     3
 72
     9
 73
     5
 74
     0
 42
0.00000001
 43
0.00000001
 40
0.0
 40
0.0
 40
0.0
 40
0.0
 40
0.4983188677908567
 40
1.0
 40
1.0
 40
1.0
 40
1.0
 10
60.17469554420335
 20
85.27096967994767
 30
0.0
 10
60.07995046396412
 20
84.72370165900603
 30
0.0
 10
59.88982103808215
 20
83.62547308225601
 30
0.0
 10
59.55112723073432
 20
82.55439784532578
 30
0.0
 10
59.38121093799182
 20
82.01705960778145
 30
0.0
  0
LINE
  5
222
330
1F
100
AcDbEntity
  8
0
  6
Continuous
 62
     7
370
    25
100
AcDbLine
 10
59.381210938
 20
82.0170596078
 30
0.0
 11
48.0455304196
 21
82.0170596078
 31
0.0
  0
LINE
  5
223
330
1F
100
AcDbEntity
  8
0
  6
Continuous
 62
     7
370
    25
100
AcDbLine
 10
59.381210938
 20
92.5170596078
 30
0.0
 11
48.0455304196
 21
92.5170596078
 31
0.0
  0
SPLINE
  5
224
330
1F
100
AcDbEntity
  8
0
  6
Continuous
 62
     7
370
    25
100
AcDbSpline
210
0.0
220
0.0
230
1.0
 70
     8
 71
     3
 72
     9
 73
     5
 74
     0
 42
0.00000001
 43
0.00000001
 40
0.0
 40
0.0
 40
0.0
 40
0.0
 40
0.4985590461262292
 40
1.0
 40
1.0
 40
1.0
 40
1.0
 10
59.38121093799182
 20
92.51705960778139
 30
0.0
 10
59.55012698573743
 20
91.98308408445675
 30
0.0
 10
59.88893549609958
 20
90.91204640602412
 30
0.0
 10
60.07925936289335
 20
89.81383680533703
 30
0.0
 10
60.17469554420335
 20
89.26314953561517
 30
0.0
  0
LINE
  5
225
330
1F
100
AcDbEntity
  8
0
  6
Continuous
 62
     7
370
    25
100
AcDbLine
 10
60.1746955442
 20
78.7631495356
 30
0.0
 11
60.1746955442
 21
85.2709696799
 31
0.0
  0
SPLINE
  5
226
330
1F
100
AcDbEntity
  8
0
  6
Continuous
 62
     7
370
    25
100
AcDbSpline
210
0.0
220
0.0
230
1.0
 70
     8
 71
     3
 72
     9
 73
     5
 74
     0
 42
0.00000001
 43
0.00000001
 40
0.0
 40
0.0
 40
0.0
 40
0.0
 40
0.49855904612623
 40
1.0
 40
1.0
 40
1.0
 40
1.0
 10
59.38121093799182
 20
82.01705960778145
 30
0.0
 10
59.55012698573743
 20
81.48308408445685
 30
0.0
 10
59.88893549609957
 20
80.41204640602425
 30
0.0
 10
60.07925936289335
 20
79.31383680533719
 30
0.0
 10
60.17469554420335
 20
78.76314953561536
 30
0.0
  0
SPLINE
  5
227
330
1F
100
AcDbEntity
  8
0
  6
Continuous
 62
     7
370
    25
100
AcDbSpline
210
0.0
220
0.0
230
1.0
 70
     8
 71
     3
 72
    10
 73
     6
 74
     0
 42
0.00000001
 43
0.00000001
 40
0.0
 40
0.0
 40
0.0
 40
0.0
 40
0.2958756403265933
 40
0.5933360076831717
 40
0.9999999999999999
 40
0.9999999999999999
 40
0.9999999999999999
 40
0.9999999999999999
 10
60.17469554420336
 20
78.76314953561536
 30
0.0
 10
60.22128025507548
 20
78.37048712576168
 30
0.0
 10
60.31469918722357
 20
77.58305918349289
 30
0.0
 10
60.3378043509036
 20
76.24681934225569
 30
0.0
 10
60.23441032100661
 20
75.31128405636166
 30
0.0
 10
60.17469554420335
 20
74.77096967994754
 30
0.0
  0
SPLINE
  5
228
330
1F
100
AcDbEntity
  8
0
  6
Continuous
 62
     7
370
    25
100
AcDbSpline
210
0.0
220
0.0
230
1.0
 70
     8
 71
     3
 72
     9
 73
     5
 74
     0
 42
0.00000001
 43
0.00000001
 40
0.0
 40
0.0
 40
0.0
 40
0.0
 40
0.498318867790857
 40
1.0
 40
1.0
 40
1.0
 40
1.0
 10
60.17469554420335
 20
74.77096967994754
 30
0.0
 10
60.07995046396412
 20
74.22370165900593
 30
0.0
 10
59.88982103808215
 20
73.12547308225594
 30
0.0
 10
59.55112723073431
 20
72.05439784532575
 30
0.0
 10
59.38121093799182
 20
71.51705960778143
 30
0.0
  0
LINE
  5
229
330
1F
100
AcDbEntity
  8
0
  6
Continuous
 62
     7
370
    25
100
AcDbLine
 10
59.381210938
 20
71.5170596078
 30
0.0
 11
48.0455304196
 21
71.5170596078
 31
0.0
  0
ARC
  5
22A
330
1F
100
AcDbEntity
  8
0
  6
Continuous
 62
     7
370
    25
100
AcDbCircle
 10
60.9550191279
 20
87.1826820252
 30
0.0
 40
2.064836309838372
100
AcDbArc
 50
247.7956780275
 51
272.378766539
  0
LINE
  5
22B
330
1F
100
AcDbEntity
  8
0
  6
Continuous
 62
     7
370
    25
100
AcDbLine
 10
61.040720948
 20
85.1196250254
 30
0.0
 11
61.040720948
 21
78.9144941901
 31
0.0
  0
ARC
  5
22C
330
1F
100
AcDbEntity
  8
0
  6
Continuous
 62
     7
370
    25
100
AcDbCircle
 10
60.9550191279
 20
76.8514371903
 30
0.0
 40
2.064836309822966
100
AcDbArc
 50
87.6212334609
 51
112.2043219726
  0
LINE
  5
22D
330
1F
100
AcDbEntity
  8
0
  6
Continuous
 62
     7
370
    25
100
AcDbLine
 10
61.9633706788
 20
92.0670596078
 30
0.0
 11
61.9633706788
 21
71.9670596078
 31
0.0
  0
LINE
  5
22E
330
1F
100
AcDbEntity
  8
0
  6
Continuous
 62
     7
370
    25
100
AcDbLine
 10
61.7633706788
 20
71.7670596078
 30
0.0
 11
61.7633706788
 21
92.2670596078
 31
0.0
  0
LINE
  5
22F
330
1F
100
AcDbEntity
  8
0
  6
Continuous
 62
     7
370
    25
100
AcDbLine
 10
61.040720948
 20
75.1079971185
 30
0.0
 11
61.040720948
 21
72.0054317008
 31
0.0
  0
SPLINE
  5
230
330
1F
100
AcDbEntity
  8
0
  6
Continuous
 62
     7
370
    25
100
AcDbSpline
210
0.0
220
0.0
230
1.0
 70
     8
 71
     3
 72
    11
 73
     7
 74
     0
 42
0.00000001
 43
0.00000001
 40
0.0
 40
0.0
 40
0.0
 40
0.0
 40
0.2730181757485958
 40
0.5498580878450512
 40
0.773873473154651
 40
1.0
 40
1.0
 40
1.0
 40
1.0
 10
61.04072094798779
 20
78.9144941901347
 30
0.0
 10
61.02938272727032
 20
78.53438207888817
 30
0.0
 10
61.00654757226212
 20
77.76883700818482
 30
0.0
 10
60.96538477196839
 20
76.75932486173461
 30
0.0
 10
61.01836971153979
 20
75.86453154541404
 30
0.0
 10
61.03324727750842
 20
75.36096249808807
 30
0.0
 10
61.04072094798779
 20
75.10799711845142
 30
0.0
  0
SPLINE
  5
231
330
1F
100
AcDbEntity
  8
0
  6
Continuous
 62
     7
370
    25
100
AcDbSpline
210
0.0
220
0.0
230
1.0
 70
     8
 71
     3
 72
    11
 73
     7
 74
     0
 42
0.00000001
 43
0.00000001
 40
0.0
 40
0.0
 40
0.0
 40
0.0
 40
0.2730181757486329
 40
0.549858087845126
 40
0.7738734731546895
 40
1.0
 40
1.0
 40
1.0
 40
1.0
 10
61.04072094798779
 20
88.92612209711127
 30
0.0
 10
61.02938272727032
 20
88.61914538198819
 30
0.0
 10
61.00654757226213
 20
88.0008948602868
 30
0.0
 10
60.96538477196842
 20
87.02565958397369
 30
0.0
 10
61.01836971153982
 20
86.0630041747781
 30
0.0
 10
61.03324727750843
 20
85.43506640674744
 30
0.0
 10
61.04072094798779
 20
85.11962502542832
 30
0.0
  0
LINE
  5
232
330
1F
100
AcDbEntity
  8
0
  6
Continuous
 62
     7
370
    25
100
AcDbLine
 10
61.040720948
 20
92.0286875148
 30
0.0
 11
61.040720948
 21
88.9261220971
 31
0.0
  0
ARC
  5
233
330
1F
100
AcDbEntity
  8
0
  6
Continuous
 62
     7
370
    25
100
AcDbCircle
 10
60.9892411244
 20
73.9590968573
 30
0.0
 40
1.150053034581458
100
AcDbArc
 50
87.4344117638
 51
135.0941563293
  0
ARC
  5
234
330
1F
100
AcDbEntity
  8
0
  6
Continuous
 62
     7
370
    25
100
AcDbCircle
 10
60.9892411244
 20
90.0750223583
 30
0.0
 40
1.150053034573073
100
AcDbArc
 50
224.9058436705
 51
272.5655882364
  0
LINE
  5
235
330
1F
100
AcDbEntity
  8
0
  6
Continuous
 62
     7
370
    25
100
AcDbLine
 10
60.1746955442
 20
89.2631495356
 30
0.0
 11
60.1746955442
 21
92.5170596078
 31
0.0
  0
ARC
  5
236
330
1F
100
AcDbEntity
  8
0
  6
Continuous
 62
     7
370
    25
100
AcDbCircle
 10
61.0363837935
 20
93.033039671
 30
0.0
 40
1.004361520936657
100
AcDbArc
 50
210.9132304404
 51
270.2474222794
  0
SPLINE
  5
237
330
1F
100
AcDbEntity
  8
0
  6
Continuous
 62
     7
370
    25
100
AcDbSpline
210
0.0
220
0.0
230
1.0
 70
    24
 71
     3
 72
     9
 73
     5
 74
     0
 42
0.00000001
 43
0.00000001
 40
0.0
 40
0.0
 40
0.0
 40
0.0
 40
0.4983188677908569
 40
1.0
 40
1.0
 40
1.0
 40
1.0
 10
60.17469554420336
 20
92.51705960778142
 30
0.0
 10
60.07995046396412
 20
92.51705960778142
 30
0.0
 10
59.88982103808215
 20
92.5170596077814
 30
0.0
 10
59.55112723073431
 20
92.51705960778139
 30
0.0
 10
59.38121093799182
 20
92.51705960778139
 30
0.0
  0
LINE
  5
238
330
1F
100
AcDbEntity
  8
0
  6
Continuous
 62
     7
370
    25
100
AcDbLine
 10
60.1746955442
 20
71.5170596078
 30
0.0
 11
60.1746955442
 21
74.7709696799
 31
0.0
  0
ARC
  5
239
330
1F
100
AcDbEntity
  8
0
  6
Continuous
 62
     7
370
    25
100
AcDbCircle
 10
61.0363837935
 20
71.0010795445
 30
0.0
 40
1.004361520936869
100
AcDbArc
 50
89.7525777206
 51
149.0867695596
  0
SPLINE
  5
23A
330
1F
100
AcDbEntity
  8
0
  6
Continuous
 62
     7
370
    25
100
AcDbSpline
210
0.0
220
0.0
230
1.0
 70
    24
 71
     3
 72
     9
 73
     5
 74
     0
 42
0.00000001
 43
0.00000001
 40
0.0
 40
0.0
 40
0.0
 40
0.0
 40
0.4985590461262308
 40
1.0
 40
1.0
 40
1.0
 40
1.0
 10
59.38121093799182
 20
71.51705960778143
 30
0.0
 10
59.55012698573741
 20
71.51705960778143
 30
0.0
 10
59.88893549609956
 20
71.51705960778143
 30
0.0
 10
60.07925936289337
 20
71.51705960778143
 30
0.0
 10
60.1746955442034
 20
71.51705960778145
 30
0.0
  0
SPLINE
  5
23B
330
1F
100
AcDbEntity
  8
0
  6
Continuous
 62
     7
370
    25
100
AcDbSpline
210
0.0
220
0.0
230
1.0
 70
    24
 71
     3
 72
     9
 73
     5
 74
     0
 42
0.00000001
 43
0.00000001
 40
0.0
 40
0.0
 40
0.0
 40
0.0
 40
0.6512480972565936
 40
1.0
 40
1.0
 40
1.0
 40
1.0
 10
60.30557910495635
 20
92.51705960778145
 30
0.0
 10
60.30349292880636
 20
92.51705960778145
 30
0.0
 10
60.3002895779501
 20
92.51705960778143
 30
0.0
 10
60.20717087057977
 20
92.51705960778143
 30
0.0
 10
60.17469554420335
 20
92.51705960778142
 30
0.0
  0
SPLINE
  5
23C
330
1F
100
AcDbEntity
  8
0
  6
Continuous
 62
     7
370
    25
100
AcDbSpline
210
0.0
220
0.0
230
1.0
 70
    24
 71
     3
 72
     9
 73
     5
 74
     0
 42
0.00000001
 43
0.00000001
 40
0.0
 40
0.0
 40
0.0
 40
0.0
 40
0.3941808722761276
 40
1.0
 40
1.0
 40
1.0
 40
1.0
 10
60.1746955442034
 20
71.51705960778145
 30
0.0
 10
60.20761575133246
 20
71.51705960778145
 30
0.0
 10
60.29113123735534
 20
71.51705960778145
 30
0.0
 10
60.29567278125285
 20
71.51705960778145
 30
0.0
 10
60.29842413541535
 20
71.51705960778145
 30
0.0
  0
CIRCLE
  5
23D
330
1F
100
AcDbEntity
  8
0
  6
Continuous
 62
     7
370
    25
100
AcDbCircle
 10
32.3841710237
 20
82.0170596078
 30
0.0
 40
5.050000000000018
  0
CIRCLE
  5
23E
330
1F
100
AcDbEntity
  8
0
  6
Continuous
 62
     7
370
    25
100
AcDbCircle
 10
32.3841710237
 20
82.0170596078
 30
0.0
 40
3.999999999999993
  0
LINE
  5
23F
330
1F
100
AcDbEntity
  8
0
  6
Continuous
 62
     7
370
    25
100
AcDbLine
 10
44.4405402697
 20
73.6860596078
 30
0.0
 11
44.4405402697
 21
81.898729798
 31
0.0
  0
LINE
  5
240
330
1F
100
AcDbEntity
  8
0
  6
Continuous
 62
     7
370
    25
100
AcDbLine
 10
44.4405402697
 20
82.1346021509
 30
0.0
 11
44.4405402697
 21
90.3480596078
 31
0.0
  0
LINE
  5
241
330
1F
100
AcDbEntity
  8
0
  6
Continuous
 62
     7
370
    25
100
AcDbLine
 10
44.3841710237
 20
74.0170596174
 30
0.0
 11
44.3841710237
 21
81.8009837828
 31
0.0
  0
LINE
  5
242
330
1F
100
AcDbEntity
  8
0
  6
Continuous
 62
     7
370
    25
100
AcDbLine
 10
44.3841710237
 20
82.2339626786
 30
0.0
 11
44.3841710237
 21
90.0170596078
 31
0.0
  0
LINE
  5
243
330
1F
100
AcDbEntity
  8
0
  6
Continuous
 62
     7
370
    25
100
AcDbLine
 10
30.8841710237
 20
78.3089603642
 30
0.0
 11
30.8841710237
 21
85.7251588513
 31
0.0
  0
SPLINE
  5
244
330
1F
100
AcDbEntity
  8
0
  6
Continuous
 62
     7
370
    25
100
AcDbSpline
210
0.0
220
0.0
230
1.0
 70
     8
 71
     3
 72
    12
 73
     8
 74
     0
 42
0.00000001
 43
0.00000001
 40
0.0
 40
0.0
 40
0.0
 40
0.0
 40
0.25
 40
0.25
 40
0.5
 40
0.5
 40
1.0
 40
1.0
 40
1.0
 40
1.0
 10
33.88417102374668
 20
85.72515885132928
 30
0.0
 10
33.64143377319356
 20
85.69659869799167
 30
0.0
 10
33.39595155976709
 20
85.6699327963948
 30
0.0
 10
32.89511956664528
 20
85.63096587713132
 30
0.0
 10
32.63616759020418
 20
85.61915124971283
 30
0.0
 10
31.86977152802639
 20
85.61945280391272
 30
0.0
 10
31.37330313678845
 20
85.66760819472842
 30
0.0
 10
30.8841710237467
 20
85.72515885132928
 30
0.0
  0
SPLINE
  5
245
330
1F
100
AcDbEntity
  8
0
  6
Continuous
 62
     7
370
    25
100
AcDbSpline
210
0.0
220
0.0
230
1.0
 70
     8
 71
     3
 72
    12
 73
     8
 74
     0
 42
0.00000001
 43
0.00000001
 40
0.0
 40
0.0
 40
0.0
 40
0.0
 40
0.25
 40
0.25
 40
0.5
 40
0.5
 40
1.0
 40
1.0
 40
1.0
 40
1.0
 10
30.8841710237467
 20
78.30896036423363
 30
0.0
 10
31.1277045220591
 20
78.33761420306058
 30
0.0
 10
31.37384520113161
 20
78.36433743780393
 30
0.0
 10
31.87547289685732
 20
78.40329031464576
 30
0.0
 10
32.13459667371622
 20
78.41505130423042
 30
0.0
 10
32.90248565060421
 20
78.41449483767163
 30
0.0
 10
33.39699626560269
 20
78.36628072096956
 30
0.0
 10
33.88417102374668
 20
78.30896036423363
 30
0.0
  0
SPLINE
  5
246
330
1F
100
AcDbEntity
  8
0
  6
Continuous
 62
     7
370
    25
100
AcDbSpline
210
0.0
220
0.0
230
1.0
 70
     8
 71
     3
 72
    20
 73
    16
 74
     0
 42
0.00000001
 43
0.00000001
 40
0.0
 40
0.0
 40
0.0
 40
0.0
 40
0.2499999999999998
 40
0.2499999999999998
 40
0.3749999999999998
 40
0.3749999999999998
 40
0.4999999999999999
 40
0.4999999999999999
 40
0.5624999999999999
 40
0.5624999999999999
 40
0.6249999999999998
 40
0.6249999999999998
 40
0.7499999999999998
 40
0.7499999999999998
 40
1.0
 40
1.0
 40
1.0
 40
1.0
 10
30.8841710237467
 20
85.72515885132928
 30
0.0
 10
30.62929345631071
 20
85.16447634566225
 30
0.0
 10
30.40040706686203
 20
84.58612620068271
 30
0.0
 10
30.14220034748978
 20
83.66073827020814
 30
0.0
 10
30.07036031984262
 20
83.33883601050904
 30
0.0
 10
29.97255845794717
 20
82.6880198850741
 30
0.0
 10
29.94628679724835
 20
82.3589912933562
 30
0.0
 10
29.94561202538105
 20
81.85925143470968
 30
0.0
 10
29.95192091121115
 20
81.69065170009542
 30
0.0
 10
29.97700329011927
 20
81.35820640714394
 30
0.0
 10
29.99568086353873
 20
81.19399440456054
 30
0.0
 10
30.06813507109677
 20
80.70673905149705
 30
0.0
 10
30.13837730517529
 20
80.38875427581986
 30
0.0
 10
30.39812391716223
 20
79.4529255577959
 30
0.0
 10
30.62844632555204
 20
78.87150639755896
 30
0.0
 10
30.8841710237467
 20
78.30896036423363
 30
0.0
  0
SPLINE
  5
247
330
1F
100
AcDbEntity
  8
0
  6
Continuous
 62
     7
370
    25
100
AcDbSpline
210
0.0
220
0.0
230
1.0
 70
     8
 71
     3
 72
     9
 73
     5
 74
     0
 42
0.00000001
 43
0.00000001
 40
0.0
 40
0.0
 40
0.0
 40
0.0
 40
0.5460755271011208
 40
1.0
 40
1.0
 40
1.0
 40
1.0
 10
61.04072094798779
 20
72.0054317008047
 30
0.0
 10
61.02770376298927
 20
71.92939766157336
 30
0.0
 10
61.00386606224554
 20
71.79016043987444
 30
0.0
 10
60.99161817959104
 20
71.78172585898801
 30
0.0
 10
60.98605856591296
 20
71.77789719630503
 30
0.0
  0
SPLINE
  5
248
330
1F
100
AcDbEntity
  8
0
  6
Continuous
 62
     7
370
    25
100
AcDbSpline
210
0.0
220
0.0
230
1.0
 70
     8
 71
     3
 72
    10
 73
     6
 74
     0
 42
0.00000001
 43
0.00000001
 40
0.0
 40
0.0
 40
0.0
 40
0.0
 40
0.0997807577392198
 40
0.5477793887774384
 40
1.0
 40
1.0
 40
1.0
 40
1.0
 10
60.98605856591723
 20
92.25622201925005
 30
0.0
 10
60.98426964166616
 20
92.25966705322922
 30
0.0
 10
60.97444875179703
 20
92.27857970382627
 30
0.0
 10
61.02116334000802
 20
92.20941551509088
 30
0.0
 10
61.0341813940018
 20
92.0891182441285
 30
0.0
 10
61.04072094798779
 20
92.02868751475818
 30
0.0
  0
LINE
  5
249
330
1F
100
AcDbEntity
  8
0
  6
Continuous
 62
     7
370
    25
100
AcDbLine
 10
43.3841710237
 20
75.0170596078
 30
0.0
 11
43.3841710237
 21
80.0680157687
 31
0.0
  0
LINE
  5
24A
330
1F
100
AcDbEntity
  8
0
  6
Continuous
 62
     7
370
    25
100
AcDbLine
 10
43.3841710237
 20
83.9683044687
 30
0.0
 11
43.3841710237
 21
89.0170596078
 31
0.0
  0
MTEXT
  5
24C
330
1F
100
AcDbEntity
  8
0
  6
Continuous
 62
     7
370
     0
100
AcDbMText
 10
43.4205546865
 20
63.3947774067
 30
0.0
 40
3.5
 41
0.0
 71
     1
 72
     1
  1
両口リングエルボ　RL-2310R
  7
SLDTEXTSTYLE0
 73
     1
 44
1.0
  0
INSERT
  5
258
330
1F
100
AcDbEntity
  8
0
  6
Continuous
 62
     7
370
    18
100
AcDbBlockReference
  2
SW_CENTERMARKSYMBOL_1
 10
32.3841710237
 20
82.0170596078
 30
0.0
  0
ENDSEC
  0
SECTION
  2
OBJECTS
  0
DICTIONARY
  5
C
330
0
100
AcDbDictionary
281
     1
  3
ACAD_GROUP
350
D
  3
ACAD_LAYOUT
350
1A
  3
ACAD_MLINESTYLE
350
17
  3
ACAD_PLOTSETTINGS
350
19
  3
ACAD_PLOTSTYLENAME
350
E
  3
ACAD_SCALELIST
350
47
  3
DWGPROPS
350
259
  0
DICTIONARY
  5
D
102
{ACAD_REACTORS
330
C
102
}
330
C
100
AcDbDictionary
281
     1
  0
DICTIONARY
  5
1A
102
{ACAD_REACTORS
330
C
102
}
330
C
100
AcDbDictionary
281
     1
  3
Layout1
350
1E
  3
Layout2
350
26
  3
Model
350
22
  0
DICTIONARY
  5
17
102
{ACAD_REACTORS
330
C
102
}
330
C
100
AcDbDictionary
281
     1
  3
Standard
350
18
  0
DICTIONARY
  5
19
102
{ACAD_REACTORS
330
C
102
}
330
C
100
AcDbDictionary
281
     1
  0
ACDBDICTIONARYWDFLT
  5
E
102
{ACAD_REACTORS
330
C
102
}
330
C
100
AcDbDictionary
281
     1
  3
Normal
350
F
100
AcDbDictionaryWithDefault
340
F
  0
DICTIONARY
  5
47
102
{ACAD_REACTORS
330
C
102
}
330
C
100
AcDbDictionary
281
     1
  3
A0
350
48
  3
A1
350
49
  3
A2
350
4A
  3
A3
350
4B
  3
A4
350
4C
  3
A5
350
4D
  3
A6
350
4E
  3
A7
350
4F
  3
A8
350
50
  3
A9
350
51
  3
B0
350
52
  3
B1
350
53
  3
B2
350
54
  3
B3
350
55
  3
B4
350
56
  3
B5
350
57
  3
B6
350
58
  0
XRECORD
  5
259
102
{ACAD_REACTORS
330
C
102
}
330
C
100
AcDbXrecord
280
     1
  1
DWGPROPS COOKIE
  2

  3

  4

  6

  7

  8
user52
  9

300
=
301
=
302
=
303
=
304
=
305
=
306
=
307
=
308
=
309
=
 40
0.0
 41
2460279.281780359
 42
2460279.281780787
  1

 90
        0
  0
LAYOUT
  5
1E
102
{ACAD_REACTORS
330
1A
102
}
330
1A
100
AcDbPlotSettings
  1

  2
none_device
  4

  6

 40
0.0
 41
0.0
 42
0.0
 43
0.0
 44
0.0
 45
0.0
 46
0.0
 47
0.0
 48
0.0
 49
0.0
140
0.0
141
0.0
142
1.0
143
1.0
 70
   688
 72
     1
 73
     0
 74
     5
  7

 75
    16
147
1.0
148
0.0
149
0.0
100
AcDbLayout
  1
Layout1
 70
     1
 71
     1
 10
0.0
 20
0.0
 11
420.0
 21
297.0
 12
0.0
 22
0.0
 32
0.0
 14
1.0000000000E+20
 24
1.0000000000E+20
 34
1.0000000000E+20
 15
-1.0000000000E+20
 25
-1.0000000000E+20
 35
-1.0000000000E+20
146
0.0
 13
0.0
 23
0.0
 33
0.0
 16
1.0
 26
0.0
 36
0.0
 17
0.0
 27
1.0
 37
0.0
 76
     0
330
1B
  0
LAYOUT
  5
26
102
{ACAD_REACTORS
330
1A
102
}
330
1A
100
AcDbPlotSettings
  1

  2
none_device
  4

  6

 40
0.0
 41
0.0
 42
0.0
 43
0.0
 44
0.0
 45
0.0
 46
0.0
 47
0.0
 48
0.0
 49
0.0
140
0.0
141
0.0
142
1.0
143
1.0
 70
   688
 72
     1
 73
     0
 74
     5
  7

 75
    16
147
1.0
148
0.0
149
0.0
100
AcDbLayout
  1
Layout2
 70
     1
 71
     2
 10
0.0
 20
0.0
 11
0.0
 21
0.0
 12
0.0
 22
0.0
 32
0.0
 14
0.0
 24
0.0
 34
0.0
 15
0.0
 25
0.0
 35
0.0
146
0.0
 13
0.0
 23
0.0
 33
0.0
 16
1.0
 26
0.0
 36
0.0
 17
0.0
 27
1.0
 37
0.0
 76
     0
330
23
  0
LAYOUT
  5
22
102
{ACAD_REACTORS
330
1A
102
}
330
1A
100
AcDbPlotSettings
  1

  2
none_device
  4
Letter_(8.50_x_11.00_Inches)
  6

 40
6.35
 41
6.35
 42
6.35000508
 43
6.35000508
 44
215.9
 45
279.4
 46
0.0
 47
0.0
 48
0.0
 49
0.0
140
0.0
141
0.0
142
1.0
143
1.0
 70
  1712
 72
     1
 73
     0
 74
     0
  7

 75
     0
147
1.0
148
0.0
149
0.0
100
AcDbLayout
  1
Model
 70
     1
 71
     0
 10
0.0
 20
0.0
 11
431.8
 21
279.4
 12
0.0
 22
0.0
 32
0.0
 14
0.0
 24
0.0
 34
0.0
 15
431.8
 25
279.4
 35
0.0
146
0.0
 13
0.0
 23
0.0
 33
0.0
 16
1.0
 26
0.0
 36
0.0
 17
0.0
 27
1.0
 37
0.0
 76
     0
330
1F
331
29
  0
MLINESTYLE
  5
18
102
{ACAD_REACTORS
330
17
102
}
330
17
100
AcDbMlineStyle
  2
Standard
 70
     0
  3

 62
   256
 51
90.0
 52
90.0
 71
     2
 49
0.5
 62
   256
  6
BYLAYER
 49
-0.5
 62
   256
  6
BYLAYER
  0
ACDBPLACEHOLDER
  5
F
102
{ACAD_REACTORS
330
E
102
}
330
E
  0
SCALE
  5
48
102
{ACAD_REACTORS
330
47
102
}
330
47
100
AcDbScale
 70
     0
300
1:1
140
1.0
141
1.0
290
     1
  0
SCALE
  5
49
102
{ACAD_REACTORS
330
47
102
}
330
47
100
AcDbScale
 70
     0
300
1:2
140
1.0
141
2.0
290
     0
  0
SCALE
  5
4A
102
{ACAD_REACTORS
330
47
102
}
330
47
100
AcDbScale
 70
     0
300
1:4
140
1.0
141
4.0
290
     0
  0
SCALE
  5
4B
102
{ACAD_REACTORS
330
47
102
}
330
47
100
AcDbScale
 70
     0
300
1:5
140
1.0
141
5.0
290
     0
  0
SCALE
  5
4C
102
{ACAD_REACTORS
330
47
102
}
330
47
100
AcDbScale
 70
     0
300
1:8
140
1.0
141
8.0
290
     0
  0
SCALE
  5
4D
102
{ACAD_REACTORS
330
47
102
}
330
47
100
AcDbScale
 70
     0
300
1:10
140
1.0
141
10.0
290
     0
  0
SCALE
  5
4E
102
{ACAD_REACTORS
330
47
102
}
330
47
100
AcDbScale
 70
     0
300
1:16
140
1.0
141
16.0
290
     0
  0
SCALE
  5
4F
102
{ACAD_REACTORS
330
47
102
}
330
47
100
AcDbScale
 70
     0
300
1:20
140
1.0
141
20.0
290
     0
  0
SCALE
  5
50
102
{ACAD_REACTORS
330
47
102
}
330
47
100
AcDbScale
 70
     0
300
1:30
140
1.0
141
30.0
290
     0
  0
SCALE
  5
51
102
{ACAD_REACTORS
330
47
102
}
330
47
100
AcDbScale
 70
     0
300
1:40
140
1.0
141
40.0
290
     0
  0
SCALE
  5
52
102
{ACAD_REACTORS
330
47
102
}
330
47
100
AcDbScale
 70
     0
300
1:50
140
1.0
141
50.0
290
     0
  0
SCALE
  5
53
102
{ACAD_REACTORS
330
47
102
}
330
47
100
AcDbScale
 70
     0
300
1:100
140
1.0
141
100.0
290
     0
  0
SCALE
  5
54
102
{ACAD_REACTORS
330
47
102
}
330
47
100
AcDbScale
 70
     0
300
2:1
140
2.0
141
1.0
290
     0
  0
SCALE
  5
55
102
{ACAD_REACTORS
330
47
102
}
330
47
100
AcDbScale
 70
     0
300
4:1
140
4.0
141
1.0
290
     0
  0
SCALE
  5
56
102
{ACAD_REACTORS
330
47
102
}
330
47
100
AcDbScale
 70
     0
300
8:1
140
8.0
141
1.0
290
     0
  0
SCALE
  5
57
102
{ACAD_REACTORS
330
47
102
}
330
47
100
AcDbScale
 70
     0
300
10:1
140
10.0
141
1.0
290
     0
  0
SCALE
  5
58
102
{ACAD_REACTORS
330
47
102
}
330
47
100
AcDbScale
 70
     0
300
100:1
140
100.0
141
1.0
290
     0
  0
ENDSEC
  0
EOF
