  0
SECTION
  2
HEADER
  9
$ACADVER
  1
AC1015
  9
$ACADMAINTVER
 70
     6
  9
$DWGCODEPAGE
  3
DOS932
  9
$INSBASE
 10
0.0
 20
0.0
 30
0.0
  9
$EXTMIN
 10
0.0
 20
0.0
 30
0.0
  9
$EXTMAX
 10
215.9
 20
139.7
 30
0.0
  9
$LIMMIN
 10
0.0
 20
0.0
  9
$LIMMAX
 10
215.9
 20
139.7
  9
$ORTHOMODE
 70
     0
  9
$REGENMODE
 70
     1
  9
$FILLMODE
 70
     1
  9
$QTEXTMODE
 70
     0
  9
$MIRRTEXT
 70
     1
  9
$LTSCALE
 40
0.5
  9
$ATTMODE
 70
     1
  9
$TEXTSIZE
 40
1.75
  9
$TRACEWID
 40
1.0
  9
$TEXTSTYLE
  7
Standard
  9
$CLAYER
  8
0
  9
$CELTYPE
  6
ByLayer
  9
$CECOLOR
 62
   256
  9
$CELTSCALE
 40
1.0
  9
$DISPSILH
 70
     0
  9
$DIMSCALE
 40
1.0
  9
$DIMASZ
 40
1.778
  9
$DIMEXO
 40
0.5
  9
$DIMDLI
 40
3.75
  9
$DIMRND
 40
0.0
  9
$DIMDLE
 40
0.0
  9
$DIMEXE
 40
0.5
  9
$DIMTP
 40
0.0
  9
$DIMTM
 40
0.0
  9
$DIMTXT
 40
1.75
  9
$DIMCEN
 40
2.5
  9
$DIMTSZ
 40
0.0
  9
$DIMTOL
 70
     0
  9
$DIMLIM
 70
     0
  9
$DIMTIH
 70
     1
  9
$DIMTOH
 70
     1
  9
$DIMSE1
 70
     0
  9
$DIMSE2
 70
     0
  9
$DIMTAD
 70
     1
  9
$DIMZIN
 70
     0
  9
$DIMBLK
  1

  9
$DIMASO
 70
     1
  9
$DIMSHO
 70
     1
  9
$DIMPOST
  1

  9
$DIMAPOST
  1

  9
$DIMALT
 70
     0
  9
$DIMALTD
 70
     3
  9
$DIMALTF
 40
0.0393700787
  9
$DIMLFAC
 40
1.0
  9
$DIMTOFL
 70
     1
  9
$DIMTVP
 40
0.0
  9
$DIMTIX
 70
     0
  9
$DIMSOXD
 70
     0
  9
$DIMSAH
 70
     0
  9
$DIMBLK1
  1

  9
$DIMBLK2
  1

  9
$DIMSTYLE
  2
ISO-25
  9
$DIMCLRD
 70
     0
  9
$DIMCLRE
 70
     0
  9
$DIMCLRT
 70
     0
  9
$DIMTFAC
 40
1.0
  9
$DIMGAP
 40
0.762
  9
$DIMJUST
 70
     0
  9
$DIMSD1
 70
     0
  9
$DIMSD2
 70
     0
  9
$DIMTOLJ
 70
     0
  9
$DIMTZIN
 70
     0
  9
$DIMALTZ
 70
     0
  9
$DIMALTTZ
 70
     0
  9
$DIMUPT
 70
     0
  9
$DIMDEC
 70
     3
  9
$DIMTDEC
 70
     3
  9
$DIMALTU
 70
     2
  9
$DIMALTTD
 70
     3
  9
$DIMTXSTY
  7
Standard
  9
$DIMAUNIT
 70
     0
  9
$DIMADEC
 70
     2
  9
$DIMALTRND
 40
0.0
  9
$DIMAZIN
 70
     0
  9
$DIMDSEP
 70
    44
  9
$DIMATFIT
 70
     3
  9
$DIMFRAC
 70
     0
  9
$DIMLDRBLK
  1

  9
$DIMLUNIT
 70
     2
  9
$DIMLWD
 70
    -2
  9
$DIMLWE
 70
    -2
  9
$DIMTMOVE
 70
     0
  9
$LUNITS
 70
     2
  9
$LUPREC
 70
     3
  9
$SKETCHINC
 40
1.0
  9
$FILLETRAD
 40
0.0
  9
$AUNITS
 70
     0
  9
$AUPREC
 70
     2
  9
$MENU
  1
.
  9
$ELEVATION
 40
0.0
  9
$PELEVATION
 40
0.0
  9
$THICKNESS
 40
0.0
  9
$LIMCHECK
 70
     0
  9
$CHAMFERA
 40
0.0
  9
$CHAMFERB
 40
0.0
  9
$CHAMFERC
 40
0.0
  9
$CHAMFERD
 40
0.0
  9
$SKPOLY
 70
     0
  9
$TDCREATE
 40
2460279.654603472
  9
$TDUCREATE
 40
2460279.279603472
  9
$TDUPDATE
 40
2460279.654603993
  9
$TDUUPDATE
 40
2460279.279603993
  9
$TDINDWG
 40
0.0000000116
  9
$TDUSRTIMER
 40
0.0000000116
  9
$USRTIMER
 70
     1
  9
$ANGBASE
 50
0.0
  9
$ANGDIR
 70
     0
  9
$PDMODE
 70
     0
  9
$PDSIZE
 40
-1.0
  9
$PLINEWID
 40
0.0
  9
$SPLFRAME
 70
     0
  9
$SPLINETYPE
 70
     6
  9
$SPLINESEGS
 70
     8
  9
$HANDSEED
  5
276
  9
$SURFTAB1
 70
     6
  9
$SURFTAB2
 70
     6
  9
$SURFTYPE
 70
     6
  9
$SURFU
 70
     6
  9
$SURFV
 70
     6
  9
$UCSBASE
  2

  9
$UCSNAME
  2

  9
$UCSORG
 10
0.0
 20
0.0
 30
0.0
  9
$UCSXDIR
 10
1.0
 20
0.0
 30
0.0
  9
$UCSYDIR
 10
0.0
 20
1.0
 30
0.0
  9
$UCSORTHOREF
  2

  9
$UCSORTHOVIEW
 70
     0
  9
$UCSORGTOP
 10
0.0
 20
0.0
 30
0.0
  9
$UCSORGBOTTOM
 10
0.0
 20
0.0
 30
0.0
  9
$UCSORGLEFT
 10
0.0
 20
0.0
 30
0.0
  9
$UCSORGRIGHT
 10
0.0
 20
0.0
 30
0.0
  9
$UCSORGFRONT
 10
0.0
 20
0.0
 30
0.0
  9
$UCSORGBACK
 10
0.0
 20
0.0
 30
0.0
  9
$PUCSBASE
  2

  9
$PUCSNAME
  2

  9
$PUCSORG
 10
0.0
 20
0.0
 30
0.0
  9
$PUCSXDIR
 10
1.0
 20
0.0
 30
0.0
  9
$PUCSYDIR
 10
0.0
 20
1.0
 30
0.0
  9
$PUCSORTHOREF
  2

  9
$PUCSORTHOVIEW
 70
     0
  9
$PUCSORGTOP
 10
0.0
 20
0.0
 30
0.0
  9
$PUCSORGBOTTOM
 10
0.0
 20
0.0
 30
0.0
  9
$PUCSORGLEFT
 10
0.0
 20
0.0
 30
0.0
  9
$PUCSORGRIGHT
 10
0.0
 20
0.0
 30
0.0
  9
$PUCSORGFRONT
 10
0.0
 20
0.0
 30
0.0
  9
$PUCSORGBACK
 10
0.0
 20
0.0
 30
0.0
  9
$USERI1
 70
     0
  9
$USERI2
 70
     0
  9
$USERI3
 70
     0
  9
$USERI4
 70
     0
  9
$USERI5
 70
     0
  9
$USERR1
 40
0.0
  9
$USERR2
 40
0.0
  9
$USERR3
 40
0.0
  9
$USERR4
 40
0.0
  9
$USERR5
 40
0.0
  9
$WORLDVIEW
 70
     1
  9
$SHADEDGE
 70
     3
  9
$SHADEDIF
 70
    70
  9
$TILEMODE
 70
     1
  9
$MAXACTVP
 70
    64
  9
$PINSBASE
 10
0.0
 20
0.0
 30
0.0
  9
$PLIMCHECK
 70
     0
  9
$PEXTMIN
 10
1.0000000000E+20
 20
1.0000000000E+20
 30
1.0000000000E+20
  9
$PEXTMAX
 10
-1.0000000000E+20
 20
-1.0000000000E+20
 30
-1.0000000000E+20
  9
$PLIMMIN
 10
0.0
 20
0.0
  9
$PLIMMAX
 10
420.0
 20
297.0
  9
$UNITMODE
 70
     0
  9
$VISRETAIN
 70
     1
  9
$PLINEGEN
 70
     0
  9
$PSLTSCALE
 70
     1
  9
$TREEDEPTH
 70
  3020
  9
$CMLSTYLE
  2
Standard
  9
$CMLJUST
 70
     0
  9
$CMLSCALE
 40
20.0
  9
$PROXYGRAPHICS
 70
     1
  9
$MEASUREMENT
 70
     1
  9
$CELWEIGHT
370
    -1
  9
$ENDCAPS
280
     0
  9
$JOINSTYLE
280
     0
  9
$LWDISPLAY
290
     1
  9
$INSUNITS
 70
     4
  9
$HYPERLINKBASE
  1

  9
$STYLESHEET
  1

  9
$XEDIT
290
     1
  9
$CEPSNTYPE
380
     0
  9
$PSTYLEMODE
290
     1
  9
$FINGERPRINTGUID
  2
{e7c0332d-8ce2-4162-ad6b-a87f966d161e}
  9
$VERSIONGUID
  2
{FAEB1C32-E019-11D5-929B-00C0DF256EC4}
  9
$EXTNAMES
290
     1
  9
$PSVPSCALE
 40
0.0
  9
$OLESTARTUP
290
     0
  0
ENDSEC
  0
SECTION
  2
CLASSES
  0
CLASS
  1
ACDBDICTIONARYWDFLT
  2
AcDbDictionaryWithDefault
  3
ObjectDBX Classes
 90
        0
280
     0
281
     0
  0
CLASS
  1
VISUALSTYLE
  2
AcDbVisualStyle
  3
ObjectDBX Classes
 90
     4095
280
     0
281
     0
  0
CLASS
  1
MATERIAL
  2
AcDbMaterial
  3
ObjectDBX Classes
 90
     1153
280
     0
281
     0
  0
CLASS
  1
SCALE
  2
AcDbScale
  3
ObjectDBX Classes
 90
     1153
280
     0
281
     0
  0
CLASS
  1
TABLESTYLE
  2
AcDbTableStyle
  3
ObjectDBX Classes
 90
     4095
280
     0
281
     0
  0
CLASS
  1
MLEADERSTYLE
  2
AcDbMLeaderStyle
  3
ACDB_MLEADERSTYLE_CLASS
 90
     4095
280
     0
281
     0
  0
CLASS
  1
SUN
  2
AcDbSun
  3
SCENEOE
 90
     1153
280
     0
281
     0
  0
CLASS
  1
ACDBPLACEHOLDER
  2
AcDbPlaceHolder
  3
ObjectDBX Classes
 90
        0
280
     0
281
     0
  0
CLASS
  1
LAYOUT
  2
AcDbLayout
  3
ObjectDBX Classes
 90
        0
280
     0
281
     0
  0
ENDSEC
  0
SECTION
  2
TABLES
  0
TABLE
  2
VPORT
  5
8
330
0
100
AcDbSymbolTable
 70
     1
  0
VPORT
  5
29
330
8
100
AcDbSymbolTableRecord
100
AcDbViewportTableRecord
  2
*Active
 70
     0
 10
0.0
 20
0.0
 11
1.0
 21
1.0
 12
107.95
 22
69.85
 13
0.0
 23
0.0
 14
10.0
 24
10.0
 15
10.0
 25
10.0
 16
0.0
 26
0.0
 36
1.0
 17
0.0
 27
0.0
 37
0.0
 40
139.7
 41
1.5454545455
 42
50.0
 43
0.0
 44
0.0
 50
0.0
 51
0.0
 71
     0
 72
  2000
 73
     1
 74
     3
 75
     0
 76
     0
 77
     0
 78
     0
281
     0
 65
     1
110
0.0
120
0.0
130
0.0
111
1.0
121
0.0
131
0.0
112
0.0
122
1.0
132
0.0
 79
     0
146
0.0
  0
ENDTAB
  0
TABLE
  2
LTYPE
  5
5
330
0
100
AcDbSymbolTable
 70
     6
  0
LTYPE
  5
14
330
5
100
AcDbSymbolTableRecord
100
AcDbLinetypeTableRecord
  2
ByBlock
 70
     0
  3

 72
    65
 73
     0
 40
0.0
  0
LTYPE
  5
15
330
5
100
AcDbSymbolTableRecord
100
AcDbLinetypeTableRecord
  2
ByLayer
 70
     0
  3

 72
    65
 73
     0
 40
0.0
  0
LTYPE
  5
16
330
5
100
AcDbSymbolTableRecord
100
AcDbLinetypeTableRecord
  2
Continuous
 70
     0
  3
Solid line
 72
    65
 73
     0
 40
0.0
  0
LTYPE
  5
5E
330
5
100
AcDbSymbolTableRecord
100
AcDbLinetypeTableRecord
  2
HIDDEN
 70
     0
  3
Hidden __ __ __ __ __ __ __ __ __ __ __ __ __ __
 72
    65
 73
     2
 40
1.905
 49
1.27
 74
     0
 49
-0.635
 74
     0
  0
LTYPE
  5
5F
330
5
100
AcDbSymbolTableRecord
100
AcDbLinetypeTableRecord
  2
PHANTOM
 70
     0
  3
Phantom ______  __  __  ______  __  __  ______
 72
    65
 73
     6
 40
12.7
 49
6.35
 74
     0
 49
-1.27
 74
     0
 49
1.27
 74
     0
 49
-1.27
 74
     0
 49
1.27
 74
     0
 49
-1.27
 74
     0
  0
LTYPE
  5
60
330
5
100
AcDbSymbolTableRecord
100
AcDbLinetypeTableRecord
  2
CENTER
 70
     0
  3
Center ____ _ ____ _ ____ _ ____ _ ____ _ ____
 72
    65
 73
     4
 40
10.16
 49
6.35
 74
     0
 49
-1.27
 74
     0
 49
1.27
 74
     0
 49
-1.27
 74
     0
  0
LTYPE
  5
61
330
5
100
AcDbSymbolTableRecord
100
AcDbLinetypeTableRecord
  2
CENTERX2
 70
     0
  3
Center (2x) ________  __  ________  __  _____
 72
    65
 73
     4
 40
20.32
 49
12.7
 74
     0
 49
-2.54
 74
     0
 49
2.54
 74
     0
 49
-2.54
 74
     0
  0
LTYPE
  5
62
330
5
100
AcDbSymbolTableRecord
100
AcDbLinetypeTableRecord
  2
DOT2
 70
     0
  3
Dot (.5x) ........................................
 72
    65
 73
     2
 40
0.635
 49
0.0
 74
     0
 49
-0.635
 74
     0
  0
ENDTAB
  0
TABLE
  2
LAYER
  5
2
330
0
100
AcDbSymbolTable
 70
     1
  0
LAYER
  5
10
330
2
100
AcDbSymbolTableRecord
100
AcDbLayerTableRecord
  2
0
 70
     0
 62
     7
  6
Continuous
370
    -3
390
F
  0
ENDTAB
  0
TABLE
  2
STYLE
  5
3
330
0
100
AcDbSymbolTable
 70
     2
  0
STYLE
  5
11
330
3
100
AcDbSymbolTableRecord
100
AcDbTextStyleTableRecord
  2
Standard
 70
     0
 40
0.0
 41
1.0
 50
0.0
 71
     0
 42
1.75
  3
txt
  4
bigfont
  0
STYLE
  5
267
330
3
100
AcDbSymbolTableRecord
100
AcDbTextStyleTableRecord
  2
SLDTEXTSTYLE0
 70
     0
 40
0.0
 41
0.75
 50
0.0
 71
     0
 42
1.75
  3
TXT
  4
bigfont
  0
ENDTAB
  0
TABLE
  2
VIEW
  5
6
330
0
100
AcDbSymbolTable
 70
     0
  0
ENDTAB
  0
TABLE
  2
UCS
  5
7
330
0
100
AcDbSymbolTable
 70
     0
  0
ENDTAB
  0
TABLE
  2
APPID
  5
9
330
0
100
AcDbSymbolTable
 70
     1
  0
APPID
  5
12
330
9
100
AcDbSymbolTableRecord
100
AcDbRegAppTableRecord
  2
ACAD
 70
     0
  0
ENDTAB
  0
TABLE
  2
DIMSTYLE
  5
A
330
0
100
AcDbSymbolTable
 70
     1
100
AcDbDimStyleTable
  0
DIMSTYLE
105
27
330
A
100
AcDbSymbolTableRecord
100
AcDbDimStyleTableRecord
  2
ISO-25
 70
     0
 41
2.5
 42
0.625
 43
3.75
 44
1.25
 73
     0
 74
     0
 77
     1
 78
     8
140
2.5
141
2.5
143
0.0393700787
147
0.625
171
     3
172
     1
178
     0
271
     2
272
     2
274
     3
278
    44
283
     0
284
     8
340
11
  0
ENDTAB
  0
TABLE
  2
BLOCK_RECORD
  5
1
330
0
100
AcDbSymbolTable
 70
     3
  0
BLOCK_RECORD
  5
1F
330
1
100
AcDbSymbolTableRecord
100
AcDbBlockTableRecord
  2
*Model_Space
340
22
  0
BLOCK_RECORD
  5
1B
330
1
100
AcDbSymbolTableRecord
100
AcDbBlockTableRecord
  2
*Paper_Space
340
1E
  0
BLOCK_RECORD
  5
23
330
1
100
AcDbSymbolTableRecord
100
AcDbBlockTableRecord
  2
*Paper_Space0
340
26
  0
BLOCK_RECORD
  5
1DF
330
1
100
AcDbSymbolTableRecord
100
AcDbBlockTableRecord
  2
SW_CENTERMARKSYMBOL_0
340
0
102
{BLKREFS
331
1EA
102
}
  0
BLOCK_RECORD
  5
269
330
1
100
AcDbSymbolTableRecord
100
AcDbBlockTableRecord
  2
SW_CENTERMARKSYMBOL_1
340
0
102
{BLKREFS
331
274
102
}
  0
ENDTAB
  0
ENDSEC
  0
SECTION
  2
BLOCKS
  0
BLOCK
  5
20
330
1F
100
AcDbEntity
  8
0
100
AcDbBlockBegin
  2
*Model_Space
 70
     0
 10
0.0
 20
0.0
 30
0.0
  3
*Model_Space
  1

  0
ENDBLK
  5
21
330
1F
100
AcDbEntity
  8
0
100
AcDbBlockEnd
  0
BLOCK
  5
1C
330
1B
100
AcDbEntity
 67
     1
  8
0
100
AcDbBlockBegin
  2
*Paper_Space
 70
     0
 10
0.0
 20
0.0
 30
0.0
  3
*Paper_Space
  1

  0
ENDBLK
  5
1D
330
1B
100
AcDbEntity
 67
     1
  8
0
100
AcDbBlockEnd
  0
BLOCK
  5
24
330
23
100
AcDbEntity
  8
0
100
AcDbBlockBegin
  2
*Paper_Space0
 70
     0
 10
0.0
 20
0.0
 30
0.0
  3
*Paper_Space0
  1

  0
ENDBLK
  5
25
330
23
100
AcDbEntity
  8
0
100
AcDbBlockEnd
  0
BLOCK
  5
1E0
330
1DF
100
AcDbEntity
  8
0
100
AcDbBlockBegin
  2
SW_CENTERMARKSYMBOL_0
 70
     0
 10
0.0
 20
0.0
 30
0.0
  3
SW_CENTERMARKSYMBOL_0
  1

  0
LINE
  5
1E2
330
1DF
100
AcDbEntity
  8
0
  6
Continuous
 62
     0
370
    18
100
AcDbLine
 10
0.0
 20
0.0
 30
0.0
 11
0.0
 21
2.5
 31
0.0
  0
LINE
  5
1E3
330
1DF
100
AcDbEntity
  8
0
  6
Continuous
 62
     0
370
    18
100
AcDbLine
 10
0.0
 20
0.0
 30
0.0
 11
-2.5
 21
0.0
 31
0.0
  0
LINE
  5
1E4
330
1DF
100
AcDbEntity
  8
0
  6
Continuous
 62
     0
370
    18
100
AcDbLine
 10
0.0
 20
0.0
 30
0.0
 11
0.0
 21
-2.5
 31
0.0
  0
LINE
  5
1E5
330
1DF
100
AcDbEntity
  8
0
  6
Continuous
 62
     0
370
    18
100
AcDbLine
 10
0.0
 20
0.0
 30
0.0
 11
2.5
 21
0.0
 31
0.0
  0
LINE
  5
1E6
330
1DF
100
AcDbEntity
  8
0
  6
Continuous
 62
     0
370
    18
100
AcDbLine
 10
0.0
 20
5.0
 30
0.0
 11
0.0
 21
28.4641429924
 31
0.0
  0
LINE
  5
1E7
330
1DF
100
AcDbEntity
  8
0
  6
Continuous
 62
     0
370
    18
100
AcDbLine
 10
-5.0
 20
0.0
 30
0.0
 11
-10.55
 21
0.0
 31
0.0
  0
LINE
  5
1E8
330
1DF
100
AcDbEntity
  8
0
  6
Continuous
 62
     0
370
    18
100
AcDbLine
 10
0.0
 20
-5.0
 30
0.0
 11
0.0
 21
-11.7192500246
 31
0.0
  0
LINE
  5
1E9
330
1DF
100
AcDbEntity
  8
0
  6
Continuous
 62
     0
370
    18
100
AcDbLine
 10
5.0
 20
0.0
 30
0.0
 11
10.55
 21
0.0
 31
0.0
  0
ENDBLK
  5
1E1
330
1DF
100
AcDbEntity
  8
0
100
AcDbBlockEnd
  0
BLOCK
  5
26A
330
269
100
AcDbEntity
  8
0
100
AcDbBlockBegin
  2
SW_CENTERMARKSYMBOL_1
 70
     0
 10
0.0
 20
0.0
 30
0.0
  3
SW_CENTERMARKSYMBOL_1
  1

  0
LINE
  5
26C
330
269
100
AcDbEntity
  8
0
  6
Continuous
 62
     0
370
    18
100
AcDbLine
 10
0.0
 20
0.0
 30
0.0
 11
0.0
 21
2.5
 31
0.0
  0
LINE
  5
26D
330
269
100
AcDbEntity
  8
0
  6
Continuous
 62
     0
370
    18
100
AcDbLine
 10
0.0
 20
0.0
 30
0.0
 11
-2.5
 21
0.0
 31
0.0
  0
LINE
  5
26E
330
269
100
AcDbEntity
  8
0
  6
Continuous
 62
     0
370
    18
100
AcDbLine
 10
0.0
 20
0.0
 30
0.0
 11
0.0
 21
-2.5
 31
0.0
  0
LINE
  5
26F
330
269
100
AcDbEntity
  8
0
  6
Continuous
 62
     0
370
    18
100
AcDbLine
 10
0.0
 20
0.0
 30
0.0
 11
2.5
 21
0.0
 31
0.0
  0
LINE
  5
270
330
269
100
AcDbEntity
  8
0
  6
Continuous
 62
     0
370
    18
100
AcDbLine
 10
0.0
 20
5.0
 30
0.0
 11
0.0
 21
10.55
 31
0.0
  0
LINE
  5
271
330
269
100
AcDbEntity
  8
0
  6
Continuous
 62
     0
370
    18
100
AcDbLine
 10
-5.0
 20
0.0
 30
0.0
 11
-10.55
 21
0.0
 31
0.0
  0
LINE
  5
272
330
269
100
AcDbEntity
  8
0
  6
Continuous
 62
     0
370
    18
100
AcDbLine
 10
0.0
 20
-5.0
 30
0.0
 11
0.0
 21
-10.55
 31
0.0
  0
LINE
  5
273
330
269
100
AcDbEntity
  8
0
  6
Continuous
 62
     0
370
    18
100
AcDbLine
 10
5.0
 20
0.0
 30
0.0
 11
27.9682688614
 21
0.0
 31
0.0
  0
ENDBLK
  5
26B
330
269
100
AcDbEntity
  8
0
100
AcDbBlockEnd
  0
ENDSEC
  0
SECTION
  2
ENTITIES
  0
LINE
  5
63
330
1F
100
AcDbEntity
  8
0
  6
Continuous
 62
     7
370
    25
100
AcDbLine
 10
8.9969795463
 20
29.1199283519
 30
0.0
 11
10.5619341226
 21
28.216401406
 31
0.0
  0
LINE
  5
64
330
1F
100
AcDbEntity
  8
0
  6
Continuous
 62
     7
370
    25
100
AcDbLine
 10
27.0619341226
 20
28.216401406
 30
0.0
 11
28.6268886988
 21
29.1199283519
 31
0.0
  0
LINE
  5
65
330
1F
100
AcDbEntity
  8
0
  6
Continuous
 62
     7
370
    25
100
AcDbLine
 10
27.0619341226
 20
41.016401406
 30
0.0
 11
26.8619341226
 21
41.216401406
 31
0.0
  0
LINE
  5
66
330
1F
100
AcDbEntity
  8
0
  6
Continuous
 62
     7
370
    25
100
AcDbLine
 10
10.7619341226
 20
41.216401406
 30
0.0
 11
10.5619341226
 21
41.016401406
 31
0.0
  0
LINE
  5
67
330
1F
100
AcDbEntity
  8
0
  6
Continuous
 62
     7
370
    25
100
AcDbLine
 10
10.5619341226
 20
41.016401406
 30
0.0
 11
10.5619341226
 21
40.1494141079
 31
0.0
  0
LINE
  5
68
330
1F
100
AcDbEntity
  8
0
  6
Continuous
 62
     7
370
    25
100
AcDbLine
 10
27.0619341226
 20
40.1494141079
 30
0.0
 11
27.0619341226
 21
41.016401406
 31
0.0
  0
LINE
  5
69
330
1F
100
AcDbEntity
  8
0
  6
Continuous
 62
     7
370
    25
100
AcDbLine
 10
10.1869341226
 20
39.4998950551
 30
0.0
 11
8.9969795463
 21
38.8128744602
 31
0.0
  0
ARC
  5
6A
330
1F
100
AcDbEntity
  8
0
  6
Continuous
 62
     7
370
    25
100
AcDbCircle
 10
9.8119341226
 20
40.1494141079
 30
0.0
 40
0.75
100
AcDbArc
 50
300.0
 51
0.0
  0
ARC
  5
6B
330
1F
100
AcDbEntity
  8
0
  6
Continuous
 62
     7
370
    25
100
AcDbCircle
 10
27.8119341226
 20
40.1494141079
 30
0.0
 40
0.7500000000000036
100
AcDbArc
 50
180.0
 51
240.0
  0
LINE
  5
6C
330
1F
100
AcDbEntity
  8
0
  6
Continuous
 62
     7
370
    25
100
AcDbLine
 10
28.6268886988
 20
38.8128744602
 30
0.0
 11
27.4369341226
 21
39.4998950551
 31
0.0
  0
LINE
  5
6D
330
1F
100
AcDbEntity
  8
0
  6
Continuous
 62
     7
370
    25
100
AcDbLine
 10
32.9637950186
 20
24.7830220321
 30
0.0
 11
32.0602680727
 21
23.2180674559
 31
0.0
  0
LINE
  5
6E
330
1F
100
AcDbEntity
  8
0
  6
Continuous
 62
     7
370
    25
100
AcDbLine
 10
32.0602680727
 20
6.7180674559
 30
0.0
 11
32.9637950186
 21
5.1531128797
 31
0.0
  0
LINE
  5
6F
330
1F
100
AcDbEntity
  8
0
  6
Continuous
 62
     7
370
    25
100
AcDbLine
 10
44.8602680727
 20
6.7180674559
 30
0.0
 11
45.0602680727
 21
6.9180674559
 31
0.0
  0
LINE
  5
70
330
1F
100
AcDbEntity
  8
0
  6
Continuous
 62
     7
370
    25
100
AcDbLine
 10
45.0602680727
 20
23.0180674559
 30
0.0
 11
44.8602680727
 21
23.2180674559
 31
0.0
  0
LINE
  5
71
330
1F
100
AcDbEntity
  8
0
  6
Continuous
 62
     7
370
    25
100
AcDbLine
 10
44.8602680727
 20
23.2180674559
 30
0.0
 11
43.9932807746
 21
23.2180674559
 31
0.0
  0
LINE
  5
72
330
1F
100
AcDbEntity
  8
0
  6
Continuous
 62
     7
370
    25
100
AcDbLine
 10
43.9932807746
 20
6.7180674559
 30
0.0
 11
44.8602680727
 21
6.7180674559
 31
0.0
  0
LINE
  5
73
330
1F
100
AcDbEntity
  8
0
  6
Continuous
 62
     7
370
    25
100
AcDbLine
 10
42.6567411269
 20
5.1531128797
 30
0.0
 11
43.3437617218
 21
6.3430674559
 31
0.0
  0
ARC
  5
74
330
1F
100
AcDbEntity
  8
0
  6
Continuous
 62
     7
370
    25
100
AcDbCircle
 10
43.9932807746
 20
5.9680674559
 30
0.0
 40
0.75
100
AcDbArc
 50
90.0
 51
150.0
  0
ARC
  5
75
330
1F
100
AcDbEntity
  8
0
  6
Continuous
 62
     7
370
    25
100
AcDbCircle
 10
43.9932807746
 20
23.9680674559
 30
0.0
 40
0.75
100
AcDbArc
 50
210.0
 51
270.0
  0
LINE
  5
76
330
1F
100
AcDbEntity
  8
0
  6
Continuous
 62
     7
370
    25
100
AcDbLine
 10
43.3437617218
 20
23.5930674559
 30
0.0
 11
42.6567411269
 21
24.7830220321
 31
0.0
  0
LINE
  5
77
330
1F
100
AcDbEntity
  8
0
  6
Continuous
 62
     7
370
    25
100
AcDbLine
 10
32.0602680727
 20
21.5465674559
 30
0.0
 11
28.8119341226
 21
21.5465674559
 31
0.0
  0
LINE
  5
78
330
1F
100
AcDbEntity
  8
0
  6
Continuous
 62
     7
370
    25
100
AcDbLine
 10
28.8119341226
 20
8.3895674559
 30
0.0
 11
32.0602680727
 21
8.3895674559
 31
0.0
  0
LINE
  5
79
330
1F
100
AcDbEntity
  8
0
  6
Continuous
 62
     7
370
    25
100
AcDbLine
 10
12.2334341226
 20
28.216401406
 30
0.0
 11
12.2334341226
 21
24.9680674559
 31
0.0
  0
LINE
  5
7A
330
1F
100
AcDbEntity
  8
0
  6
Continuous
 62
     7
370
    25
100
AcDbLine
 10
25.3904341226
 20
24.9680674559
 30
0.0
 11
25.3904341226
 21
28.216401406
 31
0.0
  0
ARC
  5
7B
330
1F
100
AcDbEntity
  8
0
  6
Continuous
 62
     7
370
    25
100
AcDbCircle
 10
28.3119341226
 20
21.4680674559
 30
0.0
 40
0.5
100
AcDbArc
 50
270.0
 51
0.0
  0
ARC
  5
7C
330
1F
100
AcDbEntity
  8
0
  6
Continuous
 62
     7
370
    25
100
AcDbCircle
 10
28.3119341226
 20
8.4680674559
 30
0.0
 40
0.5
100
AcDbArc
 50
0.0
 51
90.0
  0
ARC
  5
7D
330
1F
100
AcDbEntity
  8
0
  6
Continuous
 62
     7
370
    25
100
AcDbCircle
 10
12.3119341226
 20
24.4680674559
 30
0.0
 40
0.5000000000000018
100
AcDbArc
 50
0.0
 51
90.0
  0
ARC
  5
7E
330
1F
100
AcDbEntity
  8
0
  6
Continuous
 62
     7
370
    25
100
AcDbCircle
 10
25.3119341226
 20
24.4680674559
 30
0.0
 40
0.5000000000000036
100
AcDbArc
 50
90.0
 51
180.0
  0
LINE
  5
7F
330
1F
100
AcDbEntity
  8
0
  6
Continuous
 62
     7
370
    25
100
AcDbLine
 10
14.8119341226
 20
8.9680674559
 30
0.0
 11
28.3119341226
 21
8.9680674559
 31
0.0
  0
LINE
  5
80
330
1F
100
AcDbEntity
  8
0
  6
Continuous
 62
     7
370
    25
100
AcDbLine
 10
28.3119341226
 20
20.9680674559
 30
0.0
 11
24.8119341226
 21
20.9680674559
 31
0.0
  0
LINE
  5
81
330
1F
100
AcDbEntity
  8
0
  6
Continuous
 62
     7
370
    25
100
AcDbLine
 10
24.8119341226
 20
20.9680674559
 30
0.0
 11
24.8119341226
 21
24.4680674559
 31
0.0
  0
LINE
  5
82
330
1F
100
AcDbEntity
  8
0
  6
Continuous
 62
     7
370
    25
100
AcDbLine
 10
12.8119341226
 20
24.4680674559
 30
0.0
 11
12.8119341226
 21
10.9680674559
 31
0.0
  0
ARC
  5
83
330
1F
100
AcDbEntity
  8
0
  6
Continuous
 62
     7
370
    25
100
AcDbCircle
 10
14.8119341226
 20
10.9680674559
 30
0.0
 40
2.000000000000001
100
AcDbArc
 50
179.7457572285
 51
270.2560206161
  0
SPLINE
  5
84
330
1F
100
AcDbEntity
  8
0
  6
Continuous
 62
     7
370
    25
100
AcDbSpline
210
0.0
220
0.0
230
1.0
 70
     8
 71
     3
 72
     9
 73
     5
 74
     0
 42
0.00000001
 43
0.00000001
 40
0.0
 40
0.0
 40
0.0
 40
0.0
 40
0.6189856167028766
 40
1.0
 40
1.0
 40
1.0
 40
1.0
 10
25.44160631030318
 20
39.49989505510307
 30
0.0
 10
25.74372409779483
 20
39.54099447067557
 30
0.0
 10
26.23180940921278
 20
39.60739248456063
 30
0.0
 10
26.71904864297361
 20
39.52955301325773
 30
0.0
 10
26.90469379914315
 20
39.49989505510307
 30
0.0
  0
SPLINE
  5
85
330
1F
100
AcDbEntity
  8
0
  6
Continuous
 62
     7
370
    25
100
AcDbSpline
210
0.0
220
0.0
230
1.0
 70
     8
 71
     3
 72
     9
 73
     5
 74
     0
 42
0.00000001
 43
0.00000001
 40
0.0
 40
0.0
 40
0.0
 40
0.0
 40
0.4977140401152428
 40
1.0
 40
1.0
 40
1.0
 40
1.0
 10
26.90469379914315
 20
39.49989505510307
 30
0.0
 10
27.19434910256824
 20
39.42541592025538
 30
0.0
 10
27.77632043566147
 20
39.27577349740864
 30
0.0
 10
28.34250309717213
 20
38.96764372080656
 30
0.0
 10
28.62688869877912
 20
38.81287446019692
 30
0.0
  0
LINE
  5
86
330
1F
100
AcDbEntity
  8
0
  6
Continuous
 62
     7
370
    25
100
AcDbLine
 10
28.6268886988
 20
29.1199283519
 30
0.0
 11
28.6268886988
 21
38.8128744602
 31
0.0
  0
SPLINE
  5
87
330
1F
100
AcDbEntity
  8
0
  6
Continuous
 62
     7
370
    25
100
AcDbSpline
210
0.0
220
0.0
230
1.0
 70
     8
 71
     3
 72
    15
 73
    11
 74
     0
 42
0.00000001
 43
0.00000001
 40
0.0
 40
0.0
 40
0.0
 40
0.0
 40
0.1323052378296956
 40
0.2645730682660303
 40
0.3997997819746812
 40
0.5350020935366633
 40
0.6501929590834553
 40
0.7654017933211804
 40
0.8826895567076665
 40
1.0
 40
1.0
 40
1.0
 40
1.0
 10
28.62688869877908
 20
29.11992835190143
 30
0.0
 10
28.41486615512258
 20
29.00435838006143
 30
0.0
 10
27.99088101411876
 20
28.77325111212027
 30
0.0
 10
27.33798142846362
 20
28.52458848054392
 30
0.0
 10
26.67277457624074
 20
28.3750745333904
 30
0.0
 10
26.0316639299434
 20
28.34546424634203
 30
0.0
 10
25.42518916508006
 20
28.42228564899266
 30
0.0
 10
24.85282620532767
 20
28.57969512011369
 30
0.0
 10
24.28305106507342
 20
28.81059748064468
 30
0.0
 10
23.90730340400395
 20
29.01681141620206
 30
0.0
 10
23.71941141066717
 20
29.11992835190145
 30
0.0
  0
LINE
  5
88
330
1F
100
AcDbEntity
  8
0
  6
Continuous
 62
     7
370
    25
100
AcDbLine
 10
23.7194114107
 20
29.1199283519
 30
0.0
 11
23.7194114107
 21
38.8128744602
 31
0.0
  0
SPLINE
  5
89
330
1F
100
AcDbEntity
  8
0
  6
Continuous
 62
     7
370
    25
100
AcDbSpline
210
0.0
220
0.0
230
1.0
 70
     8
 71
     3
 72
     9
 73
     5
 74
     0
 42
0.00000001
 43
0.00000001
 40
0.0
 40
0.0
 40
0.0
 40
0.0
 40
0.498064808358806
 40
1.0
 40
1.0
 40
1.0
 40
1.0
 10
23.71941141066721
 20
38.81287446019693
 30
0.0
 10
24.00139113198956
 20
38.96642301699502
 30
0.0
 10
24.56754179469452
 20
39.27471333227356
 30
0.0
 10
25.14950067046568
 20
39.42464105490949
 30
0.0
 10
25.44160631030318
 20
39.49989505510307
 30
0.0
  0
SPLINE
  5
8A
330
1F
100
AcDbEntity
  8
0
  6
Continuous
 62
     7
370
    25
100
AcDbSpline
210
0.0
220
0.0
230
1.0
 70
     8
 71
     3
 72
    10
 73
     6
 74
     0
 42
0.00000001
 43
0.00000001
 40
0.0
 40
0.0
 40
0.0
 40
0.0
 40
0.0789477693778934
 40
0.5375793028234307
 40
1.0
 40
1.0
 40
1.0
 40
1.0
 10
17.34884663371542
 20
39.4998950551031
 30
0.0
 10
17.42561628808382
 20
39.50702535291666
 30
0.0
 10
17.94836414528822
 20
39.55557771301169
 30
0.0
 10
18.9265358511874
 20
39.59749452789031
 30
0.0
 10
19.82429524527828
 20
39.53251731705233
 30
0.0
 10
20.27502161139533
 20
39.4998950551031
 30
0.0
  0
SPLINE
  5
8B
330
1F
100
AcDbEntity
  8
0
  6
Continuous
 62
     7
370
    25
100
AcDbSpline
210
0.0
220
0.0
230
1.0
 70
     8
 71
     3
 72
    10
 73
     6
 74
     0
 42
0.00000001
 43
0.00000001
 40
0.0
 40
0.0
 40
0.0
 40
0.0
 40
0.3355445600395946
 40
0.6726666839999054
 40
1.0
 40
1.0
 40
1.0
 40
1.0
 10
20.27502161139533
 20
39.4998950551031
 30
0.0
 10
20.66565117769878
 20
39.45276083911867
 30
0.0
 10
21.44874685657568
 20
39.35827080546879
 30
0.0
 10
22.59799882599046
 20
39.11985502745338
 30
0.0
 10
23.34929660775136
 20
38.9141913650557
 30
0.0
 10
23.71941141066721
 20
38.81287446019693
 30
0.0
  0
SPLINE
  5
8C
330
1F
100
AcDbEntity
  8
0
  6
Continuous
 62
     7
370
    25
100
AcDbSpline
210
0.0
220
0.0
230
1.0
 70
     8
 71
     3
 72
    14
 73
    10
 74
     0
 42
0.00000001
 43
0.00000001
 40
0.0
 40
0.0
 40
0.0
 40
0.0
 40
0.1120237311809917
 40
0.2377726069116392
 40
0.3634889491830566
 40
0.4922970128128263
 40
0.6211033992438476
 40
0.8095153688397869
 40
1.0
 40
1.0
 40
1.0
 40
1.0
 10
23.71941141066718
 20
29.11992835190145
 30
0.0
 10
23.36066083133031
 20
29.0212528029847
 30
0.0
 10
22.59920556126642
 20
28.81181197953575
 30
0.0
 10
21.41514434540312
 20
28.5716345097539
 30
0.0
 10
20.16238194908503
 20
28.40434306191538
 30
0.0
 10
18.8891516033318
 20
28.34286774097744
 30
0.0
 10
17.4076938368506
 20
28.40006337942089
 30
0.0
 10
15.73293656847588
 20
28.63400461864449
 30
0.0
 10
14.51616875643436
 20
28.95736415429012
 30
0.0
 10
13.90445683444351
 20
29.11992835190147
 30
0.0
  0
LINE
  5
8D
330
1F
100
AcDbEntity
  8
0
  6
Continuous
 62
     7
370
    25
100
AcDbLine
 10
13.9044568344
 20
29.1199283519
 30
0.0
 11
13.9044568344
 21
38.8128744602
 31
0.0
  0
SPLINE
  5
8E
330
1F
100
AcDbEntity
  8
0
  6
Continuous
 62
     7
370
    25
100
AcDbSpline
210
0.0
220
0.0
230
1.0
 70
     8
 71
     3
 72
     9
 73
     5
 74
     0
 42
0.00000001
 43
0.00000001
 40
0.0
 40
0.0
 40
0.0
 40
0.0
 40
0.4980648083588055
 40
1.0
 40
1.0
 40
1.0
 40
1.0
 10
13.90445683444354
 20
38.81287446019697
 30
0.0
 10
14.46841627708823
 20
38.96642301699506
 30
0.0
 10
15.60071760249812
 20
39.27471333227361
 30
0.0
 10
16.76463535404044
 20
39.42464105490951
 30
0.0
 10
17.34884663371542
 20
39.4998950551031
 30
0.0
  0
LINE
  5
8F
330
1F
100
AcDbEntity
  8
0
  6
Continuous
 62
     7
370
    25
100
AcDbLine
 10
25.4416063103
 20
39.4998950551
 30
0.0
 11
20.2750216114
 21
39.4998950551
 31
0.0
  0
SPLINE
  5
90
330
1F
100
AcDbEntity
  8
0
  6
Continuous
 62
     7
370
    25
100
AcDbSpline
210
0.0
220
0.0
230
1.0
 70
     8
 71
     3
 72
     9
 73
     5
 74
     0
 42
0.00000001
 43
0.00000001
 40
0.0
 40
0.0
 40
0.0
 40
0.0
 40
0.4977140401152425
 40
1.0
 40
1.0
 40
1.0
 40
1.0
 10
12.18226193480755
 20
39.49989505510312
 30
0.0
 10
12.47191723823264
 20
39.42541592025543
 30
0.0
 10
13.05388857132587
 20
39.2757734974087
 30
0.0
 10
13.62007123283654
 20
38.96764372080662
 30
0.0
 10
13.90445683444354
 20
38.81287446019697
 30
0.0
  0
LINE
  5
91
330
1F
100
AcDbEntity
  8
0
  6
Continuous
 62
     7
370
    25
100
AcDbLine
 10
17.3488466337
 20
39.4998950551
 30
0.0
 11
12.1822619348
 21
39.4998950551
 31
0.0
  0
SPLINE
  5
92
330
1F
100
AcDbEntity
  8
0
  6
Continuous
 62
     7
370
    25
100
AcDbSpline
210
0.0
220
0.0
230
1.0
 70
     8
 71
     3
 72
    11
 73
     7
 74
     0
 42
0.00000001
 43
0.00000001
 40
0.0
 40
0.0
 40
0.0
 40
0.0
 40
0.2858113857234065
 40
0.5527245545213758
 40
0.8220275582229317
 40
1.0
 40
1.0
 40
1.0
 40
1.0
 10
17.41245913323021
 20
40.14941410794142
 30
0.0
 10
17.67782151187999
 20
40.14547380651891
 30
0.0
 10
18.19100016693845
 20
40.13785374147871
 30
0.0
 10
18.96279940251312
 20
40.12639265182774
 30
0.0
 10
19.63201322987756
 20
40.14383004106939
 30
0.0
 10
20.04648812297767
 20
40.14782464232864
 30
0.0
 10
20.21140911188056
 20
40.14941410794142
 30
0.0
  0
ARC
  5
93
330
1F
100
AcDbEntity
  8
0
  6
Continuous
 62
     7
370
    25
100
AcDbCircle
 10
22.8574882127
 20
40.0806908437
 30
0.0
 40
2.646971381584465
100
AcDbArc
 50
178.5122636654
 51
192.674909816
  0
ARC
  5
94
330
1F
100
AcDbEntity
  8
0
  6
Continuous
 62
     7
370
    25
100
AcDbCircle
 10
14.7663800324
 20
40.0806908437
 30
0.0
 40
2.646971381583247
100
AcDbArc
 50
347.325090184
 51
1.4877363346
  0
SPLINE
  5
95
330
1F
100
AcDbEntity
  8
0
  6
Continuous
 62
     7
370
    25
100
AcDbSpline
210
0.0
220
0.0
230
1.0
 70
     8
 71
     3
 72
    15
 73
    11
 74
     0
 42
0.00000001
 43
0.00000001
 40
0.0
 40
0.0
 40
0.0
 40
0.0
 40
0.1323052378296972
 40
0.2645730682660339
 40
0.3997997819746864
 40
0.5350020935366704
 40
0.6501929590834609
 40
0.7654017933211843
 40
0.8826895567076685
 40
1.0
 40
1.0
 40
1.0
 40
1.0
 10
13.90445683444351
 20
29.11992835190147
 30
0.0
 10
13.69243429078701
 20
29.00435838006148
 30
0.0
 10
13.2684491497832
 20
28.77325111212033
 30
0.0
 10
12.61554956412807
 20
28.52458848054398
 30
0.0
 10
11.95034271190522
 20
28.37507453339046
 30
0.0
 10
11.3092320656079
 20
28.34546424634209
 30
0.0
 10
10.70275730074457
 20
28.42228564899275
 30
0.0
 10
10.1303943409922
 20
28.57969512011378
 30
0.0
 10
9.560619200737994
 20
28.81059748064474
 30
0.0
 10
9.184871539668551
 20
29.01681141620211
 30
0.0
 10
8.996979546331788
 20
29.11992835190149
 30
0.0
  0
LINE
  5
96
330
1F
100
AcDbEntity
  8
0
  6
Continuous
 62
     7
370
    25
100
AcDbLine
 10
18.8119341226
 20
28.216401406
 30
0.0
 11
10.5619341226
 21
28.216401406
 31
0.0
  0
LINE
  5
97
330
1F
100
AcDbEntity
  8
0
  6
Continuous
 62
     7
370
    25
100
AcDbLine
 10
27.0619341226
 20
28.216401406
 30
0.0
 11
18.8119341226
 21
28.216401406
 31
0.0
  0
LINE
  5
98
330
1F
100
AcDbEntity
  8
0
  6
Continuous
 62
     7
370
    25
100
AcDbLine
 10
20.2114091119
 20
40.1494141079
 30
0.0
 11
25.1533596934
 21
40.1494141079
 31
0.0
  0
ARC
  5
99
330
1F
100
AcDbEntity
  8
0
  6
Continuous
 62
     7
370
    25
100
AcDbCircle
 10
25.9640387169
 20
40.1204618084
 30
0.0
 40
0.8111958547050567
100
AcDbArc
 50
177.9546284054
 51
229.9072030665
  0
ARC
  5
9A
330
1F
100
AcDbEntity
  8
0
  6
Continuous
 62
     7
370
    25
100
AcDbCircle
 10
11.6598295282
 20
40.1204618084
 30
0.0
 40
0.8111958547050037
100
AcDbArc
 50
310.0927969335
 51
2.0453715946
  0
LINE
  5
9B
330
1F
100
AcDbEntity
  8
0
  6
Continuous
 62
     7
370
    25
100
AcDbLine
 10
12.4705085517
 20
40.1494141079
 30
0.0
 11
17.4124591332
 21
40.1494141079
 31
0.0
  0
SPLINE
  5
9C
330
1F
100
AcDbEntity
  8
0
  6
Continuous
 62
     7
370
    25
100
AcDbSpline
210
0.0
220
0.0
230
1.0
 70
     8
 71
     3
 72
     9
 73
     5
 74
     0
 42
0.00000001
 43
0.00000001
 40
0.0
 40
0.0
 40
0.0
 40
0.0
 40
0.6189856167029144
 40
0.9999999999999999
 40
0.9999999999999999
 40
0.9999999999999999
 40
0.9999999999999999
 10
10.71917444596782
 20
39.49989505510312
 30
0.0
 10
11.02129223345944
 20
39.5409944706756
 30
0.0
 10
11.50937754487731
 20
39.60739248456064
 30
0.0
 10
11.99661677863806
 20
39.52955301325776
 30
0.0
 10
12.18226193480755
 20
39.49989505510312
 30
0.0
  0
LINE
  5
9D
330
1F
100
AcDbEntity
  8
0
  6
Continuous
 62
     7
370
    25
100
AcDbLine
 10
8.9969795463
 20
29.1199283519
 30
0.0
 11
8.9969795463
 21
38.8128744602
 31
0.0
  0
SPLINE
  5
9E
330
1F
100
AcDbEntity
  8
0
  6
Continuous
 62
     7
370
    25
100
AcDbSpline
210
0.0
220
0.0
230
1.0
 70
     8
 71
     3
 72
     9
 73
     5
 74
     0
 42
0.00000001
 43
0.00000001
 40
0.0
 40
0.0
 40
0.0
 40
0.0
 40
0.4980648083588056
 40
1.0
 40
1.0
 40
1.0
 40
1.0
 10
8.996979546331819
 20
38.81287446019699
 30
0.0
 10
9.278959267654173
 20
38.96642301699507
 30
0.0
 10
9.845109930359127
 20
39.27471333227361
 30
0.0
 10
10.42706880613031
 20
39.42464105490953
 30
0.0
 10
10.71917444596782
 20
39.49989505510312
 30
0.0
  0
LINE
  5
9F
330
1F
100
AcDbEntity
  8
0
  6
Continuous
 62
     7
370
    25
100
AcDbLine
 10
18.8119341226
 20
41.216401406
 30
0.0
 11
26.8619341226
 21
41.216401406
 31
0.0
  0
LINE
  5
A0
330
1F
100
AcDbEntity
  8
0
  6
Continuous
 62
     7
370
    25
100
AcDbLine
 10
10.7619341226
 20
41.216401406
 30
0.0
 11
18.8119341226
 21
41.216401406
 31
0.0
  0
LINE
  5
A1
330
1F
100
AcDbEntity
  8
0
  6
Continuous
 62
     7
370
    25
100
AcDbLine
 10
18.8119341226
 20
41.016401406
 30
0.0
 11
10.5619341226
 21
41.016401406
 31
0.0
  0
LINE
  5
A2
330
1F
100
AcDbEntity
  8
0
  6
Continuous
 62
     7
370
    25
100
AcDbLine
 10
27.0619341226
 20
41.016401406
 30
0.0
 11
18.8119341226
 21
41.016401406
 31
0.0
  0
SPLINE
  5
A3
330
1F
100
AcDbEntity
  8
0
  6
Continuous
 62
     7
370
    25
100
AcDbSpline
210
0.0
220
0.0
230
1.0
 70
     8
 71
     3
 72
    11
 73
     7
 74
     0
 42
0.00000001
 43
0.00000001
 40
0.0
 40
0.0
 40
0.0
 40
0.0
 40
0.2858113857233993
 40
0.5527245545213819
 40
0.8220275582229518
 40
0.9999999999999999
 40
0.9999999999999999
 40
0.9999999999999999
 40
0.9999999999999999
 10
25.15335969344458
 20
40.1494141079414
 30
0.0
 10
25.3190519795135
 20
40.14547380651888
 30
0.0
 10
25.63948076429853
 20
40.13785374147867
 30
0.0
 10
26.03954315906256
 20
40.12639265182774
 30
0.0
 10
26.34032729636935
 20
40.14383004106936
 30
0.0
 10
26.49234594026584
 20
40.14782464232862
 30
0.0
 10
26.55283468276977
 20
40.1494141079414
 30
0.0
  0
SPLINE
  5
A4
330
1F
100
AcDbEntity
  8
0
  6
Continuous
 62
     7
370
    25
100
AcDbSpline
210
0.0
220
0.0
230
1.0
 70
     8
 71
     3
 72
    11
 73
     7
 74
     0
 42
0.00000001
 43
0.00000001
 40
0.0
 40
0.0
 40
0.0
 40
0.0
 40
0.2858113857233212
 40
0.5527245545214223
 40
0.8220275582231134
 40
1.0
 40
1.0
 40
1.0
 40
1.0
 10
11.0710335623412
 20
40.14941410794145
 30
0.0
 10
11.17070365492201
 20
40.14547380651894
 30
0.0
 10
11.36345352519545
 20
40.13785374147873
 30
0.0
 10
11.73519036600613
 20
40.12639265182781
 30
0.0
 10
12.10362005606378
 20
40.14383004106943
 30
0.0
 10
12.36607630526734
 20
40.14782464232866
 30
0.0
 10
12.47050855166616
 20
40.14941410794145
 30
0.0
  0
ARC
  5
A5
330
1F
100
AcDbEntity
  8
0
  6
Continuous
 62
     7
370
    25
100
AcDbCircle
 10
27.312635067
 20
40.1409505732
 30
0.0
 40
0.7598475211239343
100
AcDbArc
 50
179.3617997906
 51
237.5290082717
  0
ARC
  5
A6
330
1F
100
AcDbEntity
  8
0
  6
Continuous
 62
     7
370
    25
100
AcDbCircle
 10
10.3112331781
 20
40.1409505732
 30
0.0
 40
0.7598475211157668
100
AcDbArc
 50
302.4709917279
 51
0.6382002097
  0
SPLINE
  5
A7
330
1F
100
AcDbEntity
  8
0
  6
Continuous
 62
     7
370
    25
100
AcDbSpline
210
0.0
220
0.0
230
1.0
 70
     8
 71
     3
 72
     9
 73
     5
 74
     0
 42
0.00000001
 43
0.00000001
 40
0.0
 40
0.0
 40
0.0
 40
0.0
 40
0.4977140401152427
 40
1.0
 40
1.0
 40
1.0
 40
1.0
 10
43.34376172176975
 20
13.50497996704882
 30
0.0
 10
43.26928258692206
 20
12.92566936019866
 30
0.0
 10
43.11964016407532
 20
11.76172669401221
 30
0.0
 10
42.81151038747325
 20
10.62936137099092
 30
0.0
 10
42.65674112686359
 20
10.06059016777695
 30
0.0
  0
LINE
  5
A8
330
1F
100
AcDbEntity
  8
0
  6
Continuous
 62
     7
370
    25
100
AcDbLine
 10
43.3437617218
 20
8.3383952681
 30
0.0
 11
43.3437617218
 21
13.504979967
 31
0.0
  0
SPLINE
  5
A9
330
1F
100
AcDbEntity
  8
0
  6
Continuous
 62
     7
370
    25
100
AcDbSpline
210
0.0
220
0.0
230
1.0
 70
     8
 71
     3
 72
     9
 73
     5
 74
     0
 42
0.00000001
 43
0.00000001
 40
0.0
 40
0.0
 40
0.0
 40
0.0
 40
0.4980648083588061
 40
0.9999999999999999
 40
0.9999999999999999
 40
0.9999999999999999
 40
0.9999999999999999
 10
42.65674112686359
 20
10.06059016777695
 30
0.0
 10
42.81028968366168
 20
9.778610446454596
 30
0.0
 10
43.11857999894021
 20
9.21245978374964
 30
0.0
 10
43.26850772157614
 20
8.630500907978483
 30
0.0
 10
43.34376172176974
 20
8.338395268140996
 30
0.0
  0
ARC
  5
AA
330
1F
100
AcDbEntity
  8
0
  6
Continuous
 62
     7
370
    25
100
AcDbCircle
 10
43.9245575103
 20
10.9225133657
 30
0.0
 40
2.646971381583304
100
AcDbArc
 50
88.5122636654
 51
102.674909816
  0
LINE
  5
AB
330
1F
100
AcDbEntity
  8
0
  6
Continuous
 62
     7
370
    25
100
AcDbLine
 10
43.9932807746
 20
13.5685924666
 30
0.0
 11
43.9932807746
 21
8.626641885
 31
0.0
  0
ARC
  5
AC
330
1F
100
AcDbEntity
  8
0
  6
Continuous
 62
     7
370
    25
100
AcDbCircle
 10
43.964328475
 20
7.8159628616
 30
0.0
 40
0.8111958547050401
100
AcDbArc
 50
87.9546284054
 51
139.9072030665
  0
SPLINE
  5
AD
330
1F
100
AcDbEntity
  8
0
  6
Continuous
 62
     7
370
    25
100
AcDbSpline
210
0.0
220
0.0
230
1.0
 70
     8
 71
     3
 72
    11
 73
     7
 74
     0
 42
0.00000001
 43
0.00000001
 40
0.0
 40
0.0
 40
0.0
 40
0.0
 40
0.285811385772635
 40
0.552724554503377
 40
0.8220275581359243
 40
0.9999999999999999
 40
0.9999999999999999
 40
0.9999999999999999
 40
0.9999999999999999
 10
43.99328077460807
 20
16.36754244521395
 30
0.0
 10
43.98934047318444
 20
16.10218006651822
 30
0.0
 10
43.98172040814367
 20
15.58900141147598
 30
0.0
 10
43.97025931849666
 20
14.8172021759835
 30
0.0
 10
43.98769670773271
 20
14.14798834866482
 30
0.0
 10
43.99169130899381
 20
13.73351345554738
 30
0.0
 10
43.99328077460807
 20
13.5685924665636
 30
0.0
  0
SPLINE
  5
AE
330
1F
100
AcDbEntity
  8
0
  6
Continuous
 62
     7
370
    25
100
AcDbSpline
210
0.0
220
0.0
230
1.0
 70
     8
 71
     3
 72
    10
 73
     6
 74
     0
 42
0.00000001
 43
0.00000001
 40
0.0
 40
0.0
 40
0.0
 40
0.0
 40
0.4586421336634351
 40
0.9210522271454904
 40
1.0
 40
1.0
 40
1.0
 40
1.0
 10
43.34376172176974
 20
16.43115494472874
 30
0.0
 10
43.37619935719951
 20
15.98412378797842
 30
0.0
 10
43.44134111841819
 20
15.08638890426962
 30
0.0
 10
43.39978633687065
 20
14.10817160804904
 30
0.0
 10
43.35089210767597
 20
13.58174960068221
 30
0.0
 10
43.34376172176975
 20
13.50497996704882
 30
0.0
  0
ARC
  5
AF
330
1F
100
AcDbEntity
  8
0
  6
Continuous
 62
     7
370
    25
100
AcDbCircle
 10
43.9245575103
 20
19.013621546
 30
0.0
 40
2.646971381583195
100
AcDbArc
 50
257.325090184
 51
271.4877363346
  0
LINE
  5
B0
330
1F
100
AcDbEntity
  8
0
  6
Continuous
 62
     7
370
    25
100
AcDbLine
 10
32.9637950186
 20
10.0605901678
 30
0.0
 11
42.6567411269
 21
10.0605901678
 31
0.0
  0
SPLINE
  5
B1
330
1F
100
AcDbEntity
  8
0
  6
Continuous
 62
     7
370
    25
100
AcDbSpline
210
0.0
220
0.0
230
1.0
 70
     8
 71
     3
 72
    14
 73
    10
 74
     0
 42
0.00000001
 43
0.00000001
 40
0.0
 40
0.0
 40
0.0
 40
0.0
 40
0.188576279986008
 40
0.3788955565835286
 40
0.5044823954484103
 40
0.6300701228213244
 40
0.7590052913537325
 40
0.8879763296286906
 40
1.0
 40
1.0
 40
1.0
 40
1.0
 10
32.9637950185681
 20
10.06059016777695
 30
0.0
 10
32.80274597947874
 20
10.6661285603124
 30
0.0
 10
32.47915933694058
 20
11.88280229196858
 30
0.0
 10
32.24569961686779
 20
13.54688684335392
 30
0.0
 10
32.18746256169516
 20
15.0131393776423
 30
0.0
 10
32.24432830325261
 20
16.27577989803578
 30
0.0
 10
32.40941233442435
 20
17.53971850852134
 30
0.0
 10
32.65286111957205
 20
18.74501609845035
 30
0.0
 10
32.86512605774704
 20
19.51679297394578
 30
0.0
 10
32.9637950185681
 20
19.87554474400062
 30
0.0
  0
LINE
  5
B2
330
1F
100
AcDbEntity
  8
0
  6
Continuous
 62
     7
370
    25
100
AcDbLine
 10
32.9637950186
 20
19.875544744
 30
0.0
 11
42.6567411269
 21
19.875544744
 31
0.0
  0
SPLINE
  5
B3
330
1F
100
AcDbEntity
  8
0
  6
Continuous
 62
     7
370
    25
100
AcDbSpline
210
0.0
220
0.0
230
1.0
 70
     8
 71
     3
 72
    10
 73
     6
 74
     0
 42
0.00000001
 43
0.00000001
 40
0.0
 40
0.0
 40
0.0
 40
0.0
 40
0.327333370707713
 40
0.6629523133412116
 40
1.0
 40
1.0
 40
1.0
 40
1.0
 10
42.65674112686359
 20
19.87554474400062
 30
0.0
 10
42.75805875295998
 20
19.50542995534935
 30
0.0
 10
42.96325859084275
 20
18.75583190853961
 30
0.0
 10
43.20182401296552
 20
17.60662188798335
 30
0.0
 10
43.29638220496349
 20
16.82353168704982
 30
0.0
 10
43.34376172176974
 20
16.43115494472874
 30
0.0
  0
SPLINE
  5
B4
330
1F
100
AcDbEntity
  8
0
  6
Continuous
 62
     7
370
    25
100
AcDbSpline
210
0.0
220
0.0
230
1.0
 70
     8
 71
     3
 72
     9
 73
     5
 74
     0
 42
0.00000001
 43
0.00000001
 40
0.0
 40
0.0
 40
0.0
 40
0.0
 40
0.6189856167028771
 40
1.0
 40
1.0
 40
1.0
 40
1.0
 10
43.34376172176974
 20
8.338395268140996
 30
0.0
 10
43.38486113734223
 20
8.03627748064935
 30
0.0
 10
43.4512591512273
 20
7.548192169231416
 30
0.0
 10
43.37341967992439
 20
7.060952935470592
 30
0.0
 10
43.34376172176974
 20
6.875307779301052
 30
0.0
  0
SPLINE
  5
B5
330
1F
100
AcDbEntity
  8
0
  6
Continuous
 62
     7
370
    25
100
AcDbSpline
210
0.0
220
0.0
230
1.0
 70
     8
 71
     3
 72
     9
 73
     5
 74
     0
 42
0.00000001
 43
0.00000001
 40
0.0
 40
0.0
 40
0.0
 40
0.0
 40
0.4977140401152426
 40
1.0
 40
1.0
 40
1.0
 40
1.0
 10
43.34376172176974
 20
6.875307779301052
 30
0.0
 10
43.26928258692206
 20
6.585652475875968
 30
0.0
 10
43.11964016407531
 20
6.003681142782737
 30
0.0
 10
42.81151038747324
 20
5.437498481272087
 30
0.0
 10
42.65674112686359
 20
5.153112879665099
 30
0.0
  0
LINE
  5
B6
330
1F
100
AcDbEntity
  8
0
  6
Continuous
 62
     7
370
    25
100
AcDbLine
 10
32.9637950186
 20
5.1531128797
 30
0.0
 11
42.6567411269
 21
5.1531128797
 31
0.0
  0
SPLINE
  5
B7
330
1F
100
AcDbEntity
  8
0
  6
Continuous
 62
     7
370
    25
100
AcDbSpline
210
0.0
220
0.0
230
1.0
 70
     8
 71
     3
 72
    15
 73
    11
 74
     0
 42
0.00000001
 43
0.00000001
 40
0.0
 40
0.0
 40
0.0
 40
0.0
 40
0.1323052378296956
 40
0.2645730682660303
 40
0.3997997819746811
 40
0.5350020935366633
 40
0.6501929590834553
 40
0.7654017933211803
 40
0.8826895567076664
 40
1.0
 40
1.0
 40
1.0
 40
1.0
 10
32.9637950185681
 20
5.153112879665099
 30
0.0
 10
32.8482250467281
 20
5.365135423321593
 30
0.0
 10
32.61711777878694
 20
5.789120564325407
 30
0.0
 10
32.36845514721059
 20
6.442020149980541
 30
0.0
 10
32.21894120005706
 20
7.107227002203412
 30
0.0
 10
32.1893309130087
 20
7.74833764850075
 30
0.0
 10
32.26615231565933
 20
8.354812413364083
 30
0.0
 10
32.42356178678035
 20
8.927175373116468
 30
0.0
 10
32.65446414731134
 20
9.49695051337071
 30
0.0
 10
32.86067808286872
 20
9.872698174440176
 30
0.0
 10
32.9637950185681
 20
10.06059016777695
 30
0.0
  0
SPLINE
  5
B8
330
1F
100
AcDbEntity
  8
0
  6
Continuous
 62
     7
370
    25
100
AcDbSpline
210
0.0
220
0.0
230
1.0
 70
     8
 71
     3
 72
    15
 73
    11
 74
     0
 42
0.00000001
 43
0.00000001
 40
0.0
 40
0.0
 40
0.0
 40
0.0
 40
0.1323052378296956
 40
0.2645730682660304
 40
0.3997997819746812
 40
0.5350020935366634
 40
0.6501929590834554
 40
0.7654017933211806
 40
0.8826895567076666
 40
1.0
 40
1.0
 40
1.0
 40
1.0
 10
32.9637950185681
 20
19.87554474400062
 30
0.0
 10
32.8482250467281
 20
20.08756728765711
 30
0.0
 10
32.61711777878694
 20
20.51155242866092
 30
0.0
 10
32.3684551472106
 20
21.16445201431605
 30
0.0
 10
32.21894120005707
 20
21.8296588665389
 30
0.0
 10
32.18933091300868
 20
22.47076951283623
 30
0.0
 10
32.26615231565933
 20
23.07724427769956
 30
0.0
 10
32.42356178678036
 20
23.64960723745195
 30
0.0
 10
32.65446414731134
 20
24.21938237770618
 30
0.0
 10
32.86067808286872
 20
24.59513003877563
 30
0.0
 10
32.9637950185681
 20
24.7830220321124
 30
0.0
  0
LINE
  5
B9
330
1F
100
AcDbEntity
  8
0
  6
Continuous
 62
     7
370
    25
100
AcDbLine
 10
32.0602680727
 20
6.7180674559
 30
0.0
 11
32.0602680727
 21
23.2180674559
 31
0.0
  0
SPLINE
  5
BA
330
1F
100
AcDbEntity
  8
0
  6
Continuous
 62
     7
370
    25
100
AcDbSpline
210
0.0
220
0.0
230
1.0
 70
     8
 71
     3
 72
     9
 73
     5
 74
     0
 42
0.00000001
 43
0.00000001
 40
0.0
 40
0.0
 40
0.0
 40
0.0
 40
0.4977140401152426
 40
1.0
 40
1.0
 40
1.0
 40
1.0
 10
43.34376172176974
 20
21.59773964363653
 30
0.0
 10
43.26928258692205
 20
21.30808434021146
 30
0.0
 10
43.1196401640753
 20
20.72611300711825
 30
0.0
 10
42.81151038747324
 20
20.1599303456076
 30
0.0
 10
42.65674112686359
 20
19.87554474400062
 30
0.0
  0
LINE
  5
BB
330
1F
100
AcDbEntity
  8
0
  6
Continuous
 62
     7
370
    25
100
AcDbLine
 10
43.3437617218
 20
16.4311549447
 30
0.0
 11
43.3437617218
 21
21.5977396436
 31
0.0
  0
SPLINE
  5
BC
330
1F
100
AcDbEntity
  8
0
  6
Continuous
 62
     7
370
    25
100
AcDbSpline
210
0.0
220
0.0
230
1.0
 70
     8
 71
     3
 72
     9
 73
     5
 74
     0
 42
0.00000001
 43
0.00000001
 40
0.0
 40
0.0
 40
0.0
 40
0.0
 40
0.6189856167028759
 40
1.0
 40
1.0
 40
1.0
 40
1.0
 10
43.34376172176974
 20
23.06082713247647
 30
0.0
 10
43.38486113734223
 20
22.75870934498483
 30
0.0
 10
43.4512591512273
 20
22.2706240335669
 30
0.0
 10
43.37341967992439
 20
21.78338479980608
 30
0.0
 10
43.34376172176974
 20
21.59773964363653
 30
0.0
  0
LINE
  5
BD
330
1F
100
AcDbEntity
  8
0
  6
Continuous
 62
     7
370
    25
100
AcDbLine
 10
32.9637950186
 20
24.7830220321
 30
0.0
 11
42.6567411269
 21
24.7830220321
 31
0.0
  0
SPLINE
  5
BE
330
1F
100
AcDbEntity
  8
0
  6
Continuous
 62
     7
370
    25
100
AcDbSpline
210
0.0
220
0.0
230
1.0
 70
     8
 71
     3
 72
     9
 73
     5
 74
     0
 42
0.00000001
 43
0.00000001
 40
0.0
 40
0.0
 40
0.0
 40
0.0
 40
0.4980648083588057
 40
1.0
 40
1.0
 40
1.0
 40
1.0
 10
42.65674112686359
 20
24.7830220321124
 30
0.0
 10
42.81028968366167
 20
24.50104231079006
 30
0.0
 10
43.11857999894021
 20
23.93489164808513
 30
0.0
 10
43.26850772157614
 20
23.35293277231396
 30
0.0
 10
43.34376172176974
 20
23.06082713247647
 30
0.0
  0
LINE
  5
BF
330
1F
100
AcDbEntity
  8
0
  6
Continuous
 62
     7
370
    25
100
AcDbLine
 10
43.9932807746
 20
21.3094930268
 30
0.0
 11
43.9932807746
 21
16.3675424452
 31
0.0
  0
ARC
  5
C0
330
1F
100
AcDbEntity
  8
0
  6
Continuous
 62
     7
370
    25
100
AcDbCircle
 10
43.964328475
 20
22.1201720502
 30
0.0
 40
0.811195854716095
100
AcDbArc
 50
220.0927969339
 51
272.0453715942
  0
LINE
  5
C1
330
1F
100
AcDbEntity
  8
0
  6
Continuous
 62
     7
370
    25
100
AcDbLine
 10
45.0602680727
 20
23.0180674559
 30
0.0
 11
45.0602680727
 21
6.9180674559
 31
0.0
  0
LINE
  5
C2
330
1F
100
AcDbEntity
  8
0
  6
Continuous
 62
     7
370
    25
100
AcDbLine
 10
44.8602680727
 20
6.7180674559
 30
0.0
 11
44.8602680727
 21
23.2180674559
 31
0.0
  0
SPLINE
  5
C3
330
1F
100
AcDbEntity
  8
0
  6
Continuous
 62
     7
370
    25
100
AcDbSpline
210
0.0
220
0.0
230
1.0
 70
     8
 71
     3
 72
    11
 73
     7
 74
     0
 42
0.00000001
 43
0.00000001
 40
0.0
 40
0.0
 40
0.0
 40
0.0
 40
0.2858113857234036
 40
0.5527245545213757
 40
0.822027558222934
 40
1.0
 40
1.0
 40
1.0
 40
1.0
 10
43.99328077460807
 20
22.70896801610309
 30
0.0
 10
43.98934047318555
 20
22.60929792352224
 30
0.0
 10
43.98172040814534
 20
22.4165480532488
 30
0.0
 10
43.97025931849442
 20
22.04481121243815
 30
0.0
 10
43.98769670773603
 20
21.6763815223805
 30
0.0
 10
43.99169130899528
 20
21.41392527317687
 30
0.0
 10
43.99328077460807
 20
21.30949302677793
 30
0.0
  0
SPLINE
  5
C4
330
1F
100
AcDbEntity
  8
0
  6
Continuous
 62
     7
370
    25
100
AcDbSpline
210
0.0
220
0.0
230
1.0
 70
     8
 71
     3
 72
    11
 73
     7
 74
     0
 42
0.00000001
 43
0.00000001
 40
0.0
 40
0.0
 40
0.0
 40
0.0
 40
0.2858113857233873
 40
0.5527245545213875
 40
0.822027558222975
 40
1.0
 40
1.0
 40
1.0
 40
1.0
 10
43.99328077460807
 20
8.626641884999595
 30
0.0
 10
43.98934047318555
 20
8.460949598930682
 30
0.0
 10
43.98172040814534
 20
8.140520814145656
 30
0.0
 10
43.97025931849441
 20
7.740458419381622
 30
0.0
 10
43.98769670773604
 20
7.439674282074836
 30
0.0
 10
43.99169130899529
 20
7.287655638178362
 30
0.0
 10
43.99328077460807
 20
7.227166895674431
 30
0.0
  0
ARC
  5
C5
330
1F
100
AcDbEntity
  8
0
  6
Continuous
 62
     7
370
    25
100
AcDbCircle
 10
43.9848172399
 20
6.4673665114
 30
0.0
 40
0.7598475211157805
100
AcDbArc
 50
89.3617997903
 51
147.5290082721
  0
ARC
  5
C6
330
1F
100
AcDbEntity
  8
0
  6
Continuous
 62
     7
370
    25
100
AcDbCircle
 10
43.9848172399
 20
23.4687684004
 30
0.0
 40
0.7598475211157713
100
AcDbArc
 50
212.4709917279
 51
270.6382002097
  0
LINE
  5
C7
330
1F
100
AcDbEntity
  8
0
  6
Continuous
 62
     7
370
    25
100
AcDbLine
 10
28.8119341226
 20
21.5465674559
 30
0.0
 11
28.8119341226
 21
8.3895674559
 31
0.0
  0
LINE
  5
C8
330
1F
100
AcDbEntity
  8
0
  6
Continuous
 62
     7
370
    25
100
AcDbLine
 10
25.3904341226
 20
24.9680674559
 30
0.0
 11
12.2334341226
 21
24.9680674559
 31
0.0
  0
SPLINE
  5
C9
330
1F
100
AcDbEntity
  8
0
  6
Continuous
 62
     7
370
    25
100
AcDbSpline
210
0.0
220
0.0
230
1.0
 70
     8
 71
     3
 72
     8
 73
     4
 74
     0
 42
0.00000001
 43
0.00000001
 40
0.0
 40
0.0
 40
0.0
 40
0.0
 40
1.0
 40
1.0
 40
1.0
 40
1.0
 10
15.81193412255539
 20
9.92806745588875
 30
0.0
 10
15.69546753533319
 20
9.92806745588875
 30
0.0
 10
15.58115596487114
 20
9.936688279018945
 30
0.0
 10
15.46878000092557
 20
9.953336273444018
 30
0.0
  0
LINE
  5
CA
330
1F
100
AcDbEntity
  8
0
  6
Continuous
 62
     7
370
    25
100
AcDbLine
 10
25.0619341226
 20
9.9280674559
 30
0.0
 11
15.8119341226
 21
9.9280674559
 31
0.0
  0
SPLINE
  5
CB
330
1F
100
AcDbEntity
  8
0
  6
Continuous
 62
     7
370
    25
100
AcDbSpline
210
0.0
220
0.0
230
1.0
 70
     8
 71
     3
 72
    14
 73
    10
 74
     0
 42
0.00000001
 43
0.00000001
 40
0.0
 40
0.0
 40
0.0
 40
0.0
 40
0.25
 40
0.25
 40
0.5
 40
0.5
 40
0.75
 40
0.75
 40
1.0
 40
1.0
 40
1.0
 40
1.0
 10
25.06193412255539
 20
9.928067455888746
 30
0.0
 10
25.14925215156178
 20
9.928067455888746
 30
0.0
 10
25.23088025938337
 20
9.951020254675196
 30
0.0
 10
25.35858137751681
 20
10.01551585383688
 30
0.0
 10
25.40797217034238
 20
10.05674834064316
 30
0.0
 10
25.48533083790041
 20
10.14621018061223
 30
0.0
 10
25.51389964747229
 20
10.19568501797241
 30
0.0
 10
25.5519670164394
 20
10.29825727590459
 30
0.0
 10
25.56193412255539
 20
10.35186703718587
 30
0.0
 10
25.56193412255539
 20
10.40806745588875
 30
0.0
  0
LINE
  5
CC
330
1F
100
AcDbEntity
  8
0
  6
Continuous
 62
     7
370
    25
100
AcDbLine
 10
25.5619341226
 20
12.6165573028
 30
0.0
 11
25.5619341226
 21
10.4080674559
 31
0.0
  0
SPLINE
  5
CD
330
1F
100
AcDbEntity
  8
0
  6
Continuous
 62
     7
370
    25
100
AcDbSpline
210
0.0
220
0.0
230
1.0
 70
    24
 71
     3
 72
    14
 73
    10
 74
     0
 42
0.00000001
 43
0.00000001
 40
0.0
 40
0.0
 40
0.0
 40
0.0
 40
0.25
 40
0.25
 40
0.5
 40
0.5
 40
0.75
 40
0.75
 40
1.0
 40
1.0
 40
1.0
 40
1.0
 10
25.56193412255539
 20
14.96806745588875
 30
0.0
 10
25.56193412255539
 20
14.76953014129972
 30
0.0
 10
25.56193412255539
 20
14.57099141046637
 30
0.0
 10
25.56193412255539
 20
14.17482257419283
 30
0.0
 10
25.56193412255539
 20
13.97718962887152
 30
0.0
 10
25.56193412255539
 20
13.58382319998134
 30
0.0
 10
25.56193412255539
 20
13.38808685932504
 30
0.0
 10
25.56193412255539
 20
12.99967494643324
 30
0.0
 10
25.56193412255539
 20
12.8069965053544
 30
0.0
 10
25.56193412255539
 20
12.61655730281689
 30
0.0
  0
SPLINE
  5
CE
330
1F
100
AcDbEntity
  8
0
  6
Continuous
 62
     7
370
    25
100
AcDbSpline
210
0.0
220
0.0
230
1.0
 70
    24
 71
     3
 72
    14
 73
    10
 74
     0
 42
0.00000001
 43
0.00000001
 40
0.0
 40
0.0
 40
0.0
 40
0.0
 40
0.25
 40
0.25
 40
0.5
 40
0.5
 40
0.75
 40
0.75
 40
1.0
 40
1.0
 40
1.0
 40
1.0
 10
25.56193412255539
 20
14.96806745588875
 30
0.0
 10
25.56193412255539
 20
15.16660477047777
 30
0.0
 10
25.56193412255539
 20
15.36514350131113
 30
0.0
 10
25.56193412255539
 20
15.76131233758467
 30
0.0
 10
25.56193412255539
 20
15.95894528290598
 30
0.0
 10
25.56193412255539
 20
16.35231171179616
 30
0.0
 10
25.56193412255539
 20
16.54804805245245
 30
0.0
 10
25.56193412255539
 20
16.93645996534425
 30
0.0
 10
25.56193412255539
 20
17.1291384064231
 30
0.0
 10
25.56193412255539
 20
17.3195776089606
 30
0.0
  0
LINE
  5
CF
330
1F
100
AcDbEntity
  8
0
  6
Continuous
 62
     7
370
    25
100
AcDbLine
 10
25.5619341226
 20
19.5280674559
 30
0.0
 11
25.5619341226
 21
17.319577609
 31
0.0
  0
SPLINE
  5
D0
330
1F
100
AcDbEntity
  8
0
  6
Continuous
 62
     7
370
    25
100
AcDbSpline
210
0.0
220
0.0
230
1.0
 70
     8
 71
     3
 72
    14
 73
    10
 74
     0
 42
0.00000001
 43
0.00000001
 40
0.0
 40
0.0
 40
0.0
 40
0.0
 40
0.25
 40
0.25
 40
0.5
 40
0.5
 40
0.75
 40
0.75
 40
1.0
 40
1.0
 40
1.0
 40
1.0
 10
25.56193412255539
 20
19.52806745588875
 30
0.0
 10
25.56193412255539
 20
19.58422069621958
 30
0.0
 10
25.55198081600287
 20
19.63797428853812
 30
0.0
 10
25.51360920018687
 20
19.74109769694761
 30
0.0
 10
25.48507026821371
 20
19.79027567295525
 30
0.0
 10
25.4078827209336
 20
19.87944018528102
 30
0.0
 10
25.35845403574567
 20
19.9206888495529
 30
0.0
 10
25.23094554856861
 20
19.9850762025549
 30
0.0
 10
25.14932933851447
 20
20.00806745588875
 30
0.0
 10
25.06193412255539
 20
20.00806745588875
 30
0.0
  0
LINE
  5
D1
330
1F
100
AcDbEntity
  8
0
  6
Continuous
 62
     7
370
    25
100
AcDbLine
 10
24.8119341226
 20
20.0080674559
 30
0.0
 11
25.0619341226
 21
20.0080674559
 31
0.0
  0
SPLINE
  5
D2
330
1F
100
AcDbEntity
  8
0
  6
Continuous
 62
     7
370
    25
100
AcDbSpline
210
0.0
220
0.0
230
1.0
 70
     8
 71
     3
 72
    12
 73
     8
 74
     0
 42
0.00000001
 43
0.00000001
 40
0.0
 40
0.0
 40
0.0
 40
0.0
 40
0.5000000000000009
 40
0.5000000000000009
 40
0.7500000000000004
 40
0.7500000000000004
 40
1.0
 40
1.0
 40
1.0
 40
1.0
 10
24.18166788541705
 20
20.33780121875041
 30
0.0
 10
24.22871603996546
 20
20.26777702437807
 30
0.0
 10
24.29375427117509
 20
20.19433371961537
 30
0.0
 10
24.44722762422707
 20
20.09616561934917
 30
0.0
 10
24.50738734395211
 20
20.06623848799644
 30
0.0
 10
24.64867486551724
 20
20.02171706273318
 30
0.0
 10
24.72911517434091
 20
20.00806745588875
 30
0.0
 10
24.81193412255539
 20
20.00806745588875
 30
0.0
  0
LINE
  5
D3
330
1F
100
AcDbEntity
  8
0
  6
Continuous
 62
     7
370
    25
100
AcDbLine
 10
24.1816678854
 20
20.3378012188
 30
0.0
 11
24.8119341226
 21
20.9680674559
 31
0.0
  0
SPLINE
  5
D4
330
1F
100
AcDbEntity
  8
0
  6
Continuous
 62
     7
370
    25
100
AcDbSpline
210
0.0
220
0.0
230
1.0
 70
    24
 71
     3
 72
    14
 73
    10
 74
     0
 42
0.00000001
 43
0.00000001
 40
0.0
 40
0.0
 40
0.0
 40
0.0
 40
0.25
 40
0.25
 40
0.5
 40
0.5
 40
0.75
 40
0.75
 40
1.0
 40
1.0
 40
1.0
 40
1.0
 10
18.81193412255539
 20
21.71806745588875
 30
0.0
 10
19.01047143714441
 20
21.71806745588875
 30
0.0
 10
19.20901016797777
 20
21.71806745588875
 30
0.0
 10
19.60517900425132
 20
21.71806745588875
 30
0.0
 10
19.80281194957261
 20
21.71806745588875
 30
0.0
 10
20.1961783784628
 20
21.71806745588875
 30
0.0
 10
20.39191471911909
 20
21.71806745588875
 30
0.0
 10
20.78032663201089
 20
21.71806745588875
 30
0.0
 10
20.97300507308973
 20
21.71806745588875
 30
0.0
 10
21.16344427562724
 20
21.71806745588875
 30
0.0
  0
SPLINE
  5
D5
330
1F
100
AcDbEntity
  8
0
  6
Continuous
 62
     7
370
    25
100
AcDbSpline
210
0.0
220
0.0
230
1.0
 70
    24
 71
     3
 72
    14
 73
    10
 74
     0
 42
0.00000001
 43
0.00000001
 40
0.0
 40
0.0
 40
0.0
 40
0.0
 40
0.25
 40
0.25
 40
0.5
 40
0.5
 40
0.75
 40
0.75
 40
1.0
 40
1.0
 40
1.0
 40
1.0
 10
18.81193412255539
 20
21.71806745588875
 30
0.0
 10
18.61339680796636
 20
21.71806745588875
 30
0.0
 10
18.41485807713301
 20
21.71806745588875
 30
0.0
 10
18.01868924085947
 20
21.71806745588875
 30
0.0
 10
17.82105629553816
 20
21.71806745588875
 30
0.0
 10
17.42768986664798
 20
21.71806745588875
 30
0.0
 10
17.23195352599168
 20
21.71806745588875
 30
0.0
 10
16.84354161309988
 20
21.71806745588875
 30
0.0
 10
16.65086317202104
 20
21.71806745588875
 30
0.0
 10
16.46042396948353
 20
21.71806745588875
 30
0.0
  0
LINE
  5
D6
330
1F
100
AcDbEntity
  8
0
  6
Continuous
 62
     7
370
    25
100
AcDbLine
 10
14.2519341226
 20
21.7180674559
 30
0.0
 11
16.4604239695
 21
21.7180674559
 31
0.0
  0
SPLINE
  5
D7
330
1F
100
AcDbEntity
  8
0
  6
Continuous
 62
     7
370
    25
100
AcDbSpline
210
0.0
220
0.0
230
1.0
 70
     8
 71
     3
 72
    14
 73
    10
 74
     0
 42
0.00000001
 43
0.00000001
 40
0.0
 40
0.0
 40
0.0
 40
0.0
 40
0.25
 40
0.25
 40
0.5
 40
0.5
 40
0.75
 40
0.75
 40
1.0
 40
1.0
 40
1.0
 40
1.0
 10
14.25193412255539
 20
21.71806745588875
 30
0.0
 10
14.19578088222456
 20
21.71806745588875
 30
0.0
 10
14.14202728990601
 20
21.70811414933623
 30
0.0
 10
14.03890388149653
 20
21.66974253352024
 30
0.0
 10
13.98972590548889
 20
21.64120360154707
 30
0.0
 10
13.90056139316312
 20
21.56401605426696
 30
0.0
 10
13.85931272889124
 20
21.51458736907903
 30
0.0
 10
13.79492537588923
 20
21.38707888190197
 30
0.0
 10
13.77193412255539
 20
21.30546267184783
 30
0.0
 10
13.77193412255539
 20
21.21806745588875
 30
0.0
  0
LINE
  5
D8
330
1F
100
AcDbEntity
  8
0
  6
Continuous
 62
     7
370
    25
100
AcDbLine
 10
13.7719341226
 20
11.9680674559
 30
0.0
 11
13.7719341226
 21
21.2180674559
 31
0.0
  0
SPLINE
  5
D9
330
1F
100
AcDbEntity
  8
0
  6
Continuous
 62
     7
370
    25
100
AcDbSpline
210
0.0
220
0.0
230
1.0
 70
     8
 71
     3
 72
     8
 73
     4
 74
     0
 42
0.00000001
 43
0.00000001
 40
0.0
 40
0.0
 40
0.0
 40
0.0
 40
1.0
 40
1.0
 40
1.0
 40
1.0
 10
13.79720294011066
 20
11.62491333425893
 30
0.0
 10
13.78055494568559
 20
11.7372892982045
 30
0.0
 10
13.77193412255539
 20
11.85160086866655
 30
0.0
 10
13.77193412255539
 20
11.96806745588875
 30
0.0
  0
SPLINE
  5
DA
330
1F
100
AcDbEntity
  8
0
  6
Continuous
 62
     7
370
    25
100
AcDbSpline
210
0.0
220
0.0
230
1.0
 70
     8
 71
     3
 72
    12
 73
     8
 74
     0
 42
0.00000001
 43
0.00000001
 40
0.0
 40
0.0
 40
0.0
 40
0.0
 40
0.2499999999999999
 40
0.2499999999999999
 40
0.4999999999999998
 40
0.4999999999999998
 40
1.0
 40
1.0
 40
1.0
 40
1.0
 10
23.85193412255539
 20
20.96806745588876
 30
0.0
 10
23.85193412255539
 20
20.88524850767427
 30
0.0
 10
23.86558372939982
 20
20.8048081988506
 30
0.0
 10
23.91010515466308
 20
20.66352067728547
 30
0.0
 10
23.94003228601581
 20
20.60336095756043
 30
0.0
 10
24.03820038628201
 20
20.44988760450845
 30
0.0
 10
24.11164369104466
 20
20.38484937329849
 30
0.0
 10
24.18166788541702
 20
20.33780121875008
 30
0.0
  0
LINE
  5
DB
330
1F
100
AcDbEntity
  8
0
  6
Continuous
 62
     7
370
    25
100
AcDbLine
 10
23.8519341226
 20
21.2180674559
 30
0.0
 11
23.8519341226
 21
20.9680674559
 31
0.0
  0
SPLINE
  5
DC
330
1F
100
AcDbEntity
  8
0
  6
Continuous
 62
     7
370
    25
100
AcDbSpline
210
0.0
220
0.0
230
1.0
 70
     8
 71
     3
 72
    14
 73
    10
 74
     0
 42
0.00000001
 43
0.00000001
 40
0.0
 40
0.0
 40
0.0
 40
0.0
 40
0.25
 40
0.25
 40
0.5
 40
0.5
 40
0.75
 40
0.75
 40
1.0
 40
1.0
 40
1.0
 40
1.0
 10
23.85193412255539
 20
21.21806745588875
 30
0.0
 10
23.85193412255539
 20
21.30538548489513
 30
0.0
 10
23.82898132376894
 20
21.38701359271673
 30
0.0
 10
23.76448572460725
 20
21.51471471085017
 30
0.0
 10
23.72325323780098
 20
21.56410550367574
 30
0.0
 10
23.6337913978319
 20
21.64146417123377
 30
0.0
 10
23.58431656047173
 20
21.67003298080565
 30
0.0
 10
23.48174430253954
 20
21.70810034977275
 30
0.0
 10
23.42813454125827
 20
21.71806745588875
 30
0.0
 10
23.37193412255539
 20
21.71806745588875
 30
0.0
  0
LINE
  5
DD
330
1F
100
AcDbEntity
  8
0
  6
Continuous
 62
     7
370
    25
100
AcDbLine
 10
21.1634442756
 20
21.7180674559
 30
0.0
 11
23.3719341226
 21
21.7180674559
 31
0.0
  0
LINE
  5
DE
330
1F
100
AcDbEntity
  8
0
  6
Continuous
 62
     7
370
    25
100
AcDbLine
 10
23.5619341226
 20
21.2180674559
 30
0.0
 11
21.2614238653
 21
21.2180674559
 31
0.0
  0
SPLINE
  5
DF
330
1F
100
AcDbEntity
  8
0
  6
Continuous
 62
     7
370
    25
100
AcDbSpline
210
0.0
220
0.0
230
1.0
 70
     8
 71
     3
 72
    10
 73
     6
 74
     0
 42
0.00000001
 43
0.00000001
 40
0.0
 40
0.0
 40
0.0
 40
0.0
 40
0.5
 40
0.5
 40
1.0
 40
1.0
 40
1.0
 40
1.0
 10
21.24716777552623
 20
21.3948441511846
 30
0.0
 10
21.25075866992633
 20
21.36641586032686
 30
0.0
 10
21.25432269237941
 20
21.33348193189005
 30
0.0
 10
21.25965529008553
 20
21.27056797505815
 30
0.0
 10
21.26142386533857
 20
21.24058794666305
 30
0.0
 10
21.26142386533857
 20
21.21806745588875
 30
0.0
  0
SPLINE
  5
E0
330
1F
100
AcDbEntity
  8
0
  6
Continuous
 62
     7
370
    25
100
AcDbSpline
210
0.0
220
0.0
230
1.0
 70
     8
 71
     3
 72
    12
 73
     8
 74
     0
 42
0.00000001
 43
0.00000001
 40
0.0
 40
0.0
 40
0.0
 40
0.0
 40
0.25
 40
0.25
 40
0.5
 40
0.5
 40
1.0
 40
1.0
 40
1.0
 40
1.0
 10
21.24716777552623
 20
21.3948441511846
 30
0.0
 10
21.24537232832619
 20
21.40905829661347
 30
0.0
 10
21.2433450685194
 20
21.42074182587191
 30
0.0
 10
21.24029343810912
 20
21.43980150003976
 30
0.0
 10
21.23926906750562
 20
21.44717764494917
 30
0.0
 10
21.23990006112518
 20
21.46397577514158
 30
0.0
 10
21.24525953077831
 20
21.46806745588875
 30
0.0
 10
21.26142386533857
 20
21.46806745588875
 30
0.0
  0
LINE
  5
E1
330
1F
100
AcDbEntity
  8
0
  6
Continuous
 62
     7
370
    25
100
AcDbLine
 10
21.2614238653
 20
21.4680674559
 30
0.0
 11
23.5619341226
 21
21.4680674559
 31
0.0
  0
LINE
  5
E2
330
1F
100
AcDbEntity
  8
0
  6
Continuous
 62
     7
370
    25
100
AcDbLine
 10
23.5619341226
 20
21.2180674559
 30
0.0
 11
23.5619341226
 21
21.4680674559
 31
0.0
  0
LINE
  5
E3
330
1F
100
AcDbEntity
  8
0
  6
Continuous
 62
     7
370
    25
100
AcDbLine
 10
23.5619341226
 20
20.9680674559
 30
0.0
 11
23.5619341226
 21
21.2180674559
 31
0.0
  0
ARC
  5
E4
330
1F
100
AcDbEntity
  8
0
  6
Continuous
 62
     7
370
    25
100
AcDbCircle
 10
24.8119341226
 20
20.9680674559
 30
0.0
 40
1.25
100
AcDbArc
 50
180.0
 51
270.0
  0
LINE
  5
E5
330
1F
100
AcDbEntity
  8
0
  6
Continuous
 62
     7
370
    25
100
AcDbLine
 10
25.0619341226
 20
19.7180674559
 30
0.0
 11
24.8119341226
 21
19.7180674559
 31
0.0
  0
LINE
  5
E6
330
1F
100
AcDbEntity
  8
0
  6
Continuous
 62
     7
370
    25
100
AcDbLine
 10
25.0619341226
 20
17.4175571987
 30
0.0
 11
25.0619341226
 21
19.7180674559
 31
0.0
  0
LINE
  5
E7
330
1F
100
AcDbEntity
  8
0
  6
Continuous
 62
     7
370
    25
100
AcDbLine
 10
25.0619341226
 20
17.4175571987
 30
0.0
 11
25.0619341226
 21
14.9680674559
 31
0.0
  0
LINE
  5
E8
330
1F
100
AcDbEntity
  8
0
  6
Continuous
 62
     7
370
    25
100
AcDbLine
 10
25.0619341226
 20
14.9680674559
 30
0.0
 11
25.0619341226
 21
12.5185777131
 31
0.0
  0
LINE
  5
E9
330
1F
100
AcDbEntity
  8
0
  6
Continuous
 62
     7
370
    25
100
AcDbLine
 10
25.0619341226
 20
10.2180674559
 30
0.0
 11
25.0619341226
 21
12.5185777131
 31
0.0
  0
LINE
  5
EA
330
1F
100
AcDbEntity
  8
0
  6
Continuous
 62
     7
370
    25
100
AcDbLine
 10
15.8119341226
 20
10.2180674559
 30
0.0
 11
25.0619341226
 21
10.2180674559
 31
0.0
  0
ARC
  5
EB
330
1F
100
AcDbEntity
  8
0
  6
Continuous
 62
     7
370
    25
100
AcDbCircle
 10
15.8119341226
 20
11.9680674559
 30
0.0
 40
1.750000000000002
100
AcDbArc
 50
180.0
 51
270.0
  0
LINE
  5
EC
330
1F
100
AcDbEntity
  8
0
  6
Continuous
 62
     7
370
    25
100
AcDbLine
 10
14.0619341226
 20
21.2180674559
 30
0.0
 11
14.0619341226
 21
11.9680674559
 31
0.0
  0
LINE
  5
ED
330
1F
100
AcDbEntity
  8
0
  6
Continuous
 62
     7
370
    25
100
AcDbLine
 10
16.3624443798
 20
21.2180674559
 30
0.0
 11
14.0619341226
 21
21.2180674559
 31
0.0
  0
LINE
  5
EE
330
1F
100
AcDbEntity
  8
0
  6
Continuous
 62
     7
370
    25
100
AcDbLine
 10
16.3624443798
 20
21.2180674559
 30
0.0
 11
18.8119341226
 21
21.2180674559
 31
0.0
  0
LINE
  5
EF
330
1F
100
AcDbEntity
  8
0
  6
Continuous
 62
     7
370
    25
100
AcDbLine
 10
18.8119341226
 20
21.2180674559
 30
0.0
 11
21.2614238653
 21
21.2180674559
 31
0.0
  0
SPLINE
  5
F0
330
1F
100
AcDbEntity
  8
0
  6
Continuous
 62
     7
370
    25
100
AcDbSpline
210
0.0
220
0.0
230
1.0
 70
     8
 71
     3
 72
    14
 73
    10
 74
     0
 42
0.00000001
 43
0.00000001
 40
0.0
 40
0.0
 40
0.0
 40
0.0
 40
0.25
 40
0.25
 40
0.5
 40
0.5
 40
0.75
 40
0.75
 40
1.0
 40
1.0
 40
1.0
 40
1.0
 10
21.51879711991771
 20
15.24871475983233
 30
0.0
 10
21.57562310942866
 20
15.37209163747963
 30
0.0
 10
21.66822222711142
 20
15.47537985361943
 30
0.0
 10
21.89799634211793
 20
15.61847967688548
 30
0.0
 10
22.03152111307699
 20
15.65616473942447
 30
0.0
 10
22.30298134261216
 20
15.65592561452422
 30
0.0
 10
22.43635598645061
 20
15.61776115598753
 30
0.0
 10
22.66378355336106
 20
15.47614029283286
 30
0.0
 10
22.75758485812582
 20
15.37210193514167
 30
0.0
 10
22.81441559062288
 20
15.24871475983286
 30
0.0
  0
LINE
  5
F1
330
1F
100
AcDbEntity
  8
0
  6
Continuous
 62
     7
370
    25
100
AcDbLine
 10
20.6270027447
 20
12.7552969797
 30
0.0
 11
21.5187971199
 21
15.2487147598
 31
0.0
  0
SPLINE
  5
F2
330
1F
100
AcDbEntity
  8
0
  6
Continuous
 62
     7
370
    25
100
AcDbSpline
210
0.0
220
0.0
230
1.0
 70
     8
 71
     3
 72
    10
 73
     6
 74
     0
 42
0.00000001
 43
0.00000001
 40
0.0
 40
0.0
 40
0.0
 40
0.0
 40
0.5
 40
0.5
 40
1.0
 40
1.0
 40
1.0
 40
1.0
 10
20.29124446308627
 20
12.64248042694242
 30
0.0
 10
20.35032834287206
 20
12.60996591164319
 30
0.0
 10
20.42153971271733
 20
12.60386105479728
 30
0.0
 10
20.54856037147928
 20
12.644061465823
 30
0.0
 10
20.6042496190251
 20
12.69168024280992
 30
0.0
 10
20.62700274469814
 20
12.75529697967694
 30
0.0
  0
LINE
  5
F3
330
1F
100
AcDbEntity
  8
0
  6
Continuous
 62
     7
370
    25
100
AcDbLine
 10
19.5270433671
 20
13.0630287781
 30
0.0
 11
20.2912444631
 21
12.6424804269
 31
0.0
  0
LINE
  5
F4
330
1F
100
AcDbEntity
  8
0
  6
Continuous
 62
     7
370
    25
100
AcDbLine
 10
20.4742138457
 20
11.2574058746
 30
0.0
 11
19.5270433671
 21
13.0630287781
 31
0.0
  0
SPLINE
  5
F5
330
1F
100
AcDbEntity
  8
0
  6
Continuous
 62
     7
370
    25
100
AcDbSpline
210
0.0
220
0.0
230
1.0
 70
     8
 71
     3
 72
    10
 73
     6
 74
     0
 42
0.00000001
 43
0.00000001
 40
0.0
 40
0.0
 40
0.0
 40
0.0
 40
0.5000000000000006
 40
0.5000000000000006
 40
1.0
 40
1.0
 40
1.0
 40
1.0
 10
20.95575484030902
 20
11.17035202009068
 30
0.0
 10
20.88492859298217
 20
11.10748659263249
 30
0.0
 10
20.78605464562725
 20
11.0804582593052
 30
0.0
 10
20.60193322291564
 20
11.11340898760323
 30
0.0
 10
20.51820890888947
 20
11.17353660760593
 30
0.0
 10
20.4742138456805
 20
11.25740587461867
 30
0.0
  0
SPLINE
  5
F6
330
1F
100
AcDbEntity
  8
0
  6
Continuous
 62
     7
370
    25
100
AcDbSpline
210
0.0
220
0.0
230
1.0
 70
     8
 71
     3
 72
    14
 73
    10
 74
     0
 42
0.00000001
 43
0.00000001
 40
0.0
 40
0.0
 40
0.0
 40
0.0
 40
0.2500000000000001
 40
0.2500000000000001
 40
0.3750000000000003
 40
0.3750000000000003
 40
0.5000000000000004
 40
0.5000000000000004
 40
1.0
 40
1.0
 40
1.0
 40
1.0
 10
23.37745787023225
 20
11.17035202009034
 30
0.0
 10
23.21115764852624
 20
11.31796021505316
 30
0.0
 10
23.02098691373635
 20
11.43067791380693
 30
0.0
 10
22.70991005194895
 20
11.54632449837036
 30
0.0
 10
22.60401155242259
 20
11.57509445957966
 30
0.0
 10
22.38797271508632
 20
11.61383269442141
 30
0.0
 10
22.27672537845142
 20
11.62373946806424
 30
0.0
 10
21.72575498981939
 20
11.62371734906579
 30
0.0
 10
21.28831796132437
 20
11.46553528263036
 30
0.0
 10
20.95575484030902
 20
11.17035202009068
 30
0.0
  0
SPLINE
  5
F7
330
1F
100
AcDbEntity
  8
0
  6
Continuous
 62
     7
370
    25
100
AcDbSpline
210
0.0
220
0.0
230
1.0
 70
     8
 71
     3
 72
    10
 73
     6
 74
     0
 42
0.00000001
 43
0.00000001
 40
0.0
 40
0.0
 40
0.0
 40
0.0
 40
0.5
 40
0.5
 40
1.0
 40
1.0
 40
1.0
 40
1.0
 10
23.85899886486053
 20
11.25740587461868
 30
0.0
 10
23.81500685480984
 20
11.17354242794412
 30
0.0
 10
23.73175283630597
 20
11.11363133512492
 30
0.0
 10
23.54757295336231
 20
11.08039553451775
 30
0.0
 10
23.44827580139085
 20
11.10749397406924
 30
0.0
 10
23.37745787023229
 20
11.17035202009039
 30
0.0
  0
LINE
  5
F8
330
1F
100
AcDbEntity
  8
0
  6
Continuous
 62
     7
370
    25
100
AcDbLine
 10
24.817728953
 20
13.0850652503
 30
0.0
 11
23.8589988649
 21
11.2574058746
 31
0.0
  0
LINE
  5
F9
330
1F
100
AcDbEntity
  8
0
  6
Continuous
 62
     7
370
    25
100
AcDbLine
 10
24.0454596112
 20
12.6437439566
 30
0.0
 11
24.817728953
 21
13.0850652503
 31
0.0
  0
SPLINE
  5
FA
330
1F
100
AcDbEntity
  8
0
  6
Continuous
 62
     7
370
    25
100
AcDbSpline
210
0.0
220
0.0
230
1.0
 70
     8
 71
     3
 72
    10
 73
     6
 74
     0
 42
0.00000001
 43
0.00000001
 40
0.0
 40
0.0
 40
0.0
 40
0.0
 40
0.5
 40
0.5
 40
1.0
 40
1.0
 40
1.0
 40
1.0
 10
23.70641687028398
 20
12.7547184839733
 30
0.0
 10
23.72933299169783
 20
12.6906460181972
 30
0.0
 10
23.78546064251182
 20
12.64280444697775
 30
0.0
 10
23.91454228528047
 20
12.60294065510051
 30
0.0
 10
23.98649344998481
 20
12.61004713462783
 30
0.0
 10
24.04545961119513
 20
12.64374395662877
 30
0.0
  0
LINE
  5
FB
330
1F
100
AcDbEntity
  8
0
  6
Continuous
 62
     7
370
    25
100
AcDbLine
 10
22.8144155906
 20
15.2487147598
 30
0.0
 11
23.7064168703
 21
12.754718484
 31
0.0
  0
LINE
  5
FC
330
1F
100
AcDbEntity
  8
0
  6
Continuous
 62
     7
370
    25
100
AcDbLine
 10
25.3119341226
 20
19.7180674559
 30
0.0
 11
25.3119341226
 21
17.4175571987
 31
0.0
  0
SPLINE
  5
FD
330
1F
100
AcDbEntity
  8
0
  6
Continuous
 62
     7
370
    25
100
AcDbSpline
210
0.0
220
0.0
230
1.0
 70
     8
 71
     3
 72
    12
 73
     8
 74
     0
 42
0.00000001
 43
0.00000001
 40
0.0
 40
0.0
 40
0.0
 40
0.0
 40
0.25
 40
0.25
 40
0.5
 40
0.5
 40
1.0
 40
1.0
 40
1.0
 40
1.0
 10
25.23871081785124
 20
17.40330110885959
 30
0.0
 10
25.2529249632801
 20
17.40150566165955
 30
0.0
 10
25.26460849253855
 20
17.39947840185276
 30
0.0
 10
25.2836681667064
 20
17.39642677144248
 30
0.0
 10
25.29104431161581
 20
17.39540240083898
 30
0.0
 10
25.30784244180822
 20
17.39603339445854
 30
0.0
 10
25.31193412255539
 20
17.40139286411167
 30
0.0
 10
25.31193412255539
 20
17.41755719867193
 30
0.0
  0
SPLINE
  5
FE
330
1F
100
AcDbEntity
  8
0
  6
Continuous
 62
     7
370
    25
100
AcDbSpline
210
0.0
220
0.0
230
1.0
 70
     8
 71
     3
 72
    10
 73
     6
 74
     0
 42
0.00000001
 43
0.00000001
 40
0.0
 40
0.0
 40
0.0
 40
0.0
 40
0.5
 40
0.5
 40
1.0
 40
1.0
 40
1.0
 40
1.0
 10
25.23871081785124
 20
17.40330110885959
 30
0.0
 10
25.21028252699351
 20
17.40689200325969
 30
0.0
 10
25.17734859855669
 20
17.41045602571277
 30
0.0
 10
25.11443464172479
 20
17.41578862341889
 30
0.0
 10
25.08445461332969
 20
17.41755719867193
 30
0.0
 10
25.06193412255539
 20
17.41755719867193
 30
0.0
  0
LINE
  5
FF
330
1F
100
AcDbEntity
  8
0
  6
Continuous
 62
     7
370
    25
100
AcDbLine
 10
25.3119341226
 20
19.7180674559
 30
0.0
 11
25.0619341226
 21
19.7180674559
 31
0.0
  0
SPLINE
  5
100
330
1F
100
AcDbEntity
  8
0
  6
Continuous
 62
     7
370
    25
100
AcDbSpline
210
0.0
220
0.0
230
1.0
 70
     8
 71
     3
 72
    12
 73
     8
 74
     0
 42
0.00000001
 43
0.00000001
 40
0.0
 40
0.0
 40
0.0
 40
0.0
 40
0.25
 40
0.25
 40
0.5
 40
0.5
 40
1.0
 40
1.0
 40
1.0
 40
1.0
 10
25.23871081785124
 20
12.5328338029179
 30
0.0
 10
25.2529249632801
 20
12.53462925011795
 30
0.0
 10
25.26460849253855
 20
12.53665650992473
 30
0.0
 10
25.2836681667064
 20
12.53970814033502
 30
0.0
 10
25.29104431161581
 20
12.54073251093852
 30
0.0
 10
25.30784244180822
 20
12.54010151731896
 30
0.0
 10
25.31193412255539
 20
12.53474204766583
 30
0.0
 10
25.31193412255539
 20
12.51857771310557
 30
0.0
  0
LINE
  5
101
330
1F
100
AcDbEntity
  8
0
  6
Continuous
 62
     7
370
    25
100
AcDbLine
 10
25.3119341226
 20
12.5185777131
 30
0.0
 11
25.3119341226
 21
10.2180674559
 31
0.0
  0
LINE
  5
102
330
1F
100
AcDbEntity
  8
0
  6
Continuous
 62
     7
370
    25
100
AcDbLine
 10
25.3119341226
 20
10.2180674559
 30
0.0
 11
25.0619341226
 21
10.2180674559
 31
0.0
  0
SPLINE
  5
103
330
1F
100
AcDbEntity
  8
0
  6
Continuous
 62
     7
370
    25
100
AcDbSpline
210
0.0
220
0.0
230
1.0
 70
     8
 71
     3
 72
    10
 73
     6
 74
     0
 42
0.00000001
 43
0.00000001
 40
0.0
 40
0.0
 40
0.0
 40
0.0
 40
0.5
 40
0.5
 40
1.0
 40
1.0
 40
1.0
 40
1.0
 10
25.23871081785124
 20
12.5328338029179
 30
0.0
 10
25.21028252699351
 20
12.52924290851781
 30
0.0
 10
25.17734859855669
 20
12.52567888606472
 30
0.0
 10
25.11443464172479
 20
12.5203462883586
 30
0.0
 10
25.08445461332969
 20
12.51857771310557
 30
0.0
 10
25.06193412255539
 20
12.51857771310557
 30
0.0
  0
LINE
  5
104
330
1F
100
AcDbEntity
  8
0
  6
Continuous
 62
     7
370
    25
100
AcDbLine
 10
14.0619341226
 20
21.4680674559
 30
0.0
 11
16.3624443798
 21
21.4680674559
 31
0.0
  0
SPLINE
  5
105
330
1F
100
AcDbEntity
  8
0
  6
Continuous
 62
     7
370
    25
100
AcDbSpline
210
0.0
220
0.0
230
1.0
 70
     8
 71
     3
 72
    12
 73
     8
 74
     0
 42
0.00000001
 43
0.00000001
 40
0.0
 40
0.0
 40
0.0
 40
0.0
 40
0.25
 40
0.25
 40
0.5
 40
0.5
 40
1.0
 40
1.0
 40
1.0
 40
1.0
 10
16.37670046958454
 20
21.3948441511846
 30
0.0
 10
16.37849591678459
 20
21.40905829661347
 30
0.0
 10
16.38052317659137
 20
21.42074182587191
 30
0.0
 10
16.38357480700166
 20
21.43980150003976
 30
0.0
 10
16.38459917760516
 20
21.44717764494917
 30
0.0
 10
16.3839681839856
 20
21.46397577514158
 30
0.0
 10
16.37860871433247
 20
21.46806745588875
 30
0.0
 10
16.3624443797722
 20
21.46806745588875
 30
0.0
  0
SPLINE
  5
106
330
1F
100
AcDbEntity
  8
0
  6
Continuous
 62
     7
370
    25
100
AcDbSpline
210
0.0
220
0.0
230
1.0
 70
     8
 71
     3
 72
    10
 73
     6
 74
     0
 42
0.00000001
 43
0.00000001
 40
0.0
 40
0.0
 40
0.0
 40
0.0
 40
0.5
 40
0.5
 40
1.0
 40
1.0
 40
1.0
 40
1.0
 10
16.37670046958454
 20
21.3948441511846
 30
0.0
 10
16.37310957518445
 20
21.36641586032686
 30
0.0
 10
16.36954555273137
 20
21.33348193189005
 30
0.0
 10
16.36421295502524
 20
21.27056797505815
 30
0.0
 10
16.3624443797722
 20
21.24058794666305
 30
0.0
 10
16.3624443797722
 20
21.21806745588875
 30
0.0
  0
LINE
  5
107
330
1F
100
AcDbEntity
  8
0
  6
Continuous
 62
     7
370
    25
100
AcDbLine
 10
14.0619341226
 20
21.2180674559
 30
0.0
 11
14.0619341226
 21
21.4680674559
 31
0.0
  0
SPLINE
  5
108
330
1F
100
AcDbEntity
  8
0
  6
Continuous
 62
     7
370
    25
100
AcDbSpline
210
0.0
220
0.0
230
1.0
 70
     8
 71
     3
 72
    12
 73
     8
 74
     0
 42
0.00000001
 43
0.00000001
 40
0.0
 40
0.0
 40
0.0
 40
0.0
 40
0.25
 40
0.25
 40
0.5
 40
0.5
 40
1.0
 40
1.0
 40
1.0
 40
1.0
 10
18.81193412255539
 20
21.47007505617843
 30
0.0
 10
19.01414154497568
 20
21.4598115968893
 30
0.0
 10
19.21602836908013
 20
21.45223281709252
 30
0.0
 10
19.62140555622835
 20
21.43781936164345
 30
0.0
 10
19.82489591927212
 20
21.43098468599116
 30
0.0
 10
20.44113942016897
 20
21.40465893299072
 30
0.0
 10
20.84113094603274
 20
21.39499198162974
 30
0.0
 10
21.24716777552623
 20
21.3948441511846
 30
0.0
  0
SPLINE
  5
109
330
1F
100
AcDbEntity
  8
0
  6
Continuous
 62
     7
370
    25
100
AcDbSpline
210
0.0
220
0.0
230
1.0
 70
    24
 71
     3
 72
    10
 73
     6
 74
     0
 42
0.00000001
 43
0.00000001
 40
0.0
 40
0.0
 40
0.0
 40
0.0
 40
0.5
 40
0.5
 40
1.0
 40
1.0
 40
1.0
 40
1.0
 10
18.81193412255539
 20
21.47007505617843
 30
0.0
 10
18.81193412255539
 20
21.4290212190219
 30
0.0
 10
18.81193412255539
 20
21.38494686670886
 30
0.0
 10
18.81193412255539
 20
21.29359559719693
 30
0.0
 10
18.81193412255539
 20
21.26084581569991
 30
0.0
 10
18.81193412255539
 20
21.21806745588875
 30
0.0
  0
SPLINE
  5
10A
330
1F
100
AcDbEntity
  8
0
  6
Continuous
 62
     7
370
    25
100
AcDbSpline
210
0.0
220
0.0
230
1.0
 70
     8
 71
     3
 72
    12
 73
     8
 74
     0
 42
0.00000001
 43
0.00000001
 40
0.0
 40
0.0
 40
0.0
 40
0.0
 40
0.25
 40
0.25
 40
0.5
 40
0.5
 40
1.0
 40
1.0
 40
1.0
 40
1.0
 10
25.31394172284508
 20
14.96806745588875
 30
0.0
 10
25.30367826355594
 20
14.76586003346846
 30
0.0
 10
25.29609948375916
 20
14.56397320936401
 30
0.0
 10
25.28168602831009
 20
14.15859602221579
 30
0.0
 10
25.2748513526578
 20
13.95510565917201
 30
0.0
 10
25.24852559965736
 20
13.33886215827516
 30
0.0
 10
25.23885864829639
 20
12.9388706324114
 30
0.0
 10
25.23871081785124
 20
12.5328338029179
 30
0.0
  0
SPLINE
  5
10B
330
1F
100
AcDbEntity
  8
0
  6
Continuous
 62
     7
370
    25
100
AcDbSpline
210
0.0
220
0.0
230
1.0
 70
    24
 71
     3
 72
    10
 73
     6
 74
     0
 42
0.00000001
 43
0.00000001
 40
0.0
 40
0.0
 40
0.0
 40
0.0
 40
0.5
 40
0.5
 40
1.0
 40
1.0
 40
1.0
 40
1.0
 10
25.31394172284508
 20
14.96806745588875
 30
0.0
 10
25.27288788568854
 20
14.96806745588875
 30
0.0
 10
25.22881353337551
 20
14.96806745588875
 30
0.0
 10
25.13746226386358
 20
14.96806745588875
 30
0.0
 10
25.10471248236655
 20
14.96806745588875
 30
0.0
 10
25.06193412255539
 20
14.96806745588875
 30
0.0
  0
SPLINE
  5
10C
330
1F
100
AcDbEntity
  8
0
  6
Continuous
 62
     7
370
    25
100
AcDbSpline
210
0.0
220
0.0
230
1.0
 70
     8
 71
     3
 72
    12
 73
     8
 74
     0
 42
0.00000001
 43
0.00000001
 40
0.0
 40
0.0
 40
0.0
 40
0.0
 40
0.25
 40
0.25
 40
0.5
 40
0.5
 40
1.0
 40
1.0
 40
1.0
 40
1.0
 10
25.31394172284508
 20
14.96806745588875
 30
0.0
 10
25.30367826355594
 20
15.17027487830904
 30
0.0
 10
25.29609948375917
 20
15.37216170241349
 30
0.0
 10
25.2816860283101
 20
15.77753888956171
 30
0.0
 10
25.27485135265781
 20
15.98102925260548
 30
0.0
 10
25.24852559965736
 20
16.59727275350234
 30
0.0
 10
25.23885864829639
 20
16.9972642793661
 30
0.0
 10
25.23871081785124
 20
17.40330110885959
 30
0.0
  0
SPLINE
  5
10D
330
1F
100
AcDbEntity
  8
0
  6
Continuous
 62
     7
370
    25
100
AcDbSpline
210
0.0
220
0.0
230
1.0
 70
     8
 71
     3
 72
    12
 73
     8
 74
     0
 42
0.00000001
 43
0.00000001
 40
0.0
 40
0.0
 40
0.0
 40
0.0
 40
0.25
 40
0.25
 40
0.5
 40
0.5
 40
1.0
 40
1.0
 40
1.0
 40
1.0
 10
18.81193412255539
 20
21.47007505617843
 30
0.0
 10
18.6097267001351
 20
21.4598115968893
 30
0.0
 10
18.40783987603065
 20
21.45223281709252
 30
0.0
 10
18.00246268888243
 20
21.43781936164346
 30
0.0
 10
17.79897232583866
 20
21.43098468599116
 30
0.0
 10
17.1827288249418
 20
21.40465893299072
 30
0.0
 10
16.78273729907804
 20
21.39499198162974
 30
0.0
 10
16.37670046958454
 20
21.3948441511846
 30
0.0
  0
LINE
  5
10E
330
1F
100
AcDbEntity
  8
0
  6
Continuous
 62
     7
370
    25
100
AcDbLine
 10
23.7064168703
 20
12.754718484
 30
0.0
 11
23.4710199326
 21
12.6705265501
 31
0.0
  0
LINE
  5
10F
330
1F
100
AcDbEntity
  8
0
  6
Continuous
 62
     7
370
    25
100
AcDbLine
 10
23.4710199326
 20
12.6705265501
 30
0.0
 11
22.5831576336
 21
15.1529504185
 31
0.0
  0
SPLINE
  5
110
330
1F
100
AcDbEntity
  8
0
  6
Continuous
 62
     7
370
    25
100
AcDbSpline
210
0.0
220
0.0
230
1.0
 70
     8
 71
     3
 72
    10
 73
     6
 74
     0
 42
0.00000001
 43
0.00000001
 40
0.0
 40
0.0
 40
0.0
 40
0.0
 40
0.5
 40
0.5
 40
1.0
 40
1.0
 40
1.0
 40
1.0
 10
22.58315763356795
 20
15.15295041848851
 30
0.0
 10
22.58315763356795
 20
15.15295041848851
 30
0.0
 10
22.60817368091861
 20
15.16353308224944
 30
0.0
 10
22.6933999482178
 20
15.19903938147113
 30
0.0
 10
22.75410176802141
 20
15.22408251600205
 30
0.0
 10
22.81441559062294
 20
15.24871475983288
 30
0.0
  0
SPLINE
  5
111
330
1F
100
AcDbEntity
  8
0
  6
Continuous
 62
     7
370
    25
100
AcDbSpline
210
0.0
220
0.0
230
1.0
 70
     8
 71
     3
 72
    14
 73
    10
 74
     0
 42
0.00000001
 43
0.00000001
 40
0.0
 40
0.0
 40
0.0
 40
0.0
 40
0.25
 40
0.25
 40
0.5
 40
0.5
 40
0.75
 40
0.75
 40
1.0
 40
1.0
 40
1.0
 40
1.0
 10
22.58315763356797
 20
15.15295041848852
 30
0.0
 10
22.54525595181929
 20
15.2305336512622
 30
0.0
 10
22.48414683982741
 20
15.29512311657506
 30
0.0
 10
22.33821315727469
 20
15.38257782117888
 30
0.0
 10
22.25333453712207
 20
15.40595753854022
 30
0.0
 10
22.08085836884039
 20
15.40613288521189
 30
0.0
 10
21.99620101443406
 20
15.38325263268985
 30
0.0
 10
21.84822147273242
 20
15.29466217589188
 30
0.0
 10
21.78795029436003
 20
15.23052041897148
 30
0.0
 10
21.75005507697298
 20
15.15295041848876
 30
0.0
  0
SPLINE
  5
112
330
1F
100
AcDbEntity
  8
0
  6
Continuous
 62
     7
370
    25
100
AcDbSpline
210
0.0
220
0.0
230
1.0
 70
     8
 71
     3
 72
    10
 73
     6
 74
     0
 42
0.00000001
 43
0.00000001
 40
0.0
 40
0.0
 40
0.0
 40
0.0
 40
0.5
 40
0.5
 40
1.0
 40
1.0
 40
1.0
 40
1.0
 10
21.75005507697282
 20
15.15295041848842
 30
0.0
 10
21.75005507697282
 20
15.15295041848842
 30
0.0
 10
21.725039029622
 20
15.16353308224895
 30
0.0
 10
21.63981276232283
 20
15.19903938147061
 30
0.0
 10
21.5791109425192
 20
15.22408251600144
 30
0.0
 10
21.51879711991771
 20
15.24871475983232
 30
0.0
  0
LINE
  5
113
330
1F
100
AcDbEntity
  8
0
  6
Continuous
 62
     7
370
    25
100
AcDbLine
 10
21.750055077
 20
15.1529504185
 30
0.0
 11
20.8623996824
 21
12.6711050458
 31
0.0
  0
LINE
  5
114
330
1F
100
AcDbEntity
  8
0
  6
Continuous
 62
     7
370
    25
100
AcDbLine
 10
20.6270027447
 20
12.7552969797
 30
0.0
 11
20.8623996824
 21
12.6711050458
 31
0.0
  0
SPLINE
  5
115
330
1F
100
AcDbEntity
  8
0
  6
Continuous
 62
     7
370
    25
100
AcDbSpline
210
0.0
220
0.0
230
1.0
 70
     8
 71
     3
 72
    12
 73
     8
 74
     0
 42
0.00000001
 43
0.00000001
 40
0.0
 40
0.0
 40
0.0
 40
0.0
 40
0.25
 40
0.25
 40
0.5
 40
0.5
 40
1.0
 40
1.0
 40
1.0
 40
1.0
 10
25.31394172284508
 20
14.96806745588875
 30
0.0
 10
25.32420518213421
 20
15.17027487830904
 30
0.0
 10
25.33887007256497
 20
15.37086471083932
 30
0.0
 10
25.37060545074847
 20
15.76883869079325
 30
0.0
 10
25.38767593850122
 20
15.96622283821688
 30
0.0
 10
25.43289990030065
 20
16.5536109948379
 30
0.0
 10
25.42607647303395
 20
16.94953159201912
 30
0.0
 10
25.38514952681482
 20
17.33552653500483
 30
0.0
  0
SPLINE
  5
116
330
1F
100
AcDbEntity
  8
0
  6
Continuous
 62
     7
370
    25
100
AcDbSpline
210
0.0
220
0.0
230
1.0
 70
     8
 71
     3
 72
    10
 73
     6
 74
     0
 42
0.00000001
 43
0.00000001
 40
0.0
 40
0.0
 40
0.0
 40
0.0
 40
0.5
 40
0.5
 40
1.0
 40
1.0
 40
1.0
 40
1.0
 10
25.38514952681482
 20
17.33552653500483
 30
0.0
 10
25.41357678688209
 20
17.32765730262459
 30
0.0
 10
25.44780342504895
 20
17.32339045523966
 30
0.0
 10
25.51082547058651
 20
17.31946161892568
 30
0.0
 10
25.53941118987849
 20
17.3195776089606
 30
0.0
 10
25.56193412255539
 20
17.3195776089606
 30
0.0
  0
SPLINE
  5
117
330
1F
100
AcDbEntity
  8
0
  6
Continuous
 62
     7
370
    25
100
AcDbSpline
210
0.0
220
0.0
230
1.0
 70
    24
 71
     3
 72
    10
 73
     6
 74
     0
 42
0.00000001
 43
0.00000001
 40
0.0
 40
0.0
 40
0.0
 40
0.0
 40
0.5
 40
0.5
 40
1.0
 40
1.0
 40
1.0
 40
1.0
 10
25.31394172284508
 20
14.96806745588875
 30
0.0
 10
25.35499556000161
 20
14.96806745588875
 30
0.0
 10
25.39847239038262
 20
14.96806745588875
 30
0.0
 10
25.48753109010697
 20
14.96806745588875
 30
0.0
 10
25.51963445963062
 20
14.96806745588875
 30
0.0
 10
25.56193412255539
 20
14.96806745588875
 30
0.0
  0
SPLINE
  5
118
330
1F
100
AcDbEntity
  8
0
  6
Continuous
 62
     7
370
    25
100
AcDbSpline
210
0.0
220
0.0
230
1.0
 70
     8
 71
     3
 72
     8
 73
     4
 74
     0
 42
0.00000001
 43
0.00000001
 40
0.0
 40
0.0
 40
0.0
 40
0.0
 40
1.0
 40
1.0
 40
1.0
 40
1.0
 10
25.56193412255539
 20
12.61655730281689
 30
0.0
 10
25.49648055121738
 20
12.62075458945299
 30
0.0
 10
25.43143012241927
 20
12.61439839811574
 30
0.0
 10
25.38514952681482
 20
12.60060837677267
 30
0.0
  0
SPLINE
  5
119
330
1F
100
AcDbEntity
  8
0
  6
Continuous
 62
     7
370
    25
100
AcDbSpline
210
0.0
220
0.0
230
1.0
 70
     8
 71
     3
 72
    12
 73
     8
 74
     0
 42
0.00000001
 43
0.00000001
 40
0.0
 40
0.0
 40
0.0
 40
0.0
 40
0.25
 40
0.25
 40
0.5
 40
0.5
 40
1.0
 40
1.0
 40
1.0
 40
1.0
 10
25.31394172284508
 20
14.96806745588875
 30
0.0
 10
25.32420518213421
 20
14.76586003346846
 30
0.0
 10
25.33887007256496
 20
14.56527020093817
 30
0.0
 10
25.37060545074847
 20
14.16729622098425
 30
0.0
 10
25.38767593850122
 20
13.96991207356061
 30
0.0
 10
25.43289990030065
 20
13.3825239169396
 30
0.0
 10
25.42607647303395
 20
12.98660331975838
 30
0.0
 10
25.38514952681482
 20
12.60060837677267
 30
0.0
  0
SPLINE
  5
11A
330
1F
100
AcDbEntity
  8
0
  6
Continuous
 62
     7
370
    25
100
AcDbSpline
210
0.0
220
0.0
230
1.0
 70
    24
 71
     3
 72
    10
 73
     6
 74
     0
 42
0.00000001
 43
0.00000001
 40
0.0
 40
0.0
 40
0.0
 40
0.0
 40
0.5
 40
0.5
 40
1.0
 40
1.0
 40
1.0
 40
1.0
 10
18.81193412255539
 20
21.47007505617843
 30
0.0
 10
18.81193412255539
 20
21.51112889333497
 30
0.0
 10
18.81193412255539
 20
21.55460572371597
 30
0.0
 10
18.81193412255539
 20
21.64366442344033
 30
0.0
 10
18.81193412255539
 20
21.67576779296398
 30
0.0
 10
18.81193412255539
 20
21.71806745588875
 30
0.0
  0
SPLINE
  5
11B
330
1F
100
AcDbEntity
  8
0
  6
Continuous
 62
     7
370
    25
100
AcDbSpline
210
0.0
220
0.0
230
1.0
 70
     8
 71
     3
 72
    10
 73
     6
 74
     0
 42
0.00000001
 43
0.00000001
 40
0.0
 40
0.0
 40
0.0
 40
0.0
 40
0.5
 40
0.5
 40
1.0
 40
1.0
 40
1.0
 40
1.0
 10
21.17939320167146
 20
21.54128286014818
 30
0.0
 10
21.17152396929122
 20
21.56971012021545
 30
0.0
 10
21.16725712190629
 20
21.60393675838231
 30
0.0
 10
21.16332828559232
 20
21.66695880391987
 30
0.0
 10
21.16344427562724
 20
21.69554452321185
 30
0.0
 10
21.16344427562724
 20
21.71806745588875
 30
0.0
  0
SPLINE
  5
11C
330
1F
100
AcDbEntity
  8
0
  6
Continuous
 62
     7
370
    25
100
AcDbSpline
210
0.0
220
0.0
230
1.0
 70
     8
 71
     3
 72
    14
 73
    10
 74
     0
 42
0.00000001
 43
0.00000001
 40
0.0
 40
0.0
 40
0.0
 40
0.0
 40
0.25
 40
0.25
 40
0.5
 40
0.5
 40
0.75
 40
0.75
 40
1.0
 40
1.0
 40
1.0
 40
1.0
 10
18.81193412255539
 20
21.47007505617843
 30
0.0
 10
19.01414154497568
 20
21.48033851546757
 30
0.0
 10
19.21473137750596
 20
21.49500340589832
 30
0.0
 10
19.61270535745988
 20
21.52673878408183
 30
0.0
 10
19.81008950488352
 20
21.54380927183459
 30
0.0
 10
20.20168160929753
 20
21.57395857970087
 30
0.0
 10
20.39855978469634
 20
21.57979004985076
 30
0.0
 10
20.79091684513688
 20
21.5736839266292
 30
0.0
 10
20.98639573017861
 20
21.56174633325774
 30
0.0
 10
21.17939320167146
 20
21.54128286014818
 30
0.0
  0
SPLINE
  5
11D
330
1F
100
AcDbEntity
  8
0
  6
Continuous
 62
     7
370
    25
100
AcDbSpline
210
0.0
220
0.0
230
1.0
 70
     8
 71
     3
 72
    14
 73
    10
 74
     0
 42
0.00000001
 43
0.00000001
 40
0.0
 40
0.0
 40
0.0
 40
0.0
 40
0.25
 40
0.25
 40
0.5
 40
0.5
 40
0.75
 40
0.75
 40
1.0
 40
1.0
 40
1.0
 40
1.0
 10
18.81193412255539
 20
21.47007505617843
 30
0.0
 10
18.6097267001351
 20
21.48033851546757
 30
0.0
 10
18.40913686760481
 20
21.49500340589832
 30
0.0
 10
18.01116288765089
 20
21.52673878408183
 30
0.0
 10
17.81377874022725
 20
21.54380927183459
 30
0.0
 10
17.42218663581324
 20
21.57395857970087
 30
0.0
 10
17.22530846041444
 20
21.57979004985076
 30
0.0
 10
16.83295139997389
 20
21.5736839266292
 30
0.0
 10
16.63747251493216
 20
21.56174633325774
 30
0.0
 10
16.4444750434393
 20
21.54128286014818
 30
0.0
  0
SPLINE
  5
11E
330
1F
100
AcDbEntity
  8
0
  6
Continuous
 62
     7
370
    25
100
AcDbSpline
210
0.0
220
0.0
230
1.0
 70
     8
 71
     3
 72
     8
 73
     4
 74
     0
 42
0.00000001
 43
0.00000001
 40
0.0
 40
0.0
 40
0.0
 40
0.0
 40
1.0
 40
1.0
 40
1.0
 40
1.0
 10
16.4444750434393
 20
21.54128286014818
 30
0.0
 10
16.45826506478238
 20
21.58756345575263
 30
0.0
 10
16.46462125611963
 20
21.65261388455075
 30
0.0
 10
16.46042396948354
 20
21.71806745588875
 30
0.0
  0
SPLINE
  5
11F
330
1F
100
AcDbEntity
  8
0
  6
Continuous
 62
     7
370
    25
100
AcDbSpline
210
0.0
220
0.0
230
1.0
 70
     8
 71
     3
 72
    14
 73
    10
 74
     0
 42
0.00000001
 43
0.00000001
 40
0.0
 40
0.0
 40
0.0
 40
0.0
 40
0.0526822267945598
 40
0.1287456339724992
 40
0.2353187193853958
 40
0.3749156516620482
 40
0.5485969096886099
 40
0.7568720674016369
 40
0.9999999999999999
 40
0.9999999999999999
 40
0.9999999999999999
 40
0.9999999999999999
 10
16.3624443797722
 20
21.46806745588875
 30
0.0
 10
16.36592506441584
 20
21.46807825689654
 30
0.0
 10
16.3744312149408
 20
21.46810465256506
 30
0.0
 10
16.38498087384987
 20
21.46893155903144
 30
0.0
 10
16.39662443110349
 20
21.4716350594255
 30
0.0
 10
16.4089000249268
 20
21.47793550018247
 30
0.0
 10
16.42164738990194
 20
21.49010967915764
 30
0.0
 10
16.43439218389765
 20
21.5102139684377
 30
0.0
 10
16.44094543178168
 20
21.53040686590094
 30
0.0
 10
16.4444750434393
 20
21.54128286014818
 30
0.0
  0
SPLINE
  5
120
330
1F
100
AcDbEntity
  8
0
  6
Continuous
 62
     7
370
    25
100
AcDbSpline
210
0.0
220
0.0
230
1.0
 70
     8
 71
     3
 72
    12
 73
     8
 74
     0
 42
0.00000001
 43
0.00000001
 40
0.0
 40
0.0
 40
0.0
 40
0.0
 40
0.25
 40
0.25
 40
0.5
 40
0.5
 40
1.0
 40
1.0
 40
1.0
 40
1.0
 10
25.38514952681482
 20
17.33552653500483
 30
0.0
 10
25.37093589678118
 20
17.33946115119495
 30
0.0
 10
25.35823437302861
 20
17.34435868501651
 30
0.0
 10
25.33716694368617
 20
17.3557453187814
 30
0.0
 10
25.32880103809632
 20
17.36223441872474
 30
0.0
 10
25.31217385697165
 20
17.38358766402579
 30
0.0
 10
25.31193412255539
 20
17.39998862001451
 30
0.0
 10
25.31193412255539
 20
17.41755719867193
 30
0.0
  0
SPLINE
  5
121
330
1F
100
AcDbEntity
  8
0
  6
Continuous
 62
     7
370
    25
100
AcDbSpline
210
0.0
220
0.0
230
1.0
 70
     8
 71
     3
 72
    14
 73
    10
 74
     0
 42
0.00000001
 43
0.00000001
 40
0.0
 40
0.0
 40
0.0
 40
0.0
 40
0.243127932598341
 40
0.4514030903113563
 40
0.6250843483379128
 40
0.7646812806145595
 40
0.8712543660274661
 40
0.9473177732054238
 40
1.0
 40
1.0
 40
1.0
 40
1.0
 10
25.38514952681482
 20
12.60060837677267
 30
0.0
 10
25.37427353256759
 20
12.59707876511505
 30
0.0
 10
25.35408063510434
 20
12.59052551723102
 30
0.0
 10
25.33397634582429
 20
12.57778072323531
 30
0.0
 10
25.32180216684911
 20
12.56503335826019
 30
0.0
 10
25.31550172609214
 20
12.55275776443687
 30
0.0
 10
25.31279822569808
 20
12.54111420718324
 30
0.0
 10
25.31197131923171
 20
12.53056454827417
 30
0.0
 10
25.31194492356318
 20
12.52205839774921
 30
0.0
 10
25.31193412255539
 20
12.51857771310557
 30
0.0
  0
SPLINE
  5
122
330
1F
100
AcDbEntity
  8
0
  6
Continuous
 62
     7
370
    25
100
AcDbSpline
210
0.0
220
0.0
230
1.0
 70
     8
 71
     3
 72
    12
 73
     8
 74
     0
 42
0.00000001
 43
0.00000001
 40
0.0
 40
0.0
 40
0.0
 40
0.0
 40
0.25
 40
0.25
 40
0.5
 40
0.5
 40
1.0
 40
1.0
 40
1.0
 40
1.0
 10
21.17939320167146
 20
21.54128286014818
 30
0.0
 10
21.18332781786158
 20
21.52706923011454
 30
0.0
 10
21.18822535168314
 20
21.51436770636197
 30
0.0
 10
21.19961198544804
 20
21.49330027701954
 30
0.0
 10
21.20610108539137
 20
21.48493437142968
 30
0.0
 10
21.22745433069243
 20
21.46830719030501
 30
0.0
 10
21.24385528668115
 20
21.46806745588875
 30
0.0
 10
21.26142386533857
 20
21.46806745588875
 30
0.0
  0
ARC
  5
123
330
1F
100
AcDbEntity
  8
0
  6
Continuous
 62
     7
370
    25
100
AcDbCircle
 10
25.0619341226
 20
10.2180674559
 30
0.0
 40
0.2500000000000036
100
AcDbArc
 50
270.0
 51
0.0
  0
LINE
  5
124
330
1F
100
AcDbEntity
  8
0
  6
Continuous
 62
     7
370
    25
100
AcDbLine
 10
25.0619341226
 20
10.2180674559
 30
0.0
 11
25.0619341226
 21
9.9680674559
 31
0.0
  0
LINE
  5
125
330
1F
100
AcDbEntity
  8
0
  6
Continuous
 62
     7
370
    25
100
AcDbLine
 10
23.5619341226
 20
21.2180674559
 30
0.0
 11
23.8119341226
 21
21.2180674559
 31
0.0
  0
LINE
  5
126
330
1F
100
AcDbEntity
  8
0
  6
Continuous
 62
     7
370
    25
100
AcDbLine
 10
23.8119341226
 20
21.2180674559
 30
0.0
 11
23.8119341226
 21
20.9680674559
 31
0.0
  0
LINE
  5
127
330
1F
100
AcDbEntity
  8
0
  6
Continuous
 62
     7
370
    25
100
AcDbLine
 10
23.5619341226
 20
20.9680674559
 30
0.0
 11
23.8119341226
 21
20.9680674559
 31
0.0
  0
ARC
  5
128
330
1F
100
AcDbEntity
  8
0
  6
Continuous
 62
     7
370
    25
100
AcDbCircle
 10
14.0619341226
 20
21.2180674559
 30
0.0
 40
0.25
100
AcDbArc
 50
90.0
 51
180.0
  0
LINE
  5
129
330
1F
100
AcDbEntity
  8
0
  6
Continuous
 62
     7
370
    25
100
AcDbLine
 10
13.8119341226
 20
21.2180674559
 30
0.0
 11
14.0619341226
 21
21.2180674559
 31
0.0
  0
ARC
  5
12A
330
1F
100
AcDbEntity
  8
0
  6
Continuous
 62
     7
370
    25
100
AcDbCircle
 10
23.5619341226
 20
21.2180674559
 30
0.0
 40
0.25
100
AcDbArc
 50
0.0
 51
90.0
  0
LINE
  5
12B
330
1F
100
AcDbEntity
  8
0
  6
Continuous
 62
     7
370
    25
100
AcDbLine
 10
24.8119341226
 20
19.9680674559
 30
0.0
 11
25.0619341226
 21
19.9680674559
 31
0.0
  0
LINE
  5
12C
330
1F
100
AcDbEntity
  8
0
  6
Continuous
 62
     7
370
    25
100
AcDbLine
 10
25.0619341226
 20
19.9680674559
 30
0.0
 11
25.0619341226
 21
19.7180674559
 31
0.0
  0
LINE
  5
12D
330
1F
100
AcDbEntity
  8
0
  6
Continuous
 62
     7
370
    25
100
AcDbLine
 10
24.8119341226
 20
19.9680674559
 30
0.0
 11
24.8119341226
 21
19.7180674559
 31
0.0
  0
LINE
  5
12E
330
1F
100
AcDbEntity
  8
0
  6
Continuous
 62
     7
370
    25
100
AcDbLine
 10
20.2912444631
 20
12.6424804269
 30
0.0
 11
20.1707124641
 21
12.4234552293
 31
0.0
  0
LINE
  5
12F
330
1F
100
AcDbEntity
  8
0
  6
Continuous
 62
     7
370
    25
100
AcDbLine
 10
20.1707124641
 20
12.4234552293
 30
0.0
 11
20.1343561148
 21
12.4434625321
 31
0.0
  0
LINE
  5
130
330
1F
100
AcDbEntity
  8
0
  6
Continuous
 62
     7
370
    25
100
AcDbLine
 10
19.5270433671
 20
13.0630287781
 30
0.0
 11
20.1343561148
 21
12.4434625321
 31
0.0
  0
LINE
  5
131
330
1F
100
AcDbEntity
  8
0
  6
Continuous
 62
     7
370
    25
100
AcDbLine
 10
23.6376099635
 20
11.3735392219
 30
0.0
 11
24.1988565958
 21
12.4434625321
 31
0.0
  0
LINE
  5
132
330
1F
100
AcDbEntity
  8
0
  6
Continuous
 62
     7
370
    25
100
AcDbLine
 10
24.1988565958
 20
12.4434625321
 30
0.0
 11
24.817728953
 21
13.0850652503
 31
0.0
  0
LINE
  5
133
330
1F
100
AcDbEntity
  8
0
  6
Continuous
 62
     7
370
    25
100
AcDbLine
 10
23.6376099635
 20
11.3735392219
 30
0.0
 11
23.8589988649
 21
11.2574058746
 31
0.0
  0
LINE
  5
134
330
1F
100
AcDbEntity
  8
0
  6
Continuous
 62
     7
370
    25
100
AcDbLine
 10
20.1343561148
 20
12.4434625321
 30
0.0
 11
20.6956027471
 21
11.3735392219
 31
0.0
  0
LINE
  5
135
330
1F
100
AcDbEntity
  8
0
  6
Continuous
 62
     7
370
    25
100
AcDbLine
 10
20.6956027471
 20
11.3735392219
 30
0.0
 11
20.4742138457
 21
11.2574058746
 31
0.0
  0
LINE
  5
136
330
1F
100
AcDbEntity
  8
0
  6
Continuous
 62
     7
370
    25
100
AcDbLine
 10
25.0619341226
 20
9.9680674559
 30
0.0
 11
15.8119341226
 21
9.9680674559
 31
0.0
  0
LINE
  5
137
330
1F
100
AcDbEntity
  8
0
  6
Continuous
 62
     7
370
    25
100
AcDbLine
 10
15.8119341226
 20
10.2180674559
 30
0.0
 11
15.8119341226
 21
9.9680674559
 31
0.0
  0
SPLINE
  5
138
330
1F
100
AcDbEntity
  8
0
  6
Continuous
 62
     7
370
    25
100
AcDbSpline
210
0.0
220
0.0
230
1.0
 70
     8
 71
     3
 72
    23
 73
    19
 74
     0
 42
0.00000001
 43
0.00000001
 40
0.0
 40
0.0
 40
0.0
 40
0.0
 40
0.0000076769896581
 40
0.0000076769896581
 40
0.0000076769896581
 40
0.0000285420058146
 40
0.0000285420058146
 40
0.0000285420058146
 40
0.0000497754494318
 40
0.0000497754494318
 40
0.0000497754494318
 40
0.00007072706396
 40
0.00007072706396
 40
0.00007072706396
 40
0.0000909558732107
 40
0.0000909558732107
 40
0.0000909558732107
 40
0.0001104364738497
 40
0.0001104364738497
 40
0.0001104364738497
 40
0.0001104364738497
 10
23.54341424135164
 20
11.35732389734709
 30
0.0
 10
23.54532808290904
 20
11.35562517022071
 30
0.0
 10
23.54735727176343
 20
11.35404849391224
 30
0.0
 10
23.54947453504237
 20
11.35261125365245
 30
0.0
 10
23.55515730483205
 20
11.34875367693534
 30
0.0
 10
23.5615976598481
 20
11.34584845598993
 30
0.0
 10
23.56823987188503
 20
11.344100374222
 30
0.0
 10
23.57499912986607
 20
11.34232148857731
 30
0.0
 10
23.58215838629616
 20
11.34168838819251
 30
0.0
 10
23.58912574005999
 20
11.34224335136316
 30
0.0
 10
23.59600218070433
 20
11.34279107312844
 30
0.0
 10
23.60288160546327
 20
11.34451138686868
 30
0.0
 10
23.60919584493784
 20
11.34728912244377
 30
0.0
 10
23.61529414589333
 20
11.3499718631887
 30
0.0
 10
23.62102923190083
 20
11.35371570334782
 30
0.0
 10
23.6259061752291
 20
11.35825462350806
 30
0.0
 10
23.6306035253598
 20
11.36262639815722
 30
0.0
 10
23.63462906637128
 20
11.36785663757627
 30
0.0
 10
23.63760996347714
 20
11.37353922187197
 30
0.0
  0
LINE
  5
139
330
1F
100
AcDbEntity
  8
0
  6
Continuous
 62
     7
370
    25
100
AcDbLine
 10
23.5434142414
 20
11.3573238973
 30
0.0
 11
23.3774578702
 21
11.1703520201
 31
0.0
  0
SPLINE
  5
13A
330
1F
100
AcDbEntity
  8
0
  6
Continuous
 62
     7
370
    25
100
AcDbSpline
210
0.0
220
0.0
230
1.0
 70
     8
 71
     3
 72
    10
 73
     6
 74
     0
 42
0.00000001
 43
0.00000001
 40
0.0
 40
0.0
 40
0.0
 40
0.0
 40
0.5
 40
0.5
 40
1.0
 40
1.0
 40
1.0
 40
1.0
 10
20.86239968236814
 20
12.67110504576647
 30
0.0
 10
20.81516493704692
 20
12.53903877903705
 30
0.0
 10
20.70449341666556
 20
12.43558676304445
 30
0.0
 10
20.44353387229839
 20
12.34463511950783
 30
0.0
 10
20.29346846725532
 20
12.35590123725389
 30
0.0
 10
20.17071246406679
 20
12.42345522927702
 30
0.0
  0
SPLINE
  5
13B
330
1F
100
AcDbEntity
  8
0
  6
Continuous
 62
     7
370
    25
100
AcDbSpline
210
0.0
220
0.0
230
1.0
 70
     8
 71
     3
 72
    14
 73
    10
 74
     0
 42
0.00000001
 43
0.00000001
 40
0.0
 40
0.0
 40
0.0
 40
0.0
 40
0.5000000000000003
 40
0.5000000000000003
 40
0.6250000000000006
 40
0.6250000000000006
 40
0.7500000000000008
 40
0.7500000000000008
 40
1.0
 40
1.0
 40
1.0
 40
1.0
 10
20.78979846918938
 20
11.35732389734712
 30
0.0
 10
21.1680108148942
 20
11.69302544416065
 30
0.0
 10
21.66521257015175
 20
11.87371622462395
 30
0.0
 10
22.29185533943755
 20
11.87373974919095
 30
0.0
 10
22.41837777790693
 20
11.86243494865782
 30
0.0
 10
22.66405730655854
 20
11.81824729079757
 30
0.0
 10
22.78447778716242
 20
11.78543397335326
 30
0.0
 10
23.13820006737121
 20
11.65358911051917
 30
0.0
 10
23.35428952754594
 20
11.5251911277171
 30
0.0
 10
23.5434142413516
 20
11.35732389734704
 30
0.0
  0
LINE
  5
13C
330
1F
100
AcDbEntity
  8
0
  6
Continuous
 62
     7
370
    25
100
AcDbLine
 10
20.7897984692
 20
11.3573238973
 30
0.0
 11
20.9557548403
 21
11.1703520201
 31
0.0
  0
ELLIPSE
  5
13D
330
1F
100
AcDbEntity
  8
0
  6
Continuous
 62
     7
370
    25
100
AcDbEllipse
 10
21.952562881
 20
12.7283262753
 30
0.0
 11
-0.05977206589648176
 21
0.0
 31
0.0
210
0.0
220
0.0
230
1.0
 40
0.9531667975
 41
5.940161364898034
 42
7.853981633974483
  0
LINE
  5
13E
330
1F
100
AcDbEntity
  8
0
  6
Continuous
 62
     7
370
    25
100
AcDbLine
 10
21.8962730214
 20
12.7474882844
 30
0.0
 11
22.1103164971
 21
13.3187418569
 31
0.0
  0
ELLIPSE
  5
13F
330
1F
100
AcDbEntity
  8
0
  6
Continuous
 62
     7
370
    25
100
AcDbEllipse
 10
22.3806498299
 20
12.7283262753
 30
0.0
 11
0.05977206589648176
 21
0.0
 31
0.0
210
0.0
220
0.0
230
1.0
 40
0.9531667975
 41
4.712388980384703
 42
6.626209245739786
  0
LINE
  5
140
330
1F
100
AcDbEntity
  8
0
  6
Continuous
 62
     7
370
    25
100
AcDbLine
 10
22.2228962163
 20
13.3187418569
 30
0.0
 11
22.4369396895
 21
12.7474882842
 31
0.0
  0
ELLIPSE
  5
141
330
1F
100
AcDbEntity
  8
0
  6
Continuous
 62
     7
370
    25
100
AcDbEllipse
 10
22.1666063567
 20
13.2995798479
 30
0.0
 11
0.05977206589648176
 21
0.0
 31
0.0
210
0.0
220
0.0
230
1.0
 40
0.9531667975
 41
0.3430239404215324
 42
2.798568713169095
  0
LINE
  5
142
330
1F
100
AcDbEntity
  8
0
  6
Continuous
 62
     7
370
    25
100
AcDbLine
 10
22.3806498299
 20
12.6713535266
 30
0.0
 11
21.952562881
 21
12.6713535266
 31
0.0
  0
ARC
  5
143
330
1F
100
AcDbEntity
  8
0
  6
Continuous
 62
     7
370
    25
100
AcDbCircle
 10
24.8119341226
 20
20.9680674559
 30
0.0
 40
1.0
100
AcDbArc
 50
180.0
 51
270.0
  0
ARC
  5
144
330
1F
100
AcDbEntity
  8
0
  6
Continuous
 62
     7
370
    25
100
AcDbCircle
 10
15.8119341226
 20
11.9680674559
 30
0.0
 40
2.000000000000002
100
AcDbArc
 50
180.0
 51
270.0
  0
LINE
  5
145
330
1F
100
AcDbEntity
  8
0
  6
Continuous
 62
     7
370
    25
100
AcDbLine
 10
13.8119341226
 20
11.9680674559
 30
0.0
 11
14.0619341226
 21
11.9680674559
 31
0.0
  0
LINE
  5
146
330
1F
100
AcDbEntity
  8
0
  6
Continuous
 62
     7
370
    25
100
AcDbLine
 10
13.8119341226
 20
11.9680674559
 30
0.0
 11
13.8119341226
 21
21.2180674559
 31
0.0
  0
SPLINE
  5
147
330
1F
100
AcDbEntity
  8
0
  6
Continuous
 62
     7
370
    25
100
AcDbSpline
210
0.0
220
0.0
230
1.0
 70
     8
 71
     3
 72
    23
 73
    19
 74
     0
 42
0.00000001
 43
0.00000001
 40
0.0
 40
0.0
 40
0.0
 40
0.0
 40
0.0000069464595966
 40
0.0000069464595966
 40
0.0000069464595966
 40
0.0000269173558753
 40
0.0000269173558753
 40
0.0000269173558753
 40
0.0000477420212559
 40
0.0000477420212559
 40
0.0000477420212559
 40
0.0000689844307043
 40
0.0000689844307043
 40
0.0000689844307043
 40
0.0000900350769267
 40
0.0000900350769267
 40
0.0000900350769267
 40
0.0001105259114901
 40
0.0001105259114901
 40
0.0001105259114901
 40
0.0001105259114901
 10
20.69560274706262
 20
11.37353922187439
 30
0.0
 10
20.69667836786866
 20
11.37148872979627
 30
0.0
 10
20.69788377282862
 20
11.36950144622106
 30
0.0
 10
20.69920341031491
 20
11.36759880732059
 30
0.0
 10
20.70294869879724
 20
11.36219889133308
 30
0.0
 10
20.70770700735538
 20
11.35739495853807
 30
0.0
 10
20.71304034516049
 20
11.35355545513989
 30
0.0
 10
20.71859991530473
 20
11.34955308565922
 30
0.0
 10
20.72494183474997
 20
11.34648066904888
 30
0.0
 10
20.73151631242467
 20
11.34455608469024
 30
0.0
 10
20.7382222804566
 20
11.34259300840914
 30
0.0
 10
20.74535987298938
 20
11.34176617938766
 30
0.0
 10
20.7523377391914
 20
11.3421309519158
 30
0.0
 10
20.75925370306222
 20
11.342492488459
 30
0.0
 10
20.76620471939541
 20
11.34403473364166
 30
0.0
 10
20.77261557309821
 20
11.34665431752766
 30
0.0
 10
20.77885665255554
 20
11.34920452876872
 30
0.0
 10
20.78475620682216
 20
11.35284838168723
 30
0.0
 10
20.78979846918742
 20
11.35732389734539
 30
0.0
  0
ARC
  5
148
330
1F
100
AcDbEntity
  8
0
  6
Continuous
 62
     7
370
    25
100
AcDbCircle
 10
25.0619341226
 20
19.7180674559
 30
0.0
 40
0.2500000000000036
100
AcDbArc
 50
0.0
 51
90.0
  0
LINE
  5
149
330
1F
100
AcDbEntity
  8
0
  6
Continuous
 62
     7
370
    25
100
AcDbLine
 10
24.1694995425
 20
12.4266861407
 30
0.0
 11
24.0454596112
 21
12.6437439566
 31
0.0
  0
SPLINE
  5
14A
330
1F
100
AcDbEntity
  8
0
  6
Continuous
 62
     7
370
    25
100
AcDbSpline
210
0.0
220
0.0
230
1.0
 70
     8
 71
     3
 72
    10
 73
     6
 74
     0
 42
0.00000001
 43
0.00000001
 40
0.0
 40
0.0
 40
0.0
 40
0.0
 40
0.5
 40
0.5
 40
1.0
 40
1.0
 40
1.0
 40
1.0
 10
24.16949954250443
 20
12.42668614073451
 30
0.0
 10
24.04681755753172
 20
12.35657825299866
 30
0.0
 10
23.89582892874926
 20
12.34318225501984
 30
0.0
 10
23.6304097531015
 20
12.43332729061346
 30
0.0
 10
23.51864793273967
 20
12.53736076022751
 30
0.0
 10
23.47101993261394
 20
12.67052655006295
 30
0.0
  0
LINE
  5
14B
330
1F
100
AcDbEntity
  8
0
  6
Continuous
 62
     7
370
    25
100
AcDbLine
 10
24.1988565958
 20
12.4434625321
 30
0.0
 11
24.1694995425
 21
12.4266861407
 31
0.0
  0
ARC
  5
14C
330
1F
100
AcDbEntity
  8
0
  6
Continuous
 62
     7
370
    25
100
AcDbCircle
 10
25.5355341226
 20
10.1833306138
 30
0.0
 40
0.2262821429089025
100
AcDbArc
 50
83.3001285963
 51
171.1695393669
  0
ARC
  5
14D
330
1F
100
AcDbEntity
  8
0
  6
Continuous
 62
     7
370
    25
100
AcDbCircle
 10
23.5966709647
 20
21.6916674559
 30
0.0
 40
0.2262821429089105
100
AcDbArc
 50
173.3001285963
 51
261.1695393669
  0
ARC
  5
14E
330
1F
100
AcDbEntity
  8
0
  6
Continuous
 62
     7
370
    25
100
AcDbCircle
 10
25.5355341226
 20
19.752804298
 30
0.0
 40
0.2262821429089039
100
AcDbArc
 50
188.8304606331
 51
276.6998714037
  0
ARC
  5
14F
330
1F
100
AcDbEntity
  8
0
  6
Continuous
 62
     7
370
    25
100
AcDbCircle
 10
14.0271972805
 20
21.6916674559
 30
0.0
 40
0.2262821429089095
100
AcDbArc
 50
278.8304606331
 51
6.6998714037
  0
LINE
  5
150
330
1F
100
AcDbEntity
  8
0
  6
Continuous
 62
     7
370
    25
100
AcDbLine
 10
23.8119341226
 20
21.2180674559
 30
0.0
 11
23.8519341226
 21
21.2180674559
 31
0.0
  0
LINE
  5
151
330
1F
100
AcDbEntity
  8
0
  6
Continuous
 62
     7
370
    25
100
AcDbLine
 10
25.0619341226
 20
9.9280674559
 30
0.0
 11
25.0619341226
 21
9.9680674559
 31
0.0
  0
LINE
  5
152
330
1F
100
AcDbEntity
  8
0
  6
Continuous
 62
     7
370
    25
100
AcDbLine
 10
13.8119341226
 20
21.2180674559
 30
0.0
 11
13.7719341226
 21
21.2180674559
 31
0.0
  0
LINE
  5
153
330
1F
100
AcDbEntity
  8
0
  6
Continuous
 62
     7
370
    25
100
AcDbLine
 10
25.0619341226
 20
20.0080674559
 30
0.0
 11
25.0619341226
 21
19.9680674559
 31
0.0
  0
LWPOLYLINE
  5
154
330
1F
100
AcDbEntity
  8
0
  6
Continuous
 62
     7
370
    25
100
AcDbPolyline
 90
        9
 70
   128
 43
0.0
 10
15.4687800009
 20
9.9533362734
 10
15.473838508
 20
9.9626329162
 10
15.4788686877
 20
9.9707074028
 10
15.4838423711
 20
9.9775145164
 10
15.4887317059
 20
9.9830161375
 10
15.4935093119
 20
9.9871814572
 10
15.4981484348
 20
9.9899871499
 10
15.5026230957
 20
9.9914175039
 10
15.5069082367
 20
9.9914645092
  0
SPLINE
  5
155
330
1F
100
AcDbEntity
  8
0
  6
Continuous
 62
     7
370
    25
100
AcDbSpline
210
0.0
220
0.0
230
1.0
 70
     8
 71
     3
 72
    14
 73
    10
 74
     0
 42
0.00000001
 43
0.00000001
 40
0.0
 40
0.0
 40
0.0
 40
0.0
 40
0.2500000000000003
 40
0.2500000000000003
 40
0.5000000000000002
 40
0.5000000000000002
 40
0.7500000000000001
 40
0.7500000000000001
 40
1.0
 40
1.0
 40
1.0
 40
1.0
 10
15.46878000092557
 20
9.953336273444018
 30
0.0
 10
15.26076811126032
 20
9.98309017216957
 30
0.0
 10
15.06080905418281
 20
10.04444591171338
 30
0.0
 10
14.67825517478408
 20
10.2342001528951
 30
0.0
 10
14.50595420795366
 20
10.35761680246578
 30
0.0
 10
14.2022825851903
 20
10.66109192673527
 30
0.0
 10
14.07845415431998
 20
10.83380926768718
 30
0.0
 10
13.888658725417
 20
11.21604367068694
 30
0.0
 10
13.82695852047573
 20
11.41688968811709
 30
0.0
 10
13.79720294011066
 20
11.62491333425893
 30
0.0
  0
LWPOLYLINE
  5
156
330
1F
100
AcDbEntity
  8
0
  6
Continuous
 62
     7
370
    25
100
AcDbPolyline
 90
        9
 70
   128
 43
0.0
 10
13.8353311758
 20
11.66304157
 10
13.8352841706
 20
11.658756429
 10
13.8338538166
 20
11.6542817681
 10
13.8310481238
 20
11.6496426452
 10
13.8268828041
 20
11.6448650392
 10
13.821381183
 20
11.6399757044
 10
13.8145740694
 20
11.635002021
 10
13.8064995829
 20
11.6299718413
 10
13.7972029401
 20
11.6249133343
  0
LINE
  5
157
330
1F
100
AcDbEntity
  8
0
  6
Continuous
 62
     7
370
    25
100
AcDbLine
 10
15.8119341226
 20
9.9280674559
 30
0.0
 11
15.8119341226
 21
9.9680674559
 31
0.0
  0
LINE
  5
158
330
1F
100
AcDbEntity
  8
0
  6
Continuous
 62
     7
370
    25
100
AcDbLine
 10
13.8119341226
 20
11.9680674559
 30
0.0
 11
13.7719341226
 21
11.9680674559
 31
0.0
  0
SPLINE
  5
159
330
1F
100
AcDbEntity
  8
0
  6
Continuous
 62
     7
370
    25
100
AcDbSpline
210
0.0
220
0.0
230
1.0
 70
    24
 71
     3
 72
    10
 73
     6
 74
     0
 42
0.00000001
 43
0.00000001
 40
0.0
 40
0.0
 40
0.0
 40
0.0
 40
0.5
 40
0.5
 40
1.0
 40
1.0
 40
1.0
 40
1.0
 10
24.18166788541705
 20
20.33780121875041
 30
0.0
 10
24.15635586439871
 20
20.31248919773207
 30
0.0
 10
24.13800986607817
 20
20.29414319941153
 30
0.0
 10
24.11191162986104
 20
20.26804496319441
 30
0.0
 10
24.1048273413696
 20
20.26096067470295
 30
0.0
 10
24.10482734136884
 20
20.2609606747022
 30
0.0
  0
LINE
  5
15A
330
1F
100
AcDbEntity
  8
0
  6
Continuous
 62
     7
370
    25
100
AcDbLine
 10
23.8119341226
 20
20.9680674559
 30
0.0
 11
23.8519341226
 21
20.9680674559
 31
0.0
  0
LINE
  5
15B
330
1F
100
AcDbEntity
  8
0
  6
Continuous
 62
     7
370
    25
100
AcDbLine
 10
24.8119341226
 20
20.0080674559
 30
0.0
 11
24.8119341226
 21
19.9680674559
 31
0.0
  0
LINE
  5
15C
330
1F
100
AcDbEntity
  8
0
  6
Continuous
 62
     7
370
    25
100
AcDbLine
 10
26.5528346828
 20
40.1494141079
 30
0.0
 11
27.0619341226
 21
40.1494141079
 31
0.0
  0
LINE
  5
15D
330
1F
100
AcDbEntity
  8
0
  6
Continuous
 62
     7
370
    25
100
AcDbLine
 10
10.5619341226
 20
40.1494141079
 30
0.0
 11
11.0710335623
 21
40.1494141079
 31
0.0
  0
LINE
  5
15E
330
1F
100
AcDbEntity
  8
0
  6
Continuous
 62
     7
370
    25
100
AcDbLine
 10
10.719174446
 20
39.4998950551
 30
0.0
 11
10.1869341226
 21
39.4998950551
 31
0.0
  0
LINE
  5
15F
330
1F
100
AcDbEntity
  8
0
  6
Continuous
 62
     7
370
    25
100
AcDbLine
 10
27.4369341226
 20
39.4998950551
 30
0.0
 11
26.9046937991
 21
39.4998950551
 31
0.0
  0
LINE
  5
160
330
1F
100
AcDbEntity
  8
0
  6
Continuous
 62
     7
370
    25
100
AcDbLine
 10
43.9932807746
 20
23.2180674559
 30
0.0
 11
43.9932807746
 21
22.7089680161
 31
0.0
  0
LINE
  5
161
330
1F
100
AcDbEntity
  8
0
  6
Continuous
 62
     7
370
    25
100
AcDbLine
 10
43.9932807746
 20
7.2271668957
 30
0.0
 11
43.9932807746
 21
6.7180674559
 31
0.0
  0
LINE
  5
162
330
1F
100
AcDbEntity
  8
0
  6
Continuous
 62
     7
370
    25
100
AcDbLine
 10
43.3437617218
 20
6.3430674559
 30
0.0
 11
43.3437617218
 21
6.8753077793
 31
0.0
  0
LINE
  5
163
330
1F
100
AcDbEntity
  8
0
  6
Continuous
 62
     7
370
    25
100
AcDbLine
 10
43.3437617218
 20
23.0608271325
 30
0.0
 11
43.3437617218
 21
23.5930674559
 31
0.0
  0
LINE
  5
164
330
1F
100
AcDbEntity
  8
0
  6
Continuous
 62
     7
370
    25
100
AcDbLine
 10
28.3119341226
 20
8.9680674559
 30
0.0
 11
28.3119341226
 21
20.9680674559
 31
0.0
  0
LINE
  5
165
330
1F
100
AcDbEntity
  8
0
  6
Continuous
 62
     7
370
    25
100
AcDbLine
 10
24.8119341226
 20
24.4680674559
 30
0.0
 11
12.8119341226
 21
24.4680674559
 31
0.0
  0
LINE
  5
166
330
1F
100
AcDbEntity
  8
0
  6
Continuous
 62
     7
370
    25
100
AcDbLine
 10
15.4687800009
 20
9.9533362734
 30
0.0
 11
14.8119341226
 21
8.9680674559
 31
0.0
  0
LINE
  5
167
330
1F
100
AcDbEntity
  8
0
  6
Continuous
 62
     7
370
    25
100
AcDbLine
 10
12.8119341226
 20
10.9680674559
 30
0.0
 11
13.7972029401
 21
11.6249133343
 31
0.0
  0
LINE
  5
168
330
1F
100
AcDbEntity
  8
0
  6
CENTERX2
 62
     7
370
    18
100
AcDbLine
 10
10.4379178308
 20
14.9680674559
 30
0.0
 11
46.6773330033
 21
14.9680674559
 31
0.0
  0
LINE
  5
169
330
1F
100
AcDbEntity
  8
0
  6
CENTERX2
 62
     7
370
    18
100
AcDbLine
 10
18.8119341226
 20
7.1993398755
 30
0.0
 11
18.8119341226
 21
42.7739775339
 31
0.0
  0
LINE
  5
16A
330
1F
100
AcDbEntity
  8
0
  6
Continuous
 62
     7
370
    25
100
AcDbLine
 10
58.6782102857
 20
28.3607389733
 30
0.0
 11
58.9282102857
 21
28.216401406
 31
0.0
  0
LINE
  5
16B
330
1F
100
AcDbEntity
  8
0
  6
Continuous
 62
     7
370
    25
100
AcDbLine
 10
75.4282102857
 20
28.216401406
 30
0.0
 11
75.6782102857
 21
28.3607389733
 31
0.0
  0
LINE
  5
16C
330
1F
100
AcDbEntity
  8
0
  6
Continuous
 62
     7
370
    25
100
AcDbLine
 10
58.9282102857
 20
41.016401406
 30
0.0
 11
58.9282102857
 21
40.1327172005
 31
0.0
  0
LINE
  5
16D
330
1F
100
AcDbEntity
  8
0
  6
Continuous
 62
     7
370
    25
100
AcDbLine
 10
75.4282102857
 20
40.1327172005
 30
0.0
 11
75.4282102857
 21
41.016401406
 31
0.0
  0
LINE
  5
16E
330
1F
100
AcDbEntity
  8
0
  6
Continuous
 62
     7
370
    25
100
AcDbLine
 10
75.4282102857
 20
41.016401406
 30
0.0
 11
75.2282102857
 21
41.216401406
 31
0.0
  0
LINE
  5
16F
330
1F
100
AcDbEntity
  8
0
  6
Continuous
 62
     7
370
    25
100
AcDbLine
 10
59.1282102857
 20
41.216401406
 30
0.0
 11
58.9282102857
 21
41.016401406
 31
0.0
  0
SPLINE
  5
170
330
1F
100
AcDbEntity
  8
0
  6
Continuous
 62
     7
370
    25
100
AcDbSpline
210
0.0
220
0.0
230
1.0
 70
     8
 71
     3
 72
    12
 73
     8
 74
     0
 42
0.00000001
 43
0.00000001
 40
0.0
 40
0.0
 40
0.0
 40
0.0
 40
0.034607845581042
 40
0.2371046138070213
 40
0.4658252774966666
 40
0.7255491739047741
 40
1.0
 40
1.0
 40
1.0
 40
1.0
 10
75.6836703710797
 20
39.57018009974556
 30
0.0
 10
75.6784421732702
 20
39.57430576085293
 30
0.0
 10
75.64262284381714
 20
39.60257141180984
 30
0.0
 10
75.57631596173549
 20
39.6792003861889
 30
0.0
 10
75.49835495845839
 20
39.80336145756318
 30
0.0
 10
75.43979886262498
 20
39.95909003399269
 30
0.0
 10
75.43262265532566
 20
40.07421139505409
 30
0.0
 10
75.42893562945461
 20
40.13335899473165
 30
0.0
  0
SPLINE
  5
171
330
1F
100
AcDbEntity
  8
0
  6
Continuous
 62
     7
370
    25
100
AcDbSpline
210
0.0
220
0.0
230
1.0
 70
     8
 71
     3
 72
    12
 73
     8
 74
     0
 42
0.00000001
 43
0.00000001
 40
0.0
 40
0.0
 40
0.0
 40
0.0
 40
0.2143858020001734
 40
0.4599932897172404
 40
0.6828167716358204
 40
0.8838488851656727
 40
1.0
 40
1.0
 40
1.0
 40
1.0
 10
58.92471894108799
 20
40.13324400376008
 30
0.0
 10
58.92373543357542
 20
40.08735023462039
 30
0.0
 10
58.92162518722538
 20
39.98887904087937
 30
0.0
 10
58.8771766022917
 20
39.84825700220497
 30
0.0
 10
58.81084960980159
 20
39.72268573750576
 30
0.0
 10
58.74071232669729
 20
39.63110792697266
 30
0.0
 10
58.69323682979109
 20
39.58914020342579
 30
0.0
 10
58.67585150988812
 20
39.57377180610489
 30
0.0
  0
LINE
  5
172
330
1F
100
AcDbEntity
  8
0
  6
Continuous
 62
     7
370
    25
100
AcDbLine
 10
60.5997102857
 20
28.216401406
 30
0.0
 11
60.5997102857
 21
24.9680674559
 31
0.0
  0
LINE
  5
173
330
1F
100
AcDbEntity
  8
0
  6
Continuous
 62
     7
370
    25
100
AcDbLine
 10
73.7567102857
 20
24.9680674559
 30
0.0
 11
73.7567102857
 21
28.216401406
 31
0.0
  0
ARC
  5
174
330
1F
100
AcDbEntity
  8
0
  6
Continuous
 62
     7
370
    25
100
AcDbCircle
 10
60.6782102857
 20
24.4680674559
 30
0.0
 40
0.5
100
AcDbArc
 50
0.0
 51
90.0
  0
ARC
  5
175
330
1F
100
AcDbEntity
  8
0
  6
Continuous
 62
     7
370
    25
100
AcDbCircle
 10
73.6782102857
 20
24.4680674559
 30
0.0
 40
0.5
100
AcDbArc
 50
90.0
 51
180.0
  0
LINE
  5
176
330
1F
100
AcDbEntity
  8
0
  6
Continuous
 62
     7
370
    25
100
AcDbLine
 10
73.1782102857
 20
21.7180674559
 30
0.0
 11
73.1782102857
 21
24.4680674559
 31
0.0
  0
LINE
  5
177
330
1F
100
AcDbEntity
  8
0
  6
Continuous
 62
     7
370
    25
100
AcDbLine
 10
61.1782102857
 20
24.4680674559
 30
0.0
 11
61.1782102857
 21
21.7180674559
 31
0.0
  0
SPLINE
  5
178
330
1F
100
AcDbEntity
  8
0
  6
Continuous
 62
     7
370
    25
100
AcDbSpline
210
0.0
220
0.0
230
1.0
 70
     8
 71
     3
 72
     9
 73
     5
 74
     0
 42
0.00000001
 43
0.00000001
 40
0.0
 40
0.0
 40
0.0
 40
0.0
 40
0.6189856167028766
 40
1.0
 40
1.0
 40
1.0
 40
1.0
 10
61.6611393524197
 20
39.49989505510307
 30
0.0
 10
62.18442271022553
 20
39.54099447067557
 30
0.0
 10
63.02981126802948
 20
39.60739248456063
 30
0.0
 10
63.87373437634415
 20
39.52955301325773
 30
0.0
 10
64.19528121900886
 20
39.49989505510307
 30
0.0
  0
SPLINE
  5
179
330
1F
100
AcDbEntity
  8
0
  6
Continuous
 62
     7
370
    25
100
AcDbSpline
210
0.0
220
0.0
230
1.0
 70
     8
 71
     3
 72
     9
 73
     5
 74
     0
 42
0.00000001
 43
0.00000001
 40
0.0
 40
0.0
 40
0.0
 40
0.0
 40
0.4977140401152428
 40
1.0
 40
1.0
 40
1.0
 40
1.0
 10
64.19528121900886
 20
39.49989505510307
 30
0.0
 10
64.69697892122288
 20
39.42541592025538
 30
0.0
 10
65.70498283868893
 20
39.27577349740864
 30
0.0
 10
66.68563997478995
 20
38.96764372080656
 30
0.0
 10
67.17821028571427
 20
38.81287446019692
 30
0.0
  0
LINE
  5
17A
330
1F
100
AcDbEntity
  8
0
  6
Continuous
 62
     7
370
    25
100
AcDbLine
 10
67.1782102857
 20
29.1199283519
 30
0.0
 11
67.1782102857
 21
38.8128744602
 31
0.0
  0
SPLINE
  5
17B
330
1F
100
AcDbEntity
  8
0
  6
Continuous
 62
     7
370
    25
100
AcDbSpline
210
0.0
220
0.0
230
1.0
 70
     8
 71
     3
 72
    15
 73
    11
 74
     0
 42
0.00000001
 43
0.00000001
 40
0.0
 40
0.0
 40
0.0
 40
0.0
 40
0.1323052378296956
 40
0.2645730682660303
 40
0.3997997819746812
 40
0.5350020935366633
 40
0.6501929590834553
 40
0.7654017933211804
 40
0.8826895567076665
 40
1.0
 40
1.0
 40
1.0
 40
1.0
 10
67.17821028571427
 20
29.11992835190143
 30
0.0
 10
66.81097646775125
 20
29.00435838006143
 30
0.0
 10
66.07661266187839
 20
28.77325111212027
 30
0.0
 10
64.94575740728304
 20
28.52458848054392
 30
0.0
 10
63.79358534169008
 20
28.3750745333904
 30
0.0
 10
62.68314912902976
 20
28.34546424634203
 30
0.0
 10
61.63270402277809
 20
28.42228564899266
 30
0.0
 10
60.64134229611646
 20
28.57969512011369
 30
0.0
 10
59.65446280430645
 20
28.81059748064468
 30
0.0
 10
59.00364876450899
 20
29.01681141620206
 30
0.0
 10
58.67821028571431
 20
29.11992835190145
 30
0.0
  0
LINE
  5
17C
330
1F
100
AcDbEntity
  8
0
  6
Continuous
 62
     7
370
    25
100
AcDbLine
 10
58.6782102857
 20
29.1199283519
 30
0.0
 11
58.6782102857
 21
38.8128744602
 31
0.0
  0
SPLINE
  5
17D
330
1F
100
AcDbEntity
  8
0
  6
Continuous
 62
     7
370
    25
100
AcDbSpline
210
0.0
220
0.0
230
1.0
 70
     8
 71
     3
 72
     9
 73
     5
 74
     0
 42
0.00000001
 43
0.00000001
 40
0.0
 40
0.0
 40
0.0
 40
0.0
 40
0.498064808358806
 40
1.0
 40
1.0
 40
1.0
 40
1.0
 10
58.67821028571431
 20
38.81287446019693
 30
0.0
 10
59.16661348974872
 20
38.96642301699502
 30
0.0
 10
60.14721520229245
 20
39.27471333227356
 30
0.0
 10
61.15519754304376
 20
39.42464105490949
 30
0.0
 10
61.6611393524197
 20
39.49989505510307
 30
0.0
  0
LINE
  5
17E
330
1F
100
AcDbEntity
  8
0
  6
Continuous
 62
     7
370
    25
100
AcDbLine
 10
70.1611393524
 20
39.4998950551
 30
0.0
 11
64.195281219
 21
39.4998950551
 31
0.0
  0
SPLINE
  5
17F
330
1F
100
AcDbEntity
  8
0
  6
Continuous
 62
     7
370
    25
100
AcDbSpline
210
0.0
220
0.0
230
1.0
 70
     8
 71
     3
 72
     9
 73
     5
 74
     0
 42
0.00000001
 43
0.00000001
 40
0.0
 40
0.0
 40
0.0
 40
0.0
 40
0.4980648083588056
 40
1.0
 40
1.0
 40
1.0
 40
1.0
 10
67.17821028571427
 20
38.81287446019692
 30
0.0
 10
67.6666134897487
 20
38.96642301699499
 30
0.0
 10
68.64721520229246
 20
39.27471333227354
 30
0.0
 10
69.65519754304377
 20
39.42464105490948
 30
0.0
 10
70.16113935241971
 20
39.49989505510307
 30
0.0
  0
SPLINE
  5
180
330
1F
100
AcDbEntity
  8
0
  6
Continuous
 62
     7
370
    25
100
AcDbSpline
210
0.0
220
0.0
230
1.0
 70
     8
 71
     3
 72
     9
 73
     5
 74
     0
 42
0.00000001
 43
0.00000001
 40
0.0
 40
0.0
 40
0.0
 40
0.0
 40
0.6189856167028758
 40
1.0
 40
1.0
 40
1.0
 40
1.0
 10
70.16113935241971
 20
39.49989505510307
 30
0.0
 10
70.68442271022556
 20
39.54099447067556
 30
0.0
 10
71.5298112680295
 20
39.60739248456063
 30
0.0
 10
72.37373437634419
 20
39.52955301325773
 30
0.0
 10
72.69528121900889
 20
39.49989505510308
 30
0.0
  0
SPLINE
  5
181
330
1F
100
AcDbEntity
  8
0
  6
Continuous
 62
     7
370
    25
100
AcDbSpline
210
0.0
220
0.0
230
1.0
 70
     8
 71
     3
 72
     9
 73
     5
 74
     0
 42
0.00000001
 43
0.00000001
 40
0.0
 40
0.0
 40
0.0
 40
0.0
 40
0.4977140401152428
 40
1.0
 40
1.0
 40
1.0
 40
1.0
 10
72.69528121900889
 20
39.49989505510308
 30
0.0
 10
73.19697892122291
 20
39.42541592025539
 30
0.0
 10
74.20498283868898
 20
39.27577349740865
 30
0.0
 10
75.18563997478999
 20
38.96764372080658
 30
0.0
 10
75.67821028571434
 20
38.81287446019693
 30
0.0
  0
LINE
  5
182
330
1F
100
AcDbEntity
  8
0
  6
Continuous
 62
     7
370
    25
100
AcDbLine
 10
75.6782102857
 20
29.1199283519
 30
0.0
 11
75.6782102857
 21
38.8128744602
 31
0.0
  0
SPLINE
  5
183
330
1F
100
AcDbEntity
  8
0
  6
Continuous
 62
     7
370
    25
100
AcDbSpline
210
0.0
220
0.0
230
1.0
 70
     8
 71
     3
 72
    15
 73
    11
 74
     0
 42
0.00000001
 43
0.00000001
 40
0.0
 40
0.0
 40
0.0
 40
0.0
 40
0.1323052378296955
 40
0.2645730682660304
 40
0.3997997819746811
 40
0.5350020935366634
 40
0.6501929590834553
 40
0.7654017933211806
 40
0.8826895567076666
 40
1.0
 40
1.0
 40
1.0
 40
1.0
 10
75.67821028571434
 20
29.11992835190145
 30
0.0
 10
75.31097646775132
 20
29.00435838006145
 30
0.0
 10
74.57661266187844
 20
28.77325111212028
 30
0.0
 10
73.44575740728307
 20
28.52458848054393
 30
0.0
 10
72.29358534169012
 20
28.3750745333904
 30
0.0
 10
71.18314912902979
 20
28.34546424634203
 30
0.0
 10
70.1327040227781
 20
28.42228564899266
 30
0.0
 10
69.14134229611648
 20
28.57969512011369
 30
0.0
 10
68.15446280430643
 20
28.81059748064467
 30
0.0
 10
67.50364876450897
 20
29.01681141620204
 30
0.0
 10
67.17821028571427
 20
29.11992835190143
 30
0.0
  0
SPLINE
  5
184
330
1F
100
AcDbEntity
  8
0
  6
Continuous
 62
     7
370
    25
100
AcDbSpline
210
0.0
220
0.0
230
1.0
 70
    24
 71
     3
 72
    12
 73
     8
 74
     0
 42
0.00000001
 43
0.00000001
 40
0.0
 40
0.0
 40
0.0
 40
0.0
 40
0.2240417721254006
 40
0.4755331361824789
 40
0.7269594349736314
 40
0.9845690194377461
 40
1.0
 40
1.0
 40
1.0
 40
1.0
 10
58.67821028571431
 20
29.11992835190145
 30
0.0
 10
58.6782102857143
 20
29.02138968256727
 30
0.0
 10
58.67821028571429
 20
28.81223938876626
 30
0.0
 10
58.67821028571432
 20
28.56967797112923
 30
0.0
 10
58.67821028571434
 20
28.41172567046
 30
0.0
 10
58.67821028571437
 20
28.34525240023986
 30
0.0
 10
58.67821028571435
 20
28.36332998187109
 30
0.0
 10
58.67821028571435
 20
28.36435164255633
 30
0.0
  0
SPLINE
  5
185
330
1F
100
AcDbEntity
  8
0
  6
Continuous
 62
     7
370
    25
100
AcDbSpline
210
0.0
220
0.0
230
1.0
 70
    24
 71
     3
 72
    12
 73
     8
 74
     0
 42
0.00000001
 43
0.00000001
 40
0.0
 40
0.0
 40
0.0
 40
0.0
 40
0.0089884559441922
 40
0.2601579128415273
 40
0.5180220921899615
 40
0.7759580093104198
 40
1.0
 40
1.0
 40
1.0
 40
1.0
 10
75.67821028571434
 20
28.36301016549563
 30
0.0
 10
75.67821028571434
 20
28.36241163686968
 30
0.0
 10
75.67821028571434
 20
28.3450880877452
 30
0.0
 10
75.67821028571433
 20
28.40818928754343
 30
0.0
 10
75.67821028571433
 20
28.56345163658693
 30
0.0
 10
75.67821028571434
 20
28.80943856268989
 30
0.0
 10
75.67821028571434
 20
29.02140032087629
 30
0.0
 10
75.67821028571434
 20
29.11992835190145
 30
0.0
  0
LINE
  5
186
330
1F
100
AcDbEntity
  8
0
  6
Continuous
 62
     7
370
    25
100
AcDbLine
 10
75.4282102857
 20
28.216401406
 30
0.0
 11
58.9282102857
 21
28.216401406
 31
0.0
  0
LINE
  5
187
330
1F
100
AcDbEntity
  8
0
  6
Continuous
 62
     7
370
    25
100
AcDbLine
 10
64.3249737871
 20
40.1494141079
 30
0.0
 11
70.0314467843
 21
40.1494141079
 31
0.0
  0
ARC
  5
188
330
1F
100
AcDbEntity
  8
0
  6
Continuous
 62
     7
370
    25
100
AcDbCircle
 10
71.4107488747
 20
40.0871182436
 30
0.0
 40
1.380708162956811
100
AcDbArc
 50
177.4140065821
 51
205.1700210283
  0
ARC
  5
189
330
1F
100
AcDbEntity
  8
0
  6
Continuous
 62
     7
370
    25
100
AcDbCircle
 10
62.9456716967
 20
40.0871182436
 30
0.0
 40
1.380708162983732
100
AcDbArc
 50
334.829978972
 51
2.5859934176
  0
SPLINE
  5
18A
330
1F
100
AcDbEntity
  8
0
  6
Continuous
 62
     7
370
    25
100
AcDbSpline
210
0.0
220
0.0
230
1.0
 70
     8
 71
     3
 72
    11
 73
     7
 74
     0
 42
0.00000001
 43
0.00000001
 40
0.0
 40
0.0
 40
0.0
 40
0.0
 40
0.2858113857234036
 40
0.5527245545213757
 40
0.822027558222934
 40
1.0
 40
1.0
 40
1.0
 40
1.0
 10
70.03144678430209
 20
40.1494141079414
 30
0.0
 10
70.28031631101288
 20
40.14547380651888
 30
0.0
 10
70.76159979080498
 20
40.13785374147867
 30
0.0
 10
71.43817441853402
 20
40.12639265182776
 30
0.0
 10
71.99820300455035
 20
40.14383004106936
 30
0.0
 10
72.32526820062951
 20
40.14782464232862
 30
0.0
 10
72.45540856973521
 20
40.1494141079414
 30
0.0
  0
SPLINE
  5
18B
330
1F
100
AcDbEntity
  8
0
  6
Continuous
 62
     7
370
    25
100
AcDbSpline
210
0.0
220
0.0
230
1.0
 70
     8
 71
     3
 72
    11
 73
     7
 74
     0
 42
0.00000001
 43
0.00000001
 40
0.0
 40
0.0
 40
0.0
 40
0.0
 40
0.2858113857233993
 40
0.5527245545213819
 40
0.8220275582229518
 40
0.9999999999999999
 40
0.9999999999999999
 40
0.9999999999999999
 40
0.9999999999999999
 10
61.90101200169339
 20
40.1494141079414
 30
0.0
 10
62.11176359722134
 20
40.14547380651888
 30
0.0
 10
62.51933162135036
 20
40.13785374147867
 30
0.0
 10
63.17955248287949
 20
40.12639265182774
 30
0.0
 10
63.778636246986
 20
40.14383004106936
 30
0.0
 10
64.1694626242179
 20
40.14782464232862
 30
0.0
 10
64.3249737871265
 20
40.1494141079414
 30
0.0
  0
LINE
  5
18C
330
1F
100
AcDbEntity
  8
0
  6
Continuous
 62
     7
370
    25
100
AcDbLine
 10
59.0477755031
 20
40.1494141079
 30
0.0
 11
61.9010120017
 21
40.1494141079
 31
0.0
  0
LINE
  5
18D
330
1F
100
AcDbEntity
  8
0
  6
Continuous
 62
     7
370
    25
100
AcDbLine
 10
72.4554085697
 20
40.1494141079
 30
0.0
 11
75.3086450683
 21
40.1494141079
 31
0.0
  0
LINE
  5
18E
330
1F
100
AcDbEntity
  8
0
  6
Continuous
 62
     7
370
    25
100
AcDbLine
 10
75.4282102857
 20
41.016401406
 30
0.0
 11
58.9282102857
 21
41.016401406
 31
0.0
  0
LINE
  5
18F
330
1F
100
AcDbEntity
  8
0
  6
Continuous
 62
     7
370
    25
100
AcDbLine
 10
59.1282102857
 20
41.216401406
 30
0.0
 11
75.2282102857
 21
41.216401406
 31
0.0
  0
ARC
  5
190
330
1F
100
AcDbEntity
  8
0
  6
Continuous
 62
     7
370
    25
100
AcDbCircle
 10
73.3415139132
 20
40.1076070085
 30
0.0
 40
0.8870910400401673
100
AcDbArc
 50
177.298746295
 51
223.2404470551
  0
ARC
  5
191
330
1F
100
AcDbEntity
  8
0
  6
Continuous
 62
     7
370
    25
100
AcDbCircle
 10
61.0149066582
 20
40.1076070085
 30
0.0
 40
0.8870910400315694
100
AcDbArc
 50
316.7595529446
 51
2.7012537052
  0
ARC
  5
192
330
1F
100
AcDbEntity
  8
0
  6
Continuous
 62
     7
370
    25
100
AcDbCircle
 10
76.0606211839
 20
40.1473779732
 30
0.0
 40
0.751978872191205
100
AcDbArc
 50
179.8448599075
 51
239.433409991
  0
LINE
  5
193
330
1F
100
AcDbEntity
  8
0
  6
Continuous
 62
     7
370
    25
100
AcDbLine
 10
75.6782102857
 20
39.4998950551
 30
0.0
 11
72.695281219
 21
39.4998950551
 31
0.0
  0
SPLINE
  5
194
330
1F
100
AcDbEntity
  8
0
  6
Continuous
 62
     7
370
    25
100
AcDbSpline
210
0.0
220
0.0
230
1.0
 70
    24
 71
     3
 72
    10
 73
     6
 74
     0
 42
0.00000001
 43
0.00000001
 40
0.0
 40
0.0
 40
0.0
 40
0.0
 40
0.3273333707077131
 40
0.6629523133412116
 40
1.0
 40
1.0
 40
1.0
 40
1.0
 10
75.67821028571434
 20
38.81287446019693
 30
0.0
 10
75.67821028571434
 20
38.91419208629333
 30
0.0
 10
75.67821028571434
 20
39.11939192417609
 30
0.0
 10
75.67821028571431
 20
39.35795734629886
 30
0.0
 10
75.67821028571434
 20
39.45251553829684
 30
0.0
 10
75.67821028571434
 20
39.4998950551031
 30
0.0
  0
LINE
  5
195
330
1F
100
AcDbEntity
  8
0
  6
Continuous
 62
     7
370
    25
100
AcDbLine
 10
61.6611393524
 20
39.4998950551
 30
0.0
 11
58.6782102857
 21
39.4998950551
 31
0.0
  0
ARC
  5
196
330
1F
100
AcDbEntity
  8
0
  6
Continuous
 62
     7
370
    25
100
AcDbCircle
 10
58.2957993875
 20
40.1473779732
 30
0.0
 40
0.751978872200038
100
AcDbArc
 50
300.5665900094
 51
0.1551400921
  0
SPLINE
  5
197
330
1F
100
AcDbEntity
  8
0
  6
Continuous
 62
     7
370
    25
100
AcDbSpline
210
0.0
220
0.0
230
1.0
 70
    24
 71
     3
 72
    10
 73
     6
 74
     0
 42
0.00000001
 43
0.00000001
 40
0.0
 40
0.0
 40
0.0
 40
0.0
 40
0.3355445600395946
 40
0.6726666839999054
 40
1.0
 40
1.0
 40
1.0
 40
1.0
 10
58.67821028571432
 20
39.4998950551031
 30
0.0
 10
58.67821028571433
 20
39.45276083911867
 30
0.0
 10
58.67821028571434
 20
39.35827080546879
 30
0.0
 10
58.67821028571429
 20
39.11985502745338
 30
0.0
 10
58.6782102857143
 20
38.9141913650557
 30
0.0
 10
58.67821028571431
 20
38.81287446019693
 30
0.0
  0
SPLINE
  5
198
330
1F
100
AcDbEntity
  8
0
  6
Continuous
 62
     7
370
    25
100
AcDbSpline
210
0.0
220
0.0
230
1.0
 70
    24
 71
     3
 72
     9
 73
     5
 74
     0
 42
0.00000001
 43
0.00000001
 40
0.0
 40
0.0
 40
0.0
 40
0.0
 40
0.8577196295681557
 40
1.0
 40
1.0
 40
1.0
 40
1.0
 10
75.67821028571434
 20
39.4998950551031
 30
0.0
 10
75.67821028571434
 20
39.54123909791897
 30
0.0
 10
75.67821028571433
 20
39.58944137916638
 30
0.0
 10
75.67821028571434
 20
39.56646885379904
 30
0.0
 10
75.67821028571434
 20
39.56320031438001
 30
0.0
  0
SPLINE
  5
199
330
1F
100
AcDbEntity
  8
0
  6
Continuous
 62
     7
370
    25
100
AcDbSpline
210
0.0
220
0.0
230
1.0
 70
    24
 71
     3
 72
     9
 73
     5
 74
     0
 42
0.00000001
 43
0.00000001
 40
0.0
 40
0.0
 40
0.0
 40
0.0
 40
0.0071171627498599
 40
0.9999999999999999
 40
0.9999999999999999
 40
0.9999999999999999
 40
0.9999999999999999
 10
58.67821028571436
 20
39.57128406225078
 30
0.0
 10
58.67821028571436
 20
39.57140779978874
 30
0.0
 10
58.67821028571444
 20
39.58879359554982
 30
0.0
 10
58.67821028571438
 20
39.5441855840877
 30
0.0
 10
58.67821028571432
 20
39.4998950551031
 30
0.0
  0
CIRCLE
  5
19A
330
1F
100
AcDbEntity
  8
0
  6
Continuous
 62
     7
370
    25
100
AcDbCircle
 10
67.1782102857
 20
14.9680674559
 30
0.0
 40
8.049999999999997
  0
CIRCLE
  5
19B
330
1F
100
AcDbEntity
  8
0
  6
Continuous
 62
     7
370
    25
100
AcDbCircle
 10
67.1782102857
 20
14.9680674559
 30
0.0
 40
8.25
  0
CIRCLE
  5
19C
330
1F
100
AcDbEntity
  8
0
  6
Continuous
 62
     7
370
    25
100
AcDbCircle
 10
67.1782102857
 20
14.9680674559
 30
0.0
 40
4.074999999999989
  0
CIRCLE
  5
19D
330
1F
100
AcDbEntity
  8
0
  6
Continuous
 62
     7
370
    25
100
AcDbCircle
 10
67.1782102857
 20
14.9680674559
 30
0.0
 40
4.174999999999997
  0
SPLINE
  5
19E
330
1F
100
AcDbEntity
  8
0
  6
Continuous
 62
     7
370
    25
100
AcDbSpline
210
0.0
220
0.0
230
1.0
 70
    24
 71
     3
 72
     9
 73
     5
 74
     0
 42
0.00000001
 43
0.00000001
 40
0.0
 40
0.0
 40
0.0
 40
0.0
 40
0.6189856167029143
 40
0.9999999999999999
 40
0.9999999999999999
 40
0.9999999999999999
 40
0.9999999999999999
 10
70.16113935241991
 20
6.875307779301093
 30
0.0
 10
70.6844227102257
 20
7.177425566792718
 30
0.0
 10
71.52981126802955
 20
7.665510878210583
 30
0.0
 10
72.3737343763441
 20
8.152750111971335
 30
0.0
 10
72.69528121900873
 20
8.338395268140834
 30
0.0
  0
LINE
  5
19F
330
1F
100
AcDbEntity
  8
0
  6
Continuous
 62
     7
370
    25
100
AcDbLine
 10
70.1611393524
 20
6.8753077793
 30
0.0
 11
70.0314467843
 21
7.2271668957
 31
0.0
  0
LINE
  5
1A0
330
1F
100
AcDbEntity
  8
0
  6
Continuous
 62
     7
370
    25
100
AcDbLine
 10
72.695281219
 20
8.3383952681
 30
0.0
 11
72.4554085697
 21
8.626641885
 31
0.0
  0
SPLINE
  5
1A1
330
1F
100
AcDbEntity
  8
0
  6
Continuous
 62
     7
370
    25
100
AcDbSpline
210
0.0
220
0.0
230
1.0
 70
    24
 71
     3
 72
     9
 73
     5
 74
     0
 42
0.00000001
 43
0.00000001
 40
0.0
 40
0.0
 40
0.0
 40
0.0
 40
0.6189856167028771
 40
1.0
 40
1.0
 40
1.0
 40
1.0
 10
61.66113935241977
 20
8.338395268140996
 30
0.0
 10
62.18442271022559
 20
8.03627748064935
 30
0.0
 10
63.02981126802953
 20
7.548192169231416
 30
0.0
 10
63.87373437634421
 20
7.060952935470592
 30
0.0
 10
64.19528121900892
 20
6.875307779301052
 30
0.0
  0
LINE
  5
1A2
330
1F
100
AcDbEntity
  8
0
  6
Continuous
 62
     7
370
    25
100
AcDbLine
 10
61.6611393524
 20
8.3383952681
 30
0.0
 11
61.9010120017
 21
8.626641885
 31
0.0
  0
LINE
  5
1A3
330
1F
100
AcDbEntity
  8
0
  6
Continuous
 62
     7
370
    25
100
AcDbLine
 10
64.195281219
 20
6.8753077793
 30
0.0
 11
64.3249737871
 21
7.2271668957
 31
0.0
  0
LINE
  5
1A4
330
1F
100
AcDbEntity
  8
0
  6
Continuous
 62
     7
370
    25
100
AcDbLine
 10
70.0314467843
 20
22.7089680161
 30
0.0
 11
70.1611393524
 21
23.0608271325
 31
0.0
  0
SPLINE
  5
1A5
330
1F
100
AcDbEntity
  8
0
  6
Continuous
 62
     7
370
    25
100
AcDbSpline
210
0.0
220
0.0
230
1.0
 70
    24
 71
     3
 72
     9
 73
     5
 74
     0
 42
0.00000001
 43
0.00000001
 40
0.0
 40
0.0
 40
0.0
 40
0.0
 40
0.6189856167028766
 40
1.0
 40
1.0
 40
1.0
 40
1.0
 10
72.69528121900898
 20
21.59773964363646
 30
0.0
 10
72.17199786120315
 20
21.89985743112811
 30
0.0
 10
71.32660930339921
 20
22.38794274254605
 30
0.0
 10
70.48268619508454
 20
22.87518197630688
 30
0.0
 10
70.16113935241982
 20
23.06082713247644
 30
0.0
  0
LINE
  5
1A6
330
1F
100
AcDbEntity
  8
0
  6
Continuous
 62
     7
370
    25
100
AcDbLine
 10
72.4554085697
 20
21.3094930268
 30
0.0
 11
72.695281219
 21
21.5977396436
 31
0.0
  0
LINE
  5
1A7
330
1F
100
AcDbEntity
  8
0
  6
Continuous
 62
     7
370
    25
100
AcDbLine
 10
61.9010120017
 20
21.3094930268
 30
0.0
 11
61.6611393524
 21
21.5977396436
 31
0.0
  0
SPLINE
  5
1A8
330
1F
100
AcDbEntity
  8
0
  6
Continuous
 62
     7
370
    25
100
AcDbSpline
210
0.0
220
0.0
230
1.0
 70
    24
 71
     3
 72
     9
 73
     5
 74
     0
 42
0.00000001
 43
0.00000001
 40
0.0
 40
0.0
 40
0.0
 40
0.0
 40
0.6189856167028759
 40
1.0
 40
1.0
 40
1.0
 40
1.0
 10
64.19528121900898
 20
23.06082713247647
 30
0.0
 10
63.67199786120313
 20
22.75870934498483
 30
0.0
 10
62.82660930339919
 20
22.2706240335669
 30
0.0
 10
61.9826861950845
 20
21.78338479980608
 30
0.0
 10
61.6611393524198
 20
21.59773964363653
 30
0.0
  0
LINE
  5
1A9
330
1F
100
AcDbEntity
  8
0
  6
Continuous
 62
     7
370
    25
100
AcDbLine
 10
64.3249737871
 20
22.7089680161
 30
0.0
 11
64.195281219
 21
23.0608271325
 31
0.0
  0
LINE
  5
1AA
330
1F
100
AcDbEntity
  8
0
  6
Continuous
 62
     7
370
    25
100
AcDbLine
 10
75.3086450683
 20
16.3675424452
 30
0.0
 11
75.6782102857
 21
16.4311549447
 31
0.0
  0
SPLINE
  5
1AB
330
1F
100
AcDbEntity
  8
0
  6
Continuous
 62
     7
370
    25
100
AcDbSpline
210
0.0
220
0.0
230
1.0
 70
    24
 71
     3
 72
    10
 73
     6
 74
     0
 42
0.00000001
 43
0.00000001
 40
0.0
 40
0.0
 40
0.0
 40
0.0
 40
0.0789477693778934
 40
0.5375793028234307
 40
1.0
 40
1.0
 40
1.0
 40
1.0
 10
75.67821028571434
 20
13.5049799670487
 30
0.0
 10
75.67821028571434
 20
13.5817496214171
 30
0.0
 10
75.67821028571434
 20
14.1044974786215
 30
0.0
 10
75.67821028571433
 20
15.08266918452068
 30
0.0
 10
75.67821028571436
 20
15.98042857861155
 30
0.0
 10
75.67821028571437
 20
16.43115494472861
 30
0.0
  0
LINE
  5
1AC
330
1F
100
AcDbEntity
  8
0
  6
Continuous
 62
     7
370
    25
100
AcDbLine
 10
75.6782102857
 20
13.504979967
 30
0.0
 11
75.3086450683
 21
13.5685924666
 31
0.0
  0
LINE
  5
1AD
330
1F
100
AcDbEntity
  8
0
  6
Continuous
 62
     7
370
    25
100
AcDbLine
 10
58.6782102857
 20
13.504979967
 30
0.0
 11
59.0477755031
 21
13.5685924666
 31
0.0
  0
SPLINE
  5
1AE
330
1F
100
AcDbEntity
  8
0
  6
Continuous
 62
     7
370
    25
100
AcDbSpline
210
0.0
220
0.0
230
1.0
 70
    24
 71
     3
 72
    10
 73
     6
 74
     0
 42
0.00000001
 43
0.00000001
 40
0.0
 40
0.0
 40
0.0
 40
0.0
 40
0.4586421336634351
 40
0.9210522271454904
 40
1.0
 40
1.0
 40
1.0
 40
1.0
 10
58.67821028571435
 20
16.43115494472874
 30
0.0
 10
58.67821028571436
 20
15.98412378797842
 30
0.0
 10
58.67821028571437
 20
15.08638890426962
 30
0.0
 10
58.67821028571434
 20
14.10817160804904
 30
0.0
 10
58.67821028571434
 20
13.58174960068221
 30
0.0
 10
58.67821028571434
 20
13.50497996704882
 30
0.0
  0
LINE
  5
1AF
330
1F
100
AcDbEntity
  8
0
  6
Continuous
 62
     7
370
    25
100
AcDbLine
 10
59.0477755031
 20
16.3675424452
 30
0.0
 11
58.6782102857
 21
16.4311549447
 31
0.0
  0
ARC
  5
1B0
330
1F
100
AcDbEntity
  8
0
  6
Continuous
 62
     7
370
    25
100
AcDbCircle
 10
67.1782102857
 20
14.9680674559
 30
0.0
 40
8.625000000000004
100
AcDbArc
 50
249.766500898
 51
290.233499102
  0
ARC
  5
1B1
330
1F
100
AcDbEntity
  8
0
  6
Continuous
 62
     7
370
    25
100
AcDbCircle
 10
67.1782102857
 20
14.9680674559
 30
0.0
 40
8.625000000000002
100
AcDbArc
 50
189.766500898
 51
230.233499102
  0
ARC
  5
1B2
330
1F
100
AcDbEntity
  8
0
  6
Continuous
 62
     7
370
    25
100
AcDbCircle
 10
67.1782102857
 20
14.9680674559
 30
0.0
 40
8.625000000000002
100
AcDbArc
 50
69.766500898
 51
110.233499102
  0
ARC
  5
1B3
330
1F
100
AcDbEntity
  8
0
  6
Continuous
 62
     7
370
    25
100
AcDbCircle
 10
67.1782102857
 20
14.9680674559
 30
0.0
 40
8.625000000000012
100
AcDbArc
 50
9.766500898
 51
50.233499102
  0
ARC
  5
1B4
330
1F
100
AcDbEntity
  8
0
  6
Continuous
 62
     7
370
    25
100
AcDbCircle
 10
67.1782102857
 20
14.9680674559
 30
0.0
 40
8.625000000000002
100
AcDbArc
 50
129.766500898
 51
170.233499102
  0
ARC
  5
1B5
330
1F
100
AcDbEntity
  8
0
  6
Continuous
 62
     7
370
    25
100
AcDbCircle
 10
67.1782102857
 20
14.9680674559
 30
0.0
 40
8.625000000000016
100
AcDbArc
 50
309.766500898
 51
350.233499102
  0
SPLINE
  5
1B6
330
1F
100
AcDbEntity
  8
0
  6
Continuous
 62
     7
370
    25
100
AcDbSpline
210
0.0
220
0.0
230
1.0
 70
    24
 71
     3
 72
     9
 73
     5
 74
     0
 42
0.00000001
 43
0.00000001
 40
0.0
 40
0.0
 40
0.0
 40
0.0
 40
0.4980648083588061
 40
0.9999999999999999
 40
0.9999999999999999
 40
0.9999999999999999
 40
0.9999999999999999
 10
58.67821028571434
 20
10.06059016777695
 30
0.0
 10
59.16661348974876
 20
9.778610446454596
 30
0.0
 10
60.1472152022925
 20
9.21245978374964
 30
0.0
 10
61.15519754304381
 20
8.630500907978483
 30
0.0
 10
61.66113935241977
 20
8.338395268140996
 30
0.0
  0
SPLINE
  5
1B7
330
1F
100
AcDbEntity
  8
0
  6
Continuous
 62
     7
370
    25
100
AcDbSpline
210
0.0
220
0.0
230
1.0
 70
    24
 71
     3
 72
     9
 73
     5
 74
     0
 42
0.00000001
 43
0.00000001
 40
0.0
 40
0.0
 40
0.0
 40
0.0
 40
0.4977140401152427
 40
1.0
 40
1.0
 40
1.0
 40
1.0
 10
58.67821028571434
 20
13.50497996704882
 30
0.0
 10
58.67821028571434
 20
12.92566936019866
 30
0.0
 10
58.67821028571435
 20
11.76172669401221
 30
0.0
 10
58.67821028571434
 20
10.62936137099092
 30
0.0
 10
58.67821028571434
 20
10.06059016777695
 30
0.0
  0
SPLINE
  5
1B8
330
1F
100
AcDbEntity
  8
0
  6
Continuous
 62
     7
370
    25
100
AcDbSpline
210
0.0
220
0.0
230
1.0
 70
    24
 71
     3
 72
     9
 73
     5
 74
     0
 42
0.00000001
 43
0.00000001
 40
0.0
 40
0.0
 40
0.0
 40
0.0
 40
0.4980648083588058
 40
1.0
 40
1.0
 40
1.0
 40
1.0
 10
75.67821028571439
 20
19.87554474400049
 30
0.0
 10
75.18980708167996
 20
20.15752446532284
 30
0.0
 10
74.20920536913624
 20
20.7236751280278
 30
0.0
 10
73.20122302838493
 20
21.30563400379896
 30
0.0
 10
72.69528121900898
 20
21.59773964363646
 30
0.0
  0
SPLINE
  5
1B9
330
1F
100
AcDbEntity
  8
0
  6
Continuous
 62
     7
370
    25
100
AcDbSpline
210
0.0
220
0.0
230
1.0
 70
    24
 71
     3
 72
    10
 73
     6
 74
     0
 42
0.00000001
 43
0.00000001
 40
0.0
 40
0.0
 40
0.0
 40
0.0
 40
0.3355445600395948
 40
0.6726666839999055
 40
1.0
 40
1.0
 40
1.0
 40
1.0
 10
75.67821028571437
 20
16.43115494472861
 30
0.0
 10
75.67821028571436
 20
16.82178451103206
 30
0.0
 10
75.67821028571436
 20
17.60488018990896
 30
0.0
 10
75.67821028571439
 20
18.75413215932374
 30
0.0
 10
75.67821028571439
 20
19.50542994108464
 30
0.0
 10
75.67821028571439
 20
19.87554474400049
 30
0.0
  0
SPLINE
  5
1BA
330
1F
100
AcDbEntity
  8
0
  6
Continuous
 62
     7
370
    25
100
AcDbSpline
210
0.0
220
0.0
230
1.0
 70
    24
 71
     3
 72
     9
 73
     5
 74
     0
 42
0.00000001
 43
0.00000001
 40
0.0
 40
0.0
 40
0.0
 40
0.0
 40
0.4977140401152427
 40
1.0
 40
1.0
 40
1.0
 40
1.0
 10
72.69528121900873
 20
8.338395268140832
 30
0.0
 10
73.19697892122278
 20
8.62805057156592
 30
0.0
 10
74.20498283868889
 20
9.210021904659154
 30
0.0
 10
75.18563997478994
 20
9.776204566169824
 30
0.0
 10
75.67821028571431
 20
10.06059016777682
 30
0.0
  0
SPLINE
  5
1BB
330
1F
100
AcDbEntity
  8
0
  6
Continuous
 62
     7
370
    25
100
AcDbSpline
210
0.0
220
0.0
230
1.0
 70
    24
 71
     3
 72
     9
 73
     5
 74
     0
 42
0.00000001
 43
0.00000001
 40
0.0
 40
0.0
 40
0.0
 40
0.0
 40
0.4980648083588056
 40
1.0
 40
1.0
 40
1.0
 40
1.0
 10
75.67821028571431
 20
10.06059016777682
 30
0.0
 10
75.6782102857143
 20
10.62454961042152
 30
0.0
 10
75.67821028571429
 20
11.7568509358314
 30
0.0
 10
75.67821028571431
 20
12.92076868737372
 30
0.0
 10
75.67821028571434
 20
13.5049799670487
 30
0.0
  0
SPLINE
  5
1BC
330
1F
100
AcDbEntity
  8
0
  6
Continuous
 62
     7
370
    25
100
AcDbSpline
210
0.0
220
0.0
230
1.0
 70
    24
 71
     3
 72
     9
 73
     5
 74
     0
 42
0.00000001
 43
0.00000001
 40
0.0
 40
0.0
 40
0.0
 40
0.0
 40
0.4980648083588057
 40
1.0
 40
1.0
 40
1.0
 40
1.0
 10
67.17821028571441
 20
24.7830220321124
 30
0.0
 10
66.68980708167999
 20
24.50104231079006
 30
0.0
 10
65.70920536913623
 20
23.93489164808513
 30
0.0
 10
64.70122302838492
 20
23.35293277231396
 30
0.0
 10
64.19528121900898
 20
23.06082713247647
 30
0.0
  0
SPLINE
  5
1BD
330
1F
100
AcDbEntity
  8
0
  6
Continuous
 62
     7
370
    25
100
AcDbSpline
210
0.0
220
0.0
230
1.0
 70
    24
 71
     3
 72
     9
 73
     5
 74
     0
 42
0.00000001
 43
0.00000001
 40
0.0
 40
0.0
 40
0.0
 40
0.0
 40
0.4977140401152427
 40
0.9999999999999999
 40
0.9999999999999999
 40
0.9999999999999999
 40
0.9999999999999999
 10
70.16113935241982
 20
23.06082713247644
 30
0.0
 10
69.6594416502058
 20
23.35048243590152
 30
0.0
 10
68.65143773273975
 20
23.93245376899475
 30
0.0
 10
67.67078059663874
 20
24.49863643050541
 30
0.0
 10
67.17821028571441
 20
24.7830220321124
 30
0.0
  0
SPLINE
  5
1BE
330
1F
100
AcDbEntity
  8
0
  6
Continuous
 62
     7
370
    25
100
AcDbSpline
210
0.0
220
0.0
230
1.0
 70
    24
 71
     3
 72
     9
 73
     5
 74
     0
 42
0.00000001
 43
0.00000001
 40
0.0
 40
0.0
 40
0.0
 40
0.0
 40
0.4980648083588056
 40
1.0
 40
1.0
 40
1.0
 40
1.0
 10
67.17821028571434
 20
5.153112879665099
 30
0.0
 10
67.6666134897488
 20
5.435092600987454
 30
0.0
 10
68.6472152022926
 20
6.001243263692404
 30
0.0
 10
69.65519754304394
 20
6.583202139463594
 30
0.0
 10
70.16113935241991
 20
6.875307779301093
 30
0.0
  0
SPLINE
  5
1BF
330
1F
100
AcDbEntity
  8
0
  6
Continuous
 62
     7
370
    25
100
AcDbSpline
210
0.0
220
0.0
230
1.0
 70
    24
 71
     3
 72
     9
 73
     5
 74
     0
 42
0.00000001
 43
0.00000001
 40
0.0
 40
0.0
 40
0.0
 40
0.0
 40
0.4977140401152426
 40
1.0
 40
1.0
 40
1.0
 40
1.0
 10
64.19528121900892
 20
6.875307779301052
 30
0.0
 10
64.69697892122294
 20
6.585652475875968
 30
0.0
 10
65.70498283868899
 20
6.003681142782737
 30
0.0
 10
66.68563997479
 20
5.437498481272087
 30
0.0
 10
67.17821028571434
 20
5.153112879665099
 30
0.0
  0
SPLINE
  5
1C0
330
1F
100
AcDbEntity
  8
0
  6
Continuous
 62
     7
370
    25
100
AcDbSpline
210
0.0
220
0.0
230
1.0
 70
    24
 71
     3
 72
     9
 73
     5
 74
     0
 42
0.00000001
 43
0.00000001
 40
0.0
 40
0.0
 40
0.0
 40
0.0
 40
0.4977140401152426
 40
1.0
 40
1.0
 40
1.0
 40
1.0
 10
61.6611393524198
 20
21.59773964363653
 30
0.0
 10
61.15944165020577
 20
21.30808434021146
 30
0.0
 10
60.1514377327397
 20
20.72611300711825
 30
0.0
 10
59.17078059663868
 20
20.1599303456076
 30
0.0
 10
58.67821028571434
 20
19.87554474400062
 30
0.0
  0
SPLINE
  5
1C1
330
1F
100
AcDbEntity
  8
0
  6
Continuous
 62
     7
370
    25
100
AcDbSpline
210
0.0
220
0.0
230
1.0
 70
    24
 71
     3
 72
    10
 73
     6
 74
     0
 42
0.00000001
 43
0.00000001
 40
0.0
 40
0.0
 40
0.0
 40
0.0
 40
0.327333370707713
 40
0.6629523133412116
 40
1.0
 40
1.0
 40
1.0
 40
1.0
 10
58.67821028571434
 20
19.87554474400062
 30
0.0
 10
58.67821028571435
 20
19.50542995534935
 30
0.0
 10
58.67821028571435
 20
18.75583190853961
 30
0.0
 10
58.67821028571438
 20
17.60662188798335
 30
0.0
 10
58.67821028571436
 20
16.82353168704982
 30
0.0
 10
58.67821028571435
 20
16.43115494472874
 30
0.0
  0
CIRCLE
  5
1C2
330
1F
100
AcDbEntity
  8
0
  6
Continuous
 62
     7
370
    25
100
AcDbCircle
 10
67.1782102857
 20
14.9680674559
 30
0.0
 40
4.05
  0
CIRCLE
  5
1C3
330
1F
100
AcDbEntity
  8
0
  6
Continuous
 62
     7
370
    25
100
AcDbCircle
 10
67.1782102857
 20
14.9680674559
 30
0.0
 40
3.0
  0
LINE
  5
1C4
330
1F
100
AcDbEntity
  8
0
  6
Continuous
 62
     7
370
    25
100
AcDbLine
 10
67.1782102857
 20
24.9680674559
 30
0.0
 11
60.5997102857
 21
24.9680674559
 31
0.0
  0
LINE
  5
1C5
330
1F
100
AcDbEntity
  8
0
  6
Continuous
 62
     7
370
    25
100
AcDbLine
 10
73.7567102857
 20
24.9680674559
 30
0.0
 11
67.1782102857
 21
24.9680674559
 31
0.0
  0
SPLINE
  5
1C6
330
1F
100
AcDbEntity
  8
0
  6
Continuous
 62
     7
370
    25
100
AcDbSpline
210
0.0
220
0.0
230
1.0
 70
    24
 71
     3
 72
    14
 73
    10
 74
     0
 42
0.00000001
 43
0.00000001
 40
0.0
 40
0.0
 40
0.0
 40
0.0
 40
0.25
 40
0.25
 40
0.5
 40
0.5
 40
0.75
 40
0.75
 40
1.0
 40
1.0
 40
1.0
 40
1.0
 10
61.17821028571434
 20
21.71806745588875
 30
0.0
 10
61.17821028571434
 20
21.71806745588875
 30
0.0
 10
61.18805519945192
 20
21.71806745588875
 30
0.0
 10
61.22754730576102
 20
21.71806745588875
 30
0.0
 10
61.25719494493627
 20
21.71806745588875
 30
0.0
 10
61.33662408213992
 20
21.71806745588875
 30
0.0
 10
61.38640650620921
 20
21.71806745588875
 30
0.0
 10
61.50663549254381
 20
21.71806745588875
 30
0.0
 10
61.57708352515096
 20
21.71806745588875
 30
0.0
 10
61.65821028571435
 20
21.71806745588875
 30
0.0
  0
SPLINE
  5
1C7
330
1F
100
AcDbEntity
  8
0
  6
Continuous
 62
     7
370
    25
100
AcDbSpline
210
0.0
220
0.0
230
1.0
 70
    24
 71
     3
 72
    14
 73
    10
 74
     0
 42
0.00000001
 43
0.00000001
 40
0.0
 40
0.0
 40
0.0
 40
0.0
 40
0.25
 40
0.25
 40
0.5
 40
0.5
 40
0.75
 40
0.75
 40
1.0
 40
1.0
 40
1.0
 40
1.0
 10
73.17821028571434
 20
21.71806745588875
 30
0.0
 10
73.17821028571434
 20
21.71806745588875
 30
0.0
 10
73.16836537197675
 20
21.71806745588875
 30
0.0
 10
73.12887326566766
 20
21.71806745588875
 30
0.0
 10
73.09922562649241
 20
21.71806745588875
 30
0.0
 10
73.01979648928878
 20
21.71806745588875
 30
0.0
 10
72.97001406521949
 20
21.71806745588875
 30
0.0
 10
72.84978507888488
 20
21.71806745588875
 30
0.0
 10
72.77933704627772
 20
21.71806745588875
 30
0.0
 10
72.69821028571434
 20
21.71806745588875
 30
0.0
  0
ARC
  5
1C8
330
1F
100
AcDbEntity
  8
0
  6
Continuous
 62
     7
370
    25
100
AcDbCircle
 10
61.4282102857
 20
21.2180674559
 30
0.0
 40
0.25
100
AcDbArc
 50
90.0
 51
150.201750927
  0
ARC
  5
1C9
330
1F
100
AcDbEntity
  8
0
  6
Continuous
 62
     7
370
    25
100
AcDbCircle
 10
72.9282102857
 20
21.2180674559
 30
0.0
 40
0.2500000000000051
100
AcDbArc
 50
31.5068004551
 51
90.0
  0
SPLINE
  5
1CA
330
1F
100
AcDbEntity
  8
0
  6
Continuous
 62
     7
370
    25
100
AcDbSpline
210
0.0
220
0.0
230
1.0
 70
     8
 71
     3
 72
    12
 73
     8
 74
     0
 42
0.00000001
 43
0.00000001
 40
0.0
 40
0.0
 40
0.0
 40
0.0
 40
0.5
 40
0.5
 40
0.75
 40
0.75
 40
1.0
 40
1.0
 40
1.0
 40
1.0
 10
70.00663741046054
 20
15.9680674558888
 30
0.0
 10
69.977981104623
 20
15.64443882512793
 30
0.0
 10
69.95608071452021
 20
15.31528474709748
 30
0.0
 10
69.95561534772985
 20
14.80617984796734
 30
0.0
 10
69.96081301668286
 20
14.63396268918738
 30
0.0
 10
69.97913788730665
 20
14.29788816110599
 30
0.0
 10
69.99210400689807
 20
14.13219975967829
 30
0.0
 10
70.00663741046054
 20
13.96806745588875
 30
0.0
  0
LINE
  5
1CB
330
1F
100
AcDbEntity
  8
0
  6
Continuous
 62
     7
370
    25
100
AcDbLine
 10
70.0066374105
 20
13.9680674559
 30
0.0
 11
64.349783161
 21
13.9680674559
 31
0.0
  0
SPLINE
  5
1CC
330
1F
100
AcDbEntity
  8
0
  6
Continuous
 62
     7
370
    25
100
AcDbSpline
210
0.0
220
0.0
230
1.0
 70
     8
 71
     3
 72
    10
 73
     6
 74
     0
 42
0.00000001
 43
0.00000001
 40
0.0
 40
0.0
 40
0.0
 40
0.0
 40
0.5
 40
0.5
 40
1.0
 40
1.0
 40
1.0
 40
1.0
 10
64.34978316096814
 20
13.96806745588875
 30
0.0
 10
64.37865824122619
 20
14.29416680519076
 30
0.0
 10
64.40067394384143
 20
14.62665802726752
 30
0.0
 10
64.40063337171091
 20
15.31049123100789
 30
0.0
 10
64.37864996761718
 20
15.64206154419777
 30
0.0
 10
64.34978316096814
 20
15.9680674558888
 30
0.0
  0
SPLINE
  5
1CD
330
1F
100
AcDbEntity
  8
0
  6
Continuous
 62
     7
370
    25
100
AcDbSpline
210
0.0
220
0.0
230
1.0
 70
     8
 71
     3
 72
    12
 73
     8
 74
     0
 42
0.00000001
 43
0.00000001
 40
0.0
 40
0.0
 40
0.0
 40
0.0
 40
0.25
 40
0.25
 40
0.5
 40
0.5
 40
1.0
 40
1.0
 40
1.0
 40
1.0
 10
73.1769170683858
 20
21.47007505617844
 30
0.0
 10
73.17690691102864
 20
21.45981159688931
 30
0.0
 10
73.1683504849172
 20
21.45223281709253
 30
0.0
 10
73.1469771286823
 20
21.43781936164346
 30
0.0
 10
73.13416019855883
 20
21.43098468599117
 30
0.0
 10
73.10856670241525
 20
21.40465893299073
 30
0.0
 10
73.10483915056662
 20
21.39499198162974
 30
0.0
 10
73.10498698101176
 20
21.3948441511846
 30
0.0
  0
SPLINE
  5
1CE
330
1F
100
AcDbEntity
  8
0
  6
Continuous
 62
     7
370
    25
100
AcDbSpline
210
0.0
220
0.0
230
1.0
 70
     8
 71
     3
 72
    12
 73
     8
 74
     0
 42
0.00000001
 43
0.00000001
 40
0.0
 40
0.0
 40
0.0
 40
0.0
 40
0.25
 40
0.25
 40
0.5
 40
0.5
 40
1.0
 40
1.0
 40
1.0
 40
1.0
 10
73.1769170683858
 20
21.47007505617844
 30
0.0
 10
73.17692722574296
 20
21.48033851546758
 30
0.0
 10
73.16839281334994
 20
21.49500340589833
 30
0.0
 10
73.13234732524472
 20
21.52673878408184
 30
0.0
 10
73.10483624953251
 20
21.54380927183459
 30
0.0
 10
72.99100674168882
 20
21.58903323363402
 30
0.0
 10
72.88994519064549
 20
21.58220980636731
 30
0.0
 10
72.77099803281996
 20
21.54128286014818
 30
0.0
  0
SPLINE
  5
1CF
330
1F
100
AcDbEntity
  8
0
  6
Continuous
 62
     7
370
    25
100
AcDbSpline
210
0.0
220
0.0
230
1.0
 70
     8
 71
     3
 72
    12
 73
     8
 74
     0
 42
0.00000001
 43
0.00000001
 40
0.0
 40
0.0
 40
0.0
 40
0.0
 40
0.25
 40
0.25
 40
0.5
 40
0.5
 40
1.0
 40
1.0
 40
1.0
 40
1.0
 10
61.17950350304289
 20
21.47007505617843
 30
0.0
 10
61.17951366040005
 20
21.4598115968893
 30
0.0
 10
61.18807008651149
 20
21.45223281709252
 30
0.0
 10
61.20944344274641
 20
21.43781936164345
 30
0.0
 10
61.22226037286988
 20
21.43098468599116
 30
0.0
 10
61.24785386901343
 20
21.40465893299072
 30
0.0
 10
61.25158142086206
 20
21.39499198162974
 30
0.0
 10
61.25143359041692
 20
21.3948441511846
 30
0.0
  0
SPLINE
  5
1D0
330
1F
100
AcDbEntity
  8
0
  6
Continuous
 62
     7
370
    25
100
AcDbSpline
210
0.0
220
0.0
230
1.0
 70
     8
 71
     3
 72
    14
 73
    10
 74
     0
 42
0.00000001
 43
0.00000001
 40
0.0
 40
0.0
 40
0.0
 40
0.0
 40
0.25
 40
0.25
 40
0.5
 40
0.5
 40
0.75
 40
0.75
 40
1.0
 40
1.0
 40
1.0
 40
1.0
 10
61.17950350304289
 20
21.47007505617843
 30
0.0
 10
61.17949334568573
 20
21.48033851546757
 30
0.0
 10
61.18802775807875
 20
21.49500340589832
 30
0.0
 10
61.22407324618397
 20
21.52673878408183
 30
0.0
 10
61.25158432189618
 20
21.54380927183459
 30
0.0
 10
61.32747066045864
 20
21.57395857970087
 30
0.0
 10
61.37170763286008
 20
21.57979004985076
 30
0.0
 10
61.47094678247874
 20
21.5736839266292
 30
0.0
 10
61.52594895969596
 20
21.56174633325774
 30
0.0
 10
61.58542253860873
 20
21.54128286014818
 30
0.0
  0
SPLINE
  5
1D1
330
1F
100
AcDbEntity
  8
0
  6
Continuous
 62
     7
370
    25
100
AcDbSpline
210
0.0
220
0.0
230
1.0
 70
     8
 71
     3
 72
    10
 73
     6
 74
     0
 42
0.00000001
 43
0.00000001
 40
0.0
 40
0.0
 40
0.0
 40
0.0
 40
0.5
 40
0.5
 40
1.0
 40
1.0
 40
1.0
 40
1.0
 10
73.1769170683858
 20
21.47007505617844
 30
0.0
 10
73.17695769781442
 20
21.51112889333497
 30
0.0
 10
73.17740290266265
 20
21.55460572371598
 30
0.0
 10
73.1738773017114
 20
21.64366442344033
 30
0.0
 10
73.17821028571434
 20
21.67576779296398
 30
0.0
 10
73.17821028571434
 20
21.71806745588875
 30
0.0
  0
SPLINE
  5
1D2
330
1F
100
AcDbEntity
  8
0
  6
Continuous
 62
     7
370
    25
100
AcDbSpline
210
0.0
220
0.0
230
1.0
 70
     8
 71
     3
 72
     9
 73
     5
 74
     0
 42
0.00000001
 43
0.00000001
 40
0.0
 40
0.0
 40
0.0
 40
0.0
 40
0.1237695466188387
 40
1.0
 40
1.0
 40
1.0
 40
1.0
 10
61.17999684599403
 20
21.59912330343235
 30
0.0
 10
61.18008389302921
 20
21.59379968073857
 30
0.0
 10
61.18078719232651
 20
21.55078730136736
 30
0.0
 10
61.1801030070329
 20
21.50776900100694
 30
0.0
 10
61.17950350304289
 20
21.47007505617843
 30
0.0
  0
SPLINE
  5
1D3
330
1F
100
AcDbEntity
  8
0
  6
Continuous
 62
     7
370
    25
100
AcDbSpline
210
0.0
220
0.0
230
1.0
 70
     8
 71
     3
 72
    18
 73
    14
 74
     0
 42
0.00000001
 43
0.00000001
 40
0.0
 40
0.0
 40
0.0
 40
0.0
 40
0.25
 40
0.25
 40
0.375
 40
0.375
 40
0.5
 40
0.5
 40
0.625
 40
0.625
 40
0.75
 40
0.75
 40
1.0
 40
1.0
 40
1.0
 40
1.0
 10
70.00663741046054
 20
13.96806745588875
 30
0.0
 10
69.5808476177791
 20
13.76710835951051
 30
0.0
 10
69.14154745526731
 20
13.58487653517935
 30
0.0
 10
68.4353911768778
 20
13.37696299950242
 30
0.0
 10
68.1893783754176
 20
13.31871379623302
 30
0.0
 10
67.69164543650673
 20
13.23922449833569
 30
0.0
 10
67.43897713651363
 20
13.21759539101927
 30
0.0
 10
66.92464545612012
 20
13.2171983065683
 30
0.0
 10
66.66886952052037
 20
13.23879202327807
 30
0.0
 10
66.17177214586508
 20
13.31774089634485
 30
0.0
 10
65.92656491752969
 20
13.37550529680097
 30
0.0
 10
65.2167435525737
 20
13.58398624460153
 30
0.0
 10
64.7763198718786
 20
13.76675583811393
 30
0.0
 10
64.34978316096814
 20
13.96806745588875
 30
0.0
  0
SPLINE
  5
1D4
330
1F
100
AcDbEntity
  8
0
  6
Continuous
 62
     7
370
    25
100
AcDbSpline
210
0.0
220
0.0
230
1.0
 70
     8
 71
     3
 72
    10
 73
     6
 74
     0
 42
0.00000001
 43
0.00000001
 40
0.0
 40
0.0
 40
0.0
 40
0.0
 40
0.1054683352036601
 40
0.6440627666015728
 40
1.0
 40
1.0
 40
1.0
 40
1.0
 10
58.93362402876355
 20
40.13271720050504
 30
0.0
 10
58.93194696972537
 20
40.13220225822854
 30
0.0
 10
58.92170568468188
 20
40.12905766372445
 30
0.0
 10
58.96091201587816
 20
40.14443630437665
 30
0.0
 10
59.023050418482
 20
40.14799721094238
 30
0.0
 10
59.04777550310563
 20
40.14941410794142
 30
0.0
  0
SPLINE
  5
1D5
330
1F
100
AcDbEntity
  8
0
  6
Continuous
 62
     7
370
    25
100
AcDbSpline
210
0.0
220
0.0
230
1.0
 70
     8
 71
     3
 72
     9
 73
     5
 74
     0
 42
0.00000001
 43
0.00000001
 40
0.0
 40
0.0
 40
0.0
 40
0.0
 40
0.5716350576924124
 40
1.0
 40
1.0
 40
1.0
 40
1.0
 10
75.30864506832303
 20
40.14941410794142
 30
0.0
 10
75.34836347407109
 20
40.14495469985486
 30
0.0
 10
75.41784557670559
 20
40.1371535546547
 30
0.0
 10
75.42131175388202
 20
40.13404765782181
 30
0.0
 10
75.42279654266822
 20
40.13271720050418
 30
0.0
  0
LINE
  5
1D6
330
1F
100
AcDbEntity
  8
0
  6
Continuous
 62
     7
370
    25
100
AcDbLine
 10
66.6297666908
 20
24.4680674559
 30
0.0
 11
61.1782102857
 21
24.4680674559
 31
0.0
  0
LINE
  5
1D7
330
1F
100
AcDbEntity
  8
0
  6
Continuous
 62
     7
370
    25
100
AcDbLine
 10
73.1782102857
 20
24.4680674559
 30
0.0
 11
67.726306289
 21
24.4680674559
 31
0.0
  0
LINE
  5
1D8
330
1F
100
AcDbEntity
  8
0
  6
Continuous
 62
     7
370
    25
100
AcDbLine
 10
72.5099998883
 20
21.7180674559
 30
0.0
 11
72.6982102857
 21
21.7180674559
 31
0.0
  0
LINE
  5
1D9
330
1F
100
AcDbEntity
  8
0
  6
Continuous
 62
     7
370
    25
100
AcDbLine
 10
61.6582102857
 20
21.7180674559
 30
0.0
 11
61.8448605064
 21
21.7180674559
 31
0.0
  0
SPLINE
  5
1DA
330
1F
100
AcDbEntity
  8
0
  6
Continuous
 62
     7
370
    25
100
AcDbSpline
210
0.0
220
0.0
230
1.0
 70
     8
 71
     3
 72
    10
 73
     6
 74
     0
 42
0.00000001
 43
0.00000001
 40
0.0
 40
0.0
 40
0.0
 40
0.0
 40
0.4504558868108764
 40
0.9009152416662494
 40
1.0
 40
1.0
 40
1.0
 40
1.0
 10
72.69821028571434
 20
21.71806745588875
 30
0.0
 10
72.6996364225403
 20
21.70177488236564
 30
0.0
 10
72.70248870717198
 20
21.66918960988344
 30
0.0
 10
72.71223773432456
 20
21.63347518743547
 30
0.0
 10
72.72167862466053
 20
21.61602949367458
 30
0.0
 10
72.7233808507693
 20
21.61288397303524
 30
0.0
  0
SPLINE
  5
1DB
330
1F
100
AcDbEntity
  8
0
  6
Continuous
 62
     7
370
    25
100
AcDbSpline
210
0.0
220
0.0
230
1.0
 70
     8
 71
     3
 72
    10
 73
     6
 74
     0
 42
0.00000001
 43
0.00000001
 40
0.0
 40
0.0
 40
0.0
 40
0.0
 40
0.099084758333103
 40
0.5495441131887971
 40
1.0
 40
1.0
 40
1.0
 40
1.0
 10
61.63303972065941
 20
21.61288397303531
 30
0.0
 10
61.63474194676818
 20
21.61602949367463
 30
0.0
 10
61.64418283710413
 20
21.63347518743549
 30
0.0
 10
61.6539318642567
 20
21.66918960988344
 30
0.0
 10
61.65678414888838
 20
21.70177488236564
 30
0.0
 10
61.65821028571434
 20
21.71806745588875
 30
0.0
  0
SPLINE
  5
1DC
330
1F
100
AcDbEntity
  8
0
  6
Continuous
 62
     7
370
    25
100
AcDbSpline
210
0.0
220
0.0
230
1.0
 70
     8
 71
     3
 72
     9
 73
     5
 74
     0
 42
0.00000001
 43
0.00000001
 40
0.0
 40
0.0
 40
0.0
 40
0.0
 40
0.1251150623302261
 40
1.0
 40
1.0
 40
1.0
 40
1.0
 10
73.17883909569258
 20
21.33927587600371
 30
0.0
 10
73.17887515413011
 20
21.34473157609701
 30
0.0
 10
73.1791633563407
 20
21.38833703807488
 30
0.0
 10
73.17796526257519
 20
21.43193332308485
 30
0.0
 10
73.1769170683858
 20
21.47007505617844
 30
0.0
  0
SPLINE
  5
1DD
330
1F
100
AcDbEntity
  8
0
  6
Continuous
 62
     7
370
    25
100
AcDbSpline
210
0.0
220
0.0
230
1.0
 70
     8
 71
     3
 72
     9
 73
     5
 74
     0
 42
0.00000001
 43
0.00000001
 40
0.0
 40
0.0
 40
0.0
 40
0.0
 40
0.1251150623495256
 40
1.0
 40
1.0
 40
1.0
 40
1.0
 10
61.17758147573612
 20
21.33927587600083
 30
0.0
 10
61.17754541729857
 20
21.34473157609509
 30
0.0
 10
61.17725721508798
 20
21.38833703807391
 30
0.0
 10
61.17845530885352
 20
21.43193332308485
 30
0.0
 10
61.17950350304289
 20
21.47007505617843
 30
0.0
  0
LINE
  5
1DE
330
1F
100
AcDbEntity
  8
0
  6
Continuous
 62
     7
370
    25
100
AcDbLine
 10
61.1782102857
 20
21.7180674559
 30
0.0
 11
61.179996846
 21
21.5991233034
 31
0.0
  0
INSERT
  5
1EA
330
1F
100
AcDbEntity
  8
0
  6
Continuous
 62
     7
370
    18
100
AcDbBlockReference
  2
SW_CENTERMARKSYMBOL_0
 10
67.1782102857
 20
14.9680674559
 30
0.0
  0
LINE
  5
1EB
330
1F
100
AcDbEntity
  8
0
  6
Continuous
 62
     7
370
    25
100
AcDbLine
 10
32.20460564
 20
70.1956420571
 30
0.0
 11
32.0602680727
 21
69.9456420571
 31
0.0
  0
LINE
  5
1EC
330
1F
100
AcDbEntity
  8
0
  6
Continuous
 62
     7
370
    25
100
AcDbLine
 10
32.0602680727
 20
53.4456420571
 30
0.0
 11
32.20460564
 21
53.1956420571
 31
0.0
  0
LINE
  5
1ED
330
1F
100
AcDbEntity
  8
0
  6
Continuous
 62
     7
370
    25
100
AcDbLine
 10
44.8602680727
 20
69.9456420571
 30
0.0
 11
43.9765838672
 21
69.9456420571
 31
0.0
  0
LINE
  5
1EE
330
1F
100
AcDbEntity
  8
0
  6
Continuous
 62
     7
370
    25
100
AcDbLine
 10
43.9765838672
 20
53.4456420571
 30
0.0
 11
44.8602680727
 21
53.4456420571
 31
0.0
  0
LINE
  5
1EF
330
1F
100
AcDbEntity
  8
0
  6
Continuous
 62
     7
370
    25
100
AcDbLine
 10
44.8602680727
 20
53.4456420571
 30
0.0
 11
45.0602680727
 21
53.6456420571
 31
0.0
  0
LINE
  5
1F0
330
1F
100
AcDbEntity
  8
0
  6
Continuous
 62
     7
370
    25
100
AcDbLine
 10
45.0602680727
 20
69.7456420571
 30
0.0
 11
44.8602680727
 21
69.9456420571
 31
0.0
  0
SPLINE
  5
1F1
330
1F
100
AcDbEntity
  8
0
  6
Continuous
 62
     7
370
    25
100
AcDbSpline
210
0.0
220
0.0
230
1.0
 70
     8
 71
     3
 72
    12
 73
     8
 74
     0
 42
0.00000001
 43
0.00000001
 40
0.0
 40
0.0
 40
0.0
 40
0.0
 40
0.0346078455809725
 40
0.2371046138073937
 40
0.465825277497394
 40
0.7255491739064447
 40
0.9999999999999999
 40
0.9999999999999999
 40
0.9999999999999999
 40
0.9999999999999999
 10
43.4140467664122
 20
53.1901819717775
 30
0.0
 10
43.41817242751956
 20
53.19541016958699
 30
0.0
 10
43.4464380784765
 20
53.23122949904013
 30
0.0
 10
43.52306705285572
 20
53.29753638112187
 30
0.0
 10
43.64722812423033
 20
53.37549738439908
 30
0.0
 10
43.80295670065987
 20
53.43405348023235
 30
0.0
 10
43.91807806172108
 20
53.4412296875315
 30
0.0
 10
43.9772256613983
 20
53.44491671340245
 30
0.0
  0
SPLINE
  5
1F2
330
1F
100
AcDbEntity
  8
0
  6
Continuous
 62
     7
370
    25
100
AcDbSpline
210
0.0
220
0.0
230
1.0
 70
     8
 71
     3
 72
    12
 73
     8
 74
     0
 42
0.00000001
 43
0.00000001
 40
0.0
 40
0.0
 40
0.0
 40
0.0
 40
0.2143858020011338
 40
0.4599932897172482
 40
0.6828167716354913
 40
0.8838488851659758
 40
1.0
 40
1.0
 40
1.0
 40
1.0
 10
43.97711067042671
 20
69.94913340176927
 30
0.0
 10
43.93121690128683
 20
69.95011690928183
 30
0.0
 10
43.8327457075458
 20
69.95222715563186
 30
0.0
 10
43.6921236688715
 20
69.99667574056558
 30
0.0
 10
43.56655240417243
 20
70.06300273305558
 30
0.0
 10
43.4749745936393
 20
70.13314001615989
 30
0.0
 10
43.4330068700924
 20
70.18061551306614
 30
0.0
 10
43.41763847277153
 20
70.19800083296909
 30
0.0
  0
LINE
  5
1F3
330
1F
100
AcDbEntity
  8
0
  6
Continuous
 62
     7
370
    25
100
AcDbLine
 10
32.0602680727
 20
68.2741420571
 30
0.0
 11
28.8119341226
 21
68.2741420571
 31
0.0
  0
LINE
  5
1F4
330
1F
100
AcDbEntity
  8
0
  6
Continuous
 62
     7
370
    25
100
AcDbLine
 10
28.8119341226
 20
55.1171420571
 30
0.0
 11
32.0602680727
 21
55.1171420571
 31
0.0
  0
ARC
  5
1F5
330
1F
100
AcDbEntity
  8
0
  6
Continuous
 62
     7
370
    25
100
AcDbCircle
 10
28.3119341226
 20
68.1956420571
 30
0.0
 40
0.5
100
AcDbArc
 50
270.0
 51
0.0
  0
ARC
  5
1F6
330
1F
100
AcDbEntity
  8
0
  6
Continuous
 62
     7
370
    25
100
AcDbCircle
 10
28.3119341226
 20
55.1956420571
 30
0.0
 40
0.5
100
AcDbArc
 50
0.0
 51
90.0
  0
LINE
  5
1F7
330
1F
100
AcDbEntity
  8
0
  6
Continuous
 62
     7
370
    25
100
AcDbLine
 10
25.5619341226
 20
55.6956420571
 30
0.0
 11
28.3119341226
 21
55.6956420571
 31
0.0
  0
LINE
  5
1F8
330
1F
100
AcDbEntity
  8
0
  6
Continuous
 62
     7
370
    25
100
AcDbLine
 10
25.8119341226
 20
67.6956420571
 30
0.0
 11
25.5619341226
 21
67.6956420571
 31
0.0
  0
LINE
  5
1F9
330
1F
100
AcDbEntity
  8
0
  6
Continuous
 62
     7
370
    25
100
AcDbLine
 10
28.3119341226
 20
67.6956420571
 30
0.0
 11
26.81193412
 21
67.6956420571
 31
0.0
  0
SPLINE
  5
1FA
330
1F
100
AcDbEntity
  8
0
  6
Continuous
 62
     7
370
    25
100
AcDbSpline
210
0.0
220
0.0
230
1.0
 70
     8
 71
     3
 72
    11
 73
     7
 74
     0
 42
0.00000001
 43
0.00000001
 40
0.0
 40
0.0
 40
0.0
 40
0.0
 40
0.2499999297252432
 40
0.4999999106733829
 40
0.7499999400003744
 40
1.0
 40
1.0
 40
1.0
 40
1.0
 10
26.06193417608406
 20
67.99564205457897
 30
0.0
 10
26.02917490476168
 20
67.99188416079396
 30
0.0
 10
25.96365635540483
 20
67.984368372454
 30
0.0
 10
25.88102009929388
 20
67.92655606663104
 30
0.0
 10
25.82320779647172
 20
67.84391983455049
 30
0.0
 10
25.81569203521511
 20
67.77840131535598
 30
0.0
 10
25.81193415435628
 20
67.74564205374908
 30
0.0
  0
SPLINE
  5
1FB
330
1F
100
AcDbEntity
  8
0
  6
Continuous
 62
     7
370
    25
100
AcDbSpline
210
0.0
220
0.0
230
1.0
 70
     8
 71
     3
 72
    11
 73
     7
 74
     0
 42
0.00000001
 43
0.00000001
 40
0.0
 40
0.0
 40
0.0
 40
0.0
 40
0.2500000013953075
 40
0.5000000021001851
 40
0.7500000016546848
 40
1.0
 40
1.0
 40
1.0
 40
1.0
 10
26.81193412489242
 20
67.74564205702782
 30
0.0
 10
26.80817623142852
 20
67.77840131799458
 30
0.0
 10
26.80066044451107
 20
67.84391983983761
 30
0.0
 10
26.7428481398625
 20
67.926556074079
 30
0.0
 10
26.66021190420101
 20
67.98436837747246
 30
0.0
 10
26.59469338163836
 20
67.99188416392536
 30
0.0
 10
26.56193412043627
 20
67.99564205714273
 30
0.0
  0
LINE
  5
1FC
330
1F
100
AcDbEntity
  8
0
  6
Continuous
 62
     7
370
    25
100
AcDbLine
 10
25.8119341226
 20
67.7459421276
 30
0.0
 11
25.8119341226
 21
67.6956420571
 31
0.0
  0
LINE
  5
1FD
330
1F
100
AcDbEntity
  8
0
  6
Continuous
 62
     7
370
    25
100
AcDbLine
 10
26.8119341251
 20
67.6956420569
 30
0.0
 11
26.8119341251
 21
67.7459421274
 31
0.0
  0
LINE
  5
1FE
330
1F
100
AcDbEntity
  8
0
  6
Continuous
 62
     7
370
    25
100
AcDbLine
 10
26.5772450917
 20
67.9956420571
 30
0.0
 11
26.0466231545
 21
67.9956420571
 31
0.0
  0
CIRCLE
  5
1FF
330
1F
100
AcDbEntity
  8
0
  6
Continuous
 62
     7
370
    25
100
AcDbCircle
 10
18.8119341226
 20
61.6956420571
 30
0.0
 40
8.050000000000004
  0
CIRCLE
  5
200
330
1F
100
AcDbEntity
  8
0
  6
Continuous
 62
     7
370
    25
100
AcDbCircle
 10
18.8119341226
 20
61.6956420571
 30
0.0
 40
8.25
  0
CIRCLE
  5
201
330
1F
100
AcDbEntity
  8
0
  6
Continuous
 62
     7
370
    25
100
AcDbCircle
 10
18.8119341226
 20
61.6956420571
 30
0.0
 40
4.174999999999997
  0
CIRCLE
  5
202
330
1F
100
AcDbEntity
  8
0
  6
Continuous
 62
     7
370
    25
100
AcDbCircle
 10
18.8119341226
 20
61.6956420571
 30
0.0
 40
4.074999999999996
  0
SPLINE
  5
203
330
1F
100
AcDbEntity
  8
0
  6
Continuous
 62
     7
370
    25
100
AcDbSpline
210
0.0
220
0.0
230
1.0
 70
    24
 71
     3
 72
     9
 73
     5
 74
     0
 42
0.00000001
 43
0.00000001
 40
0.0
 40
0.0
 40
0.0
 40
0.0
 40
0.6189856167029144
 40
0.9999999999999999
 40
0.9999999999999999
 40
0.9999999999999999
 40
0.9999999999999999
 10
10.71917444596782
 20
58.71271299043729
 30
0.0
 10
11.02129223345944
 20
58.18942963263149
 30
0.0
 10
11.50937754487731
 20
57.34404107482766
 30
0.0
 10
11.99661677863806
 20
56.50011796651309
 30
0.0
 10
12.18226193480755
 20
56.17857112384847
 30
0.0
  0
LINE
  5
204
330
1F
100
AcDbEntity
  8
0
  6
Continuous
 62
     7
370
    25
100
AcDbLine
 10
10.719174446
 20
58.7127129904
 30
0.0
 11
11.0710335623
 21
58.8424055586
 31
0.0
  0
LINE
  5
205
330
1F
100
AcDbEntity
  8
0
  6
Continuous
 62
     7
370
    25
100
AcDbLine
 10
12.1822619348
 20
56.1785711238
 30
0.0
 11
12.4705085517
 21
56.4184437731
 31
0.0
  0
SPLINE
  5
206
330
1F
100
AcDbEntity
  8
0
  6
Continuous
 62
     7
370
    25
100
AcDbSpline
210
0.0
220
0.0
230
1.0
 70
    24
 71
     3
 72
     9
 73
     5
 74
     0
 42
0.00000001
 43
0.00000001
 40
0.0
 40
0.0
 40
0.0
 40
0.0
 40
0.618985616702877
 40
1.0
 40
1.0
 40
1.0
 40
1.0
 10
12.18226193480772
 20
67.21271299043744
 30
0.0
 10
11.88014414731607
 20
66.68942963263162
 30
0.0
 10
11.39205883589814
 20
65.84404107482766
 30
0.0
 10
10.90481960213732
 20
65.00011796651299
 30
0.0
 10
10.71917444596777
 20
64.6785711238483
 30
0.0
  0
LINE
  5
207
330
1F
100
AcDbEntity
  8
0
  6
Continuous
 62
     7
370
    25
100
AcDbLine
 10
12.1822619348
 20
67.2127129904
 30
0.0
 11
12.4705085517
 21
66.9728403412
 31
0.0
  0
LINE
  5
208
330
1F
100
AcDbEntity
  8
0
  6
Continuous
 62
     7
370
    25
100
AcDbLine
 10
10.719174446
 20
64.6785711238
 30
0.0
 11
11.0710335623
 21
64.5488785557
 31
0.0
  0
LINE
  5
209
330
1F
100
AcDbEntity
  8
0
  6
Continuous
 62
     7
370
    25
100
AcDbLine
 10
25.1533596934
 20
66.9728403412
 30
0.0
 11
25.4416063103
 21
67.2127129904
 31
0.0
  0
SPLINE
  5
20A
330
1F
100
AcDbEntity
  8
0
  6
Continuous
 62
     7
370
    25
100
AcDbSpline
210
0.0
220
0.0
230
1.0
 70
    24
 71
     3
 72
     9
 73
     5
 74
     0
 42
0.00000001
 43
0.00000001
 40
0.0
 40
0.0
 40
0.0
 40
0.0
 40
0.6189856167028758
 40
1.0
 40
1.0
 40
1.0
 40
1.0
 10
26.9046937991432
 20
64.67857112384823
 30
0.0
 10
26.60257601165155
 20
65.20185448165407
 30
0.0
 10
26.11449070023362
 20
66.04724303945801
 30
0.0
 10
25.6272514664728
 20
66.8911661477727
 30
0.0
 10
25.44160631030325
 20
67.21271299043741
 30
0.0
  0
LINE
  5
20B
330
1F
100
AcDbEntity
  8
0
  6
Continuous
 62
     7
370
    25
100
AcDbLine
 10
26.5528346828
 20
64.5488785557
 30
0.0
 11
26.9046937991
 21
64.6785711238
 31
0.0
  0
LINE
  5
20C
330
1F
100
AcDbEntity
  8
0
  6
Continuous
 62
     7
370
    25
100
AcDbLine
 10
26.5528346828
 20
58.8424055586
 30
0.0
 11
26.9046937991
 21
58.7127129904
 31
0.0
  0
SPLINE
  5
20D
330
1F
100
AcDbEntity
  8
0
  6
Continuous
 62
     7
370
    25
100
AcDbSpline
210
0.0
220
0.0
230
1.0
 70
    24
 71
     3
 72
     9
 73
     5
 74
     0
 42
0.00000001
 43
0.00000001
 40
0.0
 40
0.0
 40
0.0
 40
0.0
 40
0.6189856167028766
 40
1.0
 40
1.0
 40
1.0
 40
1.0
 10
25.44160631030318
 20
56.17857112384822
 30
0.0
 10
25.74372409779483
 20
56.70185448165405
 30
0.0
 10
26.23180940921278
 20
57.547243039458
 30
0.0
 10
26.71904864297361
 20
58.39116614777267
 30
0.0
 10
26.90469379914315
 20
58.71271299043738
 30
0.0
  0
LINE
  5
20E
330
1F
100
AcDbEntity
  8
0
  6
Continuous
 62
     7
370
    25
100
AcDbLine
 10
25.1533596934
 20
56.4184437731
 30
0.0
 11
25.4416063103
 21
56.1785711238
 31
0.0
  0
LINE
  5
20F
330
1F
100
AcDbEntity
  8
0
  6
Continuous
 62
     7
370
    25
100
AcDbLine
 10
20.2114091119
 20
53.5652072745
 30
0.0
 11
20.2750216114
 21
53.1956420571
 31
0.0
  0
SPLINE
  5
210
330
1F
100
AcDbEntity
  8
0
  6
Continuous
 62
     7
370
    25
100
AcDbSpline
210
0.0
220
0.0
230
1.0
 70
    24
 71
     3
 72
    10
 73
     6
 74
     0
 42
0.00000001
 43
0.00000001
 40
0.0
 40
0.0
 40
0.0
 40
0.0
 40
0.0789477693778934
 40
0.5375793028234307
 40
1.0
 40
1.0
 40
1.0
 40
1.0
 10
17.34884663371542
 20
53.19564205714287
 30
0.0
 10
17.42561628808382
 20
53.19564205714287
 30
0.0
 10
17.94836414528822
 20
53.19564205714287
 30
0.0
 10
18.9265358511874
 20
53.19564205714288
 30
0.0
 10
19.82429524527828
 20
53.19564205714286
 30
0.0
 10
20.27502161139533
 20
53.19564205714284
 30
0.0
  0
LINE
  5
211
330
1F
100
AcDbEntity
  8
0
  6
Continuous
 62
     7
370
    25
100
AcDbLine
 10
17.3488466337
 20
53.1956420571
 30
0.0
 11
17.4124591332
 21
53.5652072745
 31
0.0
  0
LINE
  5
212
330
1F
100
AcDbEntity
  8
0
  6
Continuous
 62
     7
370
    25
100
AcDbLine
 10
17.3488466337
 20
70.1956420571
 30
0.0
 11
17.4124591332
 21
69.8260768398
 31
0.0
  0
SPLINE
  5
213
330
1F
100
AcDbEntity
  8
0
  6
Continuous
 62
     7
370
    25
100
AcDbSpline
210
0.0
220
0.0
230
1.0
 70
    24
 71
     3
 72
    10
 73
     6
 74
     0
 42
0.00000001
 43
0.00000001
 40
0.0
 40
0.0
 40
0.0
 40
0.0
 40
0.4586421336634352
 40
0.9210522271454904
 40
1.0
 40
1.0
 40
1.0
 40
1.0
 10
20.27502161139546
 20
70.19564205714285
 30
0.0
 10
19.82799045464515
 20
70.19564205714285
 30
0.0
 10
18.93025557093635
 20
70.19564205714283
 30
0.0
 10
17.95203827471576
 20
70.19564205714288
 30
0.0
 10
17.42561626734893
 20
70.19564205714286
 30
0.0
 10
17.34884663371555
 20
70.19564205714286
 30
0.0
  0
LINE
  5
214
330
1F
100
AcDbEntity
  8
0
  6
Continuous
 62
     7
370
    25
100
AcDbLine
 10
20.2114091119
 20
69.8260768398
 30
0.0
 11
20.2750216114
 21
70.1956420571
 31
0.0
  0
ARC
  5
215
330
1F
100
AcDbEntity
  8
0
  6
Continuous
 62
     7
370
    25
100
AcDbCircle
 10
18.8119341226
 20
61.6956420571
 30
0.0
 40
8.625000000000002
100
AcDbArc
 50
99.766500898
 51
140.233499102
  0
ARC
  5
216
330
1F
100
AcDbEntity
  8
0
  6
Continuous
 62
     7
370
    25
100
AcDbCircle
 10
18.8119341226
 20
61.6956420571
 30
0.0
 40
8.625
100
AcDbArc
 50
159.766500898
 51
200.233499102
  0
ARC
  5
217
330
1F
100
AcDbEntity
  8
0
  6
Continuous
 62
     7
370
    25
100
AcDbCircle
 10
18.8119341226
 20
61.6956420571
 30
0.0
 40
8.62500000000001
100
AcDbArc
 50
39.766500898
 51
80.233499102
  0
ARC
  5
218
330
1F
100
AcDbEntity
  8
0
  6
Continuous
 62
     7
370
    25
100
AcDbCircle
 10
18.8119341226
 20
61.6956420571
 30
0.0
 40
8.625000000000002
100
AcDbArc
 50
219.766500898
 51
260.233499102
  0
ARC
  5
219
330
1F
100
AcDbEntity
  8
0
  6
Continuous
 62
     7
370
    25
100
AcDbCircle
 10
18.8119341226
 20
61.6956420571
 30
0.0
 40
8.625000000000007
100
AcDbArc
 50
339.766500898
 51
20.233499102
  0
ARC
  5
21A
330
1F
100
AcDbEntity
  8
0
  6
Continuous
 62
     7
370
    25
100
AcDbCircle
 10
18.8119341226
 20
61.6956420571
 30
0.0
 40
8.625000000000004
100
AcDbArc
 50
279.766500898
 51
320.233499102
  0
SPLINE
  5
21B
330
1F
100
AcDbEntity
  8
0
  6
Continuous
 62
     7
370
    25
100
AcDbSpline
210
0.0
220
0.0
230
1.0
 70
    24
 71
     3
 72
     9
 73
     5
 74
     0
 42
0.00000001
 43
0.00000001
 40
0.0
 40
0.0
 40
0.0
 40
0.0
 40
0.4977140401152426
 40
0.9999999999999999
 40
0.9999999999999999
 40
0.9999999999999999
 40
0.9999999999999999
 10
17.34884663371555
 20
70.19564205714286
 30
0.0
 10
16.76953602686538
 20
70.19564205714286
 30
0.0
 10
15.60559336067893
 20
70.19564205714285
 30
0.0
 10
14.47322803765764
 20
70.19564205714286
 30
0.0
 10
13.90445683444367
 20
70.19564205714286
 30
0.0
  0
SPLINE
  5
21C
330
1F
100
AcDbEntity
  8
0
  6
Continuous
 62
     7
370
    25
100
AcDbSpline
210
0.0
220
0.0
230
1.0
 70
    24
 71
     3
 72
     9
 73
     5
 74
     0
 42
0.00000001
 43
0.00000001
 40
0.0
 40
0.0
 40
0.0
 40
0.0
 40
0.4980648083588062
 40
1.0
 40
1.0
 40
1.0
 40
1.0
 10
13.90445683444367
 20
70.19564205714286
 30
0.0
 10
13.62247711312132
 20
69.70723885310845
 30
0.0
 10
13.05632645041636
 20
68.7266371405647
 30
0.0
 10
12.47436757464521
 20
67.71865479981338
 30
0.0
 10
12.18226193480772
 20
67.21271299043744
 30
0.0
  0
SPLINE
  5
21D
330
1F
100
AcDbEntity
  8
0
  6
Continuous
 62
     7
370
    25
100
AcDbSpline
210
0.0
220
0.0
230
1.0
 70
    24
 71
     3
 72
     9
 73
     5
 74
     0
 42
0.00000001
 43
0.00000001
 40
0.0
 40
0.0
 40
0.0
 40
0.0
 40
0.4980648083588056
 40
1.0
 40
1.0
 40
1.0
 40
1.0
 10
8.996979546331819
 20
61.69564205714285
 30
0.0
 10
9.278959267654173
 20
61.20723885310841
 30
0.0
 10
9.845109930359127
 20
60.22663714056461
 30
0.0
 10
10.42706880613031
 20
59.21865479981326
 30
0.0
 10
10.71917444596782
 20
58.71271299043729
 30
0.0
  0
SPLINE
  5
21E
330
1F
100
AcDbEntity
  8
0
  6
Continuous
 62
     7
370
    25
100
AcDbSpline
210
0.0
220
0.0
230
1.0
 70
    24
 71
     3
 72
     9
 73
     5
 74
     0
 42
0.00000001
 43
0.00000001
 40
0.0
 40
0.0
 40
0.0
 40
0.0
 40
0.4977140401152426
 40
1.0
 40
1.0
 40
1.0
 40
1.0
 10
10.71917444596777
 20
64.6785711238483
 30
0.0
 10
10.42951914254268
 20
64.17687342163427
 30
0.0
 10
9.847547809449457
 20
63.16886950416821
 30
0.0
 10
9.2813651479388
 20
62.18821236806719
 30
0.0
 10
8.996979546331819
 20
61.69564205714285
 30
0.0
  0
SPLINE
  5
21F
330
1F
100
AcDbEntity
  8
0
  6
Continuous
 62
     7
370
    25
100
AcDbSpline
210
0.0
220
0.0
230
1.0
 70
    24
 71
     3
 72
     9
 73
     5
 74
     0
 42
0.00000001
 43
0.00000001
 40
0.0
 40
0.0
 40
0.0
 40
0.0
 40
0.4977140401152428
 40
1.0
 40
1.0
 40
1.0
 40
1.0
 10
25.44160631030325
 20
67.21271299043741
 30
0.0
 10
25.15195100687818
 20
67.71441069265143
 30
0.0
 10
24.56997967378497
 20
68.7224146101175
 30
0.0
 10
24.00379701227432
 20
69.70307174621853
 30
0.0
 10
23.71941141066734
 20
70.19564205714285
 30
0.0
  0
SPLINE
  5
220
330
1F
100
AcDbEntity
  8
0
  6
Continuous
 62
     7
370
    25
100
AcDbSpline
210
0.0
220
0.0
230
1.0
 70
    24
 71
     3
 72
    10
 73
     6
 74
     0
 42
0.00000001
 43
0.00000001
 40
0.0
 40
0.0
 40
0.0
 40
0.0
 40
0.3273333707077131
 40
0.6629523133412116
 40
1.0
 40
1.0
 40
1.0
 40
1.0
 10
23.71941141066734
 20
70.19564205714285
 30
0.0
 10
23.34929662201607
 20
70.19564205714285
 30
0.0
 10
22.59969857520633
 20
70.19564205714285
 30
0.0
 10
21.45048855465007
 20
70.19564205714282
 30
0.0
 10
20.66739835371655
 20
70.19564205714285
 30
0.0
 10
20.27502161139546
 20
70.19564205714285
 30
0.0
  0
SPLINE
  5
221
330
1F
100
AcDbEntity
  8
0
  6
Continuous
 62
     7
370
    25
100
AcDbSpline
210
0.0
220
0.0
230
1.0
 70
    24
 71
     3
 72
     9
 73
     5
 74
     0
 42
0.00000001
 43
0.00000001
 40
0.0
 40
0.0
 40
0.0
 40
0.0
 40
0.4980648083588055
 40
1.0
 40
1.0
 40
1.0
 40
1.0
 10
13.90445683444354
 20
53.19564205714289
 30
0.0
 10
14.46841627708823
 20
53.1956420571429
 30
0.0
 10
15.60071760249812
 20
53.19564205714292
 30
0.0
 10
16.76463535404044
 20
53.19564205714289
 30
0.0
 10
17.34884663371542
 20
53.19564205714287
 30
0.0
  0
SPLINE
  5
222
330
1F
100
AcDbEntity
  8
0
  6
Continuous
 62
     7
370
    25
100
AcDbSpline
210
0.0
220
0.0
230
1.0
 70
    24
 71
     3
 72
     9
 73
     5
 74
     0
 42
0.00000001
 43
0.00000001
 40
0.0
 40
0.0
 40
0.0
 40
0.0
 40
0.4977140401152425
 40
1.0
 40
1.0
 40
1.0
 40
1.0
 10
12.18226193480755
 20
56.17857112384847
 30
0.0
 10
12.47191723823264
 20
55.67687342163443
 30
0.0
 10
13.05388857132587
 20
54.66886950416831
 30
0.0
 10
13.62007123283654
 20
53.68821236806725
 30
0.0
 10
13.90445683444354
 20
53.19564205714289
 30
0.0
  0
SPLINE
  5
223
330
1F
100
AcDbEntity
  8
0
  6
Continuous
 62
     7
370
    25
100
AcDbSpline
210
0.0
220
0.0
230
1.0
 70
    24
 71
     3
 72
     9
 73
     5
 74
     0
 42
0.00000001
 43
0.00000001
 40
0.0
 40
0.0
 40
0.0
 40
0.0
 40
0.4977140401152428
 40
1.0
 40
1.0
 40
1.0
 40
1.0
 10
26.90469379914315
 20
58.71271299043738
 30
0.0
 10
27.19434910256824
 20
59.2144106926514
 30
0.0
 10
27.77632043566147
 20
60.22241461011745
 30
0.0
 10
28.34250309717213
 20
61.20307174621846
 30
0.0
 10
28.62688869877912
 20
61.69564205714279
 30
0.0
  0
SPLINE
  5
224
330
1F
100
AcDbEntity
  8
0
  6
Continuous
 62
     7
370
    25
100
AcDbSpline
210
0.0
220
0.0
230
1.0
 70
    24
 71
     3
 72
     9
 73
     5
 74
     0
 42
0.00000001
 43
0.00000001
 40
0.0
 40
0.0
 40
0.0
 40
0.0
 40
0.4980648083588056
 40
1.0
 40
1.0
 40
1.0
 40
1.0
 10
28.62688869877912
 20
61.69564205714279
 30
0.0
 10
28.34490897745678
 20
62.18404526117721
 30
0.0
 10
27.77875831475184
 20
63.16464697372097
 30
0.0
 10
27.19679943898069
 20
64.17262931447227
 30
0.0
 10
26.9046937991432
 20
64.67857112384823
 30
0.0
  0
SPLINE
  5
225
330
1F
100
AcDbEntity
  8
0
  6
Continuous
 62
     7
370
    25
100
AcDbSpline
210
0.0
220
0.0
230
1.0
 70
    24
 71
     3
 72
     9
 73
     5
 74
     0
 42
0.00000001
 43
0.00000001
 40
0.0
 40
0.0
 40
0.0
 40
0.0
 40
0.498064808358806
 40
1.0
 40
1.0
 40
1.0
 40
1.0
 10
23.71941141066721
 20
53.19564205714282
 30
0.0
 10
24.00139113198956
 20
53.68404526117723
 30
0.0
 10
24.56754179469452
 20
54.66464697372097
 30
0.0
 10
25.14950067046568
 20
55.67262931447227
 30
0.0
 10
25.44160631030318
 20
56.17857112384822
 30
0.0
  0
SPLINE
  5
226
330
1F
100
AcDbEntity
  8
0
  6
Continuous
 62
     7
370
    25
100
AcDbSpline
210
0.0
220
0.0
230
1.0
 70
    24
 71
     3
 72
    10
 73
     6
 74
     0
 42
0.00000001
 43
0.00000001
 40
0.0
 40
0.0
 40
0.0
 40
0.0
 40
0.3355445600395946
 40
0.6726666839999054
 40
1.0
 40
1.0
 40
1.0
 40
1.0
 10
20.27502161139533
 20
53.19564205714284
 30
0.0
 10
20.66565117769878
 20
53.19564205714284
 30
0.0
 10
21.44874685657568
 20
53.19564205714285
 30
0.0
 10
22.59799882599046
 20
53.19564205714281
 30
0.0
 10
23.34929660775136
 20
53.19564205714281
 30
0.0
 10
23.71941141066721
 20
53.19564205714282
 30
0.0
  0
SPLINE
  5
227
330
1F
100
AcDbEntity
  8
0
  6
Continuous
 62
     7
370
    25
100
AcDbSpline
210
0.0
220
0.0
230
1.0
 70
     8
 71
     3
 72
     9
 73
     5
 74
     0
 42
0.00000001
 43
0.00000001
 40
0.0
 40
0.0
 40
0.0
 40
0.0
 40
0.6189856167028766
 40
1.0
 40
1.0
 40
1.0
 40
1.0
 10
43.34376172176974
 20
67.21271299043751
 30
0.0
 10
43.38486113734224
 20
66.68942963263166
 30
0.0
 10
43.4512591512273
 20
65.84404107482771
 30
0.0
 10
43.37341967992439
 20
65.00011796651305
 30
0.0
 10
43.34376172176975
 20
64.67857112384834
 30
0.0
  0
SPLINE
  5
228
330
1F
100
AcDbEntity
  8
0
  6
Continuous
 62
     7
370
    25
100
AcDbSpline
210
0.0
220
0.0
230
1.0
 70
     8
 71
     3
 72
     9
 73
     5
 74
     0
 42
0.00000001
 43
0.00000001
 40
0.0
 40
0.0
 40
0.0
 40
0.0
 40
0.4977140401152427
 40
0.9999999999999999
 40
0.9999999999999999
 40
0.9999999999999999
 40
0.9999999999999999
 10
43.34376172176975
 20
64.67857112384834
 30
0.0
 10
43.26928258692206
 20
64.17687342163433
 30
0.0
 10
43.11964016407532
 20
63.16886950416826
 30
0.0
 10
42.81151038747325
 20
62.18821236806725
 30
0.0
 10
42.65674112686359
 20
61.69564205714292
 30
0.0
  0
LINE
  5
229
330
1F
100
AcDbEntity
  8
0
  6
Continuous
 62
     7
370
    25
100
AcDbLine
 10
32.9637950186
 20
61.6956420571
 30
0.0
 11
42.6567411269
 21
61.6956420571
 31
0.0
  0
SPLINE
  5
22A
330
1F
100
AcDbEntity
  8
0
  6
Continuous
 62
     7
370
    25
100
AcDbSpline
210
0.0
220
0.0
230
1.0
 70
     8
 71
     3
 72
    15
 73
    11
 74
     0
 42
0.00000001
 43
0.00000001
 40
0.0
 40
0.0
 40
0.0
 40
0.0
 40
0.1323052378296956
 40
0.2645730682660303
 40
0.3997997819746812
 40
0.5350020935366634
 40
0.6501929590834554
 40
0.7654017933211806
 40
0.8826895567076666
 40
1.0
 40
1.0
 40
1.0
 40
1.0
 10
32.9637950185681
 20
61.69564205714293
 30
0.0
 10
32.84822504672811
 20
62.06287587510596
 30
0.0
 10
32.61711777878694
 20
62.79723968097882
 30
0.0
 10
32.36845514721059
 20
63.92809493557417
 30
0.0
 10
32.21894120005706
 20
65.08026700116712
 30
0.0
 10
32.18933091300868
 20
66.19070321382743
 30
0.0
 10
32.26615231565933
 20
67.24114832007912
 30
0.0
 10
32.42356178678035
 20
68.23251004674073
 30
0.0
 10
32.65446414731134
 20
69.21938953855076
 30
0.0
 10
32.86067808286872
 20
69.87020357834821
 30
0.0
 10
32.9637950185681
 20
70.19564205714289
 30
0.0
  0
LINE
  5
22B
330
1F
100
AcDbEntity
  8
0
  6
Continuous
 62
     7
370
    25
100
AcDbLine
 10
32.9637950186
 20
70.1956420571
 30
0.0
 11
42.6567411269
 21
70.1956420571
 31
0.0
  0
SPLINE
  5
22C
330
1F
100
AcDbEntity
  8
0
  6
Continuous
 62
     7
370
    25
100
AcDbSpline
210
0.0
220
0.0
230
1.0
 70
     8
 71
     3
 72
     9
 73
     5
 74
     0
 42
0.00000001
 43
0.00000001
 40
0.0
 40
0.0
 40
0.0
 40
0.0
 40
0.4980648083588058
 40
1.0
 40
1.0
 40
1.0
 40
1.0
 10
42.65674112686359
 20
70.19564205714289
 30
0.0
 10
42.81028968366167
 20
69.70723885310848
 30
0.0
 10
43.11857999894021
 20
68.72663714056475
 30
0.0
 10
43.26850772157614
 20
67.71865479981344
 30
0.0
 10
43.34376172176974
 20
67.21271299043751
 30
0.0
  0
SPLINE
  5
22D
330
1F
100
AcDbEntity
  8
0
  6
Continuous
 62
     7
370
    25
100
AcDbSpline
210
0.0
220
0.0
230
1.0
 70
    24
 71
     3
 72
    12
 73
     8
 74
     0
 42
0.00000001
 43
0.00000001
 40
0.0
 40
0.0
 40
0.0
 40
0.0
 40
0.2240417721253969
 40
0.4755331361824712
 40
0.7269594349736199
 40
0.9845690194377308
 40
0.9999999999999999
 40
0.9999999999999999
 40
0.9999999999999999
 40
0.9999999999999999
 10
32.9637950185681
 20
70.19564205714289
 30
0.0
 10
32.86525634923393
 20
70.1956420571429
 30
0.0
 10
32.65610605543291
 20
70.1956420571429
 30
0.0
 10
32.41354463779589
 20
70.19564205714288
 30
0.0
 10
32.25559233712663
 20
70.19564205714286
 30
0.0
 10
32.18911906690651
 20
70.19564205714285
 30
0.0
 10
32.20719664853773
 20
70.19564205714285
 30
0.0
 10
32.20821830922298
 20
70.19564205714285
 30
0.0
  0
SPLINE
  5
22E
330
1F
100
AcDbEntity
  8
0
  6
Continuous
 62
     7
370
    25
100
AcDbSpline
210
0.0
220
0.0
230
1.0
 70
     8
 71
     3
 72
    15
 73
    11
 74
     0
 42
0.00000001
 43
0.00000001
 40
0.0
 40
0.0
 40
0.0
 40
0.0
 40
0.1323052378296956
 40
0.2645730682660304
 40
0.3997997819746812
 40
0.5350020935366634
 40
0.6501929590834554
 40
0.7654017933211806
 40
0.8826895567076666
 40
1.0
 40
1.0
 40
1.0
 40
1.0
 10
32.9637950185681
 20
53.19564205714286
 30
0.0
 10
32.8482250467281
 20
53.5628758751059
 30
0.0
 10
32.61711777878694
 20
54.29723968097876
 30
0.0
 10
32.3684551472106
 20
55.42809493557412
 30
0.0
 10
32.21894120005707
 20
56.58026700116709
 30
0.0
 10
32.18933091300868
 20
57.69070321382742
 30
0.0
 10
32.26615231565933
 20
58.74114832007911
 30
0.0
 10
32.42356178678036
 20
59.73251004674074
 30
0.0
 10
32.65446414731134
 20
60.71938953855075
 30
0.0
 10
32.86067808286872
 20
61.37020357834824
 30
0.0
 10
32.9637950185681
 20
61.69564205714293
 30
0.0
  0
SPLINE
  5
22F
330
1F
100
AcDbEntity
  8
0
  6
Continuous
 62
     7
370
    25
100
AcDbSpline
210
0.0
220
0.0
230
1.0
 70
    24
 71
     3
 72
    12
 73
     8
 74
     0
 42
0.00000001
 43
0.00000001
 40
0.0
 40
0.0
 40
0.0
 40
0.0
 40
0.0089884559441959
 40
0.2601579128415301
 40
0.5180220921899634
 40
0.7759580093104207
 40
1.0
 40
1.0
 40
1.0
 40
1.0
 10
32.20687683216227
 20
53.19564205714286
 30
0.0
 10
32.20627830353632
 20
53.19564205714286
 30
0.0
 10
32.18895475441185
 20
53.19564205714286
 30
0.0
 10
32.25205595421007
 20
53.19564205714288
 30
0.0
 10
32.40731830325358
 20
53.19564205714287
 30
0.0
 10
32.65330522935654
 20
53.19564205714287
 30
0.0
 10
32.86526698754295
 20
53.19564205714286
 30
0.0
 10
32.9637950185681
 20
53.19564205714286
 30
0.0
  0
LINE
  5
230
330
1F
100
AcDbEntity
  8
0
  6
Continuous
 62
     7
370
    25
100
AcDbLine
 10
32.0602680727
 20
53.4456420571
 30
0.0
 11
32.0602680727
 21
69.9456420571
 31
0.0
  0
LINE
  5
231
330
1F
100
AcDbEntity
  8
0
  6
Continuous
 62
     7
370
    25
100
AcDbLine
 10
43.3437617218
 20
58.7127129904
 30
0.0
 11
43.3437617218
 21
64.6785711238
 31
0.0
  0
SPLINE
  5
232
330
1F
100
AcDbEntity
  8
0
  6
Continuous
 62
     7
370
    25
100
AcDbSpline
210
0.0
220
0.0
230
1.0
 70
     8
 71
     3
 72
     9
 73
     5
 74
     0
 42
0.00000001
 43
0.00000001
 40
0.0
 40
0.0
 40
0.0
 40
0.0
 40
0.4980648083588057
 40
1.0
 40
1.0
 40
1.0
 40
1.0
 10
42.65674112686359
 20
61.69564205714292
 30
0.0
 10
42.81028968366167
 20
61.2072388531085
 30
0.0
 10
43.11857999894021
 20
60.22663714056474
 30
0.0
 10
43.26850772157614
 20
59.21865479981344
 30
0.0
 10
43.34376172176974
 20
58.71271299043748
 30
0.0
  0
SPLINE
  5
233
330
1F
100
AcDbEntity
  8
0
  6
Continuous
 62
     7
370
    25
100
AcDbSpline
210
0.0
220
0.0
230
1.0
 70
     8
 71
     3
 72
     9
 73
     5
 74
     0
 42
0.00000001
 43
0.00000001
 40
0.0
 40
0.0
 40
0.0
 40
0.0
 40
0.6189856167028759
 40
1.0
 40
1.0
 40
1.0
 40
1.0
 10
43.34376172176974
 20
58.71271299043748
 30
0.0
 10
43.38486113734223
 20
58.18942963263165
 30
0.0
 10
43.4512591512273
 20
57.34404107482769
 30
0.0
 10
43.37341967992439
 20
56.50011796651302
 30
0.0
 10
43.34376172176974
 20
56.17857112384831
 30
0.0
  0
SPLINE
  5
234
330
1F
100
AcDbEntity
  8
0
  6
Continuous
 62
     7
370
    25
100
AcDbSpline
210
0.0
220
0.0
230
1.0
 70
     8
 71
     3
 72
     9
 73
     5
 74
     0
 42
0.00000001
 43
0.00000001
 40
0.0
 40
0.0
 40
0.0
 40
0.0
 40
0.4977140401152426
 40
1.0
 40
1.0
 40
1.0
 40
1.0
 10
43.34376172176974
 20
56.17857112384831
 30
0.0
 10
43.26928258692205
 20
55.67687342163428
 30
0.0
 10
43.1196401640753
 20
54.66886950416821
 30
0.0
 10
42.81151038747324
 20
53.6882123680672
 30
0.0
 10
42.65674112686359
 20
53.19564205714286
 30
0.0
  0
LINE
  5
235
330
1F
100
AcDbEntity
  8
0
  6
Continuous
 62
     7
370
    25
100
AcDbLine
 10
32.9637950186
 20
53.1956420571
 30
0.0
 11
42.6567411269
 21
53.1956420571
 31
0.0
  0
LINE
  5
236
330
1F
100
AcDbEntity
  8
0
  6
Continuous
 62
     7
370
    25
100
AcDbLine
 10
43.9932807746
 20
64.5488785557
 30
0.0
 11
43.9932807746
 21
58.8424055586
 31
0.0
  0
ARC
  5
237
330
1F
100
AcDbEntity
  8
0
  6
Continuous
 62
     7
370
    25
100
AcDbCircle
 10
43.9309849103
 20
57.4631034682
 30
0.0
 40
1.380708162956557
100
AcDbArc
 50
87.4140065821
 51
115.1700210283
  0
ARC
  5
238
330
1F
100
AcDbEntity
  8
0
  6
Continuous
 62
     7
370
    25
100
AcDbCircle
 10
43.9309849103
 20
65.9281806461
 30
0.0
 40
1.380708162984002
100
AcDbArc
 50
244.829978972
 51
272.5859934176
  0
SPLINE
  5
239
330
1F
100
AcDbEntity
  8
0
  6
Continuous
 62
     7
370
    25
100
AcDbSpline
210
0.0
220
0.0
230
1.0
 70
     8
 71
     3
 72
    11
 73
     7
 74
     0
 42
0.00000001
 43
0.00000001
 40
0.0
 40
0.0
 40
0.0
 40
0.0
 40
0.2858113857234036
 40
0.5527245545213757
 40
0.822027558222934
 40
1.0
 40
1.0
 40
1.0
 40
1.0
 10
43.99328077460807
 20
58.84240555855511
 30
0.0
 10
43.98934047318555
 20
58.59353603184432
 30
0.0
 10
43.98172040814534
 20
58.11225255205221
 30
0.0
 10
43.97025931849442
 20
57.43567792432317
 30
0.0
 10
43.98769670773603
 20
56.87564933830686
 30
0.0
 10
43.99169130899528
 20
56.54858414222769
 30
0.0
 10
43.99328077460807
 20
56.41844377312199
 30
0.0
  0
SPLINE
  5
23A
330
1F
100
AcDbEntity
  8
0
  6
Continuous
 62
     7
370
    25
100
AcDbSpline
210
0.0
220
0.0
230
1.0
 70
     8
 71
     3
 72
    11
 73
     7
 74
     0
 42
0.00000001
 43
0.00000001
 40
0.0
 40
0.0
 40
0.0
 40
0.0
 40
0.2858113857233993
 40
0.5527245545213819
 40
0.8220275582229518
 40
0.9999999999999999
 40
0.9999999999999999
 40
0.9999999999999999
 40
0.9999999999999999
 10
43.99328077460807
 20
66.97284034116382
 30
0.0
 10
43.98934047318555
 20
66.76208874563585
 30
0.0
 10
43.98172040814534
 20
66.35452072150684
 30
0.0
 10
43.97025931849441
 20
65.69429985997772
 30
0.0
 10
43.98769670773604
 20
65.0952160958712
 30
0.0
 10
43.99169130899527
 20
64.7043897186393
 30
0.0
 10
43.99328077460807
 20
64.5488785557307
 30
0.0
  0
LINE
  5
23B
330
1F
100
AcDbEntity
  8
0
  6
Continuous
 62
     7
370
    25
100
AcDbLine
 10
43.9932807746
 20
69.8260768398
 30
0.0
 11
43.9932807746
 21
66.9728403412
 31
0.0
  0
LINE
  5
23C
330
1F
100
AcDbEntity
  8
0
  6
Continuous
 62
     7
370
    25
100
AcDbLine
 10
43.9932807746
 20
56.4184437731
 30
0.0
 11
43.9932807746
 21
53.5652072745
 31
0.0
  0
LINE
  5
23D
330
1F
100
AcDbEntity
  8
0
  6
Continuous
 62
     7
370
    25
100
AcDbLine
 10
44.8602680727
 20
53.4456420571
 30
0.0
 11
44.8602680727
 21
69.9456420571
 31
0.0
  0
LINE
  5
23E
330
1F
100
AcDbEntity
  8
0
  6
Continuous
 62
     7
370
    25
100
AcDbLine
 10
45.0602680727
 20
69.7456420571
 30
0.0
 11
45.0602680727
 21
53.6456420571
 31
0.0
  0
ARC
  5
23F
330
1F
100
AcDbEntity
  8
0
  6
Continuous
 62
     7
370
    25
100
AcDbCircle
 10
43.9514736751
 20
55.5323384296
 30
0.0
 40
0.8870910400402379
100
AcDbArc
 50
87.298746295
 51
133.2404470551
  0
ARC
  5
240
330
1F
100
AcDbEntity
  8
0
  6
Continuous
 62
     7
370
    25
100
AcDbCircle
 10
43.9514736751
 20
67.8589456846
 30
0.0
 40
0.8870910400314366
100
AcDbArc
 50
226.7595529446
 51
272.7012537053
  0
ARC
  5
241
330
1F
100
AcDbEntity
  8
0
  6
Continuous
 62
     7
370
    25
100
AcDbCircle
 10
43.9912446398
 20
52.813231159
 30
0.0
 40
0.7519788721912087
100
AcDbArc
 50
89.8448599075
 51
149.433409991
  0
LINE
  5
242
330
1F
100
AcDbEntity
  8
0
  6
Continuous
 62
     7
370
    25
100
AcDbLine
 10
43.3437617218
 20
53.1956420571
 30
0.0
 11
43.3437617218
 21
56.1785711238
 31
0.0
  0
SPLINE
  5
243
330
1F
100
AcDbEntity
  8
0
  6
Continuous
 62
     7
370
    25
100
AcDbSpline
210
0.0
220
0.0
230
1.0
 70
    24
 71
     3
 72
    10
 73
     6
 74
     0
 42
0.00000001
 43
0.00000001
 40
0.0
 40
0.0
 40
0.0
 40
0.0
 40
0.327333370707713
 40
0.6629523133412116
 40
1.0
 40
1.0
 40
1.0
 40
1.0
 10
42.65674112686359
 20
53.19564205714286
 30
0.0
 10
42.75805875295998
 20
53.19564205714286
 30
0.0
 10
42.96325859084275
 20
53.19564205714286
 30
0.0
 10
43.20182401296552
 20
53.19564205714289
 30
0.0
 10
43.29638220496349
 20
53.19564205714287
 30
0.0
 10
43.34376172176974
 20
53.19564205714286
 30
0.0
  0
SPLINE
  5
244
330
1F
100
AcDbEntity
  8
0
  6
Continuous
 62
     7
370
    25
100
AcDbSpline
210
0.0
220
0.0
230
1.0
 70
    24
 71
     3
 72
    10
 73
     6
 74
     0
 42
0.00000001
 43
0.00000001
 40
0.0
 40
0.0
 40
0.0
 40
0.0
 40
0.3355445600395948
 40
0.6726666839999055
 40
1.0
 40
1.0
 40
1.0
 40
1.0
 10
43.34376172176974
 20
70.19564205714288
 30
0.0
 10
43.29662750578532
 20
70.19564205714288
 30
0.0
 10
43.20213747213543
 20
70.19564205714286
 30
0.0
 10
42.96372169412004
 20
70.1956420571429
 30
0.0
 10
42.75805803172236
 20
70.1956420571429
 30
0.0
 10
42.65674112686359
 20
70.19564205714289
 30
0.0
  0
LINE
  5
245
330
1F
100
AcDbEntity
  8
0
  6
Continuous
 62
     7
370
    25
100
AcDbLine
 10
43.3437617218
 20
67.2127129904
 30
0.0
 11
43.3437617218
 21
70.1956420571
 31
0.0
  0
ARC
  5
246
330
1F
100
AcDbEntity
  8
0
  6
Continuous
 62
     7
370
    25
100
AcDbCircle
 10
43.9912446398
 20
70.5780529553
 30
0.0
 40
0.7519788722000051
100
AcDbArc
 50
210.5665900094
 51
270.1551400921
  0
SPLINE
  5
247
330
1F
100
AcDbEntity
  8
0
  6
Continuous
 62
     7
370
    25
100
AcDbSpline
210
0.0
220
0.0
230
1.0
 70
    24
 71
     3
 72
     9
 73
     5
 74
     0
 42
0.00000001
 43
0.00000001
 40
0.0
 40
0.0
 40
0.0
 40
0.0
 40
0.8577196295682016
 40
1.0
 40
1.0
 40
1.0
 40
1.0
 10
43.34376172176974
 20
53.19564205714286
 30
0.0
 10
43.38510576458561
 20
53.19564205714287
 30
0.0
 10
43.43330804583302
 20
53.19564205714288
 30
0.0
 10
43.41033552046568
 20
53.19564205714287
 30
0.0
 10
43.40706698104665
 20
53.19564205714287
 30
0.0
  0
SPLINE
  5
248
330
1F
100
AcDbEntity
  8
0
  6
Continuous
 62
     7
370
    25
100
AcDbSpline
210
0.0
220
0.0
230
1.0
 70
    24
 71
     3
 72
     9
 73
     5
 74
     0
 42
0.00000001
 43
0.00000001
 40
0.0
 40
0.0
 40
0.0
 40
0.0
 40
0.0071171627498586
 40
1.0
 40
1.0
 40
1.0
 40
1.0
 10
43.41515072891742
 20
70.19564205714285
 30
0.0
 10
43.41527446645539
 20
70.19564205714285
 30
0.0
 10
43.43266026221636
 20
70.19564205714279
 30
0.0
 10
43.38805225075429
 20
70.19564205714283
 30
0.0
 10
43.34376172176975
 20
70.19564205714288
 30
0.0
  0
CIRCLE
  5
249
330
1F
100
AcDbEntity
  8
0
  6
Continuous
 62
     7
370
    25
100
AcDbCircle
 10
18.8119341226
 20
61.6956420571
 30
0.0
 40
4.049999999999997
  0
CIRCLE
  5
24A
330
1F
100
AcDbEntity
  8
0
  6
Continuous
 62
     7
370
    25
100
AcDbCircle
 10
18.8119341226
 20
61.6956420571
 30
0.0
 40
2.999999999999996
  0
LINE
  5
24B
330
1F
100
AcDbEntity
  8
0
  6
Continuous
 62
     7
370
    25
100
AcDbLine
 10
28.8119341226
 20
68.2741420571
 30
0.0
 11
28.8119341226
 21
55.1171420571
 31
0.0
  0
SPLINE
  5
24C
330
1F
100
AcDbEntity
  8
0
  6
Continuous
 62
     7
370
    25
100
AcDbSpline
210
0.0
220
0.0
230
1.0
 70
     8
 71
     3
 72
    22
 73
    18
 74
     0
 42
0.00000001
 43
0.00000001
 40
0.0
 40
0.0
 40
0.0
 40
0.0
 40
0.0625
 40
0.0625
 40
0.125
 40
0.125
 40
0.1875
 40
0.1875
 40
0.25
 40
0.25
 40
0.3125
 40
0.3125
 40
0.375
 40
0.375
 40
0.4375
 40
0.4375
 40
0.5
 40
0.5
 40
0.5
 40
0.5
 10
26.81193412253855
 20
67.69564205714286
 30
0.0
 10
26.8119275000649
 20
67.69564205728223
 30
0.0
 10
26.79924074863818
 20
67.69454345520901
 30
0.0
 10
26.74850702784488
 20
67.69063923408154
 30
0.0
 10
26.7123527202283
 20
67.68798781289212
 30
0.0
 10
26.61862229887998
 20
67.68246899511635
 30
0.0
 10
26.56450459693948
 20
67.67981859963824
 30
0.0
 10
26.44204707949339
 20
67.67591835390306
 30
0.0
 10
26.37806125096422
 20
67.67481527357248
 30
0.0
 10
26.2458070067662
 20
67.67482628115422
 30
0.0
 10
26.18167166342857
 20
67.67592201499961
 30
0.0
 10
26.0595131736433
 20
67.6798149377927
 30
0.0
 10
26.00523658870989
 20
67.68246844244678
 30
0.0
 10
25.91152490031818
 20
67.68798836451484
 30
0.0
 10
25.87534897436232
 20
67.69063907215273
 30
0.0
 10
25.8246397489912
 20
67.69454361639373
 30
0.0
 10
25.81193412803557
 20
67.69564205714286
 30
0.0
 10
25.81193412255539
 20
67.69564205714286
 30
0.0
  0
SPLINE
  5
24D
330
1F
100
AcDbEntity
  8
0
  6
Continuous
 62
     7
370
    25
100
AcDbSpline
210
0.0
220
0.0
230
1.0
 70
    24
 71
     3
 72
    14
 73
    10
 74
     0
 42
0.00000001
 43
0.00000001
 40
0.0
 40
0.0
 40
0.0
 40
0.0
 40
0.25
 40
0.25
 40
0.5
 40
0.5
 40
0.75
 40
0.75
 40
1.0
 40
1.0
 40
1.0
 40
1.0
 10
25.56193412255539
 20
67.69564205714286
 30
0.0
 10
25.56193412255539
 20
67.69564205714286
 30
0.0
 10
25.56193412255539
 20
67.68579714340527
 30
0.0
 10
25.56193412255539
 20
67.64630503709618
 30
0.0
 10
25.56193412255539
 20
67.61665739792093
 30
0.0
 10
25.56193412255539
 20
67.53722826071727
 30
0.0
 10
25.56193412255539
 20
67.48744583664799
 30
0.0
 10
25.56193412255539
 20
67.36721685031338
 30
0.0
 10
25.56193412255539
 20
67.29676881770622
 30
0.0
 10
25.56193412255539
 20
67.21564205714286
 30
0.0
  0
SPLINE
  5
24E
330
1F
100
AcDbEntity
  8
0
  6
Continuous
 62
     7
370
    25
100
AcDbSpline
210
0.0
220
0.0
230
1.0
 70
    24
 71
     3
 72
    14
 73
    10
 74
     0
 42
0.00000001
 43
0.00000001
 40
0.0
 40
0.0
 40
0.0
 40
0.0
 40
0.25
 40
0.25
 40
0.5
 40
0.5
 40
0.75
 40
0.75
 40
1.0
 40
1.0
 40
1.0
 40
1.0
 10
25.56193412255539
 20
55.69564205714286
 30
0.0
 10
25.56193412255539
 20
55.69564205714286
 30
0.0
 10
25.56193412255539
 20
55.70548697088044
 30
0.0
 10
25.56193412255539
 20
55.74497907718953
 30
0.0
 10
25.56193412255539
 20
55.77462671636478
 30
0.0
 10
25.56193412255539
 20
55.85405585356843
 30
0.0
 10
25.56193412255539
 20
55.90383827763772
 30
0.0
 10
25.56193412255539
 20
56.02406726397233
 30
0.0
 10
25.56193412255539
 20
56.09451529657948
 30
0.0
 10
25.56193412255539
 20
56.17564205714286
 30
0.0
  0
ARC
  5
24F
330
1F
100
AcDbEntity
  8
0
  6
Continuous
 62
     7
370
    25
100
AcDbCircle
 10
25.0619341226
 20
67.4456420571
 30
0.0
 40
0.2500000000000036
100
AcDbArc
 50
0.0
 51
60.201750927
  0
ARC
  5
250
330
1F
100
AcDbEntity
  8
0
  6
Continuous
 62
     7
370
    25
100
AcDbCircle
 10
25.0619341226
 20
55.9456420571
 30
0.0
 40
0.2500000000000036
100
AcDbArc
 50
300.0056052292
 51
0.0
  0
LINE
  5
251
330
1F
100
AcDbEntity
  8
0
  6
Continuous
 62
     7
370
    25
100
AcDbLine
 10
17.8119341226
 20
58.8672149324
 30
0.0
 11
17.8119341226
 21
64.5240691819
 31
0.0
  0
SPLINE
  5
252
330
1F
100
AcDbEntity
  8
0
  6
Continuous
 62
     7
370
    25
100
AcDbSpline
210
0.0
220
0.0
230
1.0
 70
     8
 71
     3
 72
    12
 73
     8
 74
     0
 42
0.00000001
 43
0.00000001
 40
0.0
 40
0.0
 40
0.0
 40
0.0
 40
0.5
 40
0.5
 40
0.75
 40
0.75
 40
1.0
 40
1.0
 40
1.0
 40
1.0
 10
19.81193412255544
 20
64.52406918188905
 30
0.0
 10
19.48830549179456
 20
64.49541287605152
 30
0.0
 10
19.15915141376411
 20
64.47351248594872
 30
0.0
 10
18.65004651463398
 20
64.47304711915835
 30
0.0
 10
18.47782935585401
 20
64.47824478811137
 30
0.0
 10
18.14175482777262
 20
64.49656965873517
 30
0.0
 10
17.97606642634493
 20
64.5095357783266
 30
0.0
 10
17.81193412255539
 20
64.52406918188905
 30
0.0
  0
SPLINE
  5
253
330
1F
100
AcDbEntity
  8
0
  6
Continuous
 62
     7
370
    25
100
AcDbSpline
210
0.0
220
0.0
230
1.0
 70
     8
 71
     3
 72
    10
 73
     6
 74
     0
 42
0.00000001
 43
0.00000001
 40
0.0
 40
0.0
 40
0.0
 40
0.0
 40
0.5
 40
0.5
 40
1.0
 40
1.0
 40
1.0
 40
1.0
 10
17.81193412255539
 20
58.86721493239667
 30
0.0
 10
18.1380334718574
 20
58.8960900126547
 30
0.0
 10
18.47052469393415
 20
58.91810571526994
 30
0.0
 10
19.15435789767452
 20
58.91806514313942
 30
0.0
 10
19.4859282108644
 20
58.89608173904569
 30
0.0
 10
19.81193412255544
 20
58.86721493239667
 30
0.0
  0
SPLINE
  5
254
330
1F
100
AcDbEntity
  8
0
  6
Continuous
 62
     7
370
    25
100
AcDbSpline
210
0.0
220
0.0
230
1.0
 70
     8
 71
     3
 72
    14
 73
    10
 74
     0
 42
0.00000001
 43
0.00000001
 40
0.0
 40
0.0
 40
0.0
 40
0.0
 40
0.25
 40
0.25
 40
0.5
 40
0.5
 40
0.75
 40
0.75
 40
1.0
 40
1.0
 40
1.0
 40
1.0
 10
25.31394172284508
 20
67.69434883981431
 30
0.0
 10
25.32420518213421
 20
67.69435899717146
 30
0.0
 10
25.33887007256497
 20
67.68582458477846
 30
0.0
 10
25.37060545074847
 20
67.64977909667323
 30
0.0
 10
25.38767593850123
 20
67.62226802096103
 30
0.0
 10
25.41782524636751
 20
67.54638168239856
 30
0.0
 10
25.42365671651741
 20
67.50214470999711
 30
0.0
 10
25.41755059329584
 20
67.40290556037846
 30
0.0
 10
25.40561299992438
 20
67.34790338316124
 30
0.0
 10
25.38514952681482
 20
67.28842980424847
 30
0.0
  0
SPLINE
  5
255
330
1F
100
AcDbEntity
  8
0
  6
Continuous
 62
     7
370
    25
100
AcDbSpline
210
0.0
220
0.0
230
1.0
 70
     8
 71
     3
 72
    12
 73
     8
 74
     0
 42
0.00000001
 43
0.00000001
 40
0.0
 40
0.0
 40
0.0
 40
0.0
 40
0.25
 40
0.25
 40
0.5
 40
0.5
 40
1.0
 40
1.0
 40
1.0
 40
1.0
 10
25.31394172284508
 20
67.69434883981431
 30
0.0
 10
25.30367826355594
 20
67.69433868245716
 30
0.0
 10
25.29609948375916
 20
67.6857822563457
 30
0.0
 10
25.28168602831009
 20
67.6644089001108
 30
0.0
 10
25.27485135265781
 20
67.65159196998734
 30
0.0
 10
25.24852559965736
 20
67.62599847384377
 30
0.0
 10
25.23885864829639
 20
67.62227092199512
 30
0.0
 10
25.23871081785124
 20
67.62241875244028
 30
0.0
  0
SPLINE
  5
256
330
1F
100
AcDbEntity
  8
0
  6
Continuous
 62
     7
370
    25
100
AcDbSpline
210
0.0
220
0.0
230
1.0
 70
     8
 71
     3
 72
     9
 73
     5
 74
     0
 42
0.00000001
 43
0.00000001
 40
0.0
 40
0.0
 40
0.0
 40
0.0
 40
0.1251150623461959
 40
1.0
 40
1.0
 40
1.0
 40
1.0
 10
25.18314254266797
 20
67.69627086712107
 30
0.0
 10
25.18859824276206
 20
67.69630692555863
 30
0.0
 10
25.23220370474071
 20
67.69659512776923
 30
0.0
 10
25.27579998975149
 20
67.69539703400368
 30
0.0
 10
25.31394172284508
 20
67.69434883981431
 30
0.0
  0
SPLINE
  5
257
330
1F
100
AcDbEntity
  8
0
  6
Continuous
 62
     7
370
    25
100
AcDbSpline
210
0.0
220
0.0
230
1.0
 70
     8
 71
     3
 72
    12
 73
     8
 74
     0
 42
0.00000001
 43
0.00000001
 40
0.0
 40
0.0
 40
0.0
 40
0.0
 40
0.25
 40
0.25
 40
0.5
 40
0.5
 40
1.0
 40
1.0
 40
1.0
 40
1.0
 10
25.31394172284508
 20
55.6969352744714
 30
0.0
 10
25.30367826355594
 20
55.69694543182856
 30
0.0
 10
25.29609948375917
 20
55.70550185794
 30
0.0
 10
25.2816860283101
 20
55.72687521417491
 30
0.0
 10
25.27485135265781
 20
55.73969214429838
 30
0.0
 10
25.24852559965736
 20
55.76528564044195
 30
0.0
 10
25.23885864829639
 20
55.76901319229058
 30
0.0
 10
25.23871081785124
 20
55.76886536184543
 30
0.0
  0
SPLINE
  5
258
330
1F
100
AcDbEntity
  8
0
  6
Continuous
 62
     7
370
    25
100
AcDbSpline
210
0.0
220
0.0
230
1.0
 70
     8
 71
     3
 72
    12
 73
     8
 74
     0
 42
0.00000001
 43
0.00000001
 40
0.0
 40
0.0
 40
0.0
 40
0.0
 40
0.25
 40
0.25
 40
0.5
 40
0.5
 40
1.0
 40
1.0
 40
1.0
 40
1.0
 10
25.31394172284508
 20
55.6969352744714
 30
0.0
 10
25.32420518213421
 20
55.69692511711424
 30
0.0
 10
25.33887007256497
 20
55.70545952950726
 30
0.0
 10
25.37060545074847
 20
55.74150501761248
 30
0.0
 10
25.38767593850122
 20
55.76901609332469
 30
0.0
 10
25.43289990030065
 20
55.88284560116838
 30
0.0
 10
25.42607647303395
 20
55.9839071522117
 30
0.0
 10
25.38514952681482
 20
56.10285431003724
 30
0.0
  0
SPLINE
  5
259
330
1F
100
AcDbEntity
  8
0
  6
Continuous
 62
     7
370
    25
100
AcDbSpline
210
0.0
220
0.0
230
1.0
 70
     8
 71
     3
 72
     9
 73
     5
 74
     0
 42
0.00000001
 43
0.00000001
 40
0.0
 40
0.0
 40
0.0
 40
0.0
 40
0.1251150623599672
 40
1.0
 40
1.0
 40
1.0
 40
1.0
 10
25.18314254266591
 20
55.69501324716465
 30
0.0
 10
25.18859824276069
 20
55.69497718872709
 30
0.0
 10
25.23220370474003
 20
55.69468898651649
 30
0.0
 10
25.27579998975149
 20
55.69588708028203
 30
0.0
 10
25.31394172284508
 20
55.6969352744714
 30
0.0
  0
SPLINE
  5
25A
330
1F
100
AcDbEntity
  8
0
  6
Continuous
 62
     7
370
    25
100
AcDbSpline
210
0.0
220
0.0
230
1.0
 70
     8
 71
     3
 72
    10
 73
     6
 74
     0
 42
0.00000001
 43
0.00000001
 40
0.0
 40
0.0
 40
0.0
 40
0.0
 40
0.5
 40
0.5
 40
1.0
 40
1.0
 40
1.0
 40
1.0
 10
25.31394172284508
 20
67.69434883981431
 30
0.0
 10
25.35499556000161
 20
67.69438946924294
 30
0.0
 10
25.39847239038262
 20
67.69483467409117
 30
0.0
 10
25.48753109010697
 20
67.69130907313992
 30
0.0
 10
25.51963445963062
 20
67.69564205714286
 30
0.0
 10
25.56193412255539
 20
67.69564205714286
 30
0.0
  0
SPLINE
  5
25B
330
1F
100
AcDbEntity
  8
0
  6
Continuous
 62
     7
370
    25
100
AcDbSpline
210
0.0
220
0.0
230
1.0
 70
     8
 71
     3
 72
    10
 73
     6
 74
     0
 42
0.00000001
 43
0.00000001
 40
0.0
 40
0.0
 40
0.0
 40
0.0
 40
0.5
 40
0.5
 40
1.0
 40
1.0
 40
1.0
 40
1.0
 10
25.31394172284508
 20
55.6969352744714
 30
0.0
 10
25.35499556000161
 20
55.69689464504278
 30
0.0
 10
25.39847239038262
 20
55.69644944019455
 30
0.0
 10
25.48753109010697
 20
55.69997504114579
 30
0.0
 10
25.51963445963062
 20
55.69564205714286
 30
0.0
 10
25.56193412255539
 20
55.69564205714286
 30
0.0
  0
SPLINE
  5
25C
330
1F
100
AcDbEntity
  8
0
  6
Continuous
 62
     7
370
    25
100
AcDbSpline
210
0.0
220
0.0
230
1.0
 70
     8
 71
     3
 72
    18
 73
    14
 74
     0
 42
0.00000001
 43
0.00000001
 40
0.0
 40
0.0
 40
0.0
 40
0.0
 40
0.25
 40
0.25
 40
0.375
 40
0.375
 40
0.5
 40
0.5
 40
0.625
 40
0.625
 40
0.75
 40
0.75
 40
1.0
 40
1.0
 40
1.0
 40
1.0
 10
17.81193412255539
 20
64.52406918188905
 30
0.0
 10
17.61097502617715
 20
64.0982793892076
 30
0.0
 10
17.42874320184599
 20
63.65897922669583
 30
0.0
 10
17.22082966616906
 20
62.95282294830631
 30
0.0
 10
17.16258046289966
 20
62.70681014684612
 30
0.0
 10
17.08309116500232
 20
62.20907720793524
 30
0.0
 10
17.0614620576859
 20
61.95640890794214
 30
0.0
 10
17.06106497323493
 20
61.44207722754863
 30
0.0
 10
17.0826586899447
 20
61.18630129194889
 30
0.0
 10
17.16160756301149
 20
60.68920391729358
 30
0.0
 10
17.21937196346761
 20
60.4439966889582
 30
0.0
 10
17.42785291126816
 20
59.73417532400222
 30
0.0
 10
17.61062250478057
 20
59.29375164330711
 30
0.0
 10
17.81193412255539
 20
58.86721493239667
 30
0.0
  0
SPLINE
  5
25D
330
1F
100
AcDbEntity
  8
0
  6
Continuous
 62
     7
370
    25
100
AcDbSpline
210
0.0
220
0.0
230
1.0
 70
     8
 71
     3
 72
    10
 73
     6
 74
     0
 42
0.00000001
 43
0.00000001
 40
0.0
 40
0.0
 40
0.0
 40
0.0
 40
0.1054683352036784
 40
0.6440627666015801
 40
1.0
 40
1.0
 40
1.0
 40
1.0
 10
43.97658386717168
 20
69.94022831409364
 30
0.0
 10
43.97606892489518
 20
69.94190537313183
 30
0.0
 10
43.97292433039107
 20
69.9521466581753
 30
0.0
 10
43.9883029710433
 20
69.91294032697904
 30
0.0
 10
43.99186387760903
 20
69.8508019243752
 30
0.0
 10
43.99328077460807
 20
69.82607683975156
 30
0.0
  0
SPLINE
  5
25E
330
1F
100
AcDbEntity
  8
0
  6
Continuous
 62
     7
370
    25
100
AcDbSpline
210
0.0
220
0.0
230
1.0
 70
     8
 71
     3
 72
     9
 73
     5
 74
     0
 42
0.00000001
 43
0.00000001
 40
0.0
 40
0.0
 40
0.0
 40
0.0
 40
0.5716350576924242
 40
1.0
 40
1.0
 40
1.0
 40
1.0
 10
43.99328077460807
 20
53.56520727453416
 30
0.0
 10
43.98882136652151
 20
53.52548886878611
 30
0.0
 10
43.98102022132134
 20
53.45600676615163
 30
0.0
 10
43.97791432448846
 20
53.45254058897519
 30
0.0
 10
43.97658386717082
 20
53.45105580018897
 30
0.0
  0
LINE
  5
25F
330
1F
100
AcDbEntity
  8
0
  6
Continuous
 62
     7
370
    25
100
AcDbLine
 10
28.3119341226
 20
55.6956420571
 30
0.0
 11
28.3119341226
 21
61.1498378894
 31
0.0
  0
LINE
  5
260
330
1F
100
AcDbEntity
  8
0
  6
Continuous
 62
     7
370
    25
100
AcDbLine
 10
28.3119341226
 20
62.2416159665
 30
0.0
 11
28.3119341226
 21
67.6956420571
 31
0.0
  0
LINE
  5
261
330
1F
100
AcDbEntity
  8
0
  6
Continuous
 62
     7
370
    25
100
AcDbLine
 10
25.5619341226
 20
56.3775610947
 30
0.0
 11
25.5619341226
 21
56.1756420571
 31
0.0
  0
LINE
  5
262
330
1F
100
AcDbEntity
  8
0
  6
Continuous
 62
     7
370
    25
100
AcDbLine
 10
25.5619341226
 20
67.2156420571
 30
0.0
 11
25.5619341226
 21
67.0289918364
 31
0.0
  0
SPLINE
  5
263
330
1F
100
AcDbEntity
  8
0
  6
Continuous
 62
     7
370
    25
100
AcDbSpline
210
0.0
220
0.0
230
1.0
 70
     8
 71
     3
 72
    10
 73
     6
 74
     0
 42
0.00000001
 43
0.00000001
 40
0.0
 40
0.0
 40
0.0
 40
0.0
 40
0.0990847583324174
 40
0.5495441131884515
 40
1.0
 40
1.0
 40
1.0
 40
1.0
 10
25.45675063970202
 20
67.24081262219775
 30
0.0
 10
25.45989616034131
 20
67.239110396089
 30
0.0
 10
25.47734185410216
 20
67.22966950575305
 30
0.0
 10
25.51305627655008
 20
67.2199204786005
 30
0.0
 10
25.54564154903227
 20
67.2170681939688
 30
0.0
 10
25.56193412255539
 20
67.21564205714286
 30
0.0
  0
SPLINE
  5
264
330
1F
100
AcDbEntity
  8
0
  6
Continuous
 62
     7
370
    25
100
AcDbSpline
210
0.0
220
0.0
230
1.0
 70
     8
 71
     3
 72
    10
 73
     6
 74
     0
 42
0.00000001
 43
0.00000001
 40
0.0
 40
0.0
 40
0.0
 40
0.0
 40
0.4504558868112076
 40
0.900915241666899
 40
1.0
 40
1.0
 40
1.0
 40
1.0
 10
25.56193412255539
 20
56.17564205714286
 30
0.0
 10
25.54564154903228
 20
56.1742159203169
 30
0.0
 10
25.51305627655008
 20
56.17136363568521
 30
0.0
 10
25.47734185410213
 20
56.16161460853264
 30
0.0
 10
25.45989616034126
 20
56.15217371819669
 30
0.0
 10
25.45675063970195
 20
56.15047149208793
 30
0.0
  0
SPLINE
  5
265
330
1F
100
AcDbEntity
  8
0
  6
Continuous
 62
     7
370
    25
100
AcDbSpline
210
0.0
220
0.0
230
1.0
 70
     8
 71
     3
 72
    14
 73
    10
 74
     0
 42
0.00000001
 43
0.00000001
 40
0.0
 40
0.0
 40
0.0
 40
0.0
 40
0.25
 40
0.25
 40
0.5
 40
0.5
 40
0.75
 40
0.75
 40
1.0
 40
1.0
 40
1.0
 40
1.0
 10
26.06193412255539
 20
67.99564205714286
 30
0.0
 10
26.06193412828287
 20
67.99564205735525
 30
0.0
 10
26.08673251728707
 20
67.9944026329891
 30
0.0
 10
26.17879982308641
 20
67.99147543863013
 30
0.0
 10
26.24499158671161
 20
67.99009040904123
 30
0.0
 10
26.37920308096614
 20
67.9900825334013
 30
0.0
 10
26.44571456183457
 20
67.99149537929225
 30
0.0
 10
26.53687294415225
 20
67.99439474719668
 30
0.0
 10
26.5619247977056
 20
67.99564219810081
 30
0.0
 10
26.56193412228635
 20
67.99564205712929
 30
0.0
  0
LWPOLYLINE
  5
266
330
1F
100
AcDbEntity
  8
0
  6
Continuous
 62
     7
370
    25
100
AcDbPolyline
 90
       13
 70
   128
 43
0.0
 10
26.8119302197
 20
67.7456416507
 10
26.8119341224
 20
67.7456420571
 10
26.782984768
 20
67.7427019021
 10
26.6990170511
 20
67.7351680235
 10
26.5706201651
 20
67.7264952639
 10
26.4130101506
 20
67.7205605066
 10
26.2444443237
 20
67.719971471
 10
26.0856270415
 20
67.7248543751
 10
25.9520302302
 20
67.7330543347
 10
25.8583479384
 20
67.7410245705
 10
25.8144964681
 20
67.7453712669
 10
25.8119341226
 20
67.7456420571
 10
25.8119341226
 20
67.7456420571
  0
MTEXT
  5
268
330
1F
100
AcDbEntity
  8
0
  6
Continuous
 62
     7
370
     0
100
AcDbMText
 10
42.2357931024
 20
48.5698213876
 30
0.0
 40
1.75
 41
0.0
 71
     1
 72
     1
  1
両口リングエルボ　RL-2208R
  7
SLDTEXTSTYLE0
 73
     1
 44
1.0
  0
INSERT
  5
274
330
1F
100
AcDbEntity
  8
0
  6
Continuous
 62
     7
370
    18
100
AcDbBlockReference
  2
SW_CENTERMARKSYMBOL_1
 10
18.8119341226
 20
61.6956420571
 30
0.0
  0
ENDSEC
  0
SECTION
  2
OBJECTS
  0
DICTIONARY
  5
C
330
0
100
AcDbDictionary
281
     1
  3
ACAD_GROUP
350
D
  3
ACAD_LAYOUT
350
1A
  3
ACAD_MLINESTYLE
350
17
  3
ACAD_PLOTSETTINGS
350
19
  3
ACAD_PLOTSTYLENAME
350
E
  3
ACAD_SCALELIST
350
47
  3
DWGPROPS
350
275
  0
DICTIONARY
  5
D
102
{ACAD_REACTORS
330
C
102
}
330
C
100
AcDbDictionary
281
     1
  0
DICTIONARY
  5
1A
102
{ACAD_REACTORS
330
C
102
}
330
C
100
AcDbDictionary
281
     1
  3
Layout1
350
1E
  3
Layout2
350
26
  3
Model
350
22
  0
DICTIONARY
  5
17
102
{ACAD_REACTORS
330
C
102
}
330
C
100
AcDbDictionary
281
     1
  3
Standard
350
18
  0
DICTIONARY
  5
19
102
{ACAD_REACTORS
330
C
102
}
330
C
100
AcDbDictionary
281
     1
  0
ACDBDICTIONARYWDFLT
  5
E
102
{ACAD_REACTORS
330
C
102
}
330
C
100
AcDbDictionary
281
     1
  3
Normal
350
F
100
AcDbDictionaryWithDefault
340
F
  0
DICTIONARY
  5
47
102
{ACAD_REACTORS
330
C
102
}
330
C
100
AcDbDictionary
281
     1
  3
A0
350
48
  3
A1
350
49
  3
A2
350
4A
  3
A3
350
4B
  3
A4
350
4C
  3
A5
350
4D
  3
A6
350
4E
  3
A7
350
4F
  3
A8
350
50
  3
A9
350
51
  3
B0
350
52
  3
B1
350
53
  3
B2
350
54
  3
B3
350
55
  3
B4
350
56
  3
B5
350
57
  3
B6
350
58
  0
XRECORD
  5
275
102
{ACAD_REACTORS
330
C
102
}
330
C
100
AcDbXrecord
280
     1
  1
DWGPROPS COOKIE
  2

  3

  4

  6

  7

  8
user52
  9

300
=
301
=
302
=
303
=
304
=
305
=
306
=
307
=
308
=
309
=
 40
0.0
 41
2460279.279603472
 42
2460279.279603993
  1

 90
        0
  0
LAYOUT
  5
1E
102
{ACAD_REACTORS
330
1A
102
}
330
1A
100
AcDbPlotSettings
  1

  2
none_device
  4

  6

 40
0.0
 41
0.0
 42
0.0
 43
0.0
 44
0.0
 45
0.0
 46
0.0
 47
0.0
 48
0.0
 49
0.0
140
0.0
141
0.0
142
1.0
143
1.0
 70
   688
 72
     1
 73
     0
 74
     5
  7

 75
    16
147
1.0
148
0.0
149
0.0
100
AcDbLayout
  1
Layout1
 70
     1
 71
     1
 10
0.0
 20
0.0
 11
420.0
 21
297.0
 12
0.0
 22
0.0
 32
0.0
 14
1.0000000000E+20
 24
1.0000000000E+20
 34
1.0000000000E+20
 15
-1.0000000000E+20
 25
-1.0000000000E+20
 35
-1.0000000000E+20
146
0.0
 13
0.0
 23
0.0
 33
0.0
 16
1.0
 26
0.0
 36
0.0
 17
0.0
 27
1.0
 37
0.0
 76
     0
330
1B
  0
LAYOUT
  5
26
102
{ACAD_REACTORS
330
1A
102
}
330
1A
100
AcDbPlotSettings
  1

  2
none_device
  4

  6

 40
0.0
 41
0.0
 42
0.0
 43
0.0
 44
0.0
 45
0.0
 46
0.0
 47
0.0
 48
0.0
 49
0.0
140
0.0
141
0.0
142
1.0
143
1.0
 70
   688
 72
     1
 73
     0
 74
     5
  7

 75
    16
147
1.0
148
0.0
149
0.0
100
AcDbLayout
  1
Layout2
 70
     1
 71
     2
 10
0.0
 20
0.0
 11
0.0
 21
0.0
 12
0.0
 22
0.0
 32
0.0
 14
0.0
 24
0.0
 34
0.0
 15
0.0
 25
0.0
 35
0.0
146
0.0
 13
0.0
 23
0.0
 33
0.0
 16
1.0
 26
0.0
 36
0.0
 17
0.0
 27
1.0
 37
0.0
 76
     0
330
23
  0
LAYOUT
  5
22
102
{ACAD_REACTORS
330
1A
102
}
330
1A
100
AcDbPlotSettings
  1

  2
none_device
  4
Letter_(8.50_x_11.00_Inches)
  6

 40
6.35
 41
6.35
 42
6.35000508
 43
6.35000508
 44
215.9
 45
279.4
 46
0.0
 47
0.0
 48
0.0
 49
0.0
140
0.0
141
0.0
142
1.0
143
1.0
 70
  1712
 72
     1
 73
     0
 74
     0
  7

 75
     0
147
1.0
148
0.0
149
0.0
100
AcDbLayout
  1
Model
 70
     1
 71
     0
 10
0.0
 20
0.0
 11
215.9
 21
139.7
 12
0.0
 22
0.0
 32
0.0
 14
0.0
 24
0.0
 34
0.0
 15
215.9
 25
139.7
 35
0.0
146
0.0
 13
0.0
 23
0.0
 33
0.0
 16
1.0
 26
0.0
 36
0.0
 17
0.0
 27
1.0
 37
0.0
 76
     0
330
1F
331
29
  0
MLINESTYLE
  5
18
102
{ACAD_REACTORS
330
17
102
}
330
17
100
AcDbMlineStyle
  2
Standard
 70
     0
  3

 62
   256
 51
90.0
 52
90.0
 71
     2
 49
0.5
 62
   256
  6
BYLAYER
 49
-0.5
 62
   256
  6
BYLAYER
  0
ACDBPLACEHOLDER
  5
F
102
{ACAD_REACTORS
330
E
102
}
330
E
  0
SCALE
  5
48
102
{ACAD_REACTORS
330
47
102
}
330
47
100
AcDbScale
 70
     0
300
1:1
140
1.0
141
1.0
290
     1
  0
SCALE
  5
49
102
{ACAD_REACTORS
330
47
102
}
330
47
100
AcDbScale
 70
     0
300
1:2
140
1.0
141
2.0
290
     0
  0
SCALE
  5
4A
102
{ACAD_REACTORS
330
47
102
}
330
47
100
AcDbScale
 70
     0
300
1:4
140
1.0
141
4.0
290
     0
  0
SCALE
  5
4B
102
{ACAD_REACTORS
330
47
102
}
330
47
100
AcDbScale
 70
     0
300
1:5
140
1.0
141
5.0
290
     0
  0
SCALE
  5
4C
102
{ACAD_REACTORS
330
47
102
}
330
47
100
AcDbScale
 70
     0
300
1:8
140
1.0
141
8.0
290
     0
  0
SCALE
  5
4D
102
{ACAD_REACTORS
330
47
102
}
330
47
100
AcDbScale
 70
     0
300
1:10
140
1.0
141
10.0
290
     0
  0
SCALE
  5
4E
102
{ACAD_REACTORS
330
47
102
}
330
47
100
AcDbScale
 70
     0
300
1:16
140
1.0
141
16.0
290
     0
  0
SCALE
  5
4F
102
{ACAD_REACTORS
330
47
102
}
330
47
100
AcDbScale
 70
     0
300
1:20
140
1.0
141
20.0
290
     0
  0
SCALE
  5
50
102
{ACAD_REACTORS
330
47
102
}
330
47
100
AcDbScale
 70
     0
300
1:30
140
1.0
141
30.0
290
     0
  0
SCALE
  5
51
102
{ACAD_REACTORS
330
47
102
}
330
47
100
AcDbScale
 70
     0
300
1:40
140
1.0
141
40.0
290
     0
  0
SCALE
  5
52
102
{ACAD_REACTORS
330
47
102
}
330
47
100
AcDbScale
 70
     0
300
1:50
140
1.0
141
50.0
290
     0
  0
SCALE
  5
53
102
{ACAD_REACTORS
330
47
102
}
330
47
100
AcDbScale
 70
     0
300
1:100
140
1.0
141
100.0
290
     0
  0
SCALE
  5
54
102
{ACAD_REACTORS
330
47
102
}
330
47
100
AcDbScale
 70
     0
300
2:1
140
2.0
141
1.0
290
     0
  0
SCALE
  5
55
102
{ACAD_REACTORS
330
47
102
}
330
47
100
AcDbScale
 70
     0
300
4:1
140
4.0
141
1.0
290
     0
  0
SCALE
  5
56
102
{ACAD_REACTORS
330
47
102
}
330
47
100
AcDbScale
 70
     0
300
8:1
140
8.0
141
1.0
290
     0
  0
SCALE
  5
57
102
{ACAD_REACTORS
330
47
102
}
330
47
100
AcDbScale
 70
     0
300
10:1
140
10.0
141
1.0
290
     0
  0
SCALE
  5
58
102
{ACAD_REACTORS
330
47
102
}
330
47
100
AcDbScale
 70
     0
300
100:1
140
100.0
141
1.0
290
     0
  0
ENDSEC
  0
EOF
