  0
SECTION
  2
HEADER
  9
$ACADVER
  1
AC1015
  9
$ACADMAINTVER
 70
     6
  9
$DWGCODEPAGE
  3
DOS932
  9
$INSBASE
 10
0.0
 20
0.0
 30
0.0
  9
$EXTMIN
 10
0.0
 20
0.0
 30
0.0
  9
$EXTMAX
 10
215.9
 20
139.7
 30
0.0
  9
$LIMMIN
 10
0.0
 20
0.0
  9
$LIMMAX
 10
215.9
 20
139.7
  9
$ORTHOMODE
 70
     0
  9
$REGENMODE
 70
     1
  9
$FILLMODE
 70
     1
  9
$QTEXTMODE
 70
     0
  9
$MIRRTEXT
 70
     1
  9
$LTSCALE
 40
0.5
  9
$ATTMODE
 70
     1
  9
$TEXTSIZE
 40
1.75
  9
$TRACEWID
 40
1.0
  9
$TEXTSTYLE
  7
Standard
  9
$CLAYER
  8
0
  9
$CELTYPE
  6
ByLayer
  9
$CECOLOR
 62
   256
  9
$CELTSCALE
 40
1.0
  9
$DISPSILH
 70
     0
  9
$DIMSCALE
 40
1.0
  9
$DIMASZ
 40
1.778
  9
$DIMEXO
 40
0.5
  9
$DIMDLI
 40
3.75
  9
$DIMRND
 40
0.0
  9
$DIMDLE
 40
0.0
  9
$DIMEXE
 40
0.5
  9
$DIMTP
 40
0.0
  9
$DIMTM
 40
0.0
  9
$DIMTXT
 40
1.75
  9
$DIMCEN
 40
2.5
  9
$DIMTSZ
 40
0.0
  9
$DIMTOL
 70
     0
  9
$DIMLIM
 70
     0
  9
$DIMTIH
 70
     1
  9
$DIMTOH
 70
     1
  9
$DIMSE1
 70
     0
  9
$DIMSE2
 70
     0
  9
$DIMTAD
 70
     1
  9
$DIMZIN
 70
     0
  9
$DIMBLK
  1

  9
$DIMASO
 70
     1
  9
$DIMSHO
 70
     1
  9
$DIMPOST
  1

  9
$DIMAPOST
  1

  9
$DIMALT
 70
     0
  9
$DIMALTD
 70
     3
  9
$DIMALTF
 40
0.0393700787
  9
$DIMLFAC
 40
1.0
  9
$DIMTOFL
 70
     1
  9
$DIMTVP
 40
0.0
  9
$DIMTIX
 70
     0
  9
$DIMSOXD
 70
     0
  9
$DIMSAH
 70
     0
  9
$DIMBLK1
  1

  9
$DIMBLK2
  1

  9
$DIMSTYLE
  2
ISO-25
  9
$DIMCLRD
 70
     0
  9
$DIMCLRE
 70
     0
  9
$DIMCLRT
 70
     0
  9
$DIMTFAC
 40
1.0
  9
$DIMGAP
 40
0.762
  9
$DIMJUST
 70
     0
  9
$DIMSD1
 70
     0
  9
$DIMSD2
 70
     0
  9
$DIMTOLJ
 70
     0
  9
$DIMTZIN
 70
     0
  9
$DIMALTZ
 70
     0
  9
$DIMALTTZ
 70
     0
  9
$DIMUPT
 70
     0
  9
$DIMDEC
 70
     3
  9
$DIMTDEC
 70
     3
  9
$DIMALTU
 70
     2
  9
$DIMALTTD
 70
     3
  9
$DIMTXSTY
  7
Standard
  9
$DIMAUNIT
 70
     0
  9
$DIMADEC
 70
     2
  9
$DIMALTRND
 40
0.0
  9
$DIMAZIN
 70
     0
  9
$DIMDSEP
 70
    44
  9
$DIMATFIT
 70
     3
  9
$DIMFRAC
 70
     0
  9
$DIMLDRBLK
  1

  9
$DIMLUNIT
 70
     2
  9
$DIMLWD
 70
    -2
  9
$DIMLWE
 70
    -2
  9
$DIMTMOVE
 70
     0
  9
$LUNITS
 70
     2
  9
$LUPREC
 70
     3
  9
$SKETCHINC
 40
1.0
  9
$FILLETRAD
 40
0.0
  9
$AUNITS
 70
     0
  9
$AUPREC
 70
     2
  9
$MENU
  1
.
  9
$ELEVATION
 40
0.0
  9
$PELEVATION
 40
0.0
  9
$THICKNESS
 40
0.0
  9
$LIMCHECK
 70
     0
  9
$CHAMFERA
 40
0.0
  9
$CHAMFERB
 40
0.0
  9
$CHAMFERC
 40
0.0
  9
$CHAMFERD
 40
0.0
  9
$SKPOLY
 70
     0
  9
$TDCREATE
 40
2460279.650858472
  9
$TDUCREATE
 40
2460279.275858472
  9
$TDUPDATE
 40
2460279.650859063
  9
$TDUUPDATE
 40
2460279.275859063
  9
$TDINDWG
 40
0.0000000116
  9
$TDUSRTIMER
 40
0.0000000116
  9
$USRTIMER
 70
     1
  9
$ANGBASE
 50
0.0
  9
$ANGDIR
 70
     0
  9
$PDMODE
 70
     0
  9
$PDSIZE
 40
-1.0
  9
$PLINEWID
 40
0.0
  9
$SPLFRAME
 70
     0
  9
$SPLINETYPE
 70
     6
  9
$SPLINESEGS
 70
     8
  9
$HANDSEED
  5
1D8
  9
$SURFTAB1
 70
     6
  9
$SURFTAB2
 70
     6
  9
$SURFTYPE
 70
     6
  9
$SURFU
 70
     6
  9
$SURFV
 70
     6
  9
$UCSBASE
  2

  9
$UCSNAME
  2

  9
$UCSORG
 10
0.0
 20
0.0
 30
0.0
  9
$UCSXDIR
 10
1.0
 20
0.0
 30
0.0
  9
$UCSYDIR
 10
0.0
 20
1.0
 30
0.0
  9
$UCSORTHOREF
  2

  9
$UCSORTHOVIEW
 70
     0
  9
$UCSORGTOP
 10
0.0
 20
0.0
 30
0.0
  9
$UCSORGBOTTOM
 10
0.0
 20
0.0
 30
0.0
  9
$UCSORGLEFT
 10
0.0
 20
0.0
 30
0.0
  9
$UCSORGRIGHT
 10
0.0
 20
0.0
 30
0.0
  9
$UCSORGFRONT
 10
0.0
 20
0.0
 30
0.0
  9
$UCSORGBACK
 10
0.0
 20
0.0
 30
0.0
  9
$PUCSBASE
  2

  9
$PUCSNAME
  2

  9
$PUCSORG
 10
0.0
 20
0.0
 30
0.0
  9
$PUCSXDIR
 10
1.0
 20
0.0
 30
0.0
  9
$PUCSYDIR
 10
0.0
 20
1.0
 30
0.0
  9
$PUCSORTHOREF
  2

  9
$PUCSORTHOVIEW
 70
     0
  9
$PUCSORGTOP
 10
0.0
 20
0.0
 30
0.0
  9
$PUCSORGBOTTOM
 10
0.0
 20
0.0
 30
0.0
  9
$PUCSORGLEFT
 10
0.0
 20
0.0
 30
0.0
  9
$PUCSORGRIGHT
 10
0.0
 20
0.0
 30
0.0
  9
$PUCSORGFRONT
 10
0.0
 20
0.0
 30
0.0
  9
$PUCSORGBACK
 10
0.0
 20
0.0
 30
0.0
  9
$USERI1
 70
     0
  9
$USERI2
 70
     0
  9
$USERI3
 70
     0
  9
$USERI4
 70
     0
  9
$USERI5
 70
     0
  9
$USERR1
 40
0.0
  9
$USERR2
 40
0.0
  9
$USERR3
 40
0.0
  9
$USERR4
 40
0.0
  9
$USERR5
 40
0.0
  9
$WORLDVIEW
 70
     1
  9
$SHADEDGE
 70
     3
  9
$SHADEDIF
 70
    70
  9
$TILEMODE
 70
     1
  9
$MAXACTVP
 70
    64
  9
$PINSBASE
 10
0.0
 20
0.0
 30
0.0
  9
$PLIMCHECK
 70
     0
  9
$PEXTMIN
 10
1.0000000000E+20
 20
1.0000000000E+20
 30
1.0000000000E+20
  9
$PEXTMAX
 10
-1.0000000000E+20
 20
-1.0000000000E+20
 30
-1.0000000000E+20
  9
$PLIMMIN
 10
0.0
 20
0.0
  9
$PLIMMAX
 10
420.0
 20
297.0
  9
$UNITMODE
 70
     0
  9
$VISRETAIN
 70
     1
  9
$PLINEGEN
 70
     0
  9
$PSLTSCALE
 70
     1
  9
$TREEDEPTH
 70
  3020
  9
$CMLSTYLE
  2
Standard
  9
$CMLJUST
 70
     0
  9
$CMLSCALE
 40
20.0
  9
$PROXYGRAPHICS
 70
     1
  9
$MEASUREMENT
 70
     1
  9
$CELWEIGHT
370
    -1
  9
$ENDCAPS
280
     0
  9
$JOINSTYLE
280
     0
  9
$LWDISPLAY
290
     1
  9
$INSUNITS
 70
     4
  9
$HYPERLINKBASE
  1

  9
$STYLESHEET
  1

  9
$XEDIT
290
     1
  9
$CEPSNTYPE
380
     0
  9
$PSTYLEMODE
290
     1
  9
$FINGERPRINTGUID
  2
{a98b9859-ae73-4208-bf9b-6033957b72be}
  9
$VERSIONGUID
  2
{FAEB1C32-E019-11D5-929B-00C0DF256EC4}
  9
$EXTNAMES
290
     1
  9
$PSVPSCALE
 40
0.0
  9
$OLESTARTUP
290
     0
  0
ENDSEC
  0
SECTION
  2
CLASSES
  0
CLASS
  1
ACDBDICTIONARYWDFLT
  2
AcDbDictionaryWithDefault
  3
ObjectDBX Classes
 90
        0
280
     0
281
     0
  0
CLASS
  1
VISUALSTYLE
  2
AcDbVisualStyle
  3
ObjectDBX Classes
 90
     4095
280
     0
281
     0
  0
CLASS
  1
MATERIAL
  2
AcDbMaterial
  3
ObjectDBX Classes
 90
     1153
280
     0
281
     0
  0
CLASS
  1
SCALE
  2
AcDbScale
  3
ObjectDBX Classes
 90
     1153
280
     0
281
     0
  0
CLASS
  1
TABLESTYLE
  2
AcDbTableStyle
  3
ObjectDBX Classes
 90
     4095
280
     0
281
     0
  0
CLASS
  1
MLEADERSTYLE
  2
AcDbMLeaderStyle
  3
ACDB_MLEADERSTYLE_CLASS
 90
     4095
280
     0
281
     0
  0
CLASS
  1
SUN
  2
AcDbSun
  3
SCENEOE
 90
     1153
280
     0
281
     0
  0
CLASS
  1
ACDBPLACEHOLDER
  2
AcDbPlaceHolder
  3
ObjectDBX Classes
 90
        0
280
     0
281
     0
  0
CLASS
  1
LAYOUT
  2
AcDbLayout
  3
ObjectDBX Classes
 90
        0
280
     0
281
     0
  0
ENDSEC
  0
SECTION
  2
TABLES
  0
TABLE
  2
VPORT
  5
8
330
0
100
AcDbSymbolTable
 70
     1
  0
VPORT
  5
29
330
8
100
AcDbSymbolTableRecord
100
AcDbViewportTableRecord
  2
*Active
 70
     0
 10
0.0
 20
0.0
 11
1.0
 21
1.0
 12
107.95
 22
69.85
 13
0.0
 23
0.0
 14
10.0
 24
10.0
 15
10.0
 25
10.0
 16
0.0
 26
0.0
 36
1.0
 17
0.0
 27
0.0
 37
0.0
 40
139.7
 41
1.5454545455
 42
50.0
 43
0.0
 44
0.0
 50
0.0
 51
0.0
 71
     0
 72
  2000
 73
     1
 74
     3
 75
     0
 76
     0
 77
     0
 78
     0
281
     0
 65
     1
110
0.0
120
0.0
130
0.0
111
1.0
121
0.0
131
0.0
112
0.0
122
1.0
132
0.0
 79
     0
146
0.0
  0
ENDTAB
  0
TABLE
  2
LTYPE
  5
5
330
0
100
AcDbSymbolTable
 70
     6
  0
LTYPE
  5
14
330
5
100
AcDbSymbolTableRecord
100
AcDbLinetypeTableRecord
  2
ByBlock
 70
     0
  3

 72
    65
 73
     0
 40
0.0
  0
LTYPE
  5
15
330
5
100
AcDbSymbolTableRecord
100
AcDbLinetypeTableRecord
  2
ByLayer
 70
     0
  3

 72
    65
 73
     0
 40
0.0
  0
LTYPE
  5
16
330
5
100
AcDbSymbolTableRecord
100
AcDbLinetypeTableRecord
  2
Continuous
 70
     0
  3
Solid line
 72
    65
 73
     0
 40
0.0
  0
LTYPE
  5
5E
330
5
100
AcDbSymbolTableRecord
100
AcDbLinetypeTableRecord
  2
HIDDEN
 70
     0
  3
Hidden __ __ __ __ __ __ __ __ __ __ __ __ __ __
 72
    65
 73
     2
 40
1.905
 49
1.27
 74
     0
 49
-0.635
 74
     0
  0
LTYPE
  5
5F
330
5
100
AcDbSymbolTableRecord
100
AcDbLinetypeTableRecord
  2
PHANTOM
 70
     0
  3
Phantom ______  __  __  ______  __  __  ______
 72
    65
 73
     6
 40
12.7
 49
6.35
 74
     0
 49
-1.27
 74
     0
 49
1.27
 74
     0
 49
-1.27
 74
     0
 49
1.27
 74
     0
 49
-1.27
 74
     0
  0
LTYPE
  5
60
330
5
100
AcDbSymbolTableRecord
100
AcDbLinetypeTableRecord
  2
CENTER
 70
     0
  3
Center ____ _ ____ _ ____ _ ____ _ ____ _ ____
 72
    65
 73
     4
 40
10.16
 49
6.35
 74
     0
 49
-1.27
 74
     0
 49
1.27
 74
     0
 49
-1.27
 74
     0
  0
LTYPE
  5
61
330
5
100
AcDbSymbolTableRecord
100
AcDbLinetypeTableRecord
  2
CENTERX2
 70
     0
  3
Center (2x) ________  __  ________  __  _____
 72
    65
 73
     4
 40
20.32
 49
12.7
 74
     0
 49
-2.54
 74
     0
 49
2.54
 74
     0
 49
-2.54
 74
     0
  0
LTYPE
  5
62
330
5
100
AcDbSymbolTableRecord
100
AcDbLinetypeTableRecord
  2
DOT2
 70
     0
  3
Dot (.5x) ........................................
 72
    65
 73
     2
 40
0.635
 49
0.0
 74
     0
 49
-0.635
 74
     0
  0
ENDTAB
  0
TABLE
  2
LAYER
  5
2
330
0
100
AcDbSymbolTable
 70
     1
  0
LAYER
  5
10
330
2
100
AcDbSymbolTableRecord
100
AcDbLayerTableRecord
  2
0
 70
     0
 62
     7
  6
Continuous
370
    -3
390
F
  0
ENDTAB
  0
TABLE
  2
STYLE
  5
3
330
0
100
AcDbSymbolTable
 70
     2
  0
STYLE
  5
11
330
3
100
AcDbSymbolTableRecord
100
AcDbTextStyleTableRecord
  2
Standard
 70
     0
 40
0.0
 41
1.0
 50
0.0
 71
     0
 42
1.75
  3
txt
  4
bigfont
  0
STYLE
  5
1C9
330
3
100
AcDbSymbolTableRecord
100
AcDbTextStyleTableRecord
  2
SLDTEXTSTYLE0
 70
     0
 40
0.0
 41
0.75
 50
0.0
 71
     0
 42
1.75
  3
TXT
  4
bigfont
  0
ENDTAB
  0
TABLE
  2
VIEW
  5
6
330
0
100
AcDbSymbolTable
 70
     0
  0
ENDTAB
  0
TABLE
  2
UCS
  5
7
330
0
100
AcDbSymbolTable
 70
     0
  0
ENDTAB
  0
TABLE
  2
APPID
  5
9
330
0
100
AcDbSymbolTable
 70
     1
  0
APPID
  5
12
330
9
100
AcDbSymbolTableRecord
100
AcDbRegAppTableRecord
  2
ACAD
 70
     0
  0
ENDTAB
  0
TABLE
  2
DIMSTYLE
  5
A
330
0
100
AcDbSymbolTable
 70
     1
100
AcDbDimStyleTable
  0
DIMSTYLE
105
27
330
A
100
AcDbSymbolTableRecord
100
AcDbDimStyleTableRecord
  2
ISO-25
 70
     0
 41
2.5
 42
0.625
 43
3.75
 44
1.25
 73
     0
 74
     0
 77
     1
 78
     8
140
2.5
141
2.5
143
0.0393700787
147
0.625
171
     3
172
     1
178
     0
271
     2
272
     2
274
     3
278
    44
283
     0
284
     8
340
11
  0
ENDTAB
  0
TABLE
  2
BLOCK_RECORD
  5
1
330
0
100
AcDbSymbolTable
 70
     3
  0
BLOCK_RECORD
  5
1F
330
1
100
AcDbSymbolTableRecord
100
AcDbBlockTableRecord
  2
*Model_Space
340
22
  0
BLOCK_RECORD
  5
1B
330
1
100
AcDbSymbolTableRecord
100
AcDbBlockTableRecord
  2
*Paper_Space
340
1E
  0
BLOCK_RECORD
  5
23
330
1
100
AcDbSymbolTableRecord
100
AcDbBlockTableRecord
  2
*Paper_Space0
340
26
  0
BLOCK_RECORD
  5
171
330
1
100
AcDbSymbolTableRecord
100
AcDbBlockTableRecord
  2
SW_CENTERMARKSYMBOL_0
340
0
102
{BLKREFS
331
17C
102
}
  0
BLOCK_RECORD
  5
1CB
330
1
100
AcDbSymbolTableRecord
100
AcDbBlockTableRecord
  2
SW_CENTERMARKSYMBOL_1
340
0
102
{BLKREFS
331
1D6
102
}
  0
ENDTAB
  0
ENDSEC
  0
SECTION
  2
BLOCKS
  0
BLOCK
  5
20
330
1F
100
AcDbEntity
  8
0
100
AcDbBlockBegin
  2
*Model_Space
 70
     0
 10
0.0
 20
0.0
 30
0.0
  3
*Model_Space
  1

  0
ENDBLK
  5
21
330
1F
100
AcDbEntity
  8
0
100
AcDbBlockEnd
  0
BLOCK
  5
1C
330
1B
100
AcDbEntity
 67
     1
  8
0
100
AcDbBlockBegin
  2
*Paper_Space
 70
     0
 10
0.0
 20
0.0
 30
0.0
  3
*Paper_Space
  1

  0
ENDBLK
  5
1D
330
1B
100
AcDbEntity
 67
     1
  8
0
100
AcDbBlockEnd
  0
BLOCK
  5
24
330
23
100
AcDbEntity
  8
0
100
AcDbBlockBegin
  2
*Paper_Space0
 70
     0
 10
0.0
 20
0.0
 30
0.0
  3
*Paper_Space0
  1

  0
ENDBLK
  5
25
330
23
100
AcDbEntity
  8
0
100
AcDbBlockEnd
  0
BLOCK
  5
172
330
171
100
AcDbEntity
  8
0
100
AcDbBlockBegin
  2
SW_CENTERMARKSYMBOL_0
 70
     0
 10
0.0
 20
0.0
 30
0.0
  3
SW_CENTERMARKSYMBOL_0
  1

  0
LINE
  5
174
330
171
100
AcDbEntity
  8
0
  6
Continuous
 62
     0
370
    18
100
AcDbLine
 10
0.0
 20
0.0
 30
0.0
 11
0.0
 21
2.5
 31
0.0
  0
LINE
  5
175
330
171
100
AcDbEntity
  8
0
  6
Continuous
 62
     0
370
    18
100
AcDbLine
 10
0.0
 20
0.0
 30
0.0
 11
-2.5
 21
0.0
 31
0.0
  0
LINE
  5
176
330
171
100
AcDbEntity
  8
0
  6
Continuous
 62
     0
370
    18
100
AcDbLine
 10
0.0
 20
0.0
 30
0.0
 11
0.0
 21
-2.5
 31
0.0
  0
LINE
  5
177
330
171
100
AcDbEntity
  8
0
  6
Continuous
 62
     0
370
    18
100
AcDbLine
 10
0.0
 20
0.0
 30
0.0
 11
2.5
 21
0.0
 31
0.0
  0
LINE
  5
178
330
171
100
AcDbEntity
  8
0
  6
Continuous
 62
     0
370
    18
100
AcDbLine
 10
0.0
 20
5.0
 30
0.0
 11
0.0
 21
21.5000728463
 31
0.0
  0
LINE
  5
179
330
171
100
AcDbEntity
  8
0
  6
Continuous
 62
     0
370
    18
100
AcDbLine
 10
-5.0
 20
0.0
 30
0.0
 11
-8.25
 21
0.0
 31
0.0
  0
LINE
  5
17A
330
171
100
AcDbEntity
  8
0
  6
Continuous
 62
     0
370
    18
100
AcDbLine
 10
0.0
 20
-5.0
 30
0.0
 11
0.0
 21
-8.25
 31
0.0
  0
LINE
  5
17B
330
171
100
AcDbEntity
  8
0
  6
Continuous
 62
     0
370
    18
100
AcDbLine
 10
5.0
 20
0.0
 30
0.0
 11
8.25
 21
0.0
 31
0.0
  0
ENDBLK
  5
173
330
171
100
AcDbEntity
  8
0
100
AcDbBlockEnd
  0
BLOCK
  5
1CC
330
1CB
100
AcDbEntity
  8
0
100
AcDbBlockBegin
  2
SW_CENTERMARKSYMBOL_1
 70
     0
 10
0.0
 20
0.0
 30
0.0
  3
SW_CENTERMARKSYMBOL_1
  1

  0
LINE
  5
1CE
330
1CB
100
AcDbEntity
  8
0
  6
Continuous
 62
     0
370
    18
100
AcDbLine
 10
0.0
 20
0.0
 30
0.0
 11
0.0
 21
2.5
 31
0.0
  0
LINE
  5
1CF
330
1CB
100
AcDbEntity
  8
0
  6
Continuous
 62
     0
370
    18
100
AcDbLine
 10
0.0
 20
0.0
 30
0.0
 11
-2.5
 21
0.0
 31
0.0
  0
LINE
  5
1D0
330
1CB
100
AcDbEntity
  8
0
  6
Continuous
 62
     0
370
    18
100
AcDbLine
 10
0.0
 20
0.0
 30
0.0
 11
0.0
 21
-2.5
 31
0.0
  0
LINE
  5
1D1
330
1CB
100
AcDbEntity
  8
0
  6
Continuous
 62
     0
370
    18
100
AcDbLine
 10
0.0
 20
0.0
 30
0.0
 11
2.5
 21
0.0
 31
0.0
  0
LINE
  5
1D2
330
1CB
100
AcDbEntity
  8
0
  6
Continuous
 62
     0
370
    18
100
AcDbLine
 10
0.0
 20
5.0
 30
0.0
 11
0.0
 21
8.25
 31
0.0
  0
LINE
  5
1D3
330
1CB
100
AcDbEntity
  8
0
  6
Continuous
 62
     0
370
    18
100
AcDbLine
 10
-5.0
 20
0.0
 30
0.0
 11
-8.25
 21
0.0
 31
0.0
  0
LINE
  5
1D4
330
1CB
100
AcDbEntity
  8
0
  6
Continuous
 62
     0
370
    18
100
AcDbLine
 10
0.0
 20
-5.0
 30
0.0
 11
0.0
 21
-8.25
 31
0.0
  0
LINE
  5
1D5
330
1CB
100
AcDbEntity
  8
0
  6
Continuous
 62
     0
370
    18
100
AcDbLine
 10
5.0
 20
0.0
 30
0.0
 11
21.907936998
 21
0.0
 31
0.0
  0
ENDBLK
  5
1CD
330
1CB
100
AcDbEntity
  8
0
100
AcDbBlockEnd
  0
ENDSEC
  0
SECTION
  2
ENTITIES
  0
LINE
  5
63
330
1F
100
AcDbEntity
  8
0
  6
Continuous
 62
     7
370
    25
100
AcDbLine
 10
21.9539235846
 20
33.5628437561
 30
0.0
 11
20.7757203543
 21
34.2430797083
 31
0.0
  0
LINE
  5
64
330
1F
100
AcDbEntity
  8
0
  6
Continuous
 62
     7
370
    25
100
AcDbLine
 10
9.2757203543
 20
34.2430797083
 30
0.0
 11
8.0975171241
 21
33.5628437561
 31
0.0
  0
LINE
  5
65
330
1F
100
AcDbEntity
  8
0
  6
Continuous
 62
     7
370
    25
100
AcDbLine
 10
8.0975171241
 20
23.9233156604
 30
0.0
 11
9.2757203543
 21
23.2430797083
 31
0.0
  0
LINE
  5
66
330
1F
100
AcDbEntity
  8
0
  6
Continuous
 62
     7
370
    25
100
AcDbLine
 10
20.7757203543
 20
23.2430797083
 30
0.0
 11
21.9539235846
 21
23.9233156604
 31
0.0
  0
LINE
  5
67
330
1F
100
AcDbEntity
  8
0
  6
Continuous
 62
     7
370
    25
100
AcDbLine
 10
24.4542902567
 20
21.4229489884
 30
0.0
 11
23.7740543045
 21
20.2447457581
 31
0.0
  0
LINE
  5
68
330
1F
100
AcDbEntity
  8
0
  6
Continuous
 62
     7
370
    25
100
AcDbLine
 10
23.7740543045
 20
8.7447457581
 30
0.0
 11
24.4542902567
 21
7.5665425279
 31
0.0
  0
LINE
  5
69
330
1F
100
AcDbEntity
  8
0
  6
Continuous
 62
     7
370
    25
100
AcDbLine
 10
34.0938183523
 20
7.5665425279
 30
0.0
 11
34.7740543045
 21
8.7447457581
 31
0.0
  0
LINE
  5
6A
330
1F
100
AcDbEntity
  8
0
  6
Continuous
 62
     7
370
    25
100
AcDbLine
 10
34.7740543045
 20
20.2447457581
 30
0.0
 11
34.0938183523
 21
21.4229489884
 31
0.0
  0
LINE
  5
6B
330
1F
100
AcDbEntity
  8
0
  6
Continuous
 62
     7
370
    25
100
AcDbLine
 10
23.7740543045
 20
19.3587457581
 30
0.0
 11
23.0257203543
 21
19.3587457581
 31
0.0
  0
LINE
  5
6C
330
1F
100
AcDbEntity
  8
0
  6
Continuous
 62
     7
370
    25
100
AcDbLine
 10
23.0257203543
 20
9.6307457581
 30
0.0
 11
23.7740543045
 21
9.6307457581
 31
0.0
  0
LINE
  5
6D
330
1F
100
AcDbEntity
  8
0
  6
Continuous
 62
     7
370
    25
100
AcDbLine
 10
10.1617203543
 20
23.2430797083
 30
0.0
 11
10.1617203543
 21
22.4947457581
 31
0.0
  0
LINE
  5
6E
330
1F
100
AcDbEntity
  8
0
  6
Continuous
 62
     7
370
    25
100
AcDbLine
 10
19.8897203543
 20
22.4947457581
 30
0.0
 11
19.8897203543
 21
23.2430797083
 31
0.0
  0
ARC
  5
6F
330
1F
100
AcDbEntity
  8
0
  6
Continuous
 62
     7
370
    25
100
AcDbCircle
 10
22.7257203543
 20
19.2947457581
 30
0.0
 40
0.3000000000000043
100
AcDbArc
 50
270.0
 51
0.0
  0
ARC
  5
70
330
1F
100
AcDbEntity
  8
0
  6
Continuous
 62
     7
370
    25
100
AcDbCircle
 10
22.7257203543
 20
9.6947457581
 30
0.0
 40
0.3000000000000043
100
AcDbArc
 50
0.0
 51
90.0
  0
ARC
  5
71
330
1F
100
AcDbEntity
  8
0
  6
Continuous
 62
     7
370
    25
100
AcDbCircle
 10
10.2257203543
 20
22.1947457581
 30
0.0
 40
0.2999999999999989
100
AcDbArc
 50
0.0
 51
90.0
  0
ARC
  5
72
330
1F
100
AcDbEntity
  8
0
  6
Continuous
 62
     7
370
    25
100
AcDbCircle
 10
19.8257203543
 20
22.1947457581
 30
0.0
 40
0.2999999999999972
100
AcDbArc
 50
90.0
 51
180.0
  0
LINE
  5
73
330
1F
100
AcDbEntity
  8
0
  6
Continuous
 62
     7
370
    25
100
AcDbLine
 10
19.5257203543
 20
18.9947457581
 30
0.0
 11
19.5257203543
 21
22.1947457581
 31
0.0
  0
LINE
  5
74
330
1F
100
AcDbEntity
  8
0
  6
Continuous
 62
     7
370
    25
100
AcDbLine
 10
10.5257203543
 20
22.1947457581
 30
0.0
 11
10.5257203543
 21
11.9947457581
 31
0.0
  0
LINE
  5
75
330
1F
100
AcDbEntity
  8
0
  6
Continuous
 62
     7
370
    25
100
AcDbLine
 10
12.5257203543
 20
9.9947457581
 30
0.0
 11
22.7257203543
 21
9.9947457581
 31
0.0
  0
LINE
  5
76
330
1F
100
AcDbEntity
  8
0
  6
Continuous
 62
     7
370
    25
100
AcDbLine
 10
22.7257203543
 20
18.9947457581
 30
0.0
 11
19.5257203543
 21
18.9947457581
 31
0.0
  0
ARC
  5
77
330
1F
100
AcDbEntity
  8
0
  6
Continuous
 62
     7
370
    25
100
AcDbCircle
 10
12.5257203543
 20
11.9947457581
 30
0.0
 40
2.0
100
AcDbArc
 50
179.6726889221
 51
270.3378193638
  0
SPLINE
  5
78
330
1F
100
AcDbEntity
  8
0
  6
Continuous
 62
     7
370
    25
100
AcDbSpline
210
0.0
220
0.0
230
1.0
 70
     8
 71
     3
 72
    15
 73
    11
 74
     0
 42
0.00000001
 43
0.00000001
 40
0.0
 40
0.0
 40
0.0
 40
0.0
 40
0.132303428408876
 40
0.2645694515465831
 40
0.3997942148562106
 40
0.5349945762150156
 40
0.650187261301705
 40
0.7653979157221156
 40
0.8826876171264835
 40
1.0
 40
1.0
 40
1.0
 40
1.0
 10
11.56161873920555
 20
33.56284375612854
 30
0.0
 10
11.411957823484
 20
33.64442150648468
 30
0.0
 10
11.11267830467937
 20
33.80755394326043
 30
0.0
 10
10.65181456981785
 20
33.98307938091745
 30
0.0
 10
10.18226361866321
 20
34.08861987200861
 30
0.0
 10
9.729717437896083
 20
34.10952514240655
 30
0.0
 10
9.30161548727579
 20
34.05530176125324
 30
0.0
 10
8.897587919725193
 20
33.94418974588036
 30
0.0
 10
8.49538701438069
 20
33.78119839450191
 30
0.0
 10
8.230148968629479
 20
33.63563332669214
 30
0.0
 10
8.097517124067803
 20
33.56284375612856
 30
0.0
  0
SPLINE
  5
79
330
1F
100
AcDbEntity
  8
0
  6
Continuous
 62
     7
370
    25
100
AcDbSpline
210
0.0
220
0.0
230
1.0
 70
     8
 71
     3
 72
    15
 73
    11
 74
     0
 42
0.00000001
 43
0.00000001
 40
0.0
 40
0.0
 40
0.0
 40
0.0
 40
0.1323034284088744
 40
0.2645694515465796
 40
0.3997942148562055
 40
0.5349945762150087
 40
0.6501872613016997
 40
0.7653979157221118
 40
0.8826876171264815
 40
1.0
 40
1.0
 40
1.0
 40
1.0
 10
21.95392358461883
 20
33.5628437561285
 30
0.0
 10
21.80426266889728
 20
33.64442150648464
 30
0.0
 10
21.50498315009265
 20
33.8075539432604
 30
0.0
 10
21.04411941523115
 20
33.98307938091741
 30
0.0
 10
20.57456846407651
 20
34.08861987200858
 30
0.0
 10
20.12202228330939
 20
34.10952514240654
 30
0.0
 10
19.69392033268909
 20
34.05530176125323
 30
0.0
 10
19.28989276513849
 20
33.94418974588033
 30
0.0
 10
18.88769185979397
 20
33.78119839450189
 30
0.0
 10
18.62245381404276
 20
33.6356333266921
 30
0.0
 10
18.48982196948108
 20
33.56284375612852
 30
0.0
  0
SPLINE
  5
7A
330
1F
100
AcDbEntity
  8
0
  6
Continuous
 62
     7
370
    25
100
AcDbSpline
210
0.0
220
0.0
230
1.0
 70
     8
 71
     3
 72
    14
 73
    10
 74
     0
 42
0.00000001
 43
0.00000001
 40
0.0
 40
0.0
 40
0.0
 40
0.0
 40
0.1130358674256961
 40
0.2387309183475702
 40
0.3643935058067621
 40
0.4931482948452618
 40
0.6219015933115536
 40
0.8099221489291575
 40
1.0
 40
1.0
 40
1.0
 40
1.0
 10
18.48982196948108
 20
33.56284375612852
 30
0.0
 10
18.23428946205665
 20
33.63309998115064
 30
0.0
 10
17.69460669096461
 20
33.78148061024773
 30
0.0
 10
16.85662565633846
 20
33.95099800765755
 30
0.0
 10
15.97262875955266
 20
34.06853387944418
 30
0.0
 10
15.07422702469818
 20
34.11137687129198
 30
0.0
 10
14.02968178617436
 20
34.07046362664295
 30
0.0
 10
12.84956072965663
 20
33.90517917206704
 30
0.0
 10
11.99248722852662
 20
33.67736874607382
 30
0.0
 10
11.56161873920555
 20
33.56284375612854
 30
0.0
  0
LINE
  5
7B
330
1F
100
AcDbEntity
  8
0
  6
Continuous
 62
     7
370
    25
100
AcDbLine
 10
15.0257203543
 20
34.2430797083
 30
0.0
 11
9.2757203543
 21
34.2430797083
 31
0.0
  0
LINE
  5
7C
330
1F
100
AcDbEntity
  8
0
  6
Continuous
 62
     7
370
    25
100
AcDbLine
 10
20.7757203543
 20
34.2430797083
 30
0.0
 11
15.0257203543
 21
34.2430797083
 31
0.0
  0
SPLINE
  5
7D
330
1F
100
AcDbEntity
  8
0
  6
Continuous
 62
     7
370
    25
100
AcDbSpline
210
0.0
220
0.0
230
1.0
 70
     8
 71
     3
 72
    14
 73
    10
 74
     0
 42
0.00000001
 43
0.00000001
 40
0.0
 40
0.0
 40
0.0
 40
0.0
 40
0.1130358674256962
 40
0.2387309183475702
 40
0.3643935058067621
 40
0.4931482948452619
 40
0.6219015933115537
 40
0.8099221489291576
 40
1.0
 40
1.0
 40
1.0
 40
1.0
 10
18.48982196948105
 20
23.92331566044782
 30
0.0
 10
18.23428946205662
 20
23.85305943542571
 30
0.0
 10
17.69460669096458
 20
23.70467880632861
 30
0.0
 10
16.85662565633843
 20
23.5351614089188
 30
0.0
 10
15.97262875955263
 20
23.41762553713216
 30
0.0
 10
15.07422702469814
 20
23.37478254528438
 30
0.0
 10
14.02968178617432
 20
23.41569578993341
 30
0.0
 10
12.8495607296566
 20
23.58098024450933
 30
0.0
 10
11.99248722852659
 20
23.80879067050255
 30
0.0
 10
11.56161873920552
 20
23.92331566044784
 30
0.0
  0
SPLINE
  5
7E
330
1F
100
AcDbEntity
  8
0
  6
Continuous
 62
     7
370
    25
100
AcDbSpline
210
0.0
220
0.0
230
1.0
 70
     8
 71
     3
 72
    15
 73
    11
 74
     0
 42
0.00000001
 43
0.00000001
 40
0.0
 40
0.0
 40
0.0
 40
0.0
 40
0.1323034284088743
 40
0.2645694515465795
 40
0.3997942148562053
 40
0.5349945762150086
 40
0.6501872613016995
 40
0.7653979157221116
 40
0.8826876171264814
 40
0.9999999999999999
 40
0.9999999999999999
 40
0.9999999999999999
 40
0.9999999999999999
 10
21.9539235846188
 20
23.92331566044781
 30
0.0
 10
21.80426266889725
 20
23.84173791009167
 30
0.0
 10
21.50498315009262
 20
23.67860547331591
 30
0.0
 10
21.04411941523112
 20
23.50308003565891
 30
0.0
 10
20.57456846407647
 20
23.39753954456773
 30
0.0
 10
20.12202228330935
 20
23.3766342741698
 30
0.0
 10
19.69392033268905
 20
23.4308576553231
 30
0.0
 10
19.28989276513845
 20
23.54196967069601
 30
0.0
 10
18.88769185979394
 20
23.70496102207444
 30
0.0
 10
18.62245381404272
 20
23.85052608988423
 30
0.0
 10
18.48982196948105
 20
23.92331566044782
 30
0.0
  0
SPLINE
  5
7F
330
1F
100
AcDbEntity
  8
0
  6
Continuous
 62
     7
370
    25
100
AcDbSpline
210
0.0
220
0.0
230
1.0
 70
     8
 71
     3
 72
    15
 73
    11
 74
     0
 42
0.00000001
 43
0.00000001
 40
0.0
 40
0.0
 40
0.0
 40
0.0
 40
0.1323034284088759
 40
0.264569451546583
 40
0.3997942148562104
 40
0.5349945762150154
 40
0.6501872613017048
 40
0.7653979157221155
 40
0.8826876171264832
 40
1.0
 40
1.0
 40
1.0
 40
1.0
 10
11.56161873920552
 20
23.92331566044784
 30
0.0
 10
11.41195782348396
 20
23.84173791009171
 30
0.0
 10
11.11267830467933
 20
23.67860547331595
 30
0.0
 10
10.65181456981782
 20
23.50308003565896
 30
0.0
 10
10.18226361866318
 20
23.39753954456778
 30
0.0
 10
9.729717437896047
 20
23.37663427416984
 30
0.0
 10
9.301615487275752
 20
23.43085765532315
 30
0.0
 10
8.89758791972516
 20
23.54196967069606
 30
0.0
 10
8.495387014380656
 20
23.70496102207449
 30
0.0
 10
8.230148968629447
 20
23.85052608988427
 30
0.0
 10
8.097517124067771
 20
23.92331566044786
 30
0.0
  0
LINE
  5
80
330
1F
100
AcDbEntity
  8
0
  6
Continuous
 62
     7
370
    25
100
AcDbLine
 10
15.0257203543
 20
23.2430797083
 30
0.0
 11
9.2757203543
 21
23.2430797083
 31
0.0
  0
LINE
  5
81
330
1F
100
AcDbEntity
  8
0
  6
Continuous
 62
     7
370
    25
100
AcDbLine
 10
20.7757203543
 20
23.2430797083
 30
0.0
 11
15.0257203543
 21
23.2430797083
 31
0.0
  0
LINE
  5
82
330
1F
100
AcDbEntity
  8
0
  6
Continuous
 62
     7
370
    25
100
AcDbLine
 10
11.5616187392
 20
23.9233156604
 30
0.0
 11
11.5616187392
 21
33.5628437561
 31
0.0
  0
LINE
  5
83
330
1F
100
AcDbEntity
  8
0
  6
Continuous
 62
     7
370
    25
100
AcDbLine
 10
18.4898219695
 20
23.9233156604
 30
0.0
 11
18.4898219695
 21
33.5628437561
 31
0.0
  0
LINE
  5
84
330
1F
100
AcDbEntity
  8
0
  6
Continuous
 62
     7
370
    25
100
AcDbLine
 10
8.0975171241
 20
23.9233156604
 30
0.0
 11
8.0975171241
 21
33.5628437561
 31
0.0
  0
LINE
  5
85
330
1F
100
AcDbEntity
  8
0
  6
Continuous
 62
     7
370
    25
100
AcDbLine
 10
21.9539235846
 20
23.9233156604
 30
0.0
 11
21.9539235846
 21
33.5628437561
 31
0.0
  0
SPLINE
  5
86
330
1F
100
AcDbEntity
  8
0
  6
Continuous
 62
     7
370
    25
100
AcDbSpline
210
0.0
220
0.0
230
1.0
 70
     8
 71
     3
 72
    15
 73
    11
 74
     0
 42
0.00000001
 43
0.00000001
 40
0.0
 40
0.0
 40
0.0
 40
0.0
 40
0.1323034284088743
 40
0.2645694515465795
 40
0.3997942148562053
 40
0.5349945762150086
 40
0.6501872613016996
 40
0.7653979157221118
 40
0.8826876171264815
 40
1.0
 40
1.0
 40
1.0
 40
1.0
 10
24.45429025666339
 20
17.95884737326546
 30
0.0
 10
24.37271250630725
 20
18.10850828898702
 30
0.0
 10
24.20958006953149
 20
18.40778780779165
 30
0.0
 10
24.03405463187449
 20
18.86865154265315
 30
0.0
 10
23.92851414078331
 20
19.33820249380779
 30
0.0
 10
23.90760887038537
 20
19.79074867457491
 30
0.0
 10
23.96183225153867
 20
20.21885062519521
 30
0.0
 10
24.07294426691157
 20
20.62287819274581
 30
0.0
 10
24.23593561829001
 20
21.02507909809032
 30
0.0
 10
24.38150068609979
 20
21.29031714384153
 30
0.0
 10
24.45429025666339
 20
21.42294898840321
 30
0.0
  0
SPLINE
  5
87
330
1F
100
AcDbEntity
  8
0
  6
Continuous
 62
     7
370
    25
100
AcDbSpline
210
0.0
220
0.0
230
1.0
 70
     8
 71
     3
 72
    15
 73
    11
 74
     0
 42
0.00000001
 43
0.00000001
 40
0.0
 40
0.0
 40
0.0
 40
0.0
 40
0.1323034284088745
 40
0.2645694515465797
 40
0.3997942148562054
 40
0.5349945762150086
 40
0.6501872613016995
 40
0.7653979157221118
 40
0.8826876171264814
 40
0.9999999999999999
 40
0.9999999999999999
 40
0.9999999999999999
 40
0.9999999999999999
 10
24.45429025666339
 20
11.03064414298994
 30
0.0
 10
24.37271250630725
 20
11.32996597443305
 30
0.0
 10
24.20958006953149
 20
11.92852501204231
 30
0.0
 10
24.0340546318745
 20
12.85025248176531
 30
0.0
 10
23.92851414078331
 20
13.7893543840746
 30
0.0
 10
23.90760887038537
 20
14.69444674560885
 30
0.0
 10
23.96183225153868
 20
15.55065064684945
 30
0.0
 10
24.07294426691157
 20
16.35870578195065
 30
0.0
 10
24.23593561829001
 20
17.16310759263968
 30
0.0
 10
24.3815006860998
 20
17.69358368414211
 30
0.0
 10
24.45429025666339
 20
17.95884737326546
 30
0.0
  0
SPLINE
  5
88
330
1F
100
AcDbEntity
  8
0
  6
Continuous
 62
     7
370
    25
100
AcDbSpline
210
0.0
220
0.0
230
1.0
 70
     8
 71
     3
 72
    14
 73
    10
 74
     0
 42
0.00000001
 43
0.00000001
 40
0.0
 40
0.0
 40
0.0
 40
0.0
 40
0.1881834863217925
 40
0.3780973734199339
 40
0.5036314984992454
 40
0.62916634383438
 40
0.7580473736630334
 40
0.886964194227096
 40
1.0
 40
1.0
 40
1.0
 40
1.0
 10
24.45429025666339
 20
7.566542527852184
 30
0.0
 10
24.34082729082789
 20
7.779813926066595
 30
0.0
 10
24.11285803485671
 20
8.208317813769986
 30
0.0
 10
23.94792324050314
 20
8.794612217495242
 30
0.0
 10
23.90628409562814
 20
9.311502692906522
 30
0.0
 10
23.94587860101799
 20
9.756965415336923
 30
0.0
 10
24.06185054832275
 20
10.20290758730213
 30
0.0
 10
24.23366575878494
 20
10.6293934623568
 30
0.0
 10
24.3840387621493
 20
10.90287746131887
 30
0.0
 10
24.45429025666339
 20
11.03064414298994
 30
0.0
  0
LINE
  5
89
330
1F
100
AcDbEntity
  8
0
  6
Continuous
 62
     7
370
    25
100
AcDbLine
 10
23.7740543045
 20
8.7447457581
 30
0.0
 11
23.7740543045
 21
20.2447457581
 31
0.0
  0
SPLINE
  5
8A
330
1F
100
AcDbEntity
  8
0
  6
Continuous
 62
     7
370
    25
100
AcDbSpline
210
0.0
220
0.0
230
1.0
 70
     8
 71
     3
 72
    14
 73
    10
 74
     0
 42
0.00000001
 43
0.00000001
 40
0.0
 40
0.0
 40
0.0
 40
0.0
 40
0.1881834863217925
 40
0.3780973734199339
 40
0.5036314984992454
 40
0.62916634383438
 40
0.7580473736630333
 40
0.8869641942270959
 40
1.0
 40
1.0
 40
1.0
 40
1.0
 10
34.09381835234408
 20
7.566542527852184
 30
0.0
 10
34.20728131817959
 20
7.779813926066595
 30
0.0
 10
34.43525057415076
 20
8.208317813769986
 30
0.0
 10
34.60018536850432
 20
8.794612217495242
 30
0.0
 10
34.64182451337933
 20
9.311502692906524
 30
0.0
 10
34.60223000798948
 20
9.756965415336921
 30
0.0
 10
34.48625806068473
 20
10.20290758730213
 30
0.0
 10
34.31444285022253
 20
10.6293934623568
 30
0.0
 10
34.16406984685817
 20
10.90287746131887
 30
0.0
 10
34.09381835234408
 20
11.03064414298994
 30
0.0
  0
SPLINE
  5
8B
330
1F
100
AcDbEntity
  8
0
  6
Continuous
 62
     7
370
    25
100
AcDbSpline
210
0.0
220
0.0
230
1.0
 70
     8
 71
     3
 72
    15
 73
    11
 74
     0
 42
0.00000001
 43
0.00000001
 40
0.0
 40
0.0
 40
0.0
 40
0.0
 40
0.1323034284088745
 40
0.2645694515465797
 40
0.3997942148562054
 40
0.5349945762150086
 40
0.6501872613016995
 40
0.7653979157221116
 40
0.8826876171264814
 40
0.9999999999999999
 40
0.9999999999999999
 40
0.9999999999999999
 40
0.9999999999999999
 10
34.09381835234408
 20
11.03064414298994
 30
0.0
 10
34.17539610270022
 20
11.32996597443305
 30
0.0
 10
34.33852853947598
 20
11.92852501204231
 30
0.0
 10
34.51405397713299
 20
12.85025248176531
 30
0.0
 10
34.61959446822416
 20
13.7893543840746
 30
0.0
 10
34.6404997386221
 20
14.69444674560885
 30
0.0
 10
34.5862763574688
 20
15.55065064684945
 30
0.0
 10
34.47516434209589
 20
16.35870578195065
 30
0.0
 10
34.31217299071746
 20
17.16310759263968
 30
0.0
 10
34.16660792290767
 20
17.69358368414211
 30
0.0
 10
34.09381835234408
 20
17.95884737326546
 30
0.0
  0
SPLINE
  5
8C
330
1F
100
AcDbEntity
  8
0
  6
Continuous
 62
     7
370
    25
100
AcDbSpline
210
0.0
220
0.0
230
1.0
 70
     8
 71
     3
 72
    15
 73
    11
 74
     0
 42
0.00000001
 43
0.00000001
 40
0.0
 40
0.0
 40
0.0
 40
0.0
 40
0.1323034284088742
 40
0.2645694515465795
 40
0.3997942148562053
 40
0.5349945762150086
 40
0.6501872613016996
 40
0.7653979157221118
 40
0.8826876171264815
 40
1.0
 40
1.0
 40
1.0
 40
1.0
 10
34.09381835234408
 20
17.95884737326546
 30
0.0
 10
34.17539610270022
 20
18.10850828898702
 30
0.0
 10
34.33852853947598
 20
18.40778780779165
 30
0.0
 10
34.51405397713298
 20
18.86865154265315
 30
0.0
 10
34.61959446822416
 20
19.33820249380779
 30
0.0
 10
34.6404997386221
 20
19.79074867457491
 30
0.0
 10
34.5862763574688
 20
20.21885062519521
 30
0.0
 10
34.47516434209589
 20
20.62287819274581
 30
0.0
 10
34.31217299071746
 20
21.02507909809032
 30
0.0
 10
34.16660792290767
 20
21.29031714384153
 30
0.0
 10
34.09381835234408
 20
21.42294898840321
 30
0.0
  0
LINE
  5
8D
330
1F
100
AcDbEntity
  8
0
  6
Continuous
 62
     7
370
    25
100
AcDbLine
 10
34.7740543045
 20
8.7447457581
 30
0.0
 11
34.7740543045
 21
20.2447457581
 31
0.0
  0
LINE
  5
8E
330
1F
100
AcDbEntity
  8
0
  6
Continuous
 62
     7
370
    25
100
AcDbLine
 10
24.4542902567
 20
17.9588473733
 30
0.0
 11
34.0938183523
 21
17.9588473733
 31
0.0
  0
LINE
  5
8F
330
1F
100
AcDbEntity
  8
0
  6
Continuous
 62
     7
370
    25
100
AcDbLine
 10
24.4542902567
 20
11.030644143
 30
0.0
 11
34.0938183523
 21
11.030644143
 31
0.0
  0
LINE
  5
90
330
1F
100
AcDbEntity
  8
0
  6
Continuous
 62
     7
370
    25
100
AcDbLine
 10
24.4542902567
 20
7.5665425279
 30
0.0
 11
34.0938183523
 21
7.5665425279
 31
0.0
  0
LINE
  5
91
330
1F
100
AcDbEntity
  8
0
  6
Continuous
 62
     7
370
    25
100
AcDbLine
 10
24.4542902567
 20
21.4229489884
 30
0.0
 11
34.0938183523
 21
21.4229489884
 31
0.0
  0
LINE
  5
92
330
1F
100
AcDbEntity
  8
0
  6
Continuous
 62
     7
370
    25
100
AcDbLine
 10
23.0257203543
 20
19.3587457581
 30
0.0
 11
23.0257203543
 21
9.6307457581
 31
0.0
  0
LINE
  5
93
330
1F
100
AcDbEntity
  8
0
  6
Continuous
 62
     7
370
    25
100
AcDbLine
 10
19.8897203543
 20
22.4947457581
 30
0.0
 11
10.1617203543
 21
22.4947457581
 31
0.0
  0
LINE
  5
94
330
1F
100
AcDbEntity
  8
0
  6
Continuous
 62
     7
370
    25
100
AcDbLine
 10
18.4257203543
 20
18.8947457581
 30
0.0
 11
16.3673611408
 21
18.8947457581
 31
0.0
  0
LINE
  5
95
330
1F
100
AcDbEntity
  8
0
  6
Continuous
 62
     7
370
    25
100
AcDbLine
 10
18.4257203543
 20
18.4947457581
 30
0.0
 11
18.4257203543
 21
18.8947457581
 31
0.0
  0
ARC
  5
96
330
1F
100
AcDbEntity
  8
0
  6
Continuous
 62
     7
370
    25
100
AcDbCircle
 10
19.0257203543
 20
18.4947457581
 30
0.0
 40
0.6000000000000014
100
AcDbArc
 50
180.0
 51
270.0
  0
LINE
  5
97
330
1F
100
AcDbEntity
  8
0
  6
Continuous
 62
     7
370
    25
100
AcDbLine
 10
19.4257203543
 20
17.8947457581
 30
0.0
 11
19.0257203543
 21
17.8947457581
 31
0.0
  0
LINE
  5
98
330
1F
100
AcDbEntity
  8
0
  6
Continuous
 62
     7
370
    25
100
AcDbLine
 10
19.4257203543
 20
15.8363865446
 30
0.0
 11
19.4257203543
 21
17.8947457581
 31
0.0
  0
LINE
  5
99
330
1F
100
AcDbEntity
  8
0
  6
Continuous
 62
     7
370
    25
100
AcDbLine
 10
19.4257203543
 20
15.8363865446
 30
0.0
 11
19.4257203543
 21
14.4947457581
 31
0.0
  0
LINE
  5
9A
330
1F
100
AcDbEntity
  8
0
  6
Continuous
 62
     7
370
    25
100
AcDbLine
 10
19.4257203543
 20
14.4947457581
 30
0.0
 11
19.4257203543
 21
13.1531049716
 31
0.0
  0
LINE
  5
9B
330
1F
100
AcDbEntity
  8
0
  6
Continuous
 62
     7
370
    25
100
AcDbLine
 10
19.4257203543
 20
11.0947457581
 30
0.0
 11
19.4257203543
 21
13.1531049716
 31
0.0
  0
LINE
  5
9C
330
1F
100
AcDbEntity
  8
0
  6
Continuous
 62
     7
370
    25
100
AcDbLine
 10
13.5257203543
 20
11.0947457581
 30
0.0
 11
19.4257203543
 21
11.0947457581
 31
0.0
  0
ARC
  5
9D
330
1F
100
AcDbEntity
  8
0
  6
Continuous
 62
     7
370
    25
100
AcDbCircle
 10
13.5257203543
 20
12.9947457581
 30
0.0
 40
1.9
100
AcDbArc
 50
180.0
 51
270.0
  0
LINE
  5
9E
330
1F
100
AcDbEntity
  8
0
  6
Continuous
 62
     7
370
    25
100
AcDbLine
 10
11.6257203543
 20
18.8947457581
 30
0.0
 11
11.6257203543
 21
12.9947457581
 31
0.0
  0
LINE
  5
9F
330
1F
100
AcDbEntity
  8
0
  6
Continuous
 62
     7
370
    25
100
AcDbLine
 10
13.6840795678
 20
18.8947457581
 30
0.0
 11
11.6257203543
 21
18.8947457581
 31
0.0
  0
LINE
  5
A0
330
1F
100
AcDbEntity
  8
0
  6
Continuous
 62
     7
370
    25
100
AcDbLine
 10
13.6840795678
 20
18.8947457581
 30
0.0
 11
15.0257203543
 21
18.8947457581
 31
0.0
  0
LINE
  5
A1
330
1F
100
AcDbEntity
  8
0
  6
Continuous
 62
     7
370
    25
100
AcDbLine
 10
15.0257203543
 20
18.8947457581
 30
0.0
 11
16.3673611408
 21
18.8947457581
 31
0.0
  0
SPLINE
  5
A2
330
1F
100
AcDbEntity
  8
0
  6
Continuous
 62
     7
370
    25
100
AcDbSpline
210
0.0
220
0.0
230
1.0
 70
     8
 71
     3
 72
    14
 73
    10
 74
     0
 42
0.00000001
 43
0.00000001
 40
0.0
 40
0.0
 40
0.0
 40
0.0
 40
0.25
 40
0.25
 40
0.5
 40
0.5
 40
0.75
 40
0.75
 40
1.0
 40
1.0
 40
1.0
 40
1.0
 10
16.70819309786562
 20
14.6820225642878
 30
0.0
 10
16.7461154325747
 20
14.76234776151015
 30
0.0
 10
16.80731867073284
 20
14.82927821872637
 30
0.0
 10
16.95825137934042
 20
14.92177745631406
 30
0.0
 10
17.04559995278889
 20
14.94601982663878
 30
0.0
 10
17.22309142500144
 20
14.94583597672046
 30
0.0
 10
17.31035808960639
 20
14.92123168515439
 30
0.0
 10
17.45960361023915
 20
14.82972516023887
 30
0.0
 10
17.52156480857469
 20
14.7623583965795
 30
0.0
 10
17.55949216420701
 20
14.68202256428819
 30
0.0
  0
LINE
  5
A3
330
1F
100
AcDbEntity
  8
0
  6
Continuous
 62
     7
370
    25
100
AcDbLine
 10
15.9963185176
 20
12.6916526036
 30
0.0
 11
16.7081930979
 21
14.6820225643
 31
0.0
  0
SPLINE
  5
A4
330
1F
100
AcDbEntity
  8
0
  6
Continuous
 62
     7
370
    25
100
AcDbSpline
210
0.0
220
0.0
230
1.0
 70
     8
 71
     3
 72
    10
 73
     6
 74
     0
 42
0.00000001
 43
0.00000001
 40
0.0
 40
0.0
 40
0.0
 40
0.0
 40
0.5
 40
0.5
 40
1.0
 40
1.0
 40
1.0
 40
1.0
 10
15.5853403176813
 20
12.54746605590448
 30
0.0
 10
15.65809800733791
 20
12.50742669115638
 30
0.0
 10
15.74672009221375
 20
12.50051250338068
 30
0.0
 10
15.90171866329928
 20
12.5528959416303
 30
0.0
 10
15.96831144994821
 20
12.61334607631598
 30
0.0
 10
15.99631851764659
 20
12.69165260359406
 30
0.0
  0
LINE
  5
A5
330
1F
100
AcDbEntity
  8
0
  6
Continuous
 62
     7
370
    25
100
AcDbLine
 10
15.2651173396
 20
12.7236883175
 30
0.0
 11
15.5853403177
 21
12.5474660559
 31
0.0
  0
LINE
  5
A6
330
1F
100
AcDbEntity
  8
0
  6
Continuous
 62
     7
370
    25
100
AcDbLine
 10
15.8684841839
 20
11.573469832
 30
0.0
 11
15.2651173396
 21
12.7236883175
 31
0.0
  0
SPLINE
  5
A7
330
1F
100
AcDbEntity
  8
0
  6
Continuous
 62
     7
370
    25
100
AcDbSpline
210
0.0
220
0.0
230
1.0
 70
     8
 71
     3
 72
    23
 73
    19
 74
     0
 42
0.00000001
 43
0.00000001
 40
0.0
 40
0.0
 40
0.0
 40
0.0
 40
0.0000498781835487
 40
0.0000498781835487
 40
0.0000498781835487
 40
0.0000997268192993
 40
0.0000997268192993
 40
0.0000997268192993
 40
0.0001500011747122
 40
0.0001500011747122
 40
0.0001500011747122
 40
0.0002003877210666
 40
0.0002003877210666
 40
0.0002003877210666
 40
0.0002503535461228
 40
0.0002503535461228
 40
0.0002503535461228
 40
0.0002676752878394
 40
0.0002676752878394
 40
0.0002676752878394
 40
0.0002676752878394
 10
16.09877887061943
 20
11.53216216039182
 30
0.0
 10
16.08634444713644
 20
11.52112535727211
 30
0.0
 10
16.07181528492738
 20
11.51210623393463
 30
0.0
 10
16.05642208815046
 20
11.50582328849124
 30
0.0
 10
16.04103451387321
 20
11.49954263794861
 30
0.0
 10
16.0243612652411
 20
11.49581957058334
 30
0.0
 10
16.00776461833743
 20
11.49493904521109
 30
0.0
 10
15.99102965983402
 20
11.49405118179799
 30
0.0
 10
15.97391109622203
 20
11.49602963498347
 30
0.0
 10
15.95782276829928
 20
11.50072141952679
 30
0.0
 10
15.94170224712784
 20
11.50542259247811
 30
0.0
 10
15.92616676062788
 20
11.51298259537363
 30
0.0
 10
15.91254077769635
 20
11.52279609725148
 30
0.0
 10
15.89902918510909
 20
11.53252721462436
 30
0.0
 10
15.88701699030218
 20
11.54475133310013
 30
0.0
 10
15.8775588930408
 20
11.55845542649456
 30
0.0
 10
15.87423717499101
 20
11.5632683537807
 30
0.0
 10
15.87120073450012
 20
11.56829118037522
 30
0.0
 10
15.86848418391733
 20
11.57346983201392
 30
0.0
  0
SPLINE
  5
A8
330
1F
100
AcDbEntity
  8
0
  6
Continuous
 62
     7
370
    25
100
AcDbSpline
210
0.0
220
0.0
230
1.0
 70
     8
 71
     3
 72
    12
 73
     8
 74
     0
 42
0.00000001
 43
0.00000001
 40
0.0
 40
0.0
 40
0.0
 40
0.0
 40
0.25
 40
0.25
 40
0.5
 40
0.5
 40
1.0
 40
1.0
 40
1.0
 40
1.0
 10
18.16890639145361
 20
11.53216216039165
 30
0.0
 10
18.02673620349478
 20
11.65835252025316
 30
0.0
 10
17.86422477355589
 20
11.75480214562843
 30
0.0
 10
17.50967265855133
 20
11.88679367123232
 30
0.0
 10
17.32222954678702
 20
11.92008503661434
 30
0.0
 10
16.75693651479048
 20
11.92006941504426
 30
0.0
 10
16.38308888001347
 20
11.7845159267668
 30
0.0
 10
16.09877887061943
 20
11.53216216039182
 30
0.0
  0
SPLINE
  5
A9
330
1F
100
AcDbEntity
  8
0
  6
Continuous
 62
     7
370
    25
100
AcDbSpline
210
0.0
220
0.0
230
1.0
 70
     8
 71
     3
 72
    23
 73
    19
 74
     0
 42
0.00000001
 43
0.00000001
 40
0.0
 40
0.0
 40
0.0
 40
0.0
 40
0.0000491340929468
 40
0.0000491340929468
 40
0.0000491340929468
 40
0.0000982315553283
 40
0.0000982315553283
 40
0.0000982315553283
 40
0.0001478770455754
 40
0.0001478770455754
 40
0.0001478770455754
 40
0.0001981233645928
 40
0.0001981233645928
 40
0.0001981233645928
 40
0.0002485283804886
 40
0.0002485283804886
 40
0.0002485283804886
 40
0.0002676671342044
 40
0.0002676671342044
 40
0.0002676671342044
 40
0.0002676671342044
 10
18.39920107815562
 20
11.57346983201387
 30
0.0
 10
18.3915929359179
 20
11.55896617487
 30
0.0
 10
18.38134870524564
 20
11.5455921268071
 30
0.0
 10
18.36935373968891
 20
11.53444041392749
 30
0.0
 10
18.35736408188007
 20
11.52329363565818
 30
0.0
 10
18.34330037548023
 20
11.51405826736938
 30
0.0
 10
18.32832229696312
 20
11.5074507168328
 30
0.0
 10
18.31317839483581
 20
11.50077001352943
 30
0.0
 10
18.29668871049968
 20
11.49659183400376
 30
0.0
 10
18.28019246282296
 20
11.49523412237835
 30
0.0
 10
18.26350131844412
 20
11.49386036992212
 30
0.0
 10
18.24634436927599
 20
11.49533722780965
 30
0.0
 10
18.23013549437526
 20
11.49955076206709
 30
0.0
 10
18.21387933547079
 20
11.50377658790989
 30
0.0
 10
18.19812402828126
 20
11.51087618852427
 30
0.0
 10
18.18420883803038
 20
11.52028298323143
 30
0.0
 10
18.17885915231168
 20
11.52389941925539
 30
0.0
 10
18.17373578473728
 20
11.52787558748128
 30
0.0
 10
18.16890639145366
 20
11.5321621603917
 30
0.0
  0
LINE
  5
AA
330
1F
100
AcDbEntity
  8
0
  6
Continuous
 62
     7
370
    25
100
AcDbLine
 10
19.0071917663
 20
12.7325029064
 30
0.0
 11
18.3992010782
 21
11.573469832
 31
0.0
  0
LINE
  5
AB
330
1F
100
AcDbEntity
  8
0
  6
Continuous
 62
     7
370
    25
100
AcDbLine
 10
18.6865412083
 20
12.5492638324
 30
0.0
 11
19.0071917663
 21
12.7325029064
 31
0.0
  0
SPLINE
  5
AC
330
1F
100
AcDbEntity
  8
0
  6
Continuous
 62
     7
370
    25
100
AcDbSpline
210
0.0
220
0.0
230
1.0
 70
     8
 71
     3
 72
    10
 73
     6
 74
     0
 42
0.00000001
 43
0.00000001
 40
0.0
 40
0.0
 40
0.0
 40
0.0
 40
0.4999999999999998
 40
0.4999999999999998
 40
1.0
 40
1.0
 40
1.0
 40
1.0
 10
18.27153226797925
 20
12.6911898070312
 30
0.0
 10
18.2997577232175
 20
12.61227267781426
 30
0.0
 10
18.36700824737644
 20
12.55147010967273
 30
0.0
 10
18.5245819972814
 20
12.49956883921447
 30
0.0
 10
18.6138629949483
 20
12.50773111650622
 30
0.0
 10
18.6865412082999
 20
12.54926383236201
 30
0.0
  0
LINE
  5
AD
330
1F
100
AcDbEntity
  8
0
  6
Continuous
 62
     7
370
    25
100
AcDbLine
 10
17.5594921642
 20
14.6820225643
 30
0.0
 11
18.271532268
 21
12.691189807
 31
0.0
  0
SPLINE
  5
AE
330
1F
100
AcDbEntity
  8
0
  6
Continuous
 62
     7
370
    25
100
AcDbSpline
210
0.0
220
0.0
230
1.0
 70
     8
 71
     3
 72
    10
 73
     6
 74
     0
 42
0.00000001
 43
0.00000001
 40
0.0
 40
0.0
 40
0.0
 40
0.0
 40
0.5
 40
0.5
 40
1.0
 40
1.0
 40
1.0
 40
1.0
 10
16.36302287892748
 20
18.96545643624428
 30
0.0
 10
16.36413886424742
 20
18.95391620051153
 30
0.0
 10
16.36522342972635
 20
18.94062702574465
 30
0.0
 10
16.36683456802422
 20
18.91543029931501
 30
0.0
 10
16.36736114084317
 20
18.90352274765224
 30
0.0
 10
16.36736114084317
 20
18.8947457581277
 30
0.0
  0
SPLINE
  5
AF
330
1F
100
AcDbEntity
  8
0
  6
Continuous
 62
     7
370
    25
100
AcDbSpline
210
0.0
220
0.0
230
1.0
 70
     8
 71
     3
 72
    12
 73
     8
 74
     0
 42
0.00000001
 43
0.00000001
 40
0.0
 40
0.0
 40
0.0
 40
0.0
 40
0.25
 40
0.25
 40
0.5
 40
0.5
 40
1.0
 40
1.0
 40
1.0
 40
1.0
 10
16.36302287892748
 20
18.96545643624428
 30
0.0
 10
16.3624648862675
 20
18.97122655411067
 30
0.0
 10
16.36182018705017
 20
18.97594219566157
 30
0.0
 10
16.3608322532692
 20
18.9835977377146
 30
0.0
 10
16.36048901870556
 20
18.98653763821673
 30
0.0
 10
16.36062382864771
 20
18.99319354552323
 30
0.0
 10
16.36226638678661
 20
18.9947457581277
 30
0.0
 10
16.36736114084317
 20
18.9947457581277
 30
0.0
  0
LINE
  5
B0
330
1F
100
AcDbEntity
  8
0
  6
Continuous
 62
     7
370
    25
100
AcDbLine
 10
16.3673611408
 20
18.9947457581
 30
0.0
 11
18.4257203543
 21
18.9947457581
 31
0.0
  0
LINE
  5
B1
330
1F
100
AcDbEntity
  8
0
  6
Continuous
 62
     7
370
    25
100
AcDbLine
 10
18.4257203543
 20
18.8947457581
 30
0.0
 11
18.4257203543
 21
18.9947457581
 31
0.0
  0
SPLINE
  5
B2
330
1F
100
AcDbEntity
  8
0
  6
Continuous
 62
     7
370
    25
100
AcDbSpline
210
0.0
220
0.0
230
1.0
 70
     8
 71
     3
 72
    12
 73
     8
 74
     0
 42
0.00000001
 43
0.00000001
 40
0.0
 40
0.0
 40
0.0
 40
0.0
 40
0.25
 40
0.25
 40
0.5
 40
0.5
 40
1.0
 40
1.0
 40
1.0
 40
1.0
 10
19.49643103245984
 20
13.15744323354348
 30
0.0
 10
19.50220115032622
 20
13.15800122620345
 30
0.0
 10
19.50691679187712
 20
13.15864592542078
 30
0.0
 10
19.51457233393016
 20
13.15963385920175
 30
0.0
 10
19.51751223443229
 20
13.1599770937654
 30
0.0
 10
19.52416814173878
 20
13.15984228382324
 30
0.0
 10
19.52572035434325
 20
13.15819972568435
 30
0.0
 10
19.52572035434325
 20
13.15310497162778
 30
0.0
  0
LINE
  5
B3
330
1F
100
AcDbEntity
  8
0
  6
Continuous
 62
     7
370
    25
100
AcDbLine
 10
19.5257203543
 20
13.1531049716
 30
0.0
 11
19.5257203543
 21
11.0947457581
 31
0.0
  0
LINE
  5
B4
330
1F
100
AcDbEntity
  8
0
  6
Continuous
 62
     7
370
    25
100
AcDbLine
 10
19.5257203543
 20
11.0947457581
 30
0.0
 11
19.4257203543
 21
11.0947457581
 31
0.0
  0
SPLINE
  5
B5
330
1F
100
AcDbEntity
  8
0
  6
Continuous
 62
     7
370
    25
100
AcDbSpline
210
0.0
220
0.0
230
1.0
 70
     8
 71
     3
 72
    10
 73
     6
 74
     0
 42
0.00000001
 43
0.00000001
 40
0.0
 40
0.0
 40
0.0
 40
0.0
 40
0.5
 40
0.5
 40
1.0
 40
1.0
 40
1.0
 40
1.0
 10
19.49643103245984
 20
13.15744323354348
 30
0.0
 10
19.48489079672708
 20
13.15632724822353
 30
0.0
 10
19.4716016219602
 20
13.15524268274461
 30
0.0
 10
19.44640489553057
 20
13.15363154444674
 30
0.0
 10
19.4344973438678
 20
13.15310497162778
 30
0.0
 10
19.42572035434326
 20
13.15310497162778
 30
0.0
  0
LINE
  5
B6
330
1F
100
AcDbEntity
  8
0
  6
Continuous
 62
     7
370
    25
100
AcDbLine
 10
19.5257203543
 20
17.8947457581
 30
0.0
 11
19.5257203543
 21
15.8363865446
 31
0.0
  0
SPLINE
  5
B7
330
1F
100
AcDbEntity
  8
0
  6
Continuous
 62
     7
370
    25
100
AcDbSpline
210
0.0
220
0.0
230
1.0
 70
     8
 71
     3
 72
    12
 73
     8
 74
     0
 42
0.00000001
 43
0.00000001
 40
0.0
 40
0.0
 40
0.0
 40
0.0
 40
0.25
 40
0.25
 40
0.5
 40
0.5
 40
1.0
 40
1.0
 40
1.0
 40
1.0
 10
19.49643103245984
 20
15.83204828271192
 30
0.0
 10
19.50220115032622
 20
15.83149029005194
 30
0.0
 10
19.50691679187712
 20
15.83084559083462
 30
0.0
 10
19.51457233393016
 20
15.82985765705365
 30
0.0
 10
19.51751223443229
 20
15.82951442249
 30
0.0
 10
19.52416814173878
 20
15.82964923243216
 30
0.0
 10
19.52572035434325
 20
15.83129179057105
 30
0.0
 10
19.52572035434325
 20
15.83638654462762
 30
0.0
  0
SPLINE
  5
B8
330
1F
100
AcDbEntity
  8
0
  6
Continuous
 62
     7
370
    25
100
AcDbSpline
210
0.0
220
0.0
230
1.0
 70
     8
 71
     3
 72
    10
 73
     6
 74
     0
 42
0.00000001
 43
0.00000001
 40
0.0
 40
0.0
 40
0.0
 40
0.0
 40
0.5
 40
0.5
 40
1.0
 40
1.0
 40
1.0
 40
1.0
 10
19.49643103245984
 20
15.83204828271192
 30
0.0
 10
19.48489079672708
 20
15.83316426803187
 30
0.0
 10
19.47160162196021
 20
15.83424883351079
 30
0.0
 10
19.44640489553057
 20
15.83585997180866
 30
0.0
 10
19.4344973438678
 20
15.83638654462762
 30
0.0
 10
19.42572035434326
 20
15.83638654462762
 30
0.0
  0
LINE
  5
B9
330
1F
100
AcDbEntity
  8
0
  6
Continuous
 62
     7
370
    25
100
AcDbLine
 10
19.5257203543
 20
17.8947457581
 30
0.0
 11
19.4257203543
 21
17.8947457581
 31
0.0
  0
LINE
  5
BA
330
1F
100
AcDbEntity
  8
0
  6
Continuous
 62
     7
370
    25
100
AcDbLine
 10
11.6257203543
 20
18.9947457581
 30
0.0
 11
13.6840795678
 21
18.9947457581
 31
0.0
  0
SPLINE
  5
BB
330
1F
100
AcDbEntity
  8
0
  6
Continuous
 62
     7
370
    25
100
AcDbSpline
210
0.0
220
0.0
230
1.0
 70
     8
 71
     3
 72
    12
 73
     8
 74
     0
 42
0.00000001
 43
0.00000001
 40
0.0
 40
0.0
 40
0.0
 40
0.0
 40
0.25
 40
0.25
 40
0.5
 40
0.5
 40
1.0
 40
1.0
 40
1.0
 40
1.0
 10
13.68841782975903
 20
18.96545643624429
 30
0.0
 10
13.68897582241901
 20
18.97122655411067
 30
0.0
 10
13.68962052163633
 20
18.97594219566157
 30
0.0
 10
13.69060845541731
 20
18.9835977377146
 30
0.0
 10
13.69095168998095
 20
18.98653763821673
 30
0.0
 10
13.6908168800388
 20
18.99319354552323
 30
0.0
 10
13.6891743218999
 20
18.9947457581277
 30
0.0
 10
13.68407956784334
 20
18.9947457581277
 30
0.0
  0
SPLINE
  5
BC
330
1F
100
AcDbEntity
  8
0
  6
Continuous
 62
     7
370
    25
100
AcDbSpline
210
0.0
220
0.0
230
1.0
 70
     8
 71
     3
 72
    10
 73
     6
 74
     0
 42
0.00000001
 43
0.00000001
 40
0.0
 40
0.0
 40
0.0
 40
0.0
 40
0.5
 40
0.5
 40
1.0
 40
1.0
 40
1.0
 40
1.0
 10
13.68841782975903
 20
18.96545643624429
 30
0.0
 10
13.68730184443909
 20
18.95391620051153
 30
0.0
 10
13.68621727896016
 20
18.94062702574465
 30
0.0
 10
13.68460614066229
 20
18.91543029931501
 30
0.0
 10
13.68407956784334
 20
18.90352274765224
 30
0.0
 10
13.68407956784334
 20
18.8947457581277
 30
0.0
  0
LINE
  5
BD
330
1F
100
AcDbEntity
  8
0
  6
Continuous
 62
     7
370
    25
100
AcDbLine
 10
11.6257203543
 20
18.8947457581
 30
0.0
 11
11.6257203543
 21
18.9947457581
 31
0.0
  0
SPLINE
  5
BE
330
1F
100
AcDbEntity
  8
0
  6
Continuous
 62
     7
370
    25
100
AcDbSpline
210
0.0
220
0.0
230
1.0
 70
    24
 71
     3
 72
    14
 73
    10
 74
     0
 42
0.00000001
 43
0.00000001
 40
0.0
 40
0.0
 40
0.0
 40
0.0
 40
0.25
 40
0.25
 40
0.5
 40
0.5
 40
0.75
 40
0.75
 40
1.0
 40
1.0
 40
1.0
 40
1.0
 10
15.02572035434325
 20
19.0947457581277
 30
0.0
 10
15.13588062138667
 20
19.0947457581277
 30
0.0
 10
15.24604111342548
 20
19.0947457581277
 30
0.0
 10
15.46607606329952
 20
19.0947457581277
 30
0.0
 10
15.57595097160698
 20
19.0947457581277
 30
0.0
 10
15.79511566562473
 20
19.0947457581277
 30
0.0
 10
15.9044059030233
 20
19.0947457581277
 30
0.0
 10
16.12207513262911
 20
19.0947457581277
 30
0.0
 10
16.2304545777821
 20
19.0947457581277
 30
0.0
 10
16.33819503678882
 20
19.0947457581277
 30
0.0
  0
SPLINE
  5
BF
330
1F
100
AcDbEntity
  8
0
  6
Continuous
 62
     7
370
    25
100
AcDbSpline
210
0.0
220
0.0
230
1.0
 70
    24
 71
     3
 72
    14
 73
    10
 74
     0
 42
0.00000001
 43
0.00000001
 40
0.0
 40
0.0
 40
0.0
 40
0.0
 40
0.25
 40
0.25
 40
0.5
 40
0.5
 40
0.75
 40
0.75
 40
1.0
 40
1.0
 40
1.0
 40
1.0
 10
15.02572035434325
 20
19.0947457581277
 30
0.0
 10
14.91556008729984
 20
19.0947457581277
 30
0.0
 10
14.80539959526103
 20
19.0947457581277
 30
0.0
 10
14.585364645387
 20
19.0947457581277
 30
0.0
 10
14.47548973707953
 20
19.0947457581277
 30
0.0
 10
14.25632504306178
 20
19.0947457581277
 30
0.0
 10
14.1470348056632
 20
19.0947457581277
 30
0.0
 10
13.92936557605739
 20
19.0947457581277
 30
0.0
 10
13.82098613090441
 20
19.0947457581277
 30
0.0
 10
13.71324567189769
 20
19.0947457581277
 30
0.0
  0
LINE
  5
C0
330
1F
100
AcDbEntity
  8
0
  6
Continuous
 62
     7
370
    25
100
AcDbLine
 10
11.6996333978
 20
19.0947457581
 30
0.0
 11
13.7132456719
 21
19.0947457581
 31
0.0
  0
SPLINE
  5
C1
330
1F
100
AcDbEntity
  8
0
  6
Continuous
 62
     7
370
    25
100
AcDbSpline
210
0.0
220
0.0
230
1.0
 70
     8
 71
     3
 72
    12
 73
     8
 74
     0
 42
0.00000001
 43
0.00000001
 40
0.0
 40
0.0
 40
0.0
 40
0.0
 40
0.4999999999999984
 40
0.4999999999999984
 40
0.7499999999999992
 40
0.7499999999999992
 40
1.0
 40
1.0
 40
1.0
 40
1.0
 10
11.69963339782152
 20
19.0947457581277
 30
0.0
 10
11.65485265964964
 20
19.0947457581277
 30
0.0
 10
11.61147870210242
 20
19.08001933916198
 30
0.0
 10
11.55573710895847
 20
19.03249572731956
 30
0.0
 10
11.53874162872899
 20
19.01227837346295
 30
0.0
 10
11.51247024303249
 20
18.96000769285493
 30
0.0
 10
11.50398122390847
 20
18.92833738463392
 30
0.0
 10
11.50398122390847
 20
18.8947457581277
 30
0.0
  0
LINE
  5
C2
330
1F
100
AcDbEntity
  8
0
  6
Continuous
 62
     7
370
    25
100
AcDbLine
 10
11.5039812239
 20
12.9947457581
 30
0.0
 11
11.5039812239
 21
18.8947457581
 31
0.0
  0
SPLINE
  5
C3
330
1F
100
AcDbEntity
  8
0
  6
Continuous
 62
     7
370
    25
100
AcDbSpline
210
0.0
220
0.0
230
1.0
 70
     8
 71
     3
 72
     8
 73
     4
 74
     0
 42
0.00000001
 43
0.00000001
 40
0.0
 40
0.0
 40
0.0
 40
0.0
 40
1.0
 40
1.0
 40
1.0
 40
1.0
 10
11.54794002413307
 20
12.56264557467759
 30
0.0
 10
11.51905304368169
 20
12.70308480399755
 30
0.0
 10
11.50398122390847
 20
12.84693951095602
 30
0.0
 10
11.50398122390847
 20
12.9947457581277
 30
0.0
  0
LINE
  5
C4
330
1F
100
AcDbEntity
  8
0
  6
Continuous
 62
     7
370
    25
100
AcDbLine
 10
18.7049670374
 20
18.1739924412
 30
0.0
 11
19.5257203543
 21
18.9947457581
 31
0.0
  0
SPLINE
  5
C5
330
1F
100
AcDbEntity
  8
0
  6
Continuous
 62
     7
370
    25
100
AcDbSpline
210
0.0
220
0.0
230
1.0
 70
     8
 71
     3
 72
    10
 73
     6
 74
     0
 42
0.00000001
 43
0.00000001
 40
0.0
 40
0.0
 40
0.0
 40
0.0
 40
0.5
 40
0.5
 40
1.0
 40
1.0
 40
1.0
 40
1.0
 10
18.54745948477804
 20
18.4947457581277
 30
0.0
 10
18.54745948477804
 20
18.42074469170639
 30
0.0
 10
18.56861694235615
 20
18.35092771240124
 30
0.0
 10
18.62862758001555
 20
18.24306654645773
 30
0.0
 10
18.66623281787236
 20
18.20349453523883
 30
0.0
 10
18.70496703740968
 20
18.17399244119388
 30
0.0
  0
LINE
  5
C6
330
1F
100
AcDbEntity
  8
0
  6
Continuous
 62
     7
370
    25
100
AcDbLine
 10
18.5474594848
 20
18.8947457581
 30
0.0
 11
18.5474594848
 21
18.4947457581
 31
0.0
  0
SPLINE
  5
C7
330
1F
100
AcDbEntity
  8
0
  6
Continuous
 62
     7
370
    25
100
AcDbSpline
210
0.0
220
0.0
230
1.0
 70
     8
 71
     3
 72
    12
 73
     8
 74
     0
 42
0.00000001
 43
0.00000001
 40
0.0
 40
0.0
 40
0.0
 40
0.0
 40
0.2500000000000005
 40
0.2500000000000005
 40
0.500000000000001
 40
0.500000000000001
 40
1.0
 40
1.0
 40
1.0
 40
1.0
 10
18.54745948477803
 20
18.8947457581277
 30
0.0
 10
18.54745948477803
 20
18.92833469613559
 30
0.0
 10
18.53880981618427
 20
18.96039300744886
 30
0.0
 10
18.51267490229313
 20
19.01226033227151
 30
0.0
 10
18.49555051467519
 20
19.03265687080638
 30
0.0
 10
18.43983710529754
 20
19.08006421375416
 30
0.0
 10
18.39662034318836
 20
19.0947457581277
 30
0.0
 10
18.351807310865
 20
19.0947457581277
 30
0.0
  0
LINE
  5
C8
330
1F
100
AcDbEntity
  8
0
  6
Continuous
 62
     7
370
    25
100
AcDbLine
 10
16.3381950368
 20
19.0947457581
 30
0.0
 11
18.3518073109
 21
19.0947457581
 31
0.0
  0
SPLINE
  5
C9
330
1F
100
AcDbEntity
  8
0
  6
Continuous
 62
     7
370
    25
100
AcDbSpline
210
0.0
220
0.0
230
1.0
 70
     8
 71
     3
 72
     8
 73
     4
 74
     0
 42
0.00000001
 43
0.00000001
 40
0.0
 40
0.0
 40
0.0
 40
0.0
 40
1.0
 40
1.0
 40
1.0
 40
1.0
 10
13.52572035434325
 20
10.97300662769292
 30
0.0
 10
13.37791410717158
 20
10.97300662769292
 30
0.0
 10
13.2340594002131
 20
10.98807844746614
 30
0.0
 10
13.09362017089315
 20
11.01696542791751
 30
0.0
  0
LINE
  5
CA
330
1F
100
AcDbEntity
  8
0
  6
Continuous
 62
     7
370
    25
100
AcDbLine
 10
19.4257203543
 20
10.9730066277
 30
0.0
 11
13.5257203543
 21
10.9730066277
 31
0.0
  0
SPLINE
  5
CB
330
1F
100
AcDbEntity
  8
0
  6
Continuous
 62
     7
370
    25
100
AcDbSpline
210
0.0
220
0.0
230
1.0
 70
     8
 71
     3
 72
    12
 73
     8
 74
     0
 42
0.00000001
 43
0.00000001
 40
0.0
 40
0.0
 40
0.0
 40
0.0
 40
0.2500000000000008
 40
0.2500000000000008
 40
0.5000000000000016
 40
0.5000000000000016
 40
1.0
 40
1.0
 40
1.0
 40
1.0
 10
19.42572035434326
 20
10.97300662769292
 30
0.0
 10
19.45930929235114
 20
10.97300662769292
 30
0.0
 10
19.49136760366441
 20
10.98165629628668
 30
0.0
 10
19.54323492848706
 20
11.00779121017782
 30
0.0
 10
19.56363146702193
 20
11.02491559779576
 30
0.0
 10
19.61103880996971
 20
11.08062900717341
 30
0.0
 10
19.62572035434325
 20
11.1238457692826
 30
0.0
 10
19.62572035434325
 20
11.16865880160596
 30
0.0
  0
LINE
  5
CC
330
1F
100
AcDbEntity
  8
0
  6
Continuous
 62
     7
370
    25
100
AcDbLine
 10
19.6257203543
 20
13.1822710757
 30
0.0
 11
19.6257203543
 21
11.1686588016
 31
0.0
  0
SPLINE
  5
CD
330
1F
100
AcDbEntity
  8
0
  6
Continuous
 62
     7
370
    25
100
AcDbSpline
210
0.0
220
0.0
230
1.0
 70
    24
 71
     3
 72
    14
 73
    10
 74
     0
 42
0.00000001
 43
0.00000001
 40
0.0
 40
0.0
 40
0.0
 40
0.0
 40
0.25
 40
0.25
 40
0.5
 40
0.5
 40
0.75
 40
0.75
 40
1.0
 40
1.0
 40
1.0
 40
1.0
 10
19.62572035434325
 20
14.4947457581277
 30
0.0
 10
19.62572035434325
 20
14.38458549108428
 30
0.0
 10
19.62572035434325
 20
14.27442499904548
 30
0.0
 10
19.62572035434325
 20
14.05439004917144
 30
0.0
 10
19.62572035434325
 20
13.94451514086398
 30
0.0
 10
19.62572035434325
 20
13.72535044684623
 30
0.0
 10
19.62572035434325
 20
13.61606020944765
 30
0.0
 10
19.62572035434325
 20
13.39839097984184
 30
0.0
 10
19.62572035434325
 20
13.29001153468886
 30
0.0
 10
19.62572035434325
 20
13.18227107568213
 30
0.0
  0
SPLINE
  5
CE
330
1F
100
AcDbEntity
  8
0
  6
Continuous
 62
     7
370
    25
100
AcDbSpline
210
0.0
220
0.0
230
1.0
 70
    24
 71
     3
 72
    14
 73
    10
 74
     0
 42
0.00000001
 43
0.00000001
 40
0.0
 40
0.0
 40
0.0
 40
0.0
 40
0.25
 40
0.25
 40
0.5
 40
0.5
 40
0.75
 40
0.75
 40
1.0
 40
1.0
 40
1.0
 40
1.0
 10
19.62572035434325
 20
14.4947457581277
 30
0.0
 10
19.62572035434325
 20
14.60490602517112
 30
0.0
 10
19.62572035434325
 20
14.71506651720992
 30
0.0
 10
19.62572035434325
 20
14.93510146708396
 30
0.0
 10
19.62572035434325
 20
15.04497637539142
 30
0.0
 10
19.62572035434325
 20
15.26414106940917
 30
0.0
 10
19.62572035434325
 20
15.37343130680775
 30
0.0
 10
19.62572035434325
 20
15.59110053641356
 30
0.0
 10
19.62572035434325
 20
15.69947998156654
 30
0.0
 10
19.62572035434325
 20
15.80722044057327
 30
0.0
  0
LINE
  5
CF
330
1F
100
AcDbEntity
  8
0
  6
Continuous
 62
     7
370
    25
100
AcDbLine
 10
19.6257203543
 20
17.8208327146
 30
0.0
 11
19.6257203543
 21
15.8072204406
 31
0.0
  0
SPLINE
  5
D0
330
1F
100
AcDbEntity
  8
0
  6
Continuous
 62
     7
370
    25
100
AcDbSpline
210
0.0
220
0.0
230
1.0
 70
     8
 71
     3
 72
    12
 73
     8
 74
     0
 42
0.00000001
 43
0.00000001
 40
0.0
 40
0.0
 40
0.0
 40
0.0
 40
0.4999999999999991
 40
0.4999999999999991
 40
0.7499999999999996
 40
0.7499999999999996
 40
1.0
 40
1.0
 40
1.0
 40
1.0
 10
19.62572035434325
 20
17.82083271464944
 30
0.0
 10
19.62572035434325
 20
17.86561345282132
 30
0.0
 10
19.61099393537753
 20
17.90898741036853
 30
0.0
 10
19.56347032353511
 20
17.96472900351249
 30
0.0
 10
19.54325296967851
 20
17.98172448374197
 30
0.0
 10
19.49098228907049
 20
18.00799586943847
 30
0.0
 10
19.45931198084946
 20
18.01648488856248
 30
0.0
 10
19.42572035434325
 20
18.01648488856248
 30
0.0
  0
LINE
  5
D1
330
1F
100
AcDbEntity
  8
0
  6
Continuous
 62
     7
370
    25
100
AcDbLine
 10
19.0257203543
 20
18.0164848886
 30
0.0
 11
19.4257203543
 21
18.0164848886
 31
0.0
  0
SPLINE
  5
D2
330
1F
100
AcDbEntity
  8
0
  6
Continuous
 62
     7
370
    25
100
AcDbSpline
210
0.0
220
0.0
230
1.0
 70
     8
 71
     3
 72
    10
 73
     6
 74
     0
 42
0.00000001
 43
0.00000001
 40
0.0
 40
0.0
 40
0.0
 40
0.0
 40
0.5
 40
0.5
 40
1.0
 40
1.0
 40
1.0
 40
1.0
 10
18.70496703740947
 20
18.17399244119407
 30
0.0
 10
18.73446913145442
 20
18.13525822165677
 30
0.0
 10
18.77404114267339
 20
18.09765298379992
 30
0.0
 10
18.88190230861687
 20
18.03764234614057
 30
0.0
 10
18.95171928792198
 20
18.01648488856248
 30
0.0
 10
19.02572035434326
 20
18.01648488856248
 30
0.0
  0
SPLINE
  5
D3
330
1F
100
AcDbEntity
  8
0
  6
Continuous
 62
     7
370
    25
100
AcDbSpline
210
0.0
220
0.0
230
1.0
 70
     8
 71
     3
 72
    12
 73
     8
 74
     0
 42
0.00000001
 43
0.00000001
 40
0.0
 40
0.0
 40
0.0
 40
0.0
 40
0.25
 40
0.25
 40
0.5
 40
0.5
 40
1.0
 40
1.0
 40
1.0
 40
1.0
 10
19.52614792637379
 20
14.4947457581277
 30
0.0
 10
19.5220694876715
 20
14.38351809812662
 30
0.0
 10
19.51908945330764
 20
14.27239446653475
 30
0.0
 10
19.51343365395187
 20
14.04965760960321
 30
0.0
 10
19.51075788895997
 20
13.93804438426354
 30
0.0
 10
19.50034818908475
 20
13.60142384177354
 30
0.0
 10
19.4964623198385
 20
13.38036408889823
 30
0.0
 10
19.49643103245984
 20
13.15744323354348
 30
0.0
  0
SPLINE
  5
D4
330
1F
100
AcDbEntity
  8
0
  6
Continuous
 62
     7
370
    25
100
AcDbSpline
210
0.0
220
0.0
230
1.0
 70
    24
 71
     3
 72
    10
 73
     6
 74
     0
 42
0.00000001
 43
0.00000001
 40
0.0
 40
0.0
 40
0.0
 40
0.0
 40
0.5
 40
0.5
 40
1.0
 40
1.0
 40
1.0
 40
1.0
 10
19.52614792637379
 20
14.4947457581277
 30
0.0
 10
19.50983417156463
 20
14.4947457581277
 30
0.0
 10
19.49234948812095
 20
14.4947457581277
 30
0.0
 10
19.45621271500235
 20
14.4947457581277
 30
0.0
 10
19.44284577936602
 20
14.4947457581277
 30
0.0
 10
19.42572035434326
 20
14.4947457581277
 30
0.0
  0
SPLINE
  5
D5
330
1F
100
AcDbEntity
  8
0
  6
Continuous
 62
     7
370
    25
100
AcDbSpline
210
0.0
220
0.0
230
1.0
 70
    24
 71
     3
 72
    10
 73
     6
 74
     0
 42
0.00000001
 43
0.00000001
 40
0.0
 40
0.0
 40
0.0
 40
0.0
 40
0.5
 40
0.5
 40
1.0
 40
1.0
 40
1.0
 40
1.0
 10
15.02572035434325
 20
18.99517333015824
 30
0.0
 10
15.02572035434325
 20
18.97885957534908
 30
0.0
 10
15.02572035434325
 20
18.9613748919054
 30
0.0
 10
15.02572035434325
 20
18.9252381187868
 30
0.0
 10
15.02572035434325
 20
18.91187118315047
 30
0.0
 10
15.02572035434326
 20
18.8947457581277
 30
0.0
  0
SPLINE
  5
D6
330
1F
100
AcDbEntity
  8
0
  6
Continuous
 62
     7
370
    25
100
AcDbSpline
210
0.0
220
0.0
230
1.0
 70
     8
 71
     3
 72
    12
 73
     8
 74
     0
 42
0.00000001
 43
0.00000001
 40
0.0
 40
0.0
 40
0.0
 40
0.0
 40
0.25
 40
0.25
 40
0.5
 40
0.5
 40
1.0
 40
1.0
 40
1.0
 40
1.0
 10
15.02572035434325
 20
18.99517333015824
 30
0.0
 10
14.91449269434218
 20
18.99109489145595
 30
0.0
 10
14.8033690627503
 20
18.9881148570921
 30
0.0
 10
14.58063220581876
 20
18.98245905773633
 30
0.0
 10
14.46901898047909
 20
18.97978329274442
 30
0.0
 10
14.1323984379891
 20
18.9693735928692
 30
0.0
 10
13.91133868511378
 20
18.96548772362295
 30
0.0
 10
13.68841782975903
 20
18.96545643624429
 30
0.0
  0
SPLINE
  5
D7
330
1F
100
AcDbEntity
  8
0
  6
Continuous
 62
     7
370
    25
100
AcDbSpline
210
0.0
220
0.0
230
1.0
 70
     8
 71
     3
 72
    12
 73
     8
 74
     0
 42
0.00000001
 43
0.00000001
 40
0.0
 40
0.0
 40
0.0
 40
0.0
 40
0.25
 40
0.25
 40
0.5
 40
0.5
 40
1.0
 40
1.0
 40
1.0
 40
1.0
 10
19.52614792637379
 20
14.4947457581277
 30
0.0
 10
19.52206948767151
 20
14.60597341812878
 30
0.0
 10
19.51908945330765
 20
14.71709704972066
 30
0.0
 10
19.51343365395189
 20
14.9398339066522
 30
0.0
 10
19.51075788895998
 20
15.05144713199186
 30
0.0
 10
19.50034818908475
 20
15.38806767448186
 30
0.0
 10
19.4964623198385
 20
15.60912742735717
 30
0.0
 10
19.49643103245984
 20
15.83204828271192
 30
0.0
  0
SPLINE
  5
D8
330
1F
100
AcDbEntity
  8
0
  6
Continuous
 62
     7
370
    25
100
AcDbSpline
210
0.0
220
0.0
230
1.0
 70
     8
 71
     3
 72
    12
 73
     8
 74
     0
 42
0.00000001
 43
0.00000001
 40
0.0
 40
0.0
 40
0.0
 40
0.0
 40
0.25
 40
0.25
 40
0.5
 40
0.5
 40
1.0
 40
1.0
 40
1.0
 40
1.0
 10
15.02572035434325
 20
18.99517333015824
 30
0.0
 10
15.13694801434434
 20
18.99109489145594
 30
0.0
 10
15.24807164593621
 20
18.98811485709209
 30
0.0
 10
15.47080850286775
 20
18.98245905773632
 30
0.0
 10
15.58242172820741
 20
18.97978329274441
 30
0.0
 10
15.91904227069741
 20
18.9693735928692
 30
0.0
 10
16.14010202357272
 20
18.96548772362295
 30
0.0
 10
16.36302287892748
 20
18.96545643624428
 30
0.0
  0
SPLINE
  5
D9
330
1F
100
AcDbEntity
  8
0
  6
Continuous
 62
     7
370
    25
100
AcDbSpline
210
0.0
220
0.0
230
1.0
 70
    24
 71
     3
 72
    10
 73
     6
 74
     0
 42
0.00000001
 43
0.00000001
 40
0.0
 40
0.0
 40
0.0
 40
0.0
 40
0.5
 40
0.5
 40
1.0
 40
1.0
 40
1.0
 40
1.0
 10
15.02572035434325
 20
18.99517333015824
 30
0.0
 10
15.02572035434325
 20
19.01148708496739
 30
0.0
 10
15.02572035434325
 20
19.0288469288304
 30
0.0
 10
15.02572035434325
 20
19.06449800849632
 30
0.0
 10
15.02572035434325
 20
19.07772107211273
 30
0.0
 10
15.02572035434325
 20
19.0947457581277
 30
0.0
  0
SPLINE
  5
DA
330
1F
100
AcDbEntity
  8
0
  6
Continuous
 62
     7
370
    25
100
AcDbSpline
210
0.0
220
0.0
230
1.0
 70
     8
 71
     3
 72
    10
 73
     6
 74
     0
 42
0.00000001
 43
0.00000001
 40
0.0
 40
0.0
 40
0.0
 40
0.0
 40
0.5
 40
0.5
 40
1.0
 40
1.0
 40
1.0
 40
1.0
 10
16.34265135109043
 20
19.02403407284199
 30
0.0
 10
16.34034722038947
 20
19.03557417870767
 30
0.0
 10
16.33923314181407
 20
19.04886345446901
 30
0.0
 10
16.33815705001374
 20
19.07406059861894
 30
0.0
 10
16.33819503678882
 20
19.08596846700753
 30
0.0
 10
16.33819503678882
 20
19.0947457581277
 30
0.0
  0
SPLINE
  5
DB
330
1F
100
AcDbEntity
  8
0
  6
Continuous
 62
     7
370
    25
100
AcDbSpline
210
0.0
220
0.0
230
1.0
 70
     8
 71
     3
 72
    14
 73
    10
 74
     0
 42
0.00000001
 43
0.00000001
 40
0.0
 40
0.0
 40
0.0
 40
0.0
 40
0.25
 40
0.25
 40
0.5
 40
0.5
 40
0.75
 40
0.75
 40
1.0
 40
1.0
 40
1.0
 40
1.0
 10
15.02572035434325
 20
18.99517333015824
 30
0.0
 10
15.13694801434434
 20
18.99925176886052
 30
0.0
 10
15.24768983657102
 20
19.00514212978787
 30
0.0
 10
15.46819312620577
 20
19.01795150566018
 30
0.0
 10
15.57795459361383
 20
19.02487052060512
 30
0.0
 10
15.79648849434153
 20
19.03714201408009
 30
0.0
 10
15.90611918639389
 20
19.03952450198659
 30
0.0
 10
16.12497385504251
 20
19.03709606789919
 30
0.0
 10
16.23419783163877
 20
19.0322851459053
 30
0.0
 10
16.34265135109043
 20
19.02403407284199
 30
0.0
  0
SPLINE
  5
DC
330
1F
100
AcDbEntity
  8
0
  6
Continuous
 62
     7
370
    25
100
AcDbSpline
210
0.0
220
0.0
230
1.0
 70
     8
 71
     3
 72
     8
 73
     4
 74
     0
 42
0.00000001
 43
0.00000001
 40
0.0
 40
0.0
 40
0.0
 40
0.0
 40
1.0
 40
1.0
 40
1.0
 40
1.0
 10
19.62572035434325
 20
13.18227107568213
 30
0.0
 10
19.59953994077685
 20
13.18362425013708
 30
0.0
 10
19.57352075334035
 20
13.18183509274675
 30
0.0
 10
19.55500866905754
 20
13.17781476138052
 30
0.0
  0
SPLINE
  5
DD
330
1F
100
AcDbEntity
  8
0
  6
Continuous
 62
     7
370
    25
100
AcDbSpline
210
0.0
220
0.0
230
1.0
 70
     8
 71
     3
 72
    12
 73
     8
 74
     0
 42
0.00000001
 43
0.00000001
 40
0.0
 40
0.0
 40
0.0
 40
0.0
 40
0.25
 40
0.25
 40
0.5
 40
0.5
 40
1.0
 40
1.0
 40
1.0
 40
1.0
 10
19.52614792637379
 20
14.4947457581277
 30
0.0
 10
19.53022636507608
 20
14.38351809812662
 30
0.0
 10
19.53611672600342
 20
14.27277627589994
 30
0.0
 10
19.54892610187573
 20
14.05227298626519
 30
0.0
 10
19.55584511682067
 20
13.94251151885712
 30
0.0
 10
19.57425235703312
 20
13.61471066776557
 30
0.0
 10
19.57151081518416
 20
13.39472180028383
 30
0.0
 10
19.55500866905754
 20
13.17781476138052
 30
0.0
  0
SPLINE
  5
DE
330
1F
100
AcDbEntity
  8
0
  6
Continuous
 62
     7
370
    25
100
AcDbSpline
210
0.0
220
0.0
230
1.0
 70
    24
 71
     3
 72
    10
 73
     6
 74
     0
 42
0.00000001
 43
0.00000001
 40
0.0
 40
0.0
 40
0.0
 40
0.0
 40
0.5
 40
0.5
 40
1.0
 40
1.0
 40
1.0
 40
1.0
 10
19.52614792637379
 20
14.4947457581277
 30
0.0
 10
19.54246168118295
 20
14.4947457581277
 30
0.0
 10
19.55982152504595
 20
14.4947457581277
 30
0.0
 10
19.59547260471188
 20
14.4947457581277
 30
0.0
 10
19.60869566832829
 20
14.4947457581277
 30
0.0
 10
19.62572035434325
 20
14.4947457581277
 30
0.0
  0
SPLINE
  5
DF
330
1F
100
AcDbEntity
  8
0
  6
Continuous
 62
     7
370
    25
100
AcDbSpline
210
0.0
220
0.0
230
1.0
 70
     8
 71
     3
 72
    14
 73
    10
 74
     0
 42
0.00000001
 43
0.00000001
 40
0.0
 40
0.0
 40
0.0
 40
0.0
 40
0.25
 40
0.25
 40
0.5
 40
0.5
 40
0.75
 40
0.75
 40
1.0
 40
1.0
 40
1.0
 40
1.0
 10
15.02572035434325
 20
18.99517333015824
 30
0.0
 10
14.91449269434218
 20
18.99925176886052
 30
0.0
 10
14.80375087211549
 20
19.00514212978788
 30
0.0
 10
14.58324758248074
 20
19.01795150566018
 30
0.0
 10
14.47348611507268
 20
19.02487052060513
 30
0.0
 10
14.25495221434497
 20
19.03714201408009
 30
0.0
 10
14.14532152229261
 20
19.03952450198659
 30
0.0
 10
13.92646685364399
 20
19.03709606789919
 30
0.0
 10
13.81724287704773
 20
19.0322851459053
 30
0.0
 10
13.70878935759608
 20
19.02403407284199
 30
0.0
  0
SPLINE
  5
E0
330
1F
100
AcDbEntity
  8
0
  6
Continuous
 62
     7
370
    25
100
AcDbSpline
210
0.0
220
0.0
230
1.0
 70
     8
 71
     3
 72
     8
 73
     4
 74
     0
 42
0.00000001
 43
0.00000001
 40
0.0
 40
0.0
 40
0.0
 40
0.0
 40
1.0
 40
1.0
 40
1.0
 40
1.0
 10
13.70878935759607
 20
19.02403407284199
 30
0.0
 10
13.7128096889623
 20
19.0425461571248
 30
0.0
 10
13.71459884635264
 20
19.0685653445613
 30
0.0
 10
13.71324567189769
 20
19.0947457581277
 30
0.0
  0
SPLINE
  5
E1
330
1F
100
AcDbEntity
  8
0
  6
Continuous
 62
     7
370
    25
100
AcDbSpline
210
0.0
220
0.0
230
1.0
 70
     8
 71
     3
 72
    12
 73
     8
 74
     0
 42
0.00000001
 43
0.00000001
 40
0.0
 40
0.0
 40
0.0
 40
0.0
 40
0.25
 40
0.25
 40
0.5
 40
0.5
 40
1.0
 40
1.0
 40
1.0
 40
1.0
 10
19.52614792637379
 20
14.4947457581277
 30
0.0
 10
19.53022636507609
 20
14.60597341812878
 30
0.0
 10
19.53611672600344
 20
14.71671524035546
 30
0.0
 10
19.54892610187574
 20
14.93721852999021
 30
0.0
 10
19.55584511682069
 20
15.04697999739828
 30
0.0
 10
19.57425235703312
 20
15.37478084848983
 30
0.0
 10
19.57151081518416
 20
15.59476971597157
 30
0.0
 10
19.55500866905754
 20
15.81167675487488
 30
0.0
  0
SPLINE
  5
E2
330
1F
100
AcDbEntity
  8
0
  6
Continuous
 62
     7
370
    25
100
AcDbSpline
210
0.0
220
0.0
230
1.0
 70
     8
 71
     3
 72
    10
 73
     6
 74
     0
 42
0.00000001
 43
0.00000001
 40
0.0
 40
0.0
 40
0.0
 40
0.0
 40
0.5
 40
0.5
 40
1.0
 40
1.0
 40
1.0
 40
1.0
 10
19.55500866905754
 20
15.81167675487488
 30
0.0
 10
19.56654877492322
 20
15.80937262417393
 30
0.0
 10
19.57983805068457
 20
15.80825854559852
 30
0.0
 10
19.6050351948345
 20
15.8071824537982
 30
0.0
 10
19.61694306322308
 20
15.80722044057327
 30
0.0
 10
19.62572035434325
 20
15.80722044057327
 30
0.0
  0
SPLINE
  5
E3
330
1F
100
AcDbEntity
  8
0
  6
Continuous
 62
     7
370
    25
100
AcDbSpline
210
0.0
220
0.0
230
1.0
 70
     8
 71
     3
 72
    12
 73
     8
 74
     0
 42
0.00000001
 43
0.00000001
 40
0.0
 40
0.0
 40
0.0
 40
0.0
 40
0.25
 40
0.25
 40
0.5
 40
0.5
 40
1.0
 40
1.0
 40
1.0
 40
1.0
 10
19.55500866905754
 20
15.81167675487488
 30
0.0
 10
19.5492386161247
 20
15.81282882022536
 30
0.0
 10
19.54407610248924
 20
15.81428255308556
 30
0.0
 10
19.53554279783114
 20
15.8176892366617
 30
0.0
 10
19.53217200680852
 20
15.81964218737764
 30
0.0
 10
19.52561218368703
 20
15.82609369056347
 30
0.0
 10
19.52572035434325
 20
15.83106033772301
 30
0.0
 10
19.52572035434325
 20
15.83638654462762
 30
0.0
  0
SPLINE
  5
E4
330
1F
100
AcDbEntity
  8
0
  6
Continuous
 62
     7
370
    25
100
AcDbSpline
210
0.0
220
0.0
230
1.0
 70
     8
 71
     3
 72
     8
 73
     4
 74
     0
 42
0.00000001
 43
0.00000001
 40
0.0
 40
0.0
 40
0.0
 40
0.0
 40
1.0
 40
1.0
 40
1.0
 40
1.0
 10
13.68407956784334
 20
18.9947457581277
 30
0.0
 10
13.69309834255093
 20
18.9947457581277
 30
0.0
 10
13.70204447489758
 20
19.00552265999909
 30
0.0
 10
13.70878935759607
 20
19.02403407284199
 30
0.0
  0
SPLINE
  5
E5
330
1F
100
AcDbEntity
  8
0
  6
Continuous
 62
     7
370
    25
100
AcDbSpline
210
0.0
220
0.0
230
1.0
 70
     8
 71
     3
 72
     8
 73
     4
 74
     0
 42
0.00000001
 43
0.00000001
 40
0.0
 40
0.0
 40
0.0
 40
0.0
 40
1.0
 40
1.0
 40
1.0
 40
1.0
 10
19.55500866905754
 20
13.17781476138052
 30
0.0
 10
19.53649725621465
 20
13.17106987868203
 30
0.0
 10
19.52572035434325
 20
13.16212374633537
 30
0.0
 10
19.52572035434326
 20
13.15310497162778
 30
0.0
  0
SPLINE
  5
E6
330
1F
100
AcDbEntity
  8
0
  6
Continuous
 62
     7
370
    25
100
AcDbSpline
210
0.0
220
0.0
230
1.0
 70
     8
 71
     3
 72
    12
 73
     8
 74
     0
 42
0.00000001
 43
0.00000001
 40
0.0
 40
0.0
 40
0.0
 40
0.0
 40
0.25
 40
0.25
 40
0.5
 40
0.5
 40
1.0
 40
1.0
 40
1.0
 40
1.0
 10
16.34265135109043
 20
19.02403407284199
 30
0.0
 10
16.3438034164409
 20
19.01826401990914
 30
0.0
 10
16.34525714930111
 20
19.01310150627368
 30
0.0
 10
16.34866383287726
 20
19.00456820161559
 30
0.0
 10
16.3506167835932
 20
19.00119741059297
 30
0.0
 10
16.35706828677903
 20
18.99463758747148
 30
0.0
 10
16.36203493393856
 20
18.9947457581277
 30
0.0
 10
16.36736114084317
 20
18.9947457581277
 30
0.0
  0
LINE
  5
E7
330
1F
100
AcDbEntity
  8
0
  6
Continuous
 62
     7
370
    25
100
AcDbLine
 10
18.271532268
 20
12.691189807
 30
0.0
 11
18.1773734929
 21
12.6575130335
 31
0.0
  0
LINE
  5
E8
330
1F
100
AcDbEntity
  8
0
  6
Continuous
 62
     7
370
    25
100
AcDbLine
 10
18.1773734929
 20
12.6575130335
 30
0.0
 11
17.4670836537
 21
14.6434521282
 31
0.0
  0
SPLINE
  5
E9
330
1F
100
AcDbEntity
  8
0
  6
Continuous
 62
     7
370
    25
100
AcDbSpline
210
0.0
220
0.0
230
1.0
 70
     8
 71
     3
 72
    23
 73
    19
 74
     0
 42
0.00000001
 43
0.00000001
 40
0.0
 40
0.0
 40
0.0
 40
0.0
 40
0.0000335401906397
 40
0.0000335401906397
 40
0.0000335401906397
 40
0.0000670788044387
 40
0.0000670788044387
 40
0.0000670788044387
 40
0.0001006422835424
 40
0.0001006422835424
 40
0.0001006422835424
 40
0.0001342535319641
 40
0.0001342535319641
 40
0.0001342535319641
 40
0.0001499408123296
 40
0.0001499408123296
 40
0.0001499408123296
 40
0.0001563508302713
 40
0.0001563508302713
 40
0.0001563508302713
 40
0.0001563508302713
 10
17.46708365367444
 20
14.64345212820751
 30
0.0
 10
17.46708365367444
 20
14.64345212820751
 30
0.0
 10
17.46886312018539
 20
14.64420271111799
 30
0.0
 10
17.47227461829013
 20
14.64563906427142
 30
0.0
 10
17.47568602680756
 20
14.64707537970565
 30
0.0
 10
17.48082325969332
 20
14.64923665864753
 30
0.0
 10
17.4872617945473
 20
14.65193810402455
 30
0.0
 10
17.49370514091838
 20
14.65464156819171
 30
0.0
 10
17.501629072657
 20
14.65796004553315
 30
0.0
 10
17.51037995445674
 20
14.66161362110403
 30
0.0
 10
17.51914311430936
 20
14.66527232287762
 30
0.0
 10
17.52897693856154
 20
14.6693676247371
 30
0.0
 10
17.53906949319786
 20
14.67355817382273
 30
0.0
 10
17.54383263775428
 20
14.67553588826521
 30
0.0
 10
17.5486972924269
 20
14.6775531473836
 30
0.0
 10
17.55357252840648
 20
14.67957220969766
 30
0.0
 10
17.55554256715838
 20
14.68038809451183
 30
0.0
 10
17.55751794290459
 20
14.68120536159272
 30
0.0
 10
17.55949216421715
 20
14.68202256426671
 30
0.0
  0
SPLINE
  5
EA
330
1F
100
AcDbEntity
  8
0
  6
Continuous
 62
     7
370
    25
100
AcDbSpline
210
0.0
220
0.0
230
1.0
 70
     8
 71
     3
 72
    23
 73
    19
 74
     0
 42
0.00000001
 43
0.00000001
 40
0.0
 40
0.0
 40
0.0
 40
0.0
 40
0.0000335401906397
 40
0.0000335401906397
 40
0.0000335401906397
 40
0.0000670788044387
 40
0.0000670788044387
 40
0.0000670788044387
 40
0.0001006422835424
 40
0.0001006422835424
 40
0.0001006422835424
 40
0.0001342535319641
 40
0.0001342535319641
 40
0.0001342535319641
 40
0.0001499408123296
 40
0.0001499408123296
 40
0.0001499408123296
 40
0.0001563508302713
 40
0.0001563508302713
 40
0.0001563508302713
 40
0.0001563508302713
 10
16.80060160839833
 20
14.64345212820744
 30
0.0
 10
16.80060160839833
 20
14.64345212820744
 30
0.0
 10
16.79882214188724
 20
14.64420271111761
 30
0.0
 10
16.79541064378251
 20
14.64563906427104
 30
0.0
 10
16.79199923526508
 20
14.64707537970527
 30
0.0
 10
16.78686200237932
 20
14.64923665864715
 30
0.0
 10
16.78042346752534
 20
14.65193810402417
 30
0.0
 10
16.77398012115425
 20
14.65464156819132
 30
0.0
 10
16.76605618941563
 20
14.65796004553277
 30
0.0
 10
16.75730530761589
 20
14.66161362110364
 30
0.0
 10
16.74854214776327
 20
14.66527232287723
 30
0.0
 10
16.73870832351109
 20
14.6693676247367
 30
0.0
 10
16.72861576887477
 20
14.67355817382233
 30
0.0
 10
16.72385262431835
 20
14.6755358882648
 30
0.0
 10
16.71898796964574
 20
14.67755314738319
 30
0.0
 10
16.71411273366618
 20
14.67957220969725
 30
0.0
 10
16.71214269491427
 20
14.68038809451142
 30
0.0
 10
16.71016731916804
 20
14.68120536159231
 30
0.0
 10
16.70819309785548
 20
14.68202256426631
 30
0.0
  0
LINE
  5
EB
330
1F
100
AcDbEntity
  8
0
  6
Continuous
 62
     7
370
    25
100
AcDbLine
 10
16.8006016084
 20
14.6434521282
 30
0.0
 11
16.0904772927
 21
12.65797583
 31
0.0
  0
LINE
  5
EC
330
1F
100
AcDbEntity
  8
0
  6
Continuous
 62
     7
370
    25
100
AcDbLine
 10
15.9963185176
 20
12.6916526036
 30
0.0
 11
16.0904772927
 21
12.65797583
 31
0.0
  0
SPLINE
  5
ED
330
1F
100
AcDbEntity
  8
0
  6
Continuous
 62
     7
370
    25
100
AcDbSpline
210
0.0
220
0.0
230
1.0
 70
     8
 71
     3
 72
    10
 73
     6
 74
     0
 42
0.00000001
 43
0.00000001
 40
0.0
 40
0.0
 40
0.0
 40
0.0
 40
0.5
 40
0.5
 40
1.0
 40
1.0
 40
1.0
 40
1.0
 10
17.46708365367446
 20
14.64345212820751
 30
0.0
 10
17.40643447124324
 20
14.76759858876023
 30
0.0
 10
17.27226369543142
 20
14.84577361823621
 30
0.0
 10
16.99628407068894
 20
14.8460822239681
 30
0.0
 10
16.86123896942205
 20
14.76757439080942
 30
0.0
 10
16.80060160839854
 20
14.64345212820786
 30
0.0
  0
LINE
  5
EE
330
1F
100
AcDbEntity
  8
0
  6
Continuous
 62
     7
370
    25
100
AcDbLine
 10
15.5853403177
 20
12.5474660559
 30
0.0
 11
15.5371275181
 21
12.4598559768
 31
0.0
  0
LINE
  5
EF
330
1F
100
AcDbEntity
  8
0
  6
Continuous
 62
     7
370
    25
100
AcDbLine
 10
15.5371275181
 20
12.4598559768
 30
0.0
 11
15.5080424387
 21
12.4758618191
 31
0.0
  0
LINE
  5
F0
330
1F
100
AcDbEntity
  8
0
  6
Continuous
 62
     7
370
    25
100
AcDbLine
 10
15.2651173396
 20
12.7236883175
 30
0.0
 11
15.5080424387
 21
12.4758618191
 31
0.0
  0
LINE
  5
F1
330
1F
100
AcDbEntity
  8
0
  6
Continuous
 62
     7
370
    25
100
AcDbLine
 10
19.0257203543
 20
17.9947457581
 30
0.0
 11
19.4257203543
 21
17.9947457581
 31
0.0
  0
LINE
  5
F2
330
1F
100
AcDbEntity
  8
0
  6
Continuous
 62
     7
370
    25
100
AcDbLine
 10
19.4257203543
 20
17.9947457581
 30
0.0
 11
19.4257203543
 21
17.8947457581
 31
0.0
  0
LINE
  5
F3
330
1F
100
AcDbEntity
  8
0
  6
Continuous
 62
     7
370
    25
100
AcDbLine
 10
19.0257203543
 20
17.9947457581
 30
0.0
 11
19.0257203543
 21
17.8947457581
 31
0.0
  0
LINE
  5
F4
330
1F
100
AcDbEntity
  8
0
  6
Continuous
 62
     7
370
    25
100
AcDbLine
 10
18.4257203543
 20
18.8947457581
 30
0.0
 11
18.5257203543
 21
18.8947457581
 31
0.0
  0
LINE
  5
F5
330
1F
100
AcDbEntity
  8
0
  6
Continuous
 62
     7
370
    25
100
AcDbLine
 10
18.5257203543
 20
18.8947457581
 30
0.0
 11
18.5257203543
 21
18.4947457581
 31
0.0
  0
LINE
  5
F6
330
1F
100
AcDbEntity
  8
0
  6
Continuous
 62
     7
370
    25
100
AcDbLine
 10
18.4257203543
 20
18.4947457581
 30
0.0
 11
18.5257203543
 21
18.4947457581
 31
0.0
  0
ARC
  5
F7
330
1F
100
AcDbEntity
  8
0
  6
Continuous
 62
     7
370
    25
100
AcDbCircle
 10
13.5257203543
 20
12.9947457581
 30
0.0
 40
2.0
100
AcDbArc
 50
180.0
 51
270.0
  0
LINE
  5
F8
330
1F
100
AcDbEntity
  8
0
  6
Continuous
 62
     7
370
    25
100
AcDbLine
 10
11.5257203543
 20
12.9947457581
 30
0.0
 11
11.6257203543
 21
12.9947457581
 31
0.0
  0
LINE
  5
F9
330
1F
100
AcDbEntity
  8
0
  6
Continuous
 62
     7
370
    25
100
AcDbLine
 10
13.5257203543
 20
11.0947457581
 30
0.0
 11
13.5257203543
 21
10.9947457581
 31
0.0
  0
LINE
  5
FA
330
1F
100
AcDbEntity
  8
0
  6
Continuous
 62
     7
370
    25
100
AcDbLine
 10
18.7596428234
 20
12.4758618191
 30
0.0
 11
18.7361571808
 21
12.462440706
 31
0.0
  0
LINE
  5
FB
330
1F
100
AcDbEntity
  8
0
  6
Continuous
 62
     7
370
    25
100
AcDbLine
 10
18.7361571808
 20
12.462440706
 30
0.0
 11
18.6865412083
 21
12.5492638324
 31
0.0
  0
LINE
  5
FC
330
1F
100
AcDbEntity
  8
0
  6
Continuous
 62
     7
370
    25
100
AcDbLine
 10
18.7596428234
 20
12.4758618191
 30
0.0
 11
19.0071917663
 21
12.7325029064
 31
0.0
  0
SPLINE
  5
FD
330
1F
100
AcDbEntity
  8
0
  6
Continuous
 62
     7
370
    25
100
AcDbSpline
210
0.0
220
0.0
230
1.0
 70
     8
 71
     3
 72
    10
 73
     6
 74
     0
 42
0.00000001
 43
0.00000001
 40
0.0
 40
0.0
 40
0.0
 40
0.0
 40
0.5
 40
0.5
 40
1.0
 40
1.0
 40
1.0
 40
1.0
 10
16.09047729271459
 20
12.65797583002988
 30
0.0
 10
16.05266016447519
 20
12.55224080571586
 30
0.0
 10
15.96404298475815
 20
12.46949925662223
 30
0.0
 10
15.75534185731832
 20
12.39680884858942
 30
0.0
 10
15.63540756578646
 20
12.40577137497509
 30
0.0
 10
15.53712751808346
 20
12.45985597683284
 30
0.0
  0
LINE
  5
FE
330
1F
100
AcDbEntity
  8
0
  6
Continuous
 62
     7
370
    25
100
AcDbLine
 10
19.4257203543
 20
11.0947457581
 30
0.0
 11
19.4257203543
 21
10.9947457581
 31
0.0
  0
LINE
  5
FF
330
1F
100
AcDbEntity
  8
0
  6
Continuous
 62
     7
370
    25
100
AcDbLine
 10
19.4257203543
 20
10.9947457581
 30
0.0
 11
13.5257203543
 21
10.9947457581
 31
0.0
  0
ARC
  5
100
330
1F
100
AcDbEntity
  8
0
  6
Continuous
 62
     7
370
    25
100
AcDbCircle
 10
19.0257203543
 20
18.4947457581
 30
0.0
 40
0.5
100
AcDbArc
 50
180.0
 51
270.0
  0
LINE
  5
101
330
1F
100
AcDbEntity
  8
0
  6
Continuous
 62
     7
370
    25
100
AcDbLine
 10
11.5257203543
 20
12.9947457581
 30
0.0
 11
11.5257203543
 21
18.8947457581
 31
0.0
  0
LINE
  5
102
330
1F
100
AcDbEntity
  8
0
  6
Continuous
 62
     7
370
    25
100
AcDbLine
 10
11.5257203543
 20
18.8947457581
 30
0.0
 11
11.6257203543
 21
18.8947457581
 31
0.0
  0
LINE
  5
103
330
1F
100
AcDbEntity
  8
0
  6
Continuous
 62
     7
370
    25
100
AcDbLine
 10
15.5080424387
 20
12.4758618191
 30
0.0
 11
15.9570397445
 21
11.6199231709
 31
0.0
  0
LINE
  5
104
330
1F
100
AcDbEntity
  8
0
  6
Continuous
 62
     7
370
    25
100
AcDbLine
 10
15.9570397445
 20
11.6199231709
 30
0.0
 11
15.8684841839
 21
11.573469832
 31
0.0
  0
SPLINE
  5
105
330
1F
100
AcDbEntity
  8
0
  6
Continuous
 62
     7
370
    25
100
AcDbSpline
210
0.0
220
0.0
230
1.0
 70
     8
 71
     3
 72
    23
 73
    19
 74
     0
 42
0.00000001
 43
0.00000001
 40
0.0
 40
0.0
 40
0.0
 40
0.0
 40
0.0000054523451471
 40
0.0000054523451471
 40
0.0000054523451471
 40
0.0000215286296671
 40
0.0000215286296671
 40
0.0000215286296671
 40
0.0000382514358266
 40
0.0000382514358266
 40
0.0000382514358266
 40
0.0000552347046226
 40
0.0000552347046226
 40
0.0000552347046226
 40
0.0000720169920566
 40
0.0000720169920566
 40
0.0000720169920566
 40
0.000088430616498
 40
0.000088430616498
 40
0.000088430616498
 40
0.000088430616498
 10
15.95703974447017
 20
11.61992317091621
 30
0.0
 10
15.9578840099266
 20
11.61831371931346
 30
0.0
 10
15.95882818061743
 20
11.61675299089833
 30
0.0
 10
15.95986052355379
 20
11.61525720124592
 30
0.0
 10
15.96286460299473
 20
11.61090450914674
 30
0.0
 10
15.96669065852695
 20
11.60703243636844
 30
0.0
 10
15.97098220854848
 20
11.60394164032043
 30
0.0
 10
15.97544524375799
 20
11.60072733977202
 30
0.0
 10
15.98053913160072
 20
11.59826226866013
 30
0.0
 10
15.98581922434304
 20
11.59672245310971
 30
0.0
 10
15.99118190590131
 20
11.59515855246282
 30
0.0
 10
15.99688840674339
 20
11.59450265382433
 30
0.0
 10
16.00246662803373
 20
11.59479860308484
 30
0.0
 10
16.00798013060542
 20
11.59509111873168
 30
0.0
 10
16.01352050563021
 20
11.59632156744322
 30
0.0
 10
16.0186323472475
 20
11.59840803606063
 30
0.0
 10
16.02363180667331
 20
11.60044863433752
 30
0.0
 10
16.02835782408606
 20
11.60336633752416
 30
0.0
 10
16.03239632216999
 20
11.60695091129299
 30
0.0
  0
LINE
  5
106
330
1F
100
AcDbEntity
  8
0
  6
Continuous
 62
     7
370
    25
100
AcDbLine
 10
16.0323963222
 20
11.6069509113
 30
0.0
 11
16.0987788706
 21
11.5321621604
 31
0.0
  0
SPLINE
  5
107
330
1F
100
AcDbEntity
  8
0
  6
Continuous
 62
     7
370
    25
100
AcDbSpline
210
0.0
220
0.0
230
1.0
 70
     8
 71
     3
 72
    14
 73
    10
 74
     0
 42
0.00000001
 43
0.00000001
 40
0.0
 40
0.0
 40
0.0
 40
0.0
 40
0.4999999999999993
 40
0.4999999999999993
 40
0.6249999999999996
 40
0.6249999999999996
 40
0.7499999999999999
 40
0.7499999999999999
 40
1.0
 40
1.0
 40
1.0
 40
1.0
 10
16.03239632217158
 20
11.6069509112944
 30
0.0
 10
16.33496603999406
 20
11.87551200784626
 30
0.0
 10
16.73271905291298
 20
12.02006924958121
 30
0.0
 10
17.23406761468814
 20
12.02008247440925
 30
0.0
 10
17.33527660484459
 20
12.01103731069177
 30
0.0
 10
17.531805760348
 20
11.97568861364128
 30
0.0
 10
17.62813763863741
 20
11.94943948561232
 30
0.0
 10
17.91110953211549
 20
11.84396665599395
 30
0.0
 10
18.08398894250932
 20
11.74124489649659
 30
0.0
 10
18.23528893990136
 20
11.60695091129433
 30
0.0
  0
LINE
  5
108
330
1F
100
AcDbEntity
  8
0
  6
Continuous
 62
     7
370
    25
100
AcDbLine
 10
18.2352889399
 20
11.6069509113
 30
0.0
 11
18.1689063915
 21
11.5321621604
 31
0.0
  0
SPLINE
  5
109
330
1F
100
AcDbEntity
  8
0
  6
Continuous
 62
     7
370
    25
100
AcDbSpline
210
0.0
220
0.0
230
1.0
 70
     8
 71
     3
 72
    23
 73
    19
 74
     0
 42
0.00000001
 43
0.00000001
 40
0.0
 40
0.0
 40
0.0
 40
0.0
 40
0.0000062336341986
 40
0.0000062336341986
 40
0.0000062336341986
 40
0.0000229838733481
 40
0.0000229838733481
 40
0.0000229838733481
 40
0.0000399511377778
 40
0.0000399511377778
 40
0.0000399511377778
 40
0.0000566277009136
 40
0.0000566277009136
 40
0.0000566277009136
 40
0.0000727324427906
 40
0.0000727324427906
 40
0.0000727324427906
 40
0.0000883415521142
 40
0.0000883415521142
 40
0.0000883415521142
 40
0.0000883415521142
 10
18.2352889399014
 20
11.60695091129438
 30
0.0
 10
18.23684295895239
 20
11.60557156288039
 30
0.0
 10
18.23849209972224
 20
11.60429277478784
 30
0.0
 10
18.24021354029157
 20
11.60312906536351
 30
0.0
 10
18.24478142527186
 20
11.60004113372328
 30
0.0
 10
18.24995820939233
 20
11.59772133232294
 30
0.0
 10
18.25529455498001
 20
11.59633413703142
 30
0.0
 10
18.26070053418016
 20
11.5949288403224
 30
0.0
 10
18.26642294582776
 20
11.59443896032324
 30
0.0
 10
18.27198977140272
 20
11.5948971338393
 30
0.0
 10
18.27746302961137
 20
11.59534760636156
 30
0.0
 10
18.28293588478062
 20
11.59672687865729
 30
0.0
 10
18.28796045086702
 20
11.5989434563246
 30
0.0
 10
18.29281420387652
 20
11.6010846801315
 30
0.0
 10
18.29737894553836
 20
11.6040663628593
 30
0.0
 10
18.30126427953538
 20
11.607678555739
 30
0.0
 10
18.30503000082853
 20
11.61117954475369
 30
0.0
 10
18.30825700359619
 20
11.61536986642367
 30
0.0
 10
18.31064551760176
 20
11.61992317091424
 30
0.0
  0
LINE
  5
10A
330
1F
100
AcDbEntity
  8
0
  6
Continuous
 62
     7
370
    25
100
AcDbLine
 10
18.3106455176
 20
11.6199231709
 30
0.0
 11
18.3992010782
 21
11.573469832
 31
0.0
  0
ARC
  5
10B
330
1F
100
AcDbEntity
  8
0
  6
Continuous
 62
     7
370
    25
100
AcDbCircle
 10
19.4257203543
 20
17.8947457581
 30
0.0
 40
0.1000000000000014
100
AcDbArc
 50
0.0
 51
90.0
  0
LINE
  5
10C
330
1F
100
AcDbEntity
  8
0
  6
Continuous
 62
     7
370
    25
100
AcDbLine
 10
18.3106455176
 20
11.6199231709
 30
0.0
 11
18.7596428234
 21
12.4758618191
 31
0.0
  0
ARC
  5
10D
330
1F
100
AcDbEntity
  8
0
  6
Continuous
 62
     7
370
    25
100
AcDbCircle
 10
11.6257203543
 20
18.8947457581
 30
0.0
 40
0.0999999999999979
100
AcDbArc
 50
90.0
 51
180.0
  0
ELLIPSE
  5
10E
330
1F
100
AcDbEntity
  8
0
  6
Continuous
 62
     7
370
    25
100
AcDbEllipse
 10
16.9626078516
 20
12.7037528136
 30
0.0
 11
-0.04781765271718186
 21
0.0
 31
0.0
210
0.0
220
0.0
230
1.0
 40
0.9531667975
 41
5.940161364898075
 42
7.853981633974483
  0
LINE
  5
10F
330
1F
100
AcDbEntity
  8
0
  6
Continuous
 62
     7
370
    25
100
AcDbLine
 10
16.917575964
 20
12.7190824209
 30
0.0
 11
17.0888107445
 21
13.1760852789
 31
0.0
  0
LINE
  5
110
330
1F
100
AcDbEntity
  8
0
  6
Continuous
 62
     7
370
    25
100
AcDbLine
 10
17.3050774107
 20
12.6581746147
 30
0.0
 11
16.9626078516
 21
12.6581746147
 31
0.0
  0
ELLIPSE
  5
111
330
1F
100
AcDbEntity
  8
0
  6
Continuous
 62
     7
370
    25
100
AcDbEllipse
 10
17.3050774107
 20
12.7037528136
 30
0.0
 11
0.04781765271718541
 21
0.0
 31
0.0
210
0.0
220
0.0
230
1.0
 40
0.9531667975
 41
4.712388980384703
 42
6.626209245739817
  0
LINE
  5
112
330
1F
100
AcDbEntity
  8
0
  6
Continuous
 62
     7
370
    25
100
AcDbLine
 10
17.1788745199
 20
13.1760852789
 30
0.0
 11
17.3501092984
 21
12.7190824207
 31
0.0
  0
ELLIPSE
  5
113
330
1F
100
AcDbEntity
  8
0
  6
Continuous
 62
     7
370
    25
100
AcDbEllipse
 10
17.1338426322
 20
13.1607556717
 30
0.0
 11
0.04781765271718541
 21
0.0
 31
0.0
210
0.0
220
0.0
230
1.0
 40
0.9531667975
 41
0.3430239404215058
 42
2.798568713169121
  0
SPLINE
  5
114
330
1F
100
AcDbEntity
  8
0
  6
Continuous
 62
     7
370
    25
100
AcDbSpline
210
0.0
220
0.0
230
1.0
 70
     8
 71
     3
 72
    10
 73
     6
 74
     0
 42
0.00000001
 43
0.00000001
 40
0.0
 40
0.0
 40
0.0
 40
0.0
 40
0.5
 40
0.5
 40
1.0
 40
1.0
 40
1.0
 40
1.0
 10
18.73615718082362
 20
12.46244070600431
 30
0.0
 10
18.63798595468124
 20
12.40633974462183
 30
0.0
 10
18.51707533767263
 20
12.39568795682478
 30
0.0
 10
18.30503698572707
 20
12.46770113219797
 30
0.0
 10
18.21548660886334
 20
12.55095044054998
 30
0.0
 10
18.17737349291123
 20
12.65751303346706
 30
0.0
  0
ARC
  5
115
330
1F
100
AcDbEntity
  8
0
  6
Continuous
 62
     7
370
    25
100
AcDbCircle
 10
19.4257203543
 20
11.0947457581
 30
0.0
 40
0.1000000000000014
100
AcDbArc
 50
270.0
 51
0.0
  0
ARC
  5
116
330
1F
100
AcDbEntity
  8
0
  6
Continuous
 62
     7
370
    25
100
AcDbCircle
 10
18.4257203543
 20
18.8947457581
 30
0.0
 40
0.1000000000000014
100
AcDbArc
 50
0.0
 51
90.0
  0
ARC
  5
117
330
1F
100
AcDbEntity
  8
0
  6
Continuous
 62
     7
370
    25
100
AcDbCircle
 10
18.4410656229
 20
19.0834036031
 30
0.0
 40
0.0899760565095
100
AcDbArc
 50
172.7581719502
 51
260.1802968299
  0
ARC
  5
118
330
1F
100
AcDbEntity
  8
0
  6
Continuous
 62
     7
370
    25
100
AcDbCircle
 10
19.6143781993
 20
11.0794004896
 30
0.0
 40
0.0899760565094991
100
AcDbArc
 50
82.7581719502
 51
170.1802968299
  0
ARC
  5
119
330
1F
100
AcDbEntity
  8
0
  6
Continuous
 62
     7
370
    25
100
AcDbCircle
 10
19.6143781993
 20
17.9100910267
 30
0.0
 40
0.0899760565094949
100
AcDbArc
 50
189.8197031701
 51
277.2418280498
  0
ARC
  5
11A
330
1F
100
AcDbEntity
  8
0
  6
Continuous
 62
     7
370
    25
100
AcDbCircle
 10
11.6103750858
 20
19.0834036031
 30
0.0
 40
0.0899760565095034
100
AcDbArc
 50
279.8197031701
 51
7.2418280498
  0
LWPOLYLINE
  5
11B
330
1F
100
AcDbEntity
  8
0
  6
Continuous
 62
     7
370
    25
100
AcDbPolyline
 90
        9
 70
   128
 43
0.0
 10
13.0936201709
 20
11.0169654279
 10
13.0964201683
 20
11.0220214579
 10
13.0991979297
 20
11.0264235917
 10
13.1019313958
 20
11.03013687
 10
13.1045988591
 20
11.0331318042
 10
13.107179136
 20
11.0353846102
 10
13.1096517356
 20
11.0368773976
 10
13.111997022
 20
11.0375983116
 10
13.1141963701
 20
11.0375416271
  0
SPLINE
  5
11C
330
1F
100
AcDbEntity
  8
0
  6
Continuous
 62
     7
370
    25
100
AcDbSpline
210
0.0
220
0.0
230
1.0
 70
     8
 71
     3
 72
    12
 73
     8
 74
     0
 42
0.00000001
 43
0.00000001
 40
0.0
 40
0.0
 40
0.0
 40
0.0
 40
0.25
 40
0.25
 40
0.5
 40
0.5
 40
1.0
 40
1.0
 40
1.0
 40
1.0
 10
13.09362017089315
 20
11.01696542791751
 30
0.0
 10
12.906671310157
 20
11.05530685437444
 30
0.0
 10
12.72725107685812
 20
11.11952503932392
 30
0.0
 10
12.38469322428814
 20
11.30260951385319
 30
0.0
 10
12.22789662871906
 20
11.41861958305403
 30
0.0
 10
11.81392496366496
 20
11.83183126987134
 30
0.0
 10
11.62464055094089
 20
12.188661677112
 30
0.0
 10
11.54794002413307
 20
12.56264557467759
 30
0.0
  0
LWPOLYLINE
  5
11D
330
1F
100
AcDbEntity
  8
0
  6
Continuous
 62
     7
370
    25
100
AcDbPolyline
 90
        9
 70
   128
 43
0.0
 10
11.5685162233
 20
12.5832217739
 10
11.5685729079
 20
12.5810224257
 10
11.5678519939
 20
12.5786771394
 10
11.5663592064
 20
12.5762045398
 10
11.5641064004
 20
12.5736242628
 10
11.5611114662
 20
12.5709567996
 10
11.5573981879
 20
12.5682233335
 10
11.5529960542
 20
12.565445572
 10
11.5479400241
 20
12.5626455747
  0
LINE
  5
11E
330
1F
100
AcDbEntity
  8
0
  6
Continuous
 62
     7
370
    25
100
AcDbLine
 10
18.5257203543
 20
18.8947457581
 30
0.0
 11
18.5474594848
 21
18.8947457581
 31
0.0
  0
LINE
  5
11F
330
1F
100
AcDbEntity
  8
0
  6
Continuous
 62
     7
370
    25
100
AcDbLine
 10
19.4257203543
 20
10.9730066277
 30
0.0
 11
19.4257203543
 21
10.9947457581
 31
0.0
  0
LINE
  5
120
330
1F
100
AcDbEntity
  8
0
  6
Continuous
 62
     7
370
    25
100
AcDbLine
 10
19.4257203543
 20
18.0164848886
 30
0.0
 11
19.4257203543
 21
17.9947457581
 31
0.0
  0
LINE
  5
121
330
1F
100
AcDbEntity
  8
0
  6
Continuous
 62
     7
370
    25
100
AcDbLine
 10
11.5257203543
 20
18.8947457581
 30
0.0
 11
11.5039812239
 21
18.8947457581
 31
0.0
  0
LINE
  5
122
330
1F
100
AcDbEntity
  8
0
  6
Continuous
 62
     7
370
    25
100
AcDbLine
 10
13.5257203543
 20
10.9730066277
 30
0.0
 11
13.5257203543
 21
10.9947457581
 31
0.0
  0
LINE
  5
123
330
1F
100
AcDbEntity
  8
0
  6
Continuous
 62
     7
370
    25
100
AcDbLine
 10
11.5257203543
 20
12.9947457581
 30
0.0
 11
11.5039812239
 21
12.9947457581
 31
0.0
  0
SPLINE
  5
124
330
1F
100
AcDbEntity
  8
0
  6
Continuous
 62
     7
370
    25
100
AcDbSpline
210
0.0
220
0.0
230
1.0
 70
    24
 71
     3
 72
    17
 73
    13
 74
     0
 42
0.00000001
 43
0.00000001
 40
0.0
 40
0.0
 40
0.0
 40
0.0
 40
0.0000507892261014
 40
0.0000507892261014
 40
0.0000507892261014
 40
0.0001012206134828
 40
0.0001012206134828
 40
0.0001012206134828
 40
0.0001277276396247
 40
0.0001277276396247
 40
0.0001277276396247
 40
0.0001298530789872
 40
0.0001298530789872
 40
0.0001298530789872
 40
0.0001298530789872
 10
18.70496703740957
 20
18.17399244119397
 30
0.0
 10
18.69651954028063
 20
18.16554494406502
 30
0.0
 10
18.6896538028288
 20
18.15867920661324
 30
0.0
 10
18.68448689706699
 20
18.15351230085144
 30
0.0
 10
18.67934300132585
 20
18.14836840511029
 30
0.0
 10
18.6757478538098
 20
18.14477325759425
 30
0.0
 10
18.67382714998406
 20
18.14285255376851
 30
0.0
 10
18.67281034540191
 20
18.14183574918635
 30
0.0
 10
18.67225243440607
 20
18.14127783819051
 30
0.0
 10
18.67217606531302
 20
18.14120146909746
 30
0.0
 10
18.67217000135694
 20
18.14119540514139
 30
0.0
 10
18.67216696375
 20
18.14119236753444
 30
0.0
 10
18.67216696374998
 20
18.14119236753442
 30
0.0
  0
LINE
  5
125
330
1F
100
AcDbEntity
  8
0
  6
Continuous
 62
     7
370
    25
100
AcDbLine
 10
18.5257203543
 20
18.4947457581
 30
0.0
 11
18.5474594848
 21
18.4947457581
 31
0.0
  0
LINE
  5
126
330
1F
100
AcDbEntity
  8
0
  6
Continuous
 62
     7
370
    25
100
AcDbLine
 10
19.0257203543
 20
18.0164848886
 30
0.0
 11
19.0257203543
 21
17.9947457581
 31
0.0
  0
LINE
  5
127
330
1F
100
AcDbEntity
  8
0
  6
Continuous
 62
     7
370
    25
100
AcDbLine
 10
22.7257203543
 20
9.9947457581
 30
0.0
 11
22.7257203543
 21
18.9947457581
 31
0.0
  0
LINE
  5
128
330
1F
100
AcDbEntity
  8
0
  6
Continuous
 62
     7
370
    25
100
AcDbLine
 10
19.5257203543
 20
22.1947457581
 30
0.0
 11
10.5257203543
 21
22.1947457581
 31
0.0
  0
LINE
  5
129
330
1F
100
AcDbEntity
  8
0
  6
Continuous
 62
     7
370
    25
100
AcDbLine
 10
10.5257203543
 20
11.9947457581
 30
0.0
 11
11.5479400241
 21
12.5626455747
 31
0.0
  0
LINE
  5
12A
330
1F
100
AcDbEntity
  8
0
  6
Continuous
 62
     7
370
    25
100
AcDbLine
 10
13.0936201709
 20
11.0169654279
 30
0.0
 11
12.5257203543
 21
9.9947457581
 31
0.0
  0
LINE
  5
12B
330
1F
100
AcDbEntity
  8
0
  6
CENTERX2
 62
     7
370
    18
100
AcDbLine
 10
8.6420654441
 20
14.4947457581
 30
0.0
 11
36.663943069
 21
14.4947457581
 31
0.0
  0
LINE
  5
12C
330
1F
100
AcDbEntity
  8
0
  6
CENTERX2
 62
     7
370
    18
100
AcDbLine
 10
15.0257203543
 20
7.8859602999
 30
0.0
 11
15.0257203543
 21
36.1738684085
 31
0.0
  0
LINE
  5
12D
330
1F
100
AcDbEntity
  8
0
  6
Continuous
 62
     7
370
    25
100
AcDbLine
 10
56.7767440936
 20
34.098742141
 30
0.0
 11
56.5267440936
 21
34.2430797083
 31
0.0
  0
LINE
  5
12E
330
1F
100
AcDbEntity
  8
0
  6
Continuous
 62
     7
370
    25
100
AcDbLine
 10
45.0267440936
 20
34.2430797083
 30
0.0
 11
44.7767440936
 21
34.098742141
 31
0.0
  0
LINE
  5
12F
330
1F
100
AcDbEntity
  8
0
  6
Continuous
 62
     7
370
    25
100
AcDbLine
 10
44.7767440936
 20
23.3874172756
 30
0.0
 11
45.0267440936
 21
23.2430797083
 31
0.0
  0
LINE
  5
130
330
1F
100
AcDbEntity
  8
0
  6
Continuous
 62
     7
370
    25
100
AcDbLine
 10
56.5267440936
 20
23.2430797083
 30
0.0
 11
56.7767440936
 21
23.3874172756
 31
0.0
  0
LINE
  5
131
330
1F
100
AcDbEntity
  8
0
  6
Continuous
 62
     7
370
    25
100
AcDbLine
 10
45.9127440936
 20
23.2430797083
 30
0.0
 11
45.9127440936
 21
22.4947457581
 31
0.0
  0
LINE
  5
132
330
1F
100
AcDbEntity
  8
0
  6
Continuous
 62
     7
370
    25
100
AcDbLine
 10
55.6407440936
 20
22.4947457581
 30
0.0
 11
55.6407440936
 21
23.2430797083
 31
0.0
  0
ARC
  5
133
330
1F
100
AcDbEntity
  8
0
  6
Continuous
 62
     7
370
    25
100
AcDbCircle
 10
45.9767440936
 20
22.1947457581
 30
0.0
 40
0.3000000000000043
100
AcDbArc
 50
0.0
 51
90.0
  0
ARC
  5
134
330
1F
100
AcDbEntity
  8
0
  6
Continuous
 62
     7
370
    25
100
AcDbCircle
 10
55.5767440936
 20
22.1947457581
 30
0.0
 40
0.2999999999999972
100
AcDbArc
 50
90.0
 51
180.0
  0
LINE
  5
135
330
1F
100
AcDbEntity
  8
0
  6
Continuous
 62
     7
370
    25
100
AcDbLine
 10
55.2767440936
 20
19.0947457581
 30
0.0
 11
55.2767440936
 21
22.1947457581
 31
0.0
  0
LINE
  5
136
330
1F
100
AcDbEntity
  8
0
  6
Continuous
 62
     7
370
    25
100
AcDbLine
 10
46.2767440936
 20
22.1947457581
 30
0.0
 11
46.2767440936
 21
19.0947457581
 31
0.0
  0
SPLINE
  5
137
330
1F
100
AcDbEntity
  8
0
  6
Continuous
 62
     7
370
    25
100
AcDbSpline
210
0.0
220
0.0
230
1.0
 70
    24
 71
     3
 72
    12
 73
     8
 74
     0
 42
0.00000001
 43
0.00000001
 40
0.0
 40
0.0
 40
0.0
 40
0.0
 40
0.0072774322624964
 40
0.258343472159945
 40
0.5161017837315348
 40
0.7739316757330855
 40
0.9999999999999999
 40
0.9999999999999999
 40
0.9999999999999999
 40
0.9999999999999999
 10
56.77674409358446
 20
34.09737539358507
 30
0.0
 10
56.77674409358446
 20
34.09772010637863
 30
0.0
 10
56.77674409358446
 20
34.10995715603768
 30
0.0
 10
56.77674409358446
 20
34.06573895705944
 30
0.0
 10
56.77674409358447
 20
33.95677783777646
 30
0.0
 10
56.77674409358448
 20
33.78314781228217
 30
0.0
 10
56.77674409358448
 20
33.63299321523726
 30
0.0
 10
56.77674409358448
 20
33.56284375612852
 30
0.0
  0
SPLINE
  5
138
330
1F
100
AcDbEntity
  8
0
  6
Continuous
 62
     7
370
    25
100
AcDbSpline
210
0.0
220
0.0
230
1.0
 70
     8
 71
     3
 72
    15
 73
    11
 74
     0
 42
0.00000001
 43
0.00000001
 40
0.0
 40
0.0
 40
0.0
 40
0.0
 40
0.1323034284088743
 40
0.2645694515465797
 40
0.3997942148562053
 40
0.5349945762150086
 40
0.6501872613016993
 40
0.7653979157221118
 40
0.8826876171264816
 40
1.0
 40
1.0
 40
1.0
 40
1.0
 10
56.77674409358448
 20
33.56284375612852
 30
0.0
 10
56.51752378364747
 20
33.64442150648465
 30
0.0
 10
55.99915645141308
 20
33.80755394326041
 30
0.0
 10
55.20091704726701
 20
33.98307938091742
 30
0.0
 10
54.38763094312488
 20
34.08861987200859
 30
0.0
 10
53.60379796526497
 20
34.10952514240652
 30
0.0
 10
52.86230363597127
 20
34.05530176125323
 30
0.0
 10
52.16250736131516
 20
33.94418974588032
 30
0.0
 10
51.46587495840827
 20
33.78119839450188
 30
0.0
 10
51.00646918706689
 20
33.63563332669209
 30
0.0
 10
50.77674409358448
 20
33.5628437561285
 30
0.0
  0
SPLINE
  5
139
330
1F
100
AcDbEntity
  8
0
  6
Continuous
 62
     7
370
    25
100
AcDbSpline
210
0.0
220
0.0
230
1.0
 70
     8
 71
     3
 72
    15
 73
    11
 74
     0
 42
0.00000001
 43
0.00000001
 40
0.0
 40
0.0
 40
0.0
 40
0.0
 40
0.1323034284088744
 40
0.2645694515465796
 40
0.3997942148562055
 40
0.5349945762150087
 40
0.6501872613016997
 40
0.7653979157221118
 40
0.8826876171264815
 40
1.0
 40
1.0
 40
1.0
 40
1.0
 10
50.77674409358448
 20
33.5628437561285
 30
0.0
 10
50.51752378364747
 20
33.64442150648464
 30
0.0
 10
49.99915645141309
 20
33.8075539432604
 30
0.0
 10
49.200917047267
 20
33.98307938091741
 30
0.0
 10
48.38763094312487
 20
34.08861987200858
 30
0.0
 10
47.60379796526495
 20
34.10952514240654
 30
0.0
 10
46.86230363597126
 20
34.05530176125323
 30
0.0
 10
46.16250736131514
 20
33.94418974588033
 30
0.0
 10
45.46587495840824
 20
33.78119839450189
 30
0.0
 10
45.00646918706686
 20
33.6356333266921
 30
0.0
 10
44.77674409358446
 20
33.56284375612852
 30
0.0
  0
SPLINE
  5
13A
330
1F
100
AcDbEntity
  8
0
  6
Continuous
 62
     7
370
    25
100
AcDbSpline
210
0.0
220
0.0
230
1.0
 70
    24
 71
     3
 72
    12
 73
     8
 74
     0
 42
0.00000001
 43
0.00000001
 40
0.0
 40
0.0
 40
0.0
 40
0.0
 40
0.2260680662387008
 40
0.4774540886121927
 40
0.7287751851139315
 40
0.9862805844159643
 40
1.0
 40
1.0
 40
1.0
 40
1.0
 10
44.77674409358446
 20
33.56284375612852
 30
0.0
 10
44.77674409358446
 20
33.6330009236034
 30
0.0
 10
44.77674409358446
 20
33.78117234389132
 30
0.0
 10
44.77674409358446
 20
33.95239368777181
 30
0.0
 10
44.77674409358445
 20
34.06326587301761
 30
0.0
 10
44.77674409358447
 20
34.10984710506678
 30
0.0
 10
44.77674409358446
 20
34.09706880897774
 30
0.0
 10
44.77674409358446
 20
34.0964224420346
 30
0.0
  0
LINE
  5
13B
330
1F
100
AcDbEntity
  8
0
  6
Continuous
 62
     7
370
    25
100
AcDbLine
 10
56.5267440936
 20
34.2430797083
 30
0.0
 11
45.0267440936
 21
34.2430797083
 31
0.0
  0
SPLINE
  5
13C
330
1F
100
AcDbEntity
  8
0
  6
Continuous
 62
     7
370
    25
100
AcDbSpline
210
0.0
220
0.0
230
1.0
 70
     8
 71
     3
 72
    15
 73
    11
 74
     0
 42
0.00000001
 43
0.00000001
 40
0.0
 40
0.0
 40
0.0
 40
0.0
 40
0.1323034284088743
 40
0.2645694515465795
 40
0.3997942148562053
 40
0.5349945762150086
 40
0.6501872613016995
 40
0.7653979157221116
 40
0.8826876171264814
 40
0.9999999999999999
 40
0.9999999999999999
 40
0.9999999999999999
 40
0.9999999999999999
 10
50.77674409358448
 20
23.92331566044781
 30
0.0
 10
50.51752378364747
 20
23.84173791009167
 30
0.0
 10
49.99915645141309
 20
23.67860547331591
 30
0.0
 10
49.200917047267
 20
23.50308003565891
 30
0.0
 10
48.38763094312487
 20
23.39753954456773
 30
0.0
 10
47.60379796526495
 20
23.3766342741698
 30
0.0
 10
46.86230363597126
 20
23.4308576553231
 30
0.0
 10
46.16250736131514
 20
23.54196967069601
 30
0.0
 10
45.46587495840825
 20
23.70496102207444
 30
0.0
 10
45.00646918706686
 20
23.85052608988423
 30
0.0
 10
44.77674409358446
 20
23.92331566044782
 30
0.0
  0
LINE
  5
13D
330
1F
100
AcDbEntity
  8
0
  6
Continuous
 62
     7
370
    25
100
AcDbLine
 10
44.7767440936
 20
23.9233156604
 30
0.0
 11
44.7767440936
 21
33.5628437561
 31
0.0
  0
LINE
  5
13E
330
1F
100
AcDbEntity
  8
0
  6
Continuous
 62
     7
370
    25
100
AcDbLine
 10
50.7767440936
 20
23.9233156604
 30
0.0
 11
50.7767440936
 21
33.5628437561
 31
0.0
  0
SPLINE
  5
13F
330
1F
100
AcDbEntity
  8
0
  6
Continuous
 62
     7
370
    25
100
AcDbSpline
210
0.0
220
0.0
230
1.0
 70
    24
 71
     3
 72
    12
 73
     8
 74
     0
 42
0.00000001
 43
0.00000001
 40
0.0
 40
0.0
 40
0.0
 40
0.0
 40
0.2260680662387054
 40
0.4774540886122021
 40
0.7287751851139458
 40
0.9862805844159837
 40
1.0
 40
1.0
 40
1.0
 40
1.0
 10
44.77674409358446
 20
23.92331566044782
 30
0.0
 10
44.77674409358446
 20
23.85315849297294
 30
0.0
 10
44.77674409358445
 20
23.70498707268502
 30
0.0
 10
44.77674409358446
 20
23.53376572880454
 30
0.0
 10
44.77674409358445
 20
23.42289354355875
 30
0.0
 10
44.77674409358448
 20
23.37631231150956
 30
0.0
 10
44.77674409358446
 20
23.38909060759861
 30
0.0
 10
44.77674409358446
 20
23.38973697454175
 30
0.0
  0
SPLINE
  5
140
330
1F
100
AcDbEntity
  8
0
  6
Continuous
 62
     7
370
    25
100
AcDbSpline
210
0.0
220
0.0
230
1.0
 70
     8
 71
     3
 72
    15
 73
    11
 74
     0
 42
0.00000001
 43
0.00000001
 40
0.0
 40
0.0
 40
0.0
 40
0.0
 40
0.1323034284088744
 40
0.2645694515465797
 40
0.3997942148562055
 40
0.5349945762150087
 40
0.6501872613016996
 40
0.7653979157221119
 40
0.8826876171264817
 40
1.0
 40
1.0
 40
1.0
 40
1.0
 10
56.77674409358448
 20
23.92331566044782
 30
0.0
 10
56.51752378364747
 20
23.84173791009168
 30
0.0
 10
55.99915645141308
 20
23.67860547331592
 30
0.0
 10
55.200917047267
 20
23.50308003565892
 30
0.0
 10
54.38763094312488
 20
23.39753954456773
 30
0.0
 10
53.60379796526497
 20
23.3766342741698
 30
0.0
 10
52.86230363597127
 20
23.43085765532309
 30
0.0
 10
52.16250736131516
 20
23.541969670696
 30
0.0
 10
51.46587495840827
 20
23.70496102207444
 30
0.0
 10
51.00646918706689
 20
23.85052608988422
 30
0.0
 10
50.77674409358448
 20
23.92331566044781
 30
0.0
  0
SPLINE
  5
141
330
1F
100
AcDbEntity
  8
0
  6
Continuous
 62
     7
370
    25
100
AcDbSpline
210
0.0
220
0.0
230
1.0
 70
    24
 71
     3
 72
    12
 73
     8
 74
     0
 42
0.00000001
 43
0.00000001
 40
0.0
 40
0.0
 40
0.0
 40
0.0
 40
0.007277432262477
 40
0.2583434721599306
 40
0.5161017837315254
 40
0.7739316757330811
 40
1.0
 40
1.0
 40
1.0
 40
1.0
 10
56.77674409358446
 20
23.38878402299128
 30
0.0
 10
56.77674409358446
 20
23.38843931019773
 30
0.0
 10
56.77674409358448
 20
23.37620226053873
 30
0.0
 10
56.77674409358446
 20
23.4204204595169
 30
0.0
 10
56.77674409358448
 20
23.52938157879988
 30
0.0
 10
56.77674409358448
 20
23.70301160429416
 30
0.0
 10
56.77674409358448
 20
23.85316620133908
 30
0.0
 10
56.77674409358448
 20
23.92331566044782
 30
0.0
  0
LINE
  5
142
330
1F
100
AcDbEntity
  8
0
  6
Continuous
 62
     7
370
    25
100
AcDbLine
 10
56.5267440936
 20
23.2430797083
 30
0.0
 11
45.0267440936
 21
23.2430797083
 31
0.0
  0
LINE
  5
143
330
1F
100
AcDbEntity
  8
0
  6
Continuous
 62
     7
370
    25
100
AcDbLine
 10
56.7767440936
 20
23.9233156604
 30
0.0
 11
56.7767440936
 21
33.5628437561
 31
0.0
  0
CIRCLE
  5
144
330
1F
100
AcDbEntity
  8
0
  6
Continuous
 62
     7
370
    25
100
AcDbCircle
 10
50.7767440936
 20
14.4947457581
 30
0.0
 40
3.274999999999995
  0
CIRCLE
  5
145
330
1F
100
AcDbEntity
  8
0
  6
Continuous
 62
     7
370
    25
100
AcDbCircle
 10
50.7767440936
 20
14.4947457581
 30
0.0
 40
3.074999999999988
  0
SPLINE
  5
146
330
1F
100
AcDbEntity
  8
0
  6
Continuous
 62
     7
370
    25
100
AcDbSpline
210
0.0
220
0.0
230
1.0
 70
    24
 71
     3
 72
    15
 73
    11
 74
     0
 42
0.00000001
 43
0.00000001
 40
0.0
 40
0.0
 40
0.0
 40
0.0
 40
0.132303428408876
 40
0.264569451546583
 40
0.3997942148562104
 40
0.5349945762150154
 40
0.6501872613017048
 40
0.7653979157221154
 40
0.8826876171264834
 40
0.9999999999999999
 40
0.9999999999999999
 40
0.9999999999999999
 40
0.9999999999999999
 10
56.77674409358448
 20
17.95884737326542
 30
0.0
 10
56.77674409358448
 20
17.65952554182231
 30
0.0
 10
56.77674409358448
 20
17.06096650421305
 30
0.0
 10
56.77674409358448
 20
16.13923903449004
 30
0.0
 10
56.77674409358448
 20
15.20013713218076
 30
0.0
 10
56.77674409358448
 20
14.29504477064651
 30
0.0
 10
56.77674409358448
 20
13.43884086940592
 30
0.0
 10
56.77674409358448
 20
12.63078573430474
 30
0.0
 10
56.77674409358448
 20
11.82638392361574
 30
0.0
 10
56.77674409358448
 20
11.29590783211333
 30
0.0
 10
56.77674409358448
 20
11.03064414298998
 30
0.0
  0
SPLINE
  5
147
330
1F
100
AcDbEntity
  8
0
  6
Continuous
 62
     7
370
    25
100
AcDbSpline
210
0.0
220
0.0
230
1.0
 70
    24
 71
     3
 72
    15
 73
    11
 74
     0
 42
0.00000001
 43
0.00000001
 40
0.0
 40
0.0
 40
0.0
 40
0.0
 40
0.1323034284088744
 40
0.2645694515465796
 40
0.3997942148562054
 40
0.5349945762150085
 40
0.6501872613016993
 40
0.7653979157221116
 40
0.8826876171264812
 40
0.9999999999999999
 40
0.9999999999999999
 40
0.9999999999999999
 40
0.9999999999999999
 10
56.77674409358448
 20
11.03064414298998
 30
0.0
 10
56.51752378364747
 20
10.88098322726842
 30
0.0
 10
55.99915645141309
 20
10.58170370846379
 30
0.0
 10
55.20091704726701
 20
10.12083997360228
 30
0.0
 10
54.38763094312488
 20
9.651289022447635
 30
0.0
 10
53.60379796526497
 20
9.198742841680502
 30
0.0
 10
52.86230363597127
 20
8.770640891060204
 30
0.0
 10
52.16250736131516
 20
8.366613323509593
 30
0.0
 10
51.46587495840827
 20
7.964412418165083
 30
0.0
 10
51.00646918706689
 20
7.699174372413863
 30
0.0
 10
50.77674409358448
 20
7.566542527852184
 30
0.0
  0
SPLINE
  5
148
330
1F
100
AcDbEntity
  8
0
  6
Continuous
 62
     7
370
    25
100
AcDbSpline
210
0.0
220
0.0
230
1.0
 70
    24
 71
     3
 72
    14
 73
    10
 74
     0
 42
0.00000001
 43
0.00000001
 40
0.0
 40
0.0
 40
0.0
 40
0.0
 40
0.1881834863217925
 40
0.3780973734199339
 40
0.5036314984992454
 40
0.62916634383438
 40
0.7580473736630333
 40
0.8869641942270959
 40
1.0
 40
1.0
 40
1.0
 40
1.0
 10
50.77674409358448
 20
7.566542527852184
 30
0.0
 10
50.40734719607587
 20
7.779813926066595
 30
0.0
 10
49.6651566913328
 20
8.208317813769986
 30
0.0
 10
48.64966499588736
 20
8.794612217495242
 30
0.0
 10
47.75438443052658
 20
9.311502692906524
 30
0.0
 10
46.98282036239917
 20
9.756965415336921
 30
0.0
 10
46.21042586331782
 20
10.20290758730213
 30
0.0
 10
45.47173065901266
 20
10.6293934623568
 30
0.0
 10
44.99804247775323
 20
10.90287746131887
 30
0.0
 10
44.77674409358446
 20
11.03064414298994
 30
0.0
  0
SPLINE
  5
149
330
1F
100
AcDbEntity
  8
0
  6
Continuous
 62
     7
370
    25
100
AcDbSpline
210
0.0
220
0.0
230
1.0
 70
    24
 71
     3
 72
    15
 73
    11
 74
     0
 42
0.00000001
 43
0.00000001
 40
0.0
 40
0.0
 40
0.0
 40
0.0
 40
0.1323034284088745
 40
0.2645694515465797
 40
0.3997942148562054
 40
0.5349945762150086
 40
0.6501872613016995
 40
0.7653979157221116
 40
0.8826876171264814
 40
0.9999999999999999
 40
0.9999999999999999
 40
0.9999999999999999
 40
0.9999999999999999
 10
44.77674409358446
 20
11.03064414298994
 30
0.0
 10
44.77674409358446
 20
11.32996597443305
 30
0.0
 10
44.77674409358446
 20
11.92852501204231
 30
0.0
 10
44.77674409358446
 20
12.85025248176531
 30
0.0
 10
44.77674409358446
 20
13.7893543840746
 30
0.0
 10
44.77674409358446
 20
14.69444674560885
 30
0.0
 10
44.77674409358446
 20
15.55065064684945
 30
0.0
 10
44.77674409358446
 20
16.35870578195065
 30
0.0
 10
44.77674409358446
 20
17.16310759263968
 30
0.0
 10
44.77674409358446
 20
17.69358368414211
 30
0.0
 10
44.77674409358446
 20
17.95884737326546
 30
0.0
  0
SPLINE
  5
14A
330
1F
100
AcDbEntity
  8
0
  6
Continuous
 62
     7
370
    25
100
AcDbSpline
210
0.0
220
0.0
230
1.0
 70
    24
 71
     3
 72
    15
 73
    11
 74
     0
 42
0.00000001
 43
0.00000001
 40
0.0
 40
0.0
 40
0.0
 40
0.0
 40
0.1323034284088742
 40
0.2645694515465795
 40
0.3997942148562053
 40
0.5349945762150086
 40
0.6501872613016996
 40
0.7653979157221118
 40
0.8826876171264815
 40
1.0
 40
1.0
 40
1.0
 40
1.0
 10
44.77674409358446
 20
17.95884737326546
 30
0.0
 10
45.03596440352148
 20
18.10850828898702
 30
0.0
 10
45.55433173575586
 20
18.40778780779165
 30
0.0
 10
46.35257113990194
 20
18.86865154265315
 30
0.0
 10
47.16585724404408
 20
19.33820249380779
 30
0.0
 10
47.94969022190399
 20
19.79074867457491
 30
0.0
 10
48.69118455119769
 20
20.21885062519521
 30
0.0
 10
49.3909808258538
 20
20.62287819274581
 30
0.0
 10
50.08761322876069
 20
21.02507909809032
 30
0.0
 10
50.54701900010208
 20
21.29031714384153
 30
0.0
 10
50.77674409358448
 20
21.42294898840321
 30
0.0
  0
SPLINE
  5
14B
330
1F
100
AcDbEntity
  8
0
  6
Continuous
 62
     7
370
    25
100
AcDbSpline
210
0.0
220
0.0
230
1.0
 70
    24
 71
     3
 72
    14
 73
    10
 74
     0
 42
0.00000001
 43
0.00000001
 40
0.0
 40
0.0
 40
0.0
 40
0.0
 40
0.1130358674256962
 40
0.2387309183475702
 40
0.3643935058067621
 40
0.4931482948452619
 40
0.6219015933115537
 40
0.8099221489291575
 40
1.0
 40
1.0
 40
1.0
 40
1.0
 10
50.77674409358448
 20
21.42294898840321
 30
0.0
 10
50.99804173650678
 20
21.295182734691
 30
0.0
 10
51.46542072625726
 20
21.02534134914498
 30
0.0
 10
52.19113359013308
 20
20.6063508318319
 30
0.0
 10
52.95669735961619
 20
20.16435238343899
 30
0.0
 10
53.73473608480418
 20
19.71515151601174
 30
0.0
 10
54.63933879676787
 20
19.19287889674984
 30
0.0
 10
55.66135361125315
 20
18.60281836849097
 30
0.0
 10
56.40360103614221
 20
18.17428161792596
 30
0.0
 10
56.77674409358448
 20
17.95884737326542
 30
0.0
  0
CIRCLE
  5
14C
330
1F
100
AcDbEntity
  8
0
  6
Continuous
 62
     7
370
    25
100
AcDbCircle
 10
50.7767440936
 20
14.4947457581
 30
0.0
 40
5.750000000000003
  0
CIRCLE
  5
14D
330
1F
100
AcDbEntity
  8
0
  6
Continuous
 62
     7
370
    25
100
AcDbCircle
 10
50.7767440936
 20
14.4947457581
 30
0.0
 40
3.049999999999995
  0
CIRCLE
  5
14E
330
1F
100
AcDbEntity
  8
0
  6
Continuous
 62
     7
370
    25
100
AcDbCircle
 10
50.7767440936
 20
14.4947457581
 30
0.0
 40
1.999999999999993
  0
LINE
  5
14F
330
1F
100
AcDbEntity
  8
0
  6
Continuous
 62
     7
370
    25
100
AcDbLine
 10
50.7767440936
 20
22.4947457581
 30
0.0
 11
45.9127440936
 21
22.4947457581
 31
0.0
  0
LINE
  5
150
330
1F
100
AcDbEntity
  8
0
  6
Continuous
 62
     7
370
    25
100
AcDbLine
 10
55.6407440936
 20
22.4947457581
 30
0.0
 11
50.7767440936
 21
22.4947457581
 31
0.0
  0
SPLINE
  5
151
330
1F
100
AcDbEntity
  8
0
  6
Continuous
 62
     7
370
    25
100
AcDbSpline
210
0.0
220
0.0
230
1.0
 70
    24
 71
     3
 72
    14
 73
    10
 74
     0
 42
0.00000001
 43
0.00000001
 40
0.0
 40
0.0
 40
0.0
 40
0.0
 40
0.25
 40
0.25
 40
0.5
 40
0.5
 40
0.75
 40
0.75
 40
1.0
 40
1.0
 40
1.0
 40
1.0
 10
46.27674409358446
 20
19.0947457581277
 30
0.0
 10
46.27674409358446
 20
19.0947457581277
 30
0.0
 10
46.28078722250712
 20
19.0947457581277
 30
0.0
 10
46.2969833552124
 20
19.0947457581277
 30
0.0
 10
46.30913641204877
 20
19.0947457581277
 30
0.0
 10
46.34162256387761
 20
19.0947457581277
 30
0.0
 10
46.36195576699554
 20
19.0947457581277
 30
0.0
 10
46.4109165131394
 20
19.0947457581277
 30
0.0
 10
46.43954422337032
 20
19.0947457581277
 30
0.0
 10
46.47239626749752
 20
19.0947457581277
 30
0.0
  0
SPLINE
  5
152
330
1F
100
AcDbEntity
  8
0
  6
Continuous
 62
     7
370
    25
100
AcDbSpline
210
0.0
220
0.0
230
1.0
 70
    24
 71
     3
 72
    14
 73
    10
 74
     0
 42
0.00000001
 43
0.00000001
 40
0.0
 40
0.0
 40
0.0
 40
0.0
 40
0.25
 40
0.25
 40
0.5
 40
0.5
 40
0.75
 40
0.75
 40
1.0
 40
1.0
 40
1.0
 40
1.0
 10
55.27674409358446
 20
19.0947457581277
 30
0.0
 10
55.27674409358446
 20
19.0947457581277
 30
0.0
 10
55.2727009646618
 20
19.0947457581277
 30
0.0
 10
55.25650483195652
 20
19.0947457581277
 30
0.0
 10
55.24435177512015
 20
19.0947457581277
 30
0.0
 10
55.21186562329131
 20
19.0947457581277
 30
0.0
 10
55.19153242017338
 20
19.0947457581277
 30
0.0
 10
55.14257167402953
 20
19.0947457581277
 30
0.0
 10
55.1139439637986
 20
19.0947457581277
 30
0.0
 10
55.08109191967141
 20
19.0947457581277
 30
0.0
  0
SPLINE
  5
153
330
1F
100
AcDbEntity
  8
0
  6
Continuous
 62
     7
370
    25
100
AcDbSpline
210
0.0
220
0.0
230
1.0
 70
     8
 71
     3
 72
    10
 73
     6
 74
     0
 42
0.00000001
 43
0.00000001
 40
0.0
 40
0.0
 40
0.0
 40
0.0
 40
0.5
 40
0.5
 40
1.0
 40
1.0
 40
1.0
 40
1.0
 10
55.11035270936275
 20
19.02403407284199
 30
0.0
 10
55.09899137009057
 20
19.03557417870767
 30
0.0
 10
55.09167617266773
 20
19.04886345446901
 30
0.0
 10
55.08272644745815
 20
19.07406059861894
 30
0.0
 10
55.08109191967141
 20
19.08596846700753
 30
0.0
 10
55.08109191967141
 20
19.0947457581277
 30
0.0
  0
SPLINE
  5
154
330
1F
100
AcDbEntity
  8
0
  6
Continuous
 62
     7
370
    25
100
AcDbSpline
210
0.0
220
0.0
230
1.0
 70
     8
 71
     3
 72
    12
 73
     8
 74
     0
 42
0.00000001
 43
0.00000001
 40
0.0
 40
0.0
 40
0.0
 40
0.0
 40
0.25
 40
0.25
 40
0.5
 40
0.5
 40
1.0
 40
1.0
 40
1.0
 40
1.0
 10
55.11035270936275
 20
19.02403407284199
 30
0.0
 10
55.11603337899885
 20
19.01826401990914
 30
0.0
 10
55.12273149372701
 20
19.01310150627368
 30
0.0
 10
55.13674677770114
 20
19.00456820161559
 30
0.0
 10
55.1440639469471
 20
19.00119741059297
 30
0.0
 10
55.16482028296214
 20
18.99463758747148
 30
0.0
 10
55.17674409358445
 20
18.9947457581277
 30
0.0
 10
55.17674409358445
 20
18.9947457581277
 30
0.0
  0
LINE
  5
155
330
1F
100
AcDbEntity
  8
0
  6
Continuous
 62
     7
370
    25
100
AcDbLine
 10
46.2767440936
 20
18.8947457581
 30
0.0
 11
46.3767440936
 21
18.8947457581
 31
0.0
  0
LINE
  5
156
330
1F
100
AcDbEntity
  8
0
  6
Continuous
 62
     7
370
    25
100
AcDbLine
 10
46.2767440936
 20
18.824872777
 30
0.0
 11
46.2767440936
 21
18.8947457581
 31
0.0
  0
ARC
  5
157
330
1F
100
AcDbEntity
  8
0
  6
Continuous
 62
     7
370
    25
100
AcDbCircle
 10
46.3767440936
 20
18.8947457581
 30
0.0
 40
0.1000000000000014
100
AcDbArc
 50
90.0
 51
180.0
  0
LINE
  5
158
330
1F
100
AcDbEntity
  8
0
  6
Continuous
 62
     7
370
    25
100
AcDbLine
 10
46.3767440936
 20
18.8947457581
 30
0.0
 11
46.3767440936
 21
18.9947457581
 31
0.0
  0
LINE
  5
159
330
1F
100
AcDbEntity
  8
0
  6
Continuous
 62
     7
370
    25
100
AcDbLine
 10
46.3767440936
 20
18.9947457581
 30
0.0
 11
46.5709727276
 21
18.9947457581
 31
0.0
  0
ARC
  5
15A
330
1F
100
AcDbEntity
  8
0
  6
Continuous
 62
     7
370
    25
100
AcDbCircle
 10
55.1767440936
 20
18.8947457581
 30
0.0
 40
0.1000000000000014
100
AcDbArc
 50
0.0
 51
90.0
  0
LINE
  5
15B
330
1F
100
AcDbEntity
  8
0
  6
Continuous
 62
     7
370
    25
100
AcDbLine
 10
55.2767440936
 20
18.8947457581
 30
0.0
 11
55.2767440936
 21
18.824872777
 31
0.0
  0
LINE
  5
15C
330
1F
100
AcDbEntity
  8
0
  6
Continuous
 62
     7
370
    25
100
AcDbLine
 10
54.9825154595
 20
18.9947457581
 30
0.0
 11
55.1767440936
 21
18.9947457581
 31
0.0
  0
SPLINE
  5
15D
330
1F
100
AcDbEntity
  8
0
  6
Continuous
 62
     7
370
    25
100
AcDbSpline
210
0.0
220
0.0
230
1.0
 70
     8
 71
     3
 72
    12
 73
     8
 74
     0
 42
0.00000001
 43
0.00000001
 40
0.0
 40
0.0
 40
0.0
 40
0.0
 40
0.25
 40
0.25
 40
0.5
 40
0.5
 40
1.0
 40
1.0
 40
1.0
 40
1.0
 10
46.44313547780617
 20
19.02403407284199
 30
0.0
 10
46.43745480817007
 20
19.01826401990914
 30
0.0
 10
46.43075669344191
 20
19.01310150627368
 30
0.0
 10
46.41674140946778
 20
19.00456820161559
 30
0.0
 10
46.40942424022182
 20
19.00119741059297
 30
0.0
 10
46.38866790420678
 20
18.99463758747148
 30
0.0
 10
46.37674409358446
 20
18.9947457581277
 30
0.0
 10
46.37674409358446
 20
18.9947457581277
 30
0.0
  0
SPLINE
  5
15E
330
1F
100
AcDbEntity
  8
0
  6
Continuous
 62
     7
370
    25
100
AcDbSpline
210
0.0
220
0.0
230
1.0
 70
     8
 71
     3
 72
    10
 73
     6
 74
     0
 42
0.00000001
 43
0.00000001
 40
0.0
 40
0.0
 40
0.0
 40
0.0
 40
0.5
 40
0.5
 40
1.0
 40
1.0
 40
1.0
 40
1.0
 10
46.44313547780617
 20
19.02403407284199
 30
0.0
 10
46.45449681707835
 20
19.03557417870767
 30
0.0
 10
46.46181201450119
 20
19.04886345446901
 30
0.0
 10
46.47076173971077
 20
19.07406059861894
 30
0.0
 10
46.47239626749752
 20
19.08596846700753
 30
0.0
 10
46.47239626749752
 20
19.0947457581277
 30
0.0
  0
LINE
  5
15F
330
1F
100
AcDbEntity
  8
0
  6
Continuous
 62
     7
370
    25
100
AcDbLine
 10
52.7132357667
 20
13.9947457581
 30
0.0
 11
48.8402524205
 21
13.9947457581
 31
0.0
  0
SPLINE
  5
160
330
1F
100
AcDbEntity
  8
0
  6
Continuous
 62
     7
370
    25
100
AcDbSpline
210
0.0
220
0.0
230
1.0
 70
     8
 71
     3
 72
    10
 73
     6
 74
     0
 42
0.00000001
 43
0.00000001
 40
0.0
 40
0.0
 40
0.0
 40
0.0
 40
0.5
 40
0.5
 40
1.0
 40
1.0
 40
1.0
 40
1.0
 10
48.84025242048075
 20
13.9947457581277
 30
0.0
 10
48.84776833954083
 20
14.15941896997741
 30
0.0
 10
48.85254519458415
 20
14.32505540817596
 30
0.0
 10
48.85264565562467
 20
14.65879512604998
 30
0.0
 10
48.84785070518509
 20
14.82826792131091
 30
0.0
 10
48.84025242048075
 20
14.99474575812774
 30
0.0
  0
SPLINE
  5
161
330
1F
100
AcDbEntity
  8
0
  6
Continuous
 62
     7
370
    25
100
AcDbSpline
210
0.0
220
0.0
230
1.0
 70
     8
 71
     3
 72
    12
 73
     8
 74
     0
 42
0.00000001
 43
0.00000001
 40
0.0
 40
0.0
 40
0.0
 40
0.0
 40
0.25
 40
0.25
 40
0.5
 40
0.5
 40
1.0
 40
1.0
 40
1.0
 40
1.0
 10
55.2764673281245
 20
18.99517333015824
 30
0.0
 10
55.27646524326566
 20
18.99109489145594
 30
0.0
 10
55.27297078233011
 20
18.98811485709209
 30
0.0
 10
55.2642783727038
 20
18.98245905773632
 30
0.0
 10
55.25908042401304
 20
18.97978329274441
 30
0.0
 10
55.24885324290529
 20
18.9693735928692
 30
0.0
 10
55.24742348432652
 20
18.96548772362295
 30
0.0
 10
55.24745477170518
 20
18.96545643624428
 30
0.0
  0
LINE
  5
162
330
1F
100
AcDbEntity
  8
0
  6
Continuous
 62
     7
370
    25
100
AcDbLine
 10
55.2769352569
 20
18.9180209764
 30
0.0
 11
55.2771429559
 21
18.9433095124
 31
0.0
  0
SPLINE
  5
163
330
1F
100
AcDbEntity
  8
0
  6
Continuous
 62
     7
370
    25
100
AcDbSpline
210
0.0
220
0.0
230
1.0
 70
     8
 71
     3
 72
    12
 73
     8
 74
     0
 42
0.00000001
 43
0.00000001
 40
0.0
 40
0.0
 40
0.0
 40
0.0
 40
0.25
 40
0.25
 40
0.5
 40
0.5
 40
1.0
 40
1.0
 40
1.0
 40
1.0
 10
55.2764673281245
 20
18.99517333015824
 30
0.0
 10
55.27646941298334
 20
18.99925176886052
 30
0.0
 10
55.27297948650899
 20
19.00514212978787
 30
0.0
 10
55.25820612803738
 20
19.01795150566017
 30
0.0
 10
55.24692269604013
 20
19.02487052060512
 30
0.0
 10
55.20016791747931
 20
19.04327776081757
 30
0.0
 10
55.15902033986077
 20
19.04053621896861
 30
0.0
 10
55.11035270936275
 20
19.02403407284199
 30
0.0
  0
SPLINE
  5
164
330
1F
100
AcDbEntity
  8
0
  6
Continuous
 62
     7
370
    25
100
AcDbSpline
210
0.0
220
0.0
230
1.0
 70
     8
 71
     3
 72
    12
 73
     8
 74
     0
 42
0.00000001
 43
0.00000001
 40
0.0
 40
0.0
 40
0.0
 40
0.0
 40
0.25
 40
0.25
 40
0.5
 40
0.5
 40
1.0
 40
1.0
 40
1.0
 40
1.0
 10
46.27702085904441
 20
18.99517333015824
 30
0.0
 10
46.27702294390325
 20
18.99109489145594
 30
0.0
 10
46.28051740483881
 20
18.98811485709209
 30
0.0
 10
46.28920981446512
 20
18.98245905773632
 30
0.0
 10
46.29440776315587
 20
18.97978329274441
 30
0.0
 10
46.30463494426363
 20
18.9693735928692
 30
0.0
 10
46.3060647028424
 20
18.96548772362295
 30
0.0
 10
46.30603341546374
 20
18.96545643624428
 30
0.0
  0
LINE
  5
165
330
1F
100
AcDbEntity
  8
0
  6
Continuous
 62
     7
370
    25
100
AcDbLine
 10
46.2765529303
 20
18.9180209764
 30
0.0
 11
46.2763452312
 21
18.9433095124
 31
0.0
  0
SPLINE
  5
166
330
1F
100
AcDbEntity
  8
0
  6
Continuous
 62
     7
370
    25
100
AcDbSpline
210
0.0
220
0.0
230
1.0
 70
     8
 71
     3
 72
    14
 73
    10
 74
     0
 42
0.00000001
 43
0.00000001
 40
0.0
 40
0.0
 40
0.0
 40
0.0
 40
0.25
 40
0.25
 40
0.5
 40
0.5
 40
0.75
 40
0.75
 40
1.0
 40
1.0
 40
1.0
 40
1.0
 10
46.27702085904441
 20
18.99517333015824
 30
0.0
 10
46.27701877418558
 20
18.99925176886052
 30
0.0
 10
46.28050870065994
 20
19.00514212978787
 30
0.0
 10
46.29528205913154
 20
19.01795150566018
 30
0.0
 10
46.30656549112879
 20
19.02487052060512
 30
0.0
 10
46.33773534350266
 20
19.03714201408009
 30
0.0
 10
46.35581470100077
 20
19.03952450198659
 30
0.0
 10
46.39634786052802
 20
19.03709606789919
 30
0.0
 10
46.41880166255716
 20
19.0322851459053
 30
0.0
 10
46.44313547780617
 20
19.02403407284199
 30
0.0
  0
SPLINE
  5
167
330
1F
100
AcDbEntity
  8
0
  6
Continuous
 62
     7
370
    25
100
AcDbSpline
210
0.0
220
0.0
230
1.0
 70
     8
 71
     3
 72
    10
 73
     6
 74
     0
 42
0.00000001
 43
0.00000001
 40
0.0
 40
0.0
 40
0.0
 40
0.0
 40
0.5
 40
0.5
 40
1.0
 40
1.0
 40
1.0
 40
1.0
 10
55.2764673281245
 20
18.99517333015824
 30
0.0
 10
55.27647566755986
 20
19.01148708496739
 30
0.0
 10
55.27657068627985
 20
19.0288469288304
 30
0.0
 10
55.2749392767861
 20
19.06449800849632
 30
0.0
 10
55.27674409358446
 20
19.07772107211273
 30
0.0
 10
55.27674409358446
 20
19.0947457581277
 30
0.0
  0
SPLINE
  5
168
330
1F
100
AcDbEntity
  8
0
  6
Continuous
 62
     7
370
    25
100
AcDbSpline
210
0.0
220
0.0
230
1.0
 70
     8
 71
     3
 72
    10
 73
     6
 74
     0
 42
0.00000001
 43
0.00000001
 40
0.0
 40
0.0
 40
0.0
 40
0.0
 40
0.5
 40
0.5
 40
1.0
 40
1.0
 40
1.0
 40
1.0
 10
46.27702085904441
 20
18.99517333015824
 30
0.0
 10
46.27701251960906
 20
19.01148708496739
 30
0.0
 10
46.27691750088907
 20
19.0288469288304
 30
0.0
 10
46.27854891038282
 20
19.06449800849632
 30
0.0
 10
46.27674409358446
 20
19.07772107211273
 30
0.0
 10
46.27674409358446
 20
19.0947457581277
 30
0.0
  0
SPLINE
  5
169
330
1F
100
AcDbEntity
  8
0
  6
Continuous
 62
     7
370
    25
100
AcDbSpline
210
0.0
220
0.0
230
1.0
 70
     8
 71
     3
 72
    18
 73
    14
 74
     0
 42
0.00000001
 43
0.00000001
 40
0.0
 40
0.0
 40
0.0
 40
0.0
 40
0.25
 40
0.25
 40
0.375
 40
0.375
 40
0.5
 40
0.5
 40
0.625
 40
0.625
 40
0.75
 40
0.75
 40
1.0
 40
1.0
 40
1.0
 40
1.0
 10
52.71323576668817
 20
13.9947457581277
 30
0.0
 10
52.42403143316917
 20
13.84846571154919
 30
0.0
 10
52.12577927975708
 20
13.71336622385633
 30
0.0
 10
51.64218692750509
 20
13.55546745483662
 30
0.0
 10
51.47395475030044
 20
13.5107231393836
 30
0.0
 10
51.13114872625908
 20
13.44893540854871
 30
0.0
 10
50.95283247672136
 20
13.43163261177513
 30
0.0
 10
50.59716203145907
 20
13.43185198618047
 30
0.0
 10
50.42239223744818
 20
13.44888325364008
 30
0.0
 10
50.07794430216711
 20
13.51105239979259
 30
0.0
 10
49.91023162712921
 20
13.55580966450038
 30
0.0
 10
49.4293373835722
 20
13.71284859452345
 30
0.0
 10
49.12937511621678
 20
13.84850700407946
 30
0.0
 10
48.84025242048075
 20
13.9947457581277
 30
0.0
  0
LINE
  5
16A
330
1F
100
AcDbEntity
  8
0
  6
Continuous
 62
     7
370
    25
100
AcDbLine
 10
50.7767440936
 20
22.1947457581
 30
0.0
 11
46.2767440936
 21
22.1947457581
 31
0.0
  0
LINE
  5
16B
330
1F
100
AcDbEntity
  8
0
  6
Continuous
 62
     7
370
    25
100
AcDbLine
 10
55.2767440936
 20
22.1947457581
 30
0.0
 11
50.7767440936
 21
22.1947457581
 31
0.0
  0
LINE
  5
16C
330
1F
100
AcDbEntity
  8
0
  6
Continuous
 62
     7
370
    25
100
AcDbLine
 10
54.8187643622
 20
19.0947457581
 30
0.0
 11
55.0810919197
 21
19.0947457581
 31
0.0
  0
LINE
  5
16D
330
1F
100
AcDbEntity
  8
0
  6
Continuous
 62
     7
370
    25
100
AcDbLine
 10
46.4723962675
 20
19.0947457581
 30
0.0
 11
46.7275669977
 21
19.0947457581
 31
0.0
  0
LINE
  5
16E
330
1F
100
AcDbEntity
  8
0
  6
Continuous
 62
     7
370
    25
100
AcDbLine
 10
55.1767440936
 20
18.882607804
 30
0.0
 11
55.1767440936
 21
18.9947457581
 31
0.0
  0
SPLINE
  5
16F
330
1F
100
AcDbEntity
  8
0
  6
Continuous
 62
     7
370
    25
100
AcDbSpline
210
0.0
220
0.0
230
1.0
 70
     8
 71
     3
 72
     9
 73
     5
 74
     0
 42
0.00000001
 43
0.00000001
 40
0.0
 40
0.0
 40
0.0
 40
0.0
 40
0.1248431437045607
 40
1.0
 40
1.0
 40
1.0
 40
1.0
 10
55.27714295594228
 20
18.94330951243975
 30
0.0
 10
55.27716395359457
 20
18.94546798571806
 30
0.0
 10
55.27733214586907
 20
18.9627574676573
 30
0.0
 10
55.27687094832089
 20
18.98004448148343
 30
0.0
 10
55.2764673281245
 20
18.99517333015824
 30
0.0
  0
SPLINE
  5
170
330
1F
100
AcDbEntity
  8
0
  6
Continuous
 62
     7
370
    25
100
AcDbSpline
210
0.0
220
0.0
230
1.0
 70
     8
 71
     3
 72
     9
 73
     5
 74
     0
 42
0.00000001
 43
0.00000001
 40
0.0
 40
0.0
 40
0.0
 40
0.0
 40
0.1248431437924843
 40
1.0
 40
1.0
 40
1.0
 40
1.0
 10
46.27634523122668
 20
18.94330951243453
 30
0.0
 10
46.27632423357438
 20
18.94546798571459
 30
0.0
 10
46.27615604129983
 20
18.96275746765556
 30
0.0
 10
46.27661723884804
 20
18.98004448148343
 30
0.0
 10
46.27702085904441
 20
18.99517333015824
 30
0.0
  0
INSERT
  5
17C
330
1F
100
AcDbEntity
  8
0
  6
Continuous
 62
     7
370
    18
100
AcDbBlockReference
  2
SW_CENTERMARKSYMBOL_0
 10
50.7767440936
 20
14.4947457581
 30
0.0
  0
LINE
  5
17D
330
1F
100
AcDbEntity
  8
0
  6
Continuous
 62
     7
370
    25
100
AcDbLine
 10
23.9204970149
 20
58.0342390104
 30
0.0
 11
23.7740543045
 21
57.7805927956
 31
0.0
  0
LINE
  5
17E
330
1F
100
AcDbEntity
  8
0
  6
Continuous
 62
     7
370
    25
100
AcDbLine
 10
23.7740543045
 20
46.2805927956
 30
0.0
 11
23.9204970149
 21
46.0269465808
 31
0.0
  0
LINE
  5
17F
330
1F
100
AcDbEntity
  8
0
  6
Continuous
 62
     7
370
    25
100
AcDbLine
 10
34.6276115941
 20
46.0269465808
 30
0.0
 11
34.7740543045
 21
46.2805927956
 31
0.0
  0
LINE
  5
180
330
1F
100
AcDbEntity
  8
0
  6
Continuous
 62
     7
370
    25
100
AcDbLine
 10
34.7740543045
 20
57.7805927956
 30
0.0
 11
34.6276115941
 21
58.0342390104
 31
0.0
  0
LINE
  5
181
330
1F
100
AcDbEntity
  8
0
  6
Continuous
 62
     7
370
    25
100
AcDbLine
 10
23.7740543045
 20
56.8945927956
 30
0.0
 11
23.0257203543
 21
56.8945927956
 31
0.0
  0
LINE
  5
182
330
1F
100
AcDbEntity
  8
0
  6
Continuous
 62
     7
370
    25
100
AcDbLine
 10
23.0257203543
 20
47.1665927956
 30
0.0
 11
23.7740543045
 21
47.1665927956
 31
0.0
  0
ARC
  5
183
330
1F
100
AcDbEntity
  8
0
  6
Continuous
 62
     7
370
    25
100
AcDbCircle
 10
22.7257203543
 20
56.8305927956
 30
0.0
 40
0.3000000000000043
100
AcDbArc
 50
270.0
 51
0.0
  0
ARC
  5
184
330
1F
100
AcDbEntity
  8
0
  6
Continuous
 62
     7
370
    25
100
AcDbCircle
 10
22.7257203543
 20
47.2305927956
 30
0.0
 40
0.3000000000000043
100
AcDbArc
 50
0.0
 51
90.0
  0
LINE
  5
185
330
1F
100
AcDbEntity
  8
0
  6
Continuous
 62
     7
370
    25
100
AcDbLine
 10
19.6257203543
 20
47.5305927956
 30
0.0
 11
22.7257203543
 21
47.5305927956
 31
0.0
  0
LINE
  5
186
330
1F
100
AcDbEntity
  8
0
  6
Continuous
 62
     7
370
    25
100
AcDbLine
 10
20.0257203543
 20
56.5305927956
 30
0.0
 11
19.6257203543
 21
56.5305927956
 31
0.0
  0
LINE
  5
187
330
1F
100
AcDbEntity
  8
0
  6
Continuous
 62
     7
370
    25
100
AcDbLine
 10
22.7257203543
 20
56.5305927956
 30
0.0
 11
21.0257203518
 21
56.5305927956
 31
0.0
  0
SPLINE
  5
188
330
1F
100
AcDbEntity
  8
0
  6
Continuous
 62
     7
370
    25
100
AcDbSpline
210
0.0
220
0.0
230
1.0
 70
     8
 71
     3
 72
    11
 73
     7
 74
     0
 42
0.00000001
 43
0.00000001
 40
0.0
 40
0.0
 40
0.0
 40
0.0
 40
0.2499999846640326
 40
0.4999999805865692
 40
0.7499999870734514
 40
1.0
 40
1.0
 40
1.0
 40
1.0
 10
20.27572038530946
 20
56.83059279357654
 30
0.0
 10
20.2429611217166
 20
56.8268349001442
 30
0.0
 10
20.17744259305557
 20
56.81931911311031
 30
0.0
 10
20.09480634805127
 20
56.76150680962625
 30
0.0
 10
20.03699403605783
 20
56.67887057685446
 30
0.0
 10
20.02947824828514
 20
56.61335205629598
 30
0.0
 10
20.02572035435041
 20
56.58059279559482
 30
0.0
  0
SPLINE
  5
189
330
1F
100
AcDbEntity
  8
0
  6
Continuous
 62
     7
370
    25
100
AcDbSpline
210
0.0
220
0.0
230
1.0
 70
     8
 71
     3
 72
    11
 73
     7
 74
     0
 42
0.00000001
 43
0.00000001
 40
0.0
 40
0.0
 40
0.0
 40
0.0
 40
0.2500000005635121
 40
0.5000000007172908
 40
0.7500000005682315
 40
1.0
 40
1.0
 40
1.0
 40
1.0
 10
21.02572035529078
 20
56.58059279554075
 30
0.0
 10
21.02196246174404
 20
56.61335205648734
 30
0.0
 10
21.01444667465671
 20
56.67887057832682
 30
0.0
 10
20.95663437046769
 20
56.76150681265496
 30
0.0
 10
20.87399813554324
 20
56.81931911596929
 30
0.0
 10
20.80847961358735
 20
56.8268349023882
 30
0.0
 10
20.77572035263687
 20
56.83059279559451
 30
0.0
  0
LINE
  5
18A
330
1F
100
AcDbEntity
  8
0
  6
Continuous
 62
     7
370
    25
100
AcDbLine
 10
20.0257203543
 20
56.5808928903
 30
0.0
 11
20.0257203543
 21
56.5305927956
 31
0.0
  0
LINE
  5
18B
330
1F
100
AcDbEntity
  8
0
  6
Continuous
 62
     7
370
    25
100
AcDbLine
 10
21.0257203569
 20
56.5305927953
 30
0.0
 11
21.0257203569
 21
56.58089289
 31
0.0
  0
LINE
  5
18C
330
1F
100
AcDbEntity
  8
0
  6
Continuous
 62
     7
370
    25
100
AcDbLine
 10
20.7913036755
 20
56.8305927956
 30
0.0
 11
20.2601370343
 21
56.8305927956
 31
0.0
  0
SPLINE
  5
18D
330
1F
100
AcDbEntity
  8
0
  6
Continuous
 62
     7
370
    25
100
AcDbSpline
210
0.0
220
0.0
230
1.0
 70
    24
 71
     3
 72
    15
 73
    11
 74
     0
 42
0.00000001
 43
0.00000001
 40
0.0
 40
0.0
 40
0.0
 40
0.0
 40
0.132303428408876
 40
0.2645694515465831
 40
0.3997942148562106
 40
0.5349945762150156
 40
0.650187261301705
 40
0.7653979157221156
 40
0.8826876171264835
 40
1.0
 40
1.0
 40
1.0
 40
1.0
 10
11.56161873920555
 20
46.03059279559588
 30
0.0
 10
11.411957823484
 20
46.28981310553289
 30
0.0
 10
11.11267830467937
 20
46.80818043776727
 30
0.0
 10
10.65181456981785
 20
47.60641984191335
 30
0.0
 10
10.18226361866321
 20
48.41970594605549
 30
0.0
 10
9.729717437896083
 20
49.20353892391539
 30
0.0
 10
9.30161548727579
 20
49.94503325320907
 30
0.0
 10
8.897587919725193
 20
50.64482952786516
 30
0.0
 10
8.49538701438069
 20
51.34146193077203
 30
0.0
 10
8.230148968629479
 20
51.80086770211341
 30
0.0
 10
8.097517124067803
 20
52.03059279559581
 30
0.0
  0
SPLINE
  5
18E
330
1F
100
AcDbEntity
  8
0
  6
Continuous
 62
     7
370
    25
100
AcDbSpline
210
0.0
220
0.0
230
1.0
 70
    24
 71
     3
 72
    15
 73
    11
 74
     0
 42
0.00000001
 43
0.00000001
 40
0.0
 40
0.0
 40
0.0
 40
0.0
 40
0.1323034284088744
 40
0.2645694515465796
 40
0.3997942148562054
 40
0.5349945762150086
 40
0.6501872613016995
 40
0.7653979157221116
 40
0.8826876171264815
 40
0.9999999999999999
 40
0.9999999999999999
 40
0.9999999999999999
 40
0.9999999999999999
 10
8.097517124067803
 20
52.03059279559581
 30
0.0
 10
8.247178039789357
 20
52.28981310553282
 30
0.0
 10
8.546457558593984
 20
52.80818043776721
 30
0.0
 10
9.007321293455481
 20
53.60641984191329
 30
0.0
 10
9.476872244610114
 20
54.41970594605543
 30
0.0
 10
9.929418425377238
 20
55.20353892391535
 30
0.0
 10
10.35752037599753
 20
55.94503325320905
 30
0.0
 10
10.76154794354812
 20
56.64482952786516
 30
0.0
 10
11.16374884889263
 20
57.34146193077206
 30
0.0
 10
11.42898689464384
 20
57.80086770211345
 30
0.0
 10
11.56161873920551
 20
58.03059279559585
 30
0.0
  0
SPLINE
  5
18F
330
1F
100
AcDbEntity
  8
0
  6
Continuous
 62
     7
370
    25
100
AcDbSpline
210
0.0
220
0.0
230
1.0
 70
    24
 71
     3
 72
    14
 73
    10
 74
     0
 42
0.00000001
 43
0.00000001
 40
0.0
 40
0.0
 40
0.0
 40
0.0
 40
0.1881834863217924
 40
0.3780973734199339
 40
0.5036314984992454
 40
0.6291663438343801
 40
0.7580473736630335
 40
0.886964194227096
 40
1.0
 40
1.0
 40
1.0
 40
1.0
 10
11.56161873920551
 20
58.03059279559585
 30
0.0
 10
11.98816153563434
 20
58.03059279559585
 30
0.0
 10
12.84516931104113
 20
58.03059279559586
 30
0.0
 10
14.01775811849163
 20
58.03059279559587
 30
0.0
 10
15.05153906931421
 20
58.03059279559587
 30
0.0
 10
15.94246451417501
 20
58.03059279559588
 30
0.0
 10
16.83434885810542
 20
58.03059279559589
 30
0.0
 10
17.68732060821476
 20
58.03059279559589
 30
0.0
 10
18.23428860613891
 20
58.0305927955959
 30
0.0
 10
18.48982196948105
 20
58.0305927955959
 30
0.0
  0
SPLINE
  5
190
330
1F
100
AcDbEntity
  8
0
  6
Continuous
 62
     7
370
    25
100
AcDbSpline
210
0.0
220
0.0
230
1.0
 70
    24
 71
     3
 72
    15
 73
    11
 74
     0
 42
0.00000001
 43
0.00000001
 40
0.0
 40
0.0
 40
0.0
 40
0.0
 40
0.1323034284088743
 40
0.2645694515465797
 40
0.3997942148562053
 40
0.5349945762150086
 40
0.6501872613016993
 40
0.7653979157221118
 40
0.8826876171264816
 40
1.0
 40
1.0
 40
1.0
 40
1.0
 10
18.48982196948104
 20
58.0305927955959
 30
0.0
 10
18.6394828852026
 20
57.77137248565888
 30
0.0
 10
18.93876240400723
 20
57.2530051534245
 30
0.0
 10
19.39962613886874
 20
56.45476574927842
 30
0.0
 10
19.86917709002338
 20
55.64147964513629
 30
0.0
 10
20.32172327079052
 20
54.85764666727638
 30
0.0
 10
20.74982522141082
 20
54.11615233798268
 30
0.0
 10
21.15385278896142
 20
53.41635606332658
 30
0.0
 10
21.55605369430594
 20
52.71972366041969
 30
0.0
 10
21.82129174005716
 20
52.26031788907829
 30
0.0
 10
21.95392358461883
 20
52.03059279559589
 30
0.0
  0
SPLINE
  5
191
330
1F
100
AcDbEntity
  8
0
  6
Continuous
 62
     7
370
    25
100
AcDbSpline
210
0.0
220
0.0
230
1.0
 70
    24
 71
     3
 72
    15
 73
    11
 74
     0
 42
0.00000001
 43
0.00000001
 40
0.0
 40
0.0
 40
0.0
 40
0.0
 40
0.1323034284088744
 40
0.2645694515465796
 40
0.3997942148562055
 40
0.5349945762150087
 40
0.6501872613016997
 40
0.7653979157221118
 40
0.8826876171264815
 40
1.0
 40
1.0
 40
1.0
 40
1.0
 10
21.95392358461883
 20
52.03059279559589
 30
0.0
 10
21.80426266889728
 20
51.77137248565889
 30
0.0
 10
21.50498315009265
 20
51.2530051534245
 30
0.0
 10
21.04411941523115
 20
50.45476574927842
 30
0.0
 10
20.57456846407651
 20
49.64147964513629
 30
0.0
 10
20.12202228330939
 20
48.85764666727636
 30
0.0
 10
19.69392033268909
 20
48.11615233798266
 30
0.0
 10
19.28989276513849
 20
47.41635606332656
 30
0.0
 10
18.88769185979397
 20
46.71972366041966
 30
0.0
 10
18.62245381404276
 20
46.26031788907828
 30
0.0
 10
18.48982196948108
 20
46.03059279559588
 30
0.0
  0
SPLINE
  5
192
330
1F
100
AcDbEntity
  8
0
  6
Continuous
 62
     7
370
    25
100
AcDbSpline
210
0.0
220
0.0
230
1.0
 70
    24
 71
     3
 72
    14
 73
    10
 74
     0
 42
0.00000001
 43
0.00000001
 40
0.0
 40
0.0
 40
0.0
 40
0.0
 40
0.1130358674256961
 40
0.2387309183475702
 40
0.3643935058067621
 40
0.4931482948452618
 40
0.6219015933115536
 40
0.8099221489291575
 40
1.0
 40
1.0
 40
1.0
 40
1.0
 10
18.48982196948108
 20
46.03059279559588
 30
0.0
 10
18.23428946205665
 20
46.03059279559588
 30
0.0
 10
17.69460669096461
 20
46.03059279559588
 30
0.0
 10
16.85662565633846
 20
46.03059279559588
 30
0.0
 10
15.97262875955266
 20
46.03059279559588
 30
0.0
 10
15.07422702469818
 20
46.03059279559588
 30
0.0
 10
14.02968178617436
 20
46.03059279559588
 30
0.0
 10
12.84956072965663
 20
46.03059279559588
 30
0.0
 10
11.99248722852662
 20
46.03059279559588
 30
0.0
 10
11.56161873920555
 20
46.03059279559588
 30
0.0
  0
CIRCLE
  5
193
330
1F
100
AcDbEntity
  8
0
  6
Continuous
 62
     7
370
    25
100
AcDbCircle
 10
15.0257203543
 20
52.0305927956
 30
0.0
 40
5.749999999999993
  0
CIRCLE
  5
194
330
1F
100
AcDbEntity
  8
0
  6
Continuous
 62
     7
370
    25
100
AcDbCircle
 10
15.0257203543
 20
52.0305927956
 30
0.0
 40
3.275000000000006
  0
CIRCLE
  5
195
330
1F
100
AcDbEntity
  8
0
  6
Continuous
 62
     7
370
    25
100
AcDbCircle
 10
15.0257203543
 20
52.0305927956
 30
0.0
 40
3.074999999999996
  0
SPLINE
  5
196
330
1F
100
AcDbEntity
  8
0
  6
Continuous
 62
     7
370
    25
100
AcDbSpline
210
0.0
220
0.0
230
1.0
 70
     8
 71
     3
 72
    14
 73
    10
 74
     0
 42
0.00000001
 43
0.00000001
 40
0.0
 40
0.0
 40
0.0
 40
0.0
 40
0.1130358674256962
 40
0.2387309183475702
 40
0.3643935058067622
 40
0.493148294845262
 40
0.6219015933115537
 40
0.8099221489291575
 40
1.0
 40
1.0
 40
1.0
 40
1.0
 10
24.45429025666339
 20
52.03059279559589
 30
0.0
 10
24.38403403164128
 20
52.25189043851819
 30
0.0
 10
24.23565340254417
 20
52.71926942826867
 30
0.0
 10
24.06613600513436
 20
53.44498229214449
 30
0.0
 10
23.94860013334772
 20
54.2105460616276
 30
0.0
 10
23.90575714149994
 20
54.9885847868156
 30
0.0
 10
23.94667038614897
 20
55.89318749877929
 30
0.0
 10
24.11195484072488
 20
56.91520231326457
 30
0.0
 10
24.3397652667181
 20
57.65744973815363
 30
0.0
 10
24.45429025666339
 20
58.0305927955959
 30
0.0
  0
SPLINE
  5
197
330
1F
100
AcDbEntity
  8
0
  6
Continuous
 62
     7
370
    25
100
AcDbSpline
210
0.0
220
0.0
230
1.0
 70
     8
 71
     3
 72
    15
 73
    11
 74
     0
 42
0.00000001
 43
0.00000001
 40
0.0
 40
0.0
 40
0.0
 40
0.0
 40
0.1323034284088743
 40
0.2645694515465795
 40
0.3997942148562053
 40
0.5349945762150086
 40
0.6501872613016996
 40
0.7653979157221118
 40
0.8826876171264815
 40
1.0
 40
1.0
 40
1.0
 40
1.0
 10
24.45429025666339
 20
46.03059279559588
 30
0.0
 10
24.37271250630725
 20
46.28981310553289
 30
0.0
 10
24.20958006953149
 20
46.80818043776728
 30
0.0
 10
24.03405463187449
 20
47.60641984191336
 30
0.0
 10
23.92851414078331
 20
48.41970594605549
 30
0.0
 10
23.90760887038537
 20
49.2035389239154
 30
0.0
 10
23.96183225153867
 20
49.9450332532091
 30
0.0
 10
24.07294426691157
 20
50.64482952786521
 30
0.0
 10
24.23593561829001
 20
51.34146193077211
 30
0.0
 10
24.38150068609979
 20
51.80086770211349
 30
0.0
 10
24.45429025666339
 20
52.03059279559589
 30
0.0
  0
SPLINE
  5
198
330
1F
100
AcDbEntity
  8
0
  6
Continuous
 62
     7
370
    25
100
AcDbSpline
210
0.0
220
0.0
230
1.0
 70
    24
 71
     3
 72
    12
 73
     8
 74
     0
 42
0.00000001
 43
0.00000001
 40
0.0
 40
0.0
 40
0.0
 40
0.0
 40
0.0700131991250962
 40
0.3003926123714576
 40
0.5308079633560185
 40
0.7653813007953207
 40
1.0
 40
1.0
 40
1.0
 40
1.0
 10
23.9268124442208
 20
46.03059279559588
 30
0.0
 10
23.92424438475035
 20
46.03059279559588
 30
0.0
 10
23.91322608959037
 20
46.03059279559588
 30
0.0
 10
23.96533811543078
 20
46.03059279559587
 30
0.0
 10
24.07199045540598
 20
46.03059279559588
 30
0.0
 10
24.23617589958191
 20
46.03059279559587
 30
0.0
 10
24.38158078502594
 20
46.03059279559588
 30
0.0
 10
24.45429025666339
 20
46.03059279559588
 30
0.0
  0
SPLINE
  5
199
330
1F
100
AcDbEntity
  8
0
  6
Continuous
 62
     7
370
    25
100
AcDbSpline
210
0.0
220
0.0
230
1.0
 70
    24
 71
     3
 72
    11
 73
     7
 74
     0
 42
0.00000001
 43
0.00000001
 40
0.0
 40
0.0
 40
0.0
 40
0.0
 40
0.2646136989416684
 40
0.5291525854065704
 40
0.7996091052277269
 40
1.0
 40
1.0
 40
1.0
 40
1.0
 10
24.45429025666339
 20
58.0305927955959
 30
0.0
 10
24.37256490882211
 20
58.0305927955959
 30
0.0
 10
24.20913731880531
 20
58.0305927955959
 30
0.0
 10
24.03584155166887
 20
58.0305927955959
 30
0.0
 10
23.93157349771164
 20
58.0305927955959
 30
0.0
 10
23.92823380494438
 20
58.0305927955959
 30
0.0
 10
23.92681244422082
 20
58.0305927955959
 30
0.0
  0
LINE
  5
19A
330
1F
100
AcDbEntity
  8
0
  6
Continuous
 62
     7
370
    25
100
AcDbLine
 10
23.7740543045
 20
54.9055927956
 30
0.0
 11
23.7740543045
 21
57.7805927956
 31
0.0
  0
LINE
  5
19B
330
1F
100
AcDbEntity
  8
0
  6
Continuous
 62
     7
370
    25
100
AcDbLine
 10
23.7740543045
 20
46.2805927956
 30
0.0
 11
23.7740543045
 21
54.9055927956
 31
0.0
  0
LINE
  5
19C
330
1F
100
AcDbEntity
  8
0
  6
Continuous
 62
     7
370
    25
100
AcDbLine
 10
24.4542902567
 20
52.0305927956
 30
0.0
 11
34.0938183523
 21
52.0305927956
 31
0.0
  0
SPLINE
  5
19D
330
1F
100
AcDbEntity
  8
0
  6
Continuous
 62
     7
370
    25
100
AcDbSpline
210
0.0
220
0.0
230
1.0
 70
     8
 71
     3
 72
    15
 73
    11
 74
     0
 42
0.00000001
 43
0.00000001
 40
0.0
 40
0.0
 40
0.0
 40
0.0
 40
0.1323034284088742
 40
0.2645694515465795
 40
0.3997942148562053
 40
0.5349945762150086
 40
0.6501872613016996
 40
0.7653979157221118
 40
0.8826876171264815
 40
1.0
 40
1.0
 40
1.0
 40
1.0
 10
34.09381835234408
 20
46.03059279559588
 30
0.0
 10
34.17539610270022
 20
46.28981310553289
 30
0.0
 10
34.33852853947598
 20
46.80818043776728
 30
0.0
 10
34.51405397713298
 20
47.60641984191336
 30
0.0
 10
34.61959446822416
 20
48.41970594605549
 30
0.0
 10
34.6404997386221
 20
49.2035389239154
 30
0.0
 10
34.5862763574688
 20
49.9450332532091
 30
0.0
 10
34.47516434209589
 20
50.64482952786521
 30
0.0
 10
34.31217299071746
 20
51.34146193077211
 30
0.0
 10
34.16660792290767
 20
51.80086770211349
 30
0.0
 10
34.09381835234408
 20
52.03059279559589
 30
0.0
  0
LINE
  5
19E
330
1F
100
AcDbEntity
  8
0
  6
Continuous
 62
     7
370
    25
100
AcDbLine
 10
24.4542902567
 20
46.0305927956
 30
0.0
 11
34.0938183523
 21
46.0305927956
 31
0.0
  0
SPLINE
  5
19F
330
1F
100
AcDbEntity
  8
0
  6
Continuous
 62
     7
370
    25
100
AcDbSpline
210
0.0
220
0.0
230
1.0
 70
    24
 71
     3
 72
    11
 73
     7
 74
     0
 42
0.00000001
 43
0.00000001
 40
0.0
 40
0.0
 40
0.0
 40
0.0
 40
0.2646136989416684
 40
0.5291525854065704
 40
0.7996091052277269
 40
1.0
 40
1.0
 40
1.0
 40
1.0
 10
34.09381835234408
 20
58.0305927955959
 30
0.0
 10
34.17554370018537
 20
58.0305927955959
 30
0.0
 10
34.33897129020215
 20
58.0305927955959
 30
0.0
 10
34.51226705733859
 20
58.0305927955959
 30
0.0
 10
34.61653511129584
 20
58.0305927955959
 30
0.0
 10
34.61987480406309
 20
58.0305927955959
 30
0.0
 10
34.62129616478665
 20
58.0305927955959
 30
0.0
  0
SPLINE
  5
1A0
330
1F
100
AcDbEntity
  8
0
  6
Continuous
 62
     7
370
    25
100
AcDbSpline
210
0.0
220
0.0
230
1.0
 70
    24
 71
     3
 72
    12
 73
     8
 74
     0
 42
0.00000001
 43
0.00000001
 40
0.0
 40
0.0
 40
0.0
 40
0.0
 40
0.0700131991250962
 40
0.3003926123714576
 40
0.5308079633560184
 40
0.7653813007953207
 40
1.0
 40
1.0
 40
1.0
 40
1.0
 10
34.62129616478666
 20
46.03059279559588
 30
0.0
 10
34.62386422425712
 20
46.03059279559588
 30
0.0
 10
34.63488251941709
 20
46.03059279559588
 30
0.0
 10
34.5827704935767
 20
46.03059279559587
 30
0.0
 10
34.47611815360148
 20
46.03059279559588
 30
0.0
 10
34.31193270942556
 20
46.03059279559588
 30
0.0
 10
34.16652782398154
 20
46.03059279559588
 30
0.0
 10
34.09381835234408
 20
46.03059279559588
 30
0.0
  0
SPLINE
  5
1A1
330
1F
100
AcDbEntity
  8
0
  6
Continuous
 62
     7
370
    25
100
AcDbSpline
210
0.0
220
0.0
230
1.0
 70
     8
 71
     3
 72
    14
 73
    10
 74
     0
 42
0.00000001
 43
0.00000001
 40
0.0
 40
0.0
 40
0.0
 40
0.0
 40
0.1130358674256962
 40
0.2387309183475702
 40
0.3643935058067621
 40
0.4931482948452619
 40
0.6219015933115537
 40
0.8099221489291575
 40
1.0
 40
1.0
 40
1.0
 40
1.0
 10
34.09381835234408
 20
52.03059279559589
 30
0.0
 10
34.1640745773662
 20
52.25189043851819
 30
0.0
 10
34.31245520646331
 20
52.71926942826867
 30
0.0
 10
34.4819726038731
 20
53.44498229214449
 30
0.0
 10
34.59950847565975
 20
54.2105460616276
 30
0.0
 10
34.64235146750753
 20
54.98858478681559
 30
0.0
 10
34.6014382228585
 20
55.89318749877929
 30
0.0
 10
34.43615376828259
 20
56.91520231326457
 30
0.0
 10
34.20834334228937
 20
57.65744973815363
 30
0.0
 10
34.09381835234408
 20
58.0305927955959
 30
0.0
  0
LINE
  5
1A2
330
1F
100
AcDbEntity
  8
0
  6
Continuous
 62
     7
370
    25
100
AcDbLine
 10
34.7740543045
 20
54.9055927956
 30
0.0
 11
34.7740543045
 21
57.7805927956
 31
0.0
  0
LINE
  5
1A3
330
1F
100
AcDbEntity
  8
0
  6
Continuous
 62
     7
370
    25
100
AcDbLine
 10
34.7740543045
 20
46.2805927956
 30
0.0
 11
34.7740543045
 21
54.9055927956
 31
0.0
  0
LINE
  5
1A4
330
1F
100
AcDbEntity
  8
0
  6
Continuous
 62
     7
370
    25
100
AcDbLine
 10
24.4542902567
 20
58.0305927956
 30
0.0
 11
34.0938183523
 21
58.0305927956
 31
0.0
  0
CIRCLE
  5
1A5
330
1F
100
AcDbEntity
  8
0
  6
Continuous
 62
     7
370
    25
100
AcDbCircle
 10
15.0257203543
 20
52.0305927956
 30
0.0
 40
3.049999999999995
  0
CIRCLE
  5
1A6
330
1F
100
AcDbEntity
  8
0
  6
Continuous
 62
     7
370
    25
100
AcDbCircle
 10
15.0257203543
 20
52.0305927956
 30
0.0
 40
1.999999999999998
  0
LINE
  5
1A7
330
1F
100
AcDbEntity
  8
0
  6
Continuous
 62
     7
370
    25
100
AcDbLine
 10
23.0257203543
 20
56.8945927956
 30
0.0
 11
23.0257203543
 21
47.1665927956
 31
0.0
  0
SPLINE
  5
1A8
330
1F
100
AcDbEntity
  8
0
  6
Continuous
 62
     7
370
    25
100
AcDbSpline
210
0.0
220
0.0
230
1.0
 70
     8
 71
     3
 72
    22
 73
    18
 74
     0
 42
0.00000001
 43
0.00000001
 40
0.0
 40
0.0
 40
0.0
 40
0.0
 40
0.0625
 40
0.0625
 40
0.125
 40
0.125
 40
0.1875
 40
0.1875
 40
0.25
 40
0.25
 40
0.3125
 40
0.3125
 40
0.375
 40
0.375
 40
0.4375
 40
0.4375
 40
0.5
 40
0.5
 40
0.5
 40
0.5
 10
21.02572035432641
 20
56.53059279559587
 30
0.0
 10
21.02571373186408
 20
56.53059279578272
 30
0.0
 10
21.01302697925041
 20
56.52912791785197
 30
0.0
 10
20.96229325368666
 20
56.52392297551956
 30
0.0
 10
20.92613894558875
 20
56.52038860453037
 30
0.0
 10
20.83240852125247
 20
56.51303349313462
 30
0.0
 10
20.77829082149898
 20
56.50950195764469
 30
0.0
 10
20.65583330648432
 20
56.50430562671325
 30
0.0
 10
20.59184748063717
 20
56.50283625226704
 30
0.0
 10
20.45959324073668
 20
56.50285091582039
 30
0.0
 10
20.39545789956772
 20
56.50431050444446
 30
0.0
 10
20.27329941323026
 20
56.50949707891024
 30
0.0
 10
20.21902282843758
 20
56.51303275669028
 30
0.0
 10
20.12531114010476
 20
56.52038933957214
 30
0.0
 10
20.0891352111561
 20
56.52392275973936
 30
0.0
 10
20.03842598294672
 20
56.52912813263482
 30
0.0
 10
20.02572035983884
 20
56.53059279559587
 30
0.0
 10
20.02572035434325
 20
56.53059279559587
 30
0.0
  0
SPLINE
  5
1A9
330
1F
100
AcDbEntity
  8
0
  6
Continuous
 62
     7
370
    25
100
AcDbSpline
210
0.0
220
0.0
230
1.0
 70
    24
 71
     3
 72
    14
 73
    10
 74
     0
 42
0.00000001
 43
0.00000001
 40
0.0
 40
0.0
 40
0.0
 40
0.0
 40
0.25
 40
0.25
 40
0.5
 40
0.5
 40
0.75
 40
0.75
 40
1.0
 40
1.0
 40
1.0
 40
1.0
 10
19.62572035434325
 20
56.53059279559587
 30
0.0
 10
19.62572035434325
 20
56.53059279559587
 30
0.0
 10
19.62572035434325
 20
56.52654966667322
 30
0.0
 10
19.62572035434325
 20
56.51035353396794
 30
0.0
 10
19.62572035434325
 20
56.49820047713157
 30
0.0
 10
19.62572035434325
 20
56.46571432530272
 30
0.0
 10
19.62572035434325
 20
56.4453811221848
 30
0.0
 10
19.62572035434325
 20
56.39642037604094
 30
0.0
 10
19.62572035434325
 20
56.36779266581001
 30
0.0
 10
19.62572035434325
 20
56.33494062168282
 30
0.0
  0
SPLINE
  5
1AA
330
1F
100
AcDbEntity
  8
0
  6
Continuous
 62
     7
370
    25
100
AcDbSpline
210
0.0
220
0.0
230
1.0
 70
    24
 71
     3
 72
    14
 73
    10
 74
     0
 42
0.00000001
 43
0.00000001
 40
0.0
 40
0.0
 40
0.0
 40
0.0
 40
0.25
 40
0.25
 40
0.5
 40
0.5
 40
0.75
 40
0.75
 40
1.0
 40
1.0
 40
1.0
 40
1.0
 10
19.62572035434325
 20
47.53059279559588
 30
0.0
 10
19.62572035434325
 20
47.53059279559588
 30
0.0
 10
19.62572035434325
 20
47.53463592451853
 30
0.0
 10
19.62572035434325
 20
47.55083205722381
 30
0.0
 10
19.62572035434325
 20
47.56298511406018
 30
0.0
 10
19.62572035434325
 20
47.59547126588902
 30
0.0
 10
19.62572035434325
 20
47.61580446900695
 30
0.0
 10
19.62572035434325
 20
47.66476521515081
 30
0.0
 10
19.62572035434325
 20
47.69339292538174
 30
0.0
 10
19.62572035434325
 20
47.72624496950893
 30
0.0
  0
ARC
  5
1AB
330
1F
100
AcDbEntity
  8
0
  6
Continuous
 62
     7
370
    25
100
AcDbCircle
 10
19.4257203543
 20
56.4305927956
 30
0.0
 40
0.1000000000000014
100
AcDbArc
 50
0.0
 51
90.0
  0
LINE
  5
1AC
330
1F
100
AcDbEntity
  8
0
  6
Continuous
 62
     7
370
    25
100
AcDbLine
 10
19.4257203543
 20
56.4305927956
 30
0.0
 11
19.5257203543
 21
56.4305927956
 31
0.0
  0
LINE
  5
1AD
330
1F
100
AcDbEntity
  8
0
  6
Continuous
 62
     7
370
    25
100
AcDbLine
 10
19.4257203543
 20
56.5305927956
 30
0.0
 11
19.4257203543
 21
56.4305927956
 31
0.0
  0
LINE
  5
1AE
330
1F
100
AcDbEntity
  8
0
  6
Continuous
 62
     7
370
    25
100
AcDbLine
 10
19.3558473733
 20
56.5305927956
 30
0.0
 11
19.4257203543
 21
56.5305927956
 31
0.0
  0
LINE
  5
1AF
330
1F
100
AcDbEntity
  8
0
  6
Continuous
 62
     7
370
    25
100
AcDbLine
 10
19.5257203543
 20
56.4305927956
 30
0.0
 11
19.5257203543
 21
56.2363641615
 31
0.0
  0
LINE
  5
1B0
330
1F
100
AcDbEntity
  8
0
  6
Continuous
 62
     7
370
    25
100
AcDbLine
 10
19.5257203543
 20
47.8248214297
 30
0.0
 11
19.5257203543
 21
47.6305927956
 31
0.0
  0
LINE
  5
1B1
330
1F
100
AcDbEntity
  8
0
  6
Continuous
 62
     7
370
    25
100
AcDbLine
 10
19.5257203543
 20
47.6305927956
 30
0.0
 11
19.4257203543
 21
47.6305927956
 31
0.0
  0
LINE
  5
1B2
330
1F
100
AcDbEntity
  8
0
  6
Continuous
 62
     7
370
    25
100
AcDbLine
 10
19.4257203543
 20
47.6305927956
 30
0.0
 11
19.4257203543
 21
47.5305927956
 31
0.0
  0
LINE
  5
1B3
330
1F
100
AcDbEntity
  8
0
  6
Continuous
 62
     7
370
    25
100
AcDbLine
 10
19.4257203543
 20
47.5305927956
 30
0.0
 11
19.3558473733
 21
47.5305927956
 31
0.0
  0
ARC
  5
1B4
330
1F
100
AcDbEntity
  8
0
  6
Continuous
 62
     7
370
    25
100
AcDbCircle
 10
19.4257203543
 20
47.6305927956
 30
0.0
 40
0.1000000000000014
100
AcDbArc
 50
270.0
 51
0.0
  0
SPLINE
  5
1B5
330
1F
100
AcDbEntity
  8
0
  6
Continuous
 62
     7
370
    25
100
AcDbSpline
210
0.0
220
0.0
230
1.0
 70
     8
 71
     3
 72
    12
 73
     8
 74
     0
 42
0.00000001
 43
0.00000001
 40
0.0
 40
0.0
 40
0.0
 40
0.0
 40
0.25
 40
0.25
 40
0.5
 40
0.5
 40
1.0
 40
1.0
 40
1.0
 40
1.0
 10
19.55500866905754
 20
56.36420141137417
 30
0.0
 10
19.5492386161247
 20
56.36988208101027
 30
0.0
 10
19.54407610248923
 20
56.37658019573843
 30
0.0
 10
19.53554279783114
 20
56.39059547971256
 30
0.0
 10
19.53217200680852
 20
56.39791264895851
 30
0.0
 10
19.52561218368703
 20
56.41866898497356
 30
0.0
 10
19.52572035434325
 20
56.43059279559587
 30
0.0
 10
19.52572035434325
 20
56.43059279559587
 30
0.0
  0
SPLINE
  5
1B6
330
1F
100
AcDbEntity
  8
0
  6
Continuous
 62
     7
370
    25
100
AcDbSpline
210
0.0
220
0.0
230
1.0
 70
     8
 71
     3
 72
    10
 73
     6
 74
     0
 42
0.00000001
 43
0.00000001
 40
0.0
 40
0.0
 40
0.0
 40
0.0
 40
0.5
 40
0.5
 40
1.0
 40
1.0
 40
1.0
 40
1.0
 10
19.55500866905754
 20
56.36420141137417
 30
0.0
 10
19.56654877492322
 20
56.35284007210198
 30
0.0
 10
19.57983805068456
 20
56.34552487467914
 30
0.0
 10
19.6050351948345
 20
56.33657514946956
 30
0.0
 10
19.61694306322308
 20
56.33494062168282
 30
0.0
 10
19.62572035434325
 20
56.33494062168282
 30
0.0
  0
SPLINE
  5
1B7
330
1F
100
AcDbEntity
  8
0
  6
Continuous
 62
     7
370
    25
100
AcDbSpline
210
0.0
220
0.0
230
1.0
 70
     8
 71
     3
 72
    10
 73
     6
 74
     0
 42
0.00000001
 43
0.00000001
 40
0.0
 40
0.0
 40
0.0
 40
0.0
 40
0.5
 40
0.5
 40
1.0
 40
1.0
 40
1.0
 40
1.0
 10
19.55500866905754
 20
47.69698417981758
 30
0.0
 10
19.56654877492322
 20
47.70834551908977
 30
0.0
 10
19.57983805068457
 20
47.71566071651261
 30
0.0
 10
19.6050351948345
 20
47.72461044172218
 30
0.0
 10
19.61694306322308
 20
47.72624496950893
 30
0.0
 10
19.62572035434325
 20
47.72624496950893
 30
0.0
  0
SPLINE
  5
1B8
330
1F
100
AcDbEntity
  8
0
  6
Continuous
 62
     7
370
    25
100
AcDbSpline
210
0.0
220
0.0
230
1.0
 70
     8
 71
     3
 72
    12
 73
     8
 74
     0
 42
0.00000001
 43
0.00000001
 40
0.0
 40
0.0
 40
0.0
 40
0.0
 40
0.25
 40
0.25
 40
0.5
 40
0.5
 40
1.0
 40
1.0
 40
1.0
 40
1.0
 10
19.55500866905754
 20
47.69698417981758
 30
0.0
 10
19.5492386161247
 20
47.69130351018148
 30
0.0
 10
19.54407610248924
 20
47.68460539545332
 30
0.0
 10
19.53554279783114
 20
47.67059011147919
 30
0.0
 10
19.53217200680852
 20
47.66327294223323
 30
0.0
 10
19.52561218368703
 20
47.64251660621819
 30
0.0
 10
19.52572035434325
 20
47.63059279559588
 30
0.0
 10
19.52572035434325
 20
47.63059279559588
 30
0.0
  0
LINE
  5
1B9
330
1F
100
AcDbEntity
  8
0
  6
Continuous
 62
     7
370
    25
100
AcDbLine
 10
14.5257203543
 20
50.0941011225
 30
0.0
 11
14.5257203543
 21
53.9670844687
 31
0.0
  0
SPLINE
  5
1BA
330
1F
100
AcDbEntity
  8
0
  6
Continuous
 62
     7
370
    25
100
AcDbSpline
210
0.0
220
0.0
230
1.0
 70
     8
 71
     3
 72
    10
 73
     6
 74
     0
 42
0.00000001
 43
0.00000001
 40
0.0
 40
0.0
 40
0.0
 40
0.0
 40
0.4999999999999999
 40
0.4999999999999999
 40
1.0
 40
1.0
 40
1.0
 40
1.0
 10
14.52572035434325
 20
50.09410112249217
 30
0.0
 10
14.69039356619296
 20
50.10161704155225
 30
0.0
 10
14.85603000439152
 20
50.10639389659556
 30
0.0
 10
15.18976972226554
 20
50.10649435763609
 30
0.0
 10
15.35924251752647
 20
50.10169940719651
 30
0.0
 10
15.52572035434329
 20
50.09410112249217
 30
0.0
  0
SPLINE
  5
1BB
330
1F
100
AcDbEntity
  8
0
  6
Continuous
 62
     7
370
    25
100
AcDbSpline
210
0.0
220
0.0
230
1.0
 70
     8
 71
     3
 72
    14
 73
    10
 74
     0
 42
0.00000001
 43
0.00000001
 40
0.0
 40
0.0
 40
0.0
 40
0.0
 40
0.25
 40
0.25
 40
0.5
 40
0.5
 40
0.75
 40
0.75
 40
1.0
 40
1.0
 40
1.0
 40
1.0
 10
19.52614792637379
 20
56.53031603013592
 30
0.0
 10
19.53022636507609
 20
56.53031811499476
 30
0.0
 10
19.53611672600344
 20
56.5268281885204
 30
0.0
 10
19.54892610187574
 20
56.51205483004879
 30
0.0
 10
19.55584511682069
 20
56.50077139805155
 30
0.0
 10
19.56811661029564
 20
56.46960154567767
 30
0.0
 10
19.57049909820214
 20
56.45152218817956
 30
0.0
 10
19.56807066411475
 20
56.41098902865231
 30
0.0
 10
19.56325974212085
 20
56.38853522662318
 30
0.0
 10
19.55500866905754
 20
56.36420141137417
 30
0.0
  0
SPLINE
  5
1BC
330
1F
100
AcDbEntity
  8
0
  6
Continuous
 62
     7
370
    25
100
AcDbSpline
210
0.0
220
0.0
230
1.0
 70
     8
 71
     3
 72
    12
 73
     8
 74
     0
 42
0.00000001
 43
0.00000001
 40
0.0
 40
0.0
 40
0.0
 40
0.0
 40
0.25
 40
0.25
 40
0.5
 40
0.5
 40
1.0
 40
1.0
 40
1.0
 40
1.0
 10
19.52614792637379
 20
56.53031603013592
 30
0.0
 10
19.52206948767151
 20
56.53031394527708
 30
0.0
 10
19.51908945330765
 20
56.52681948434152
 30
0.0
 10
19.51343365395189
 20
56.51812707471522
 30
0.0
 10
19.51075788895997
 20
56.51292912602446
 30
0.0
 10
19.50034818908475
 20
56.50270194491671
 30
0.0
 10
19.4964623198385
 20
56.50127218633794
 30
0.0
 10
19.49643103245984
 20
56.5013034737166
 30
0.0
  0
SPLINE
  5
1BD
330
1F
100
AcDbEntity
  8
0
  6
Continuous
 62
     7
370
    25
100
AcDbSpline
210
0.0
220
0.0
230
1.0
 70
     8
 71
     3
 72
     9
 73
     5
 74
     0
 42
0.00000001
 43
0.00000001
 40
0.0
 40
0.0
 40
0.0
 40
0.0
 40
0.4116807512410356
 40
1.0
 40
1.0
 40
1.0
 40
1.0
 10
19.44899557261987
 20
56.53078395891453
 30
0.0
 10
19.45958375250134
 20
56.53092381202642
 30
0.0
 10
19.48530314756549
 20
56.53126352456211
 30
0.0
 10
19.51101887117724
 20
56.53066698553072
 30
0.0
 10
19.52614792637379
 20
56.53031603013592
 30
0.0
  0
SPLINE
  5
1BE
330
1F
100
AcDbEntity
  8
0
  6
Continuous
 62
     7
370
    25
100
AcDbSpline
210
0.0
220
0.0
230
1.0
 70
     8
 71
     3
 72
    12
 73
     8
 74
     0
 42
0.00000001
 43
0.00000001
 40
0.0
 40
0.0
 40
0.0
 40
0.0
 40
0.25
 40
0.25
 40
0.5
 40
0.5
 40
1.0
 40
1.0
 40
1.0
 40
1.0
 10
19.52614792637379
 20
47.53086956105583
 30
0.0
 10
19.52206948767151
 20
47.53087164591467
 30
0.0
 10
19.51908945330765
 20
47.53436610685021
 30
0.0
 10
19.51343365395189
 20
47.54305851647653
 30
0.0
 10
19.51075788895998
 20
47.54825646516729
 30
0.0
 10
19.50034818908475
 20
47.55848364627504
 30
0.0
 10
19.4964623198385
 20
47.55991340485381
 30
0.0
 10
19.49643103245984
 20
47.55988211747515
 30
0.0
  0
SPLINE
  5
1BF
330
1F
100
AcDbEntity
  8
0
  6
Continuous
 62
     7
370
    25
100
AcDbSpline
210
0.0
220
0.0
230
1.0
 70
     8
 71
     3
 72
    12
 73
     8
 74
     0
 42
0.00000001
 43
0.00000001
 40
0.0
 40
0.0
 40
0.0
 40
0.0
 40
0.25
 40
0.25
 40
0.5
 40
0.5
 40
1.0
 40
1.0
 40
1.0
 40
1.0
 10
19.52614792637379
 20
47.53086956105583
 30
0.0
 10
19.53022636507609
 20
47.53086747619699
 30
0.0
 10
19.53611672600344
 20
47.53435740267135
 30
0.0
 10
19.54892610187574
 20
47.54913076114295
 30
0.0
 10
19.55584511682069
 20
47.5604141931402
 30
0.0
 10
19.57425235703312
 20
47.60716897170102
 30
0.0
 10
19.57151081518416
 20
47.64831654931957
 30
0.0
 10
19.55500866905754
 20
47.69698417981758
 30
0.0
  0
SPLINE
  5
1C0
330
1F
100
AcDbEntity
  8
0
  6
Continuous
 62
     7
370
    25
100
AcDbSpline
210
0.0
220
0.0
230
1.0
 70
     8
 71
     3
 72
     9
 73
     5
 74
     0
 42
0.00000001
 43
0.00000001
 40
0.0
 40
0.0
 40
0.0
 40
0.0
 40
0.4116807512465408
 40
1.0
 40
1.0
 40
1.0
 40
1.0
 10
19.44899557261915
 20
47.53040163227723
 30
0.0
 10
19.45958375250086
 20
47.53026177916533
 30
0.0
 10
19.48530314756525
 20
47.52992206662963
 30
0.0
 10
19.51101887117723
 20
47.53051860566103
 30
0.0
 10
19.52614792637379
 20
47.53086956105583
 30
0.0
  0
SPLINE
  5
1C1
330
1F
100
AcDbEntity
  8
0
  6
Continuous
 62
     7
370
    25
100
AcDbSpline
210
0.0
220
0.0
230
1.0
 70
     8
 71
     3
 72
    10
 73
     6
 74
     0
 42
0.00000001
 43
0.00000001
 40
0.0
 40
0.0
 40
0.0
 40
0.0
 40
0.5
 40
0.5
 40
1.0
 40
1.0
 40
1.0
 40
1.0
 10
19.52614792637379
 20
56.53031603013592
 30
0.0
 10
19.54246168118295
 20
56.53032436957127
 30
0.0
 10
19.55982152504595
 20
56.53041938829126
 30
0.0
 10
19.59547260471187
 20
56.52878797879752
 30
0.0
 10
19.60869566832829
 20
56.53059279559587
 30
0.0
 10
19.62572035434325
 20
56.53059279559587
 30
0.0
  0
SPLINE
  5
1C2
330
1F
100
AcDbEntity
  8
0
  6
Continuous
 62
     7
370
    25
100
AcDbSpline
210
0.0
220
0.0
230
1.0
 70
     8
 71
     3
 72
    10
 73
     6
 74
     0
 42
0.00000001
 43
0.00000001
 40
0.0
 40
0.0
 40
0.0
 40
0.0
 40
0.5
 40
0.5
 40
1.0
 40
1.0
 40
1.0
 40
1.0
 10
19.52614792637379
 20
47.53086956105583
 30
0.0
 10
19.54246168118295
 20
47.53086122162047
 30
0.0
 10
19.55982152504595
 20
47.53076620290048
 30
0.0
 10
19.59547260471188
 20
47.53239761239423
 30
0.0
 10
19.60869566832829
 20
47.53059279559588
 30
0.0
 10
19.62572035434325
 20
47.53059279559588
 30
0.0
  0
SPLINE
  5
1C3
330
1F
100
AcDbEntity
  8
0
  6
Continuous
 62
     7
370
    25
100
AcDbSpline
210
0.0
220
0.0
230
1.0
 70
     8
 71
     3
 72
    18
 73
    14
 74
     0
 42
0.00000001
 43
0.00000001
 40
0.0
 40
0.0
 40
0.0
 40
0.0
 40
0.25
 40
0.25
 40
0.375
 40
0.375
 40
0.5
 40
0.5
 40
0.625
 40
0.625
 40
0.75
 40
0.75
 40
1.0
 40
1.0
 40
1.0
 40
1.0
 10
14.52572035434325
 20
53.96708446869957
 30
0.0
 10
14.37944030776474
 20
53.67788013518058
 30
0.0
 10
14.24434082007189
 20
53.37962798176849
 30
0.0
 10
14.08644205105218
 20
52.89603562951651
 30
0.0
 10
14.04169773559916
 20
52.72780345231185
 30
0.0
 10
13.97991000476426
 20
52.38499742827048
 30
0.0
 10
13.96260720799068
 20
52.20668117873277
 30
0.0
 10
13.96282658239602
 20
51.85101073347049
 30
0.0
 10
13.97985784985563
 20
51.67624093945959
 30
0.0
 10
14.04202699600815
 20
51.33179300417853
 30
0.0
 10
14.08678426071593
 20
51.16408032914062
 30
0.0
 10
14.24382319073901
 20
50.68318608558361
 30
0.0
 10
14.37948160029502
 20
50.38322381822818
 30
0.0
 10
14.52572035434325
 20
50.09410112249217
 30
0.0
  0
LINE
  5
1C4
330
1F
100
AcDbEntity
  8
0
  6
Continuous
 62
     7
370
    25
100
AcDbLine
 10
22.7257203543
 20
47.5305927956
 30
0.0
 11
22.7257203543
 21
56.5305927956
 31
0.0
  0
LINE
  5
1C5
330
1F
100
AcDbEntity
  8
0
  6
Continuous
 62
     7
370
    25
100
AcDbLine
 10
19.6257203543
 20
47.9856410789
 30
0.0
 11
19.6257203543
 21
47.7262449695
 31
0.0
  0
LINE
  5
1C6
330
1F
100
AcDbEntity
  8
0
  6
Continuous
 62
     7
370
    25
100
AcDbLine
 10
19.6257203543
 20
56.3349406217
 30
0.0
 11
19.6257203543
 21
56.0797698915
 31
0.0
  0
SPLINE
  5
1C7
330
1F
100
AcDbEntity
  8
0
  6
Continuous
 62
     7
370
    25
100
AcDbSpline
210
0.0
220
0.0
230
1.0
 70
     8
 71
     3
 72
    14
 73
    10
 74
     0
 42
0.00000001
 43
0.00000001
 40
0.0
 40
0.0
 40
0.0
 40
0.0
 40
0.25
 40
0.25
 40
0.5
 40
0.5
 40
0.75
 40
0.75
 40
1.0
 40
1.0
 40
1.0
 40
1.0
 10
20.27572035434325
 20
56.83059279559588
 30
0.0
 10
20.27572036015991
 20
56.83059279587368
 30
0.0
 10
20.29997630041237
 20
56.82893605259968
 30
0.0
 10
20.39155603982242
 20
56.82495784557007
 30
0.0
 10
20.45818986607545
 20
56.82303593184037
 30
0.0
 10
20.59365788850556
 20
56.8230263421575
 30
0.0
 10
20.66052467832645
 20
56.82498442996389
 30
0.0
 10
20.75125761009789
 20
56.82892805876961
 30
0.0
 10
20.77571133947629
 20
56.83059299862059
 30
0.0
 10
20.77572035421237
 20
56.8305927955748
 30
0.0
  0
LWPOLYLINE
  5
1C8
330
1F
100
AcDbEntity
  8
0
  6
Continuous
 62
     7
370
    25
100
AcDbPolyline
 90
       13
 70
   128
 43
0.0
 10
21.0257190095
 20
56.5805926088
 10
21.0257203541
 20
56.5805927955
 10
20.9966946481
 20
56.5766600636
 10
20.9122147905
 20
56.5665534537
 10
20.782910593
 20
56.5549347364
 10
20.6247481754
 20
56.5470649698
 10
20.4563863649
 20
56.5463716454
 10
20.2982270975
 20
56.5529278023
 10
20.1654150715
 20
56.5638361665
 10
20.0721726872
 20
56.5744269887
 10
20.0283344602
 20
56.5802242488
 10
20.0257203543
 20
56.5805927956
 10
20.0257203543
 20
56.5805927956
  0
MTEXT
  5
1CA
330
1F
100
AcDbEntity
  8
0
  6
Continuous
 62
     7
370
     0
100
AcDbMText
 10
27.2445907837
 20
40.2819195227
 30
0.0
 40
1.75
 41
0.0
 71
     1
 72
     1
  1
両口リングエルボ　RL-2106R
  7
SLDTEXTSTYLE0
 73
     1
 44
1.0
  0
INSERT
  5
1D6
330
1F
100
AcDbEntity
  8
0
  6
Continuous
 62
     7
370
    18
100
AcDbBlockReference
  2
SW_CENTERMARKSYMBOL_1
 10
15.0257203543
 20
52.0305927956
 30
0.0
  0
ENDSEC
  0
SECTION
  2
OBJECTS
  0
DICTIONARY
  5
C
330
0
100
AcDbDictionary
281
     1
  3
ACAD_GROUP
350
D
  3
ACAD_LAYOUT
350
1A
  3
ACAD_MLINESTYLE
350
17
  3
ACAD_PLOTSETTINGS
350
19
  3
ACAD_PLOTSTYLENAME
350
E
  3
ACAD_SCALELIST
350
47
  3
DWGPROPS
350
1D7
  0
DICTIONARY
  5
D
102
{ACAD_REACTORS
330
C
102
}
330
C
100
AcDbDictionary
281
     1
  0
DICTIONARY
  5
1A
102
{ACAD_REACTORS
330
C
102
}
330
C
100
AcDbDictionary
281
     1
  3
Layout1
350
1E
  3
Layout2
350
26
  3
Model
350
22
  0
DICTIONARY
  5
17
102
{ACAD_REACTORS
330
C
102
}
330
C
100
AcDbDictionary
281
     1
  3
Standard
350
18
  0
DICTIONARY
  5
19
102
{ACAD_REACTORS
330
C
102
}
330
C
100
AcDbDictionary
281
     1
  0
ACDBDICTIONARYWDFLT
  5
E
102
{ACAD_REACTORS
330
C
102
}
330
C
100
AcDbDictionary
281
     1
  3
Normal
350
F
100
AcDbDictionaryWithDefault
340
F
  0
DICTIONARY
  5
47
102
{ACAD_REACTORS
330
C
102
}
330
C
100
AcDbDictionary
281
     1
  3
A0
350
48
  3
A1
350
49
  3
A2
350
4A
  3
A3
350
4B
  3
A4
350
4C
  3
A5
350
4D
  3
A6
350
4E
  3
A7
350
4F
  3
A8
350
50
  3
A9
350
51
  3
B0
350
52
  3
B1
350
53
  3
B2
350
54
  3
B3
350
55
  3
B4
350
56
  3
B5
350
57
  3
B6
350
58
  0
XRECORD
  5
1D7
102
{ACAD_REACTORS
330
C
102
}
330
C
100
AcDbXrecord
280
     1
  1
DWGPROPS COOKIE
  2

  3

  4

  6

  7

  8
user52
  9

300
=
301
=
302
=
303
=
304
=
305
=
306
=
307
=
308
=
309
=
 40
0.0
 41
2460279.275858472
 42
2460279.275859063
  1

 90
        0
  0
LAYOUT
  5
1E
102
{ACAD_REACTORS
330
1A
102
}
330
1A
100
AcDbPlotSettings
  1

  2
none_device
  4

  6

 40
0.0
 41
0.0
 42
0.0
 43
0.0
 44
0.0
 45
0.0
 46
0.0
 47
0.0
 48
0.0
 49
0.0
140
0.0
141
0.0
142
1.0
143
1.0
 70
   688
 72
     1
 73
     0
 74
     5
  7

 75
    16
147
1.0
148
0.0
149
0.0
100
AcDbLayout
  1
Layout1
 70
     1
 71
     1
 10
0.0
 20
0.0
 11
420.0
 21
297.0
 12
0.0
 22
0.0
 32
0.0
 14
1.0000000000E+20
 24
1.0000000000E+20
 34
1.0000000000E+20
 15
-1.0000000000E+20
 25
-1.0000000000E+20
 35
-1.0000000000E+20
146
0.0
 13
0.0
 23
0.0
 33
0.0
 16
1.0
 26
0.0
 36
0.0
 17
0.0
 27
1.0
 37
0.0
 76
     0
330
1B
  0
LAYOUT
  5
26
102
{ACAD_REACTORS
330
1A
102
}
330
1A
100
AcDbPlotSettings
  1

  2
none_device
  4

  6

 40
0.0
 41
0.0
 42
0.0
 43
0.0
 44
0.0
 45
0.0
 46
0.0
 47
0.0
 48
0.0
 49
0.0
140
0.0
141
0.0
142
1.0
143
1.0
 70
   688
 72
     1
 73
     0
 74
     5
  7

 75
    16
147
1.0
148
0.0
149
0.0
100
AcDbLayout
  1
Layout2
 70
     1
 71
     2
 10
0.0
 20
0.0
 11
0.0
 21
0.0
 12
0.0
 22
0.0
 32
0.0
 14
0.0
 24
0.0
 34
0.0
 15
0.0
 25
0.0
 35
0.0
146
0.0
 13
0.0
 23
0.0
 33
0.0
 16
1.0
 26
0.0
 36
0.0
 17
0.0
 27
1.0
 37
0.0
 76
     0
330
23
  0
LAYOUT
  5
22
102
{ACAD_REACTORS
330
1A
102
}
330
1A
100
AcDbPlotSettings
  1

  2
none_device
  4
Letter_(8.50_x_11.00_Inches)
  6

 40
6.35
 41
6.35
 42
6.35000508
 43
6.35000508
 44
215.9
 45
279.4
 46
0.0
 47
0.0
 48
0.0
 49
0.0
140
0.0
141
0.0
142
1.0
143
1.0
 70
  1712
 72
     1
 73
     0
 74
     0
  7

 75
     0
147
1.0
148
0.0
149
0.0
100
AcDbLayout
  1
Model
 70
     1
 71
     0
 10
0.0
 20
0.0
 11
215.9
 21
139.7
 12
0.0
 22
0.0
 32
0.0
 14
0.0
 24
0.0
 34
0.0
 15
215.9
 25
139.7
 35
0.0
146
0.0
 13
0.0
 23
0.0
 33
0.0
 16
1.0
 26
0.0
 36
0.0
 17
0.0
 27
1.0
 37
0.0
 76
     0
330
1F
331
29
  0
MLINESTYLE
  5
18
102
{ACAD_REACTORS
330
17
102
}
330
17
100
AcDbMlineStyle
  2
Standard
 70
     0
  3

 62
   256
 51
90.0
 52
90.0
 71
     2
 49
0.5
 62
   256
  6
BYLAYER
 49
-0.5
 62
   256
  6
BYLAYER
  0
ACDBPLACEHOLDER
  5
F
102
{ACAD_REACTORS
330
E
102
}
330
E
  0
SCALE
  5
48
102
{ACAD_REACTORS
330
47
102
}
330
47
100
AcDbScale
 70
     0
300
1:1
140
1.0
141
1.0
290
     1
  0
SCALE
  5
49
102
{ACAD_REACTORS
330
47
102
}
330
47
100
AcDbScale
 70
     0
300
1:2
140
1.0
141
2.0
290
     0
  0
SCALE
  5
4A
102
{ACAD_REACTORS
330
47
102
}
330
47
100
AcDbScale
 70
     0
300
1:4
140
1.0
141
4.0
290
     0
  0
SCALE
  5
4B
102
{ACAD_REACTORS
330
47
102
}
330
47
100
AcDbScale
 70
     0
300
1:5
140
1.0
141
5.0
290
     0
  0
SCALE
  5
4C
102
{ACAD_REACTORS
330
47
102
}
330
47
100
AcDbScale
 70
     0
300
1:8
140
1.0
141
8.0
290
     0
  0
SCALE
  5
4D
102
{ACAD_REACTORS
330
47
102
}
330
47
100
AcDbScale
 70
     0
300
1:10
140
1.0
141
10.0
290
     0
  0
SCALE
  5
4E
102
{ACAD_REACTORS
330
47
102
}
330
47
100
AcDbScale
 70
     0
300
1:16
140
1.0
141
16.0
290
     0
  0
SCALE
  5
4F
102
{ACAD_REACTORS
330
47
102
}
330
47
100
AcDbScale
 70
     0
300
1:20
140
1.0
141
20.0
290
     0
  0
SCALE
  5
50
102
{ACAD_REACTORS
330
47
102
}
330
47
100
AcDbScale
 70
     0
300
1:30
140
1.0
141
30.0
290
     0
  0
SCALE
  5
51
102
{ACAD_REACTORS
330
47
102
}
330
47
100
AcDbScale
 70
     0
300
1:40
140
1.0
141
40.0
290
     0
  0
SCALE
  5
52
102
{ACAD_REACTORS
330
47
102
}
330
47
100
AcDbScale
 70
     0
300
1:50
140
1.0
141
50.0
290
     0
  0
SCALE
  5
53
102
{ACAD_REACTORS
330
47
102
}
330
47
100
AcDbScale
 70
     0
300
1:100
140
1.0
141
100.0
290
     0
  0
SCALE
  5
54
102
{ACAD_REACTORS
330
47
102
}
330
47
100
AcDbScale
 70
     0
300
2:1
140
2.0
141
1.0
290
     0
  0
SCALE
  5
55
102
{ACAD_REACTORS
330
47
102
}
330
47
100
AcDbScale
 70
     0
300
4:1
140
4.0
141
1.0
290
     0
  0
SCALE
  5
56
102
{ACAD_REACTORS
330
47
102
}
330
47
100
AcDbScale
 70
     0
300
8:1
140
8.0
141
1.0
290
     0
  0
SCALE
  5
57
102
{ACAD_REACTORS
330
47
102
}
330
47
100
AcDbScale
 70
     0
300
10:1
140
10.0
141
1.0
290
     0
  0
SCALE
  5
58
102
{ACAD_REACTORS
330
47
102
}
330
47
100
AcDbScale
 70
     0
300
100:1
140
100.0
141
1.0
290
     0
  0
ENDSEC
  0
EOF
