  0
SECTION
  2
HEADER
  9
$ACADVER
  1
AC1015
  9
$ACADMAINTVER
 70
     6
  9
$DWGCODEPAGE
  3
DOS932
  9
$INSBASE
 10
0.0
 20
0.0
 30
0.0
  9
$EXTMIN
 10
0.0
 20
0.0
 30
0.0
  9
$EXTMAX
 10
431.8
 20
279.4
 30
0.0
  9
$LIMMIN
 10
0.0
 20
0.0
  9
$LIMMAX
 10
431.8
 20
279.4
  9
$ORTHOMODE
 70
     0
  9
$REGENMODE
 70
     1
  9
$FILLMODE
 70
     1
  9
$QTEXTMODE
 70
     0
  9
$MIRRTEXT
 70
     1
  9
$LTSCALE
 40
1.0
  9
$ATTMODE
 70
     1
  9
$TEXTSIZE
 40
3.5
  9
$TRACEWID
 40
1.0
  9
$TEXTSTYLE
  7
Standard
  9
$CLAYER
  8
0
  9
$CELTYPE
  6
ByLayer
  9
$CECOLOR
 62
   256
  9
$CELTSCALE
 40
1.0
  9
$DISPSILH
 70
     0
  9
$DIMSCALE
 40
1.0
  9
$DIMASZ
 40
3.556
  9
$DIMEXO
 40
1.0
  9
$DIMDLI
 40
3.75
  9
$DIMRND
 40
0.0
  9
$DIMDLE
 40
0.0
  9
$DIMEXE
 40
1.0
  9
$DIMTP
 40
0.0
  9
$DIMTM
 40
0.0
  9
$DIMTXT
 40
3.5
  9
$DIMCEN
 40
2.5
  9
$DIMTSZ
 40
0.0
  9
$DIMTOL
 70
     0
  9
$DIMLIM
 70
     0
  9
$DIMTIH
 70
     1
  9
$DIMTOH
 70
     1
  9
$DIMSE1
 70
     0
  9
$DIMSE2
 70
     0
  9
$DIMTAD
 70
     1
  9
$DIMZIN
 70
     1
  9
$DIMBLK
  1

  9
$DIMASO
 70
     1
  9
$DIMSHO
 70
     1
  9
$DIMPOST
  1

  9
$DIMAPOST
  1

  9
$DIMALT
 70
     0
  9
$DIMALTD
 70
     3
  9
$DIMALTF
 40
0.0393700787
  9
$DIMLFAC
 40
1.0
  9
$DIMTOFL
 70
     1
  9
$DIMTVP
 40
0.0
  9
$DIMTIX
 70
     0
  9
$DIMSOXD
 70
     0
  9
$DIMSAH
 70
     0
  9
$DIMBLK1
  1

  9
$DIMBLK2
  1

  9
$DIMSTYLE
  2
ISO-25
  9
$DIMCLRD
 70
     0
  9
$DIMCLRE
 70
     0
  9
$DIMCLRT
 70
     0
  9
$DIMTFAC
 40
1.0
  9
$DIMGAP
 40
1.524
  9
$DIMJUST
 70
     0
  9
$DIMSD1
 70
     0
  9
$DIMSD2
 70
     0
  9
$DIMTOLJ
 70
     0
  9
$DIMTZIN
 70
     1
  9
$DIMALTZ
 70
     0
  9
$DIMALTTZ
 70
     0
  9
$DIMUPT
 70
     0
  9
$DIMDEC
 70
     2
  9
$DIMTDEC
 70
     2
  9
$DIMALTU
 70
     2
  9
$DIMALTTD
 70
     3
  9
$DIMTXSTY
  7
Standard
  9
$DIMAUNIT
 70
     0
  9
$DIMADEC
 70
     2
  9
$DIMALTRND
 40
0.0
  9
$DIMAZIN
 70
     0
  9
$DIMDSEP
 70
    44
  9
$DIMATFIT
 70
     3
  9
$DIMFRAC
 70
     0
  9
$DIMLDRBLK
  1

  9
$DIMLUNIT
 70
     2
  9
$DIMLWD
 70
    -2
  9
$DIMLWE
 70
    -2
  9
$DIMTMOVE
 70
     0
  9
$LUNITS
 70
     2
  9
$LUPREC
 70
     2
  9
$SKETCHINC
 40
1.0
  9
$FILLETRAD
 40
10.0
  9
$AUNITS
 70
     0
  9
$AUPREC
 70
     2
  9
$MENU
  1
.
  9
$ELEVATION
 40
0.0
  9
$PELEVATION
 40
0.0
  9
$THICKNESS
 40
0.0
  9
$LIMCHECK
 70
     0
  9
$CHAMFERA
 40
0.0
  9
$CHAMFERB
 40
0.0
  9
$CHAMFERC
 40
0.0
  9
$CHAMFERD
 40
0.0
  9
$SKPOLY
 70
     0
  9
$TDCREATE
 40
2459375.494823611
  9
$TDUCREATE
 40
2459375.119823611
  9
$TDUPDATE
 40
2459375.494824363
  9
$TDUUPDATE
 40
2459375.119824363
  9
$TDINDWG
 40
0.0000000116
  9
$TDUSRTIMER
 40
0.0000000116
  9
$USRTIMER
 70
     1
  9
$ANGBASE
 50
0.0
  9
$ANGDIR
 70
     0
  9
$PDMODE
 70
     0
  9
$PDSIZE
 40
-1.0
  9
$PLINEWID
 40
0.0
  9
$SPLFRAME
 70
     0
  9
$SPLINETYPE
 70
     6
  9
$SPLINESEGS
 70
     8
  9
$HANDSEED
  5
20D
  9
$SURFTAB1
 70
     6
  9
$SURFTAB2
 70
     6
  9
$SURFTYPE
 70
     6
  9
$SURFU
 70
     6
  9
$SURFV
 70
     6
  9
$UCSBASE
  2

  9
$UCSNAME
  2

  9
$UCSORG
 10
0.0
 20
0.0
 30
0.0
  9
$UCSXDIR
 10
1.0
 20
0.0
 30
0.0
  9
$UCSYDIR
 10
0.0
 20
1.0
 30
0.0
  9
$UCSORTHOREF
  2

  9
$UCSORTHOVIEW
 70
     0
  9
$UCSORGTOP
 10
0.0
 20
0.0
 30
0.0
  9
$UCSORGBOTTOM
 10
0.0
 20
0.0
 30
0.0
  9
$UCSORGLEFT
 10
0.0
 20
0.0
 30
0.0
  9
$UCSORGRIGHT
 10
0.0
 20
0.0
 30
0.0
  9
$UCSORGFRONT
 10
0.0
 20
0.0
 30
0.0
  9
$UCSORGBACK
 10
0.0
 20
0.0
 30
0.0
  9
$PUCSBASE
  2

  9
$PUCSNAME
  2

  9
$PUCSORG
 10
0.0
 20
0.0
 30
0.0
  9
$PUCSXDIR
 10
1.0
 20
0.0
 30
0.0
  9
$PUCSYDIR
 10
0.0
 20
1.0
 30
0.0
  9
$PUCSORTHOREF
  2

  9
$PUCSORTHOVIEW
 70
     0
  9
$PUCSORGTOP
 10
0.0
 20
0.0
 30
0.0
  9
$PUCSORGBOTTOM
 10
0.0
 20
0.0
 30
0.0
  9
$PUCSORGLEFT
 10
0.0
 20
0.0
 30
0.0
  9
$PUCSORGRIGHT
 10
0.0
 20
0.0
 30
0.0
  9
$PUCSORGFRONT
 10
0.0
 20
0.0
 30
0.0
  9
$PUCSORGBACK
 10
0.0
 20
0.0
 30
0.0
  9
$USERI1
 70
     0
  9
$USERI2
 70
     0
  9
$USERI3
 70
     0
  9
$USERI4
 70
     0
  9
$USERI5
 70
     0
  9
$USERR1
 40
0.0
  9
$USERR2
 40
0.0
  9
$USERR3
 40
0.0
  9
$USERR4
 40
0.0
  9
$USERR5
 40
0.0
  9
$WORLDVIEW
 70
     1
  9
$SHADEDGE
 70
     3
  9
$SHADEDIF
 70
    70
  9
$TILEMODE
 70
     1
  9
$MAXACTVP
 70
    64
  9
$PINSBASE
 10
0.0
 20
0.0
 30
0.0
  9
$PLIMCHECK
 70
     0
  9
$PEXTMIN
 10
1.0000000000E+20
 20
1.0000000000E+20
 30
1.0000000000E+20
  9
$PEXTMAX
 10
-1.0000000000E+20
 20
-1.0000000000E+20
 30
-1.0000000000E+20
  9
$PLIMMIN
 10
0.0
 20
0.0
  9
$PLIMMAX
 10
420.0
 20
297.0
  9
$UNITMODE
 70
     0
  9
$VISRETAIN
 70
     1
  9
$PLINEGEN
 70
     0
  9
$PSLTSCALE
 70
     1
  9
$TREEDEPTH
 70
  3020
  9
$CMLSTYLE
  2
Standard
  9
$CMLJUST
 70
     0
  9
$CMLSCALE
 40
20.0
  9
$PROXYGRAPHICS
 70
     1
  9
$MEASUREMENT
 70
     1
  9
$CELWEIGHT
370
    -1
  9
$ENDCAPS
280
     0
  9
$JOINSTYLE
280
     0
  9
$LWDISPLAY
290
     1
  9
$INSUNITS
 70
     4
  9
$HYPERLINKBASE
  1

  9
$STYLESHEET
  1

  9
$XEDIT
290
     1
  9
$CEPSNTYPE
380
     0
  9
$PSTYLEMODE
290
     1
  9
$FINGERPRINTGUID
  2
{BE661A69-53D4-4D53-811F-403CBE7E2F2D}
  9
$VERSIONGUID
  2
{FAEB1C32-E019-11D5-929B-00C0DF256EC4}
  9
$EXTNAMES
290
     1
  9
$PSVPSCALE
 40
0.0
  9
$OLESTARTUP
290
     0
  0
ENDSEC
  0
SECTION
  2
CLASSES
  0
CLASS
  1
ACDBDICTIONARYWDFLT
  2
AcDbDictionaryWithDefault
  3
ObjectDBX Classes
 90
        0
280
     0
281
     0
  0
CLASS
  1
VISUALSTYLE
  2
AcDbVisualStyle
  3
ObjectDBX Classes
 90
     4095
280
     0
281
     0
  0
CLASS
  1
MATERIAL
  2
AcDbMaterial
  3
ObjectDBX Classes
 90
     1153
280
     0
281
     0
  0
CLASS
  1
SCALE
  2
AcDbScale
  3
ObjectDBX Classes
 90
     1153
280
     0
281
     0
  0
CLASS
  1
TABLESTYLE
  2
AcDbTableStyle
  3
ObjectDBX Classes
 90
     4095
280
     0
281
     0
  0
CLASS
  1
MLEADERSTYLE
  2
AcDbMLeaderStyle
  3
ACDB_MLEADERSTYLE_CLASS
 90
     4095
280
     0
281
     0
  0
CLASS
  1
SUN
  2
AcDbSun
  3
SCENEOE
 90
     1153
280
     0
281
     0
  0
CLASS
  1
ACDBPLACEHOLDER
  2
AcDbPlaceHolder
  3
ObjectDBX Classes
 90
        0
280
     0
281
     0
  0
CLASS
  1
LAYOUT
  2
AcDbLayout
  3
ObjectDBX Classes
 90
        0
280
     0
281
     0
  0
ENDSEC
  0
SECTION
  2
TABLES
  0
TABLE
  2
VPORT
  5
8
330
0
100
AcDbSymbolTable
 70
     1
  0
VPORT
  5
29
330
8
100
AcDbSymbolTableRecord
100
AcDbViewportTableRecord
  2
*Active
 70
     0
 10
0.0
 20
0.0
 11
1.0
 21
1.0
 12
215.9
 22
139.7
 13
0.0
 23
0.0
 14
10.0
 24
10.0
 15
10.0
 25
10.0
 16
0.0
 26
0.0
 36
1.0
 17
0.0
 27
0.0
 37
0.0
 40
279.4
 41
1.5454545455
 42
50.0
 43
0.0
 44
0.0
 50
0.0
 51
0.0
 71
     0
 72
  2000
 73
     1
 74
     3
 75
     0
 76
     0
 77
     0
 78
     0
281
     0
 65
     1
110
0.0
120
0.0
130
0.0
111
1.0
121
0.0
131
0.0
112
0.0
122
1.0
132
0.0
 79
     0
146
0.0
  0
ENDTAB
  0
TABLE
  2
LTYPE
  5
5
330
0
100
AcDbSymbolTable
 70
     6
  0
LTYPE
  5
14
330
5
100
AcDbSymbolTableRecord
100
AcDbLinetypeTableRecord
  2
ByBlock
 70
     0
  3

 72
    65
 73
     0
 40
0.0
  0
LTYPE
  5
15
330
5
100
AcDbSymbolTableRecord
100
AcDbLinetypeTableRecord
  2
ByLayer
 70
     0
  3

 72
    65
 73
     0
 40
0.0
  0
LTYPE
  5
16
330
5
100
AcDbSymbolTableRecord
100
AcDbLinetypeTableRecord
  2
Continuous
 70
     0
  3
Solid line
 72
    65
 73
     0
 40
0.0
  0
LTYPE
  5
6E
330
5
100
AcDbSymbolTableRecord
100
AcDbLinetypeTableRecord
  2
HIDDEN
 70
     0
  3
Hidden __ __ __ __ __ __ __ __ __ __ __ __ __ __
 72
    65
 73
     2
 40
1.905
 49
1.27
 74
     0
 49
-0.635
 74
     0
  0
LTYPE
  5
6F
330
5
100
AcDbSymbolTableRecord
100
AcDbLinetypeTableRecord
  2
PHANTOM
 70
     0
  3
Phantom ______  __  __  ______  __  __  ______
 72
    65
 73
     6
 40
12.7
 49
6.35
 74
     0
 49
-1.27
 74
     0
 49
1.27
 74
     0
 49
-1.27
 74
     0
 49
1.27
 74
     0
 49
-1.27
 74
     0
  0
LTYPE
  5
70
330
5
100
AcDbSymbolTableRecord
100
AcDbLinetypeTableRecord
  2
CENTER
 70
     0
  3
Center ____ _ ____ _ ____ _ ____ _ ____ _ ____
 72
    65
 73
     4
 40
10.16
 49
6.35
 74
     0
 49
-1.27
 74
     0
 49
1.27
 74
     0
 49
-1.27
 74
     0
  0
LTYPE
  5
71
330
5
100
AcDbSymbolTableRecord
100
AcDbLinetypeTableRecord
  2
CENTERX2
 70
     0
  3
Center (2x) ________  __  ________  __  _____
 72
    65
 73
     4
 40
20.32
 49
12.7
 74
     0
 49
-2.54
 74
     0
 49
2.54
 74
     0
 49
-2.54
 74
     0
  0
LTYPE
  5
72
330
5
100
AcDbSymbolTableRecord
100
AcDbLinetypeTableRecord
  2
DOT2
 70
     0
  3
Dot (.5x) ........................................
 72
    65
 73
     2
 40
0.635
 49
0.0
 74
     0
 49
-0.635
 74
     0
  0
ENDTAB
  0
TABLE
  2
LAYER
  5
2
330
0
100
AcDbSymbolTable
 70
     1
  0
LAYER
  5
10
330
2
100
AcDbSymbolTableRecord
100
AcDbLayerTableRecord
  2
0
 70
     0
 62
     7
  6
Continuous
370
    -3
390
F
  0
ENDTAB
  0
TABLE
  2
STYLE
  5
3
330
0
100
AcDbSymbolTable
 70
     2
  0
STYLE
  5
11
330
3
100
AcDbSymbolTableRecord
100
AcDbTextStyleTableRecord
  2
Standard
 70
     0
 40
0.0
 41
1.0
 50
0.0
 71
     0
 42
3.5
  3
txt
  4
bigfont
  0
STYLE
  5
73
330
3
100
AcDbSymbolTableRecord
100
AcDbTextStyleTableRecord
  2
SLDTEXTSTYLE0
 70
     0
 40
0.0
 41
0.75
 50
0.0
 71
     0
 42
3.5
  3
TXT
  4
bigfont
  0
ENDTAB
  0
TABLE
  2
VIEW
  5
6
330
0
100
AcDbSymbolTable
 70
     0
  0
ENDTAB
  0
TABLE
  2
UCS
  5
7
330
0
100
AcDbSymbolTable
 70
     0
  0
ENDTAB
  0
TABLE
  2
APPID
  5
9
330
0
100
AcDbSymbolTable
 70
     1
  0
APPID
  5
12
330
9
100
AcDbSymbolTableRecord
100
AcDbRegAppTableRecord
  2
ACAD
 70
     0
  0
ENDTAB
  0
TABLE
  2
DIMSTYLE
  5
A
330
0
100
AcDbSymbolTable
 70
     1
100
AcDbDimStyleTable
  0
DIMSTYLE
105
27
330
A
100
AcDbSymbolTableRecord
100
AcDbDimStyleTableRecord
  2
ISO-25
 70
     0
 41
2.5
 42
0.625
 43
3.75
 44
1.25
 73
     0
 74
     0
 77
     1
 78
     8
140
2.5
141
2.5
143
0.0393700787
147
0.625
171
     3
172
     1
178
     0
271
     2
272
     2
274
     3
278
    44
283
     0
284
     8
340
11
  0
ENDTAB
  0
TABLE
  2
BLOCK_RECORD
  5
1
330
0
100
AcDbSymbolTable
 70
     1
  0
BLOCK_RECORD
  5
1F
330
1
100
AcDbSymbolTableRecord
100
AcDbBlockTableRecord
  2
*Model_Space
340
22
  0
BLOCK_RECORD
  5
1B
330
1
100
AcDbSymbolTableRecord
100
AcDbBlockTableRecord
  2
*Paper_Space
340
1E
  0
BLOCK_RECORD
  5
23
330
1
100
AcDbSymbolTableRecord
100
AcDbBlockTableRecord
  2
*Paper_Space0
340
26
  0
ENDTAB
  0
ENDSEC
  0
SECTION
  2
BLOCKS
  0
BLOCK
  5
20
330
1F
100
AcDbEntity
  8
0
100
AcDbBlockBegin
  2
*Model_Space
 70
     0
 10
0.0
 20
0.0
 30
0.0
  3
*Model_Space
  1

  0
ENDBLK
  5
21
330
1F
100
AcDbEntity
  8
0
100
AcDbBlockEnd
  0
BLOCK
  5
1C
330
1B
100
AcDbEntity
 67
     1
  8
0
100
AcDbBlockBegin
  2
*Paper_Space
 70
     0
 10
0.0
 20
0.0
 30
0.0
  3
*Paper_Space
  1

  0
ENDBLK
  5
1D
330
1B
100
AcDbEntity
 67
     1
  8
0
100
AcDbBlockEnd
  0
BLOCK
  5
24
330
23
100
AcDbEntity
  8
0
100
AcDbBlockBegin
  2
*Paper_Space0
 70
     0
 10
0.0
 20
0.0
 30
0.0
  3
*Paper_Space0
  1

  0
ENDBLK
  5
25
330
23
100
AcDbEntity
  8
0
100
AcDbBlockEnd
  0
ENDSEC
  0
SECTION
  2
ENTITIES
  0
MTEXT
  5
74
330
1F
100
AcDbEntity
  8
0
  6
Continuous
 62
     7
370
     0
100
AcDbMText
 10
159.5307656716
 20
137.0006343373
 30
0.0
 40
5.2916666667
 41
0.0
 71
     1
 72
     1
  1
5R-RL1412
  7
SLDTEXTSTYLE0
 73
     1
 44
1.0
  0
LINE
  5
75
330
1F
100
AcDbEntity
  8
0
  6
Continuous
 62
     7
370
    25
100
AcDbLine
 10
131.7844652731
 20
93.5595783475
 30
0.0
 11
130.5683309361
 21
91.453171887
 31
0.0
  0
LINE
  5
76
330
1F
100
AcDbEntity
  8
0
  6
Continuous
 62
     7
370
    25
100
AcDbLine
 10
130.5683309361
 20
67.953171887
 30
0.0
 11
131.7844652731
 21
65.8467654264
 31
0.0
  0
LINE
  5
77
330
1F
100
AcDbEntity
  8
0
  6
Continuous
 62
     7
370
    25
100
AcDbLine
 10
148.3683309361
 20
67.953171887
 30
0.0
 11
148.5683309361
 21
68.153171887
 31
0.0
  0
LINE
  5
78
330
1F
100
AcDbEntity
  8
0
  6
Continuous
 62
     7
370
    25
100
AcDbLine
 10
148.5683309361
 20
91.253171887
 30
0.0
 11
148.3683309361
 21
91.453171887
 31
0.0
  0
LINE
  5
79
330
1F
100
AcDbEntity
  8
0
  6
Continuous
 62
     7
370
    25
100
AcDbLine
 10
148.3683309361
 20
91.453171887
 30
0.0
 11
147.2900187726
 21
91.453171887
 31
0.0
  0
LINE
  5
7A
330
1F
100
AcDbEntity
  8
0
  6
Continuous
 62
     7
370
    25
100
AcDbLine
 10
147.2900187726
 20
67.953171887
 30
0.0
 11
148.3683309361
 21
67.953171887
 31
0.0
  0
ARC
  5
7B
330
1F
100
AcDbEntity
  8
0
  6
Continuous
 62
     7
370
    25
100
AcDbCircle
 10
147.2900187726
 20
92.703171887
 30
0.0
 40
1.250000000000004
100
AcDbArc
 50
210.0
 51
270.0
  0
LINE
  5
7C
330
1F
100
AcDbEntity
  8
0
  6
Continuous
 62
     7
370
    25
100
AcDbLine
 10
146.2074870179
 20
92.078171887
 30
0.0
 11
145.3521965991
 21
93.5595783475
 31
0.0
  0
ARC
  5
7D
330
1F
100
AcDbEntity
  8
0
  6
Continuous
 62
     7
370
    25
100
AcDbCircle
 10
147.2900187726
 20
66.703171887
 30
0.0
 40
1.250000000000004
100
AcDbArc
 50
90.0
 51
150.0
  0
LINE
  5
7E
330
1F
100
AcDbEntity
  8
0
  6
Continuous
 62
     7
370
    25
100
AcDbLine
 10
145.3521965991
 20
65.8467654264
 30
0.0
 11
146.2074870179
 21
67.328171887
 31
0.0
  0
ARC
  5
7F
330
1F
100
AcDbEntity
  8
0
  6
Continuous
 62
     7
370
    25
100
AcDbCircle
 10
120.8690350916
 20
96.6683146619
 30
0.0
 40
2.500000000000008
100
AcDbArc
 50
296.7436839504
 51
319.4425836614
  0
ARC
  5
80
330
1F
100
AcDbEntity
  8
0
  6
Continuous
 62
     7
370
    25
100
AcDbCircle
 10
103.3690350916
 20
96.6683146619
 30
0.0
 40
2.499999999999998
100
AcDbArc
 50
220.5574163386
 51
243.2563160496
  0
LINE
  5
81
330
1F
100
AcDbEntity
  8
0
  6
Continuous
 62
     7
370
    25
100
AcDbLine
 10
122.7684220149
 20
95.0427903417
 30
0.0
 11
122.4257973189
 21
106.006780614
 31
0.0
  0
LINE
  5
82
330
1F
100
AcDbEntity
  8
0
  6
Continuous
 62
     7
370
    25
100
AcDbLine
 10
101.8122728644
 20
106.006780614
 30
0.0
 11
101.4696481684
 21
95.0427903417
 31
0.0
  0
LINE
  5
83
330
1F
100
AcDbEntity
  8
0
  6
Continuous
 62
     7
370
    25
100
AcDbLine
 10
130.5683309361
 20
90.180671887
 30
0.0
 11
127.2770409735
 21
90.180671887
 31
0.0
  0
LINE
  5
84
330
1F
100
AcDbEntity
  8
0
  6
Continuous
 62
     7
370
    25
100
AcDbLine
 10
127.2770409735
 20
69.225671887
 30
0.0
 11
130.5683309361
 21
69.225671887
 31
0.0
  0
ARC
  5
85
330
1F
100
AcDbEntity
  8
0
  6
Continuous
 62
     7
370
    25
100
AcDbCircle
 10
129.0841778665
 20
70.953171887
 30
0.0
 40
2.500000000000028
100
AcDbArc
 50
206.7436839504
 51
223.7093197495
  0
ARC
  5
86
330
1F
100
AcDbEntity
  8
0
  6
Continuous
 62
     7
370
    25
100
AcDbCircle
 10
129.0841778665
 20
88.453171887
 30
0.0
 40
2.500000000000028
100
AcDbArc
 50
136.2906802505
 51
153.2563160496
  0
LINE
  5
87
330
1F
100
AcDbEntity
  8
0
  6
Continuous
 62
     7
370
    25
100
AcDbLine
 10
122.4257973189
 20
106.006780614
 30
0.0
 11
120.8690350916
 21
108.703171887
 31
0.0
  0
LINE
  5
88
330
1F
100
AcDbEntity
  8
0
  6
Continuous
 62
     7
370
    25
100
AcDbLine
 10
103.3690350916
 20
108.703171887
 30
0.0
 11
101.8122728644
 21
106.006780614
 31
0.0
  0
ARC
  5
89
330
1F
100
AcDbEntity
  8
0
  6
Continuous
 62
     7
370
    25
100
AcDbCircle
 10
124.6190350916
 20
68.703171887
 30
0.0
 40
2.500000000000014
100
AcDbArc
 50
26.7436839504
 51
90.0
  0
ARC
  5
8A
330
1F
100
AcDbEntity
  8
0
  6
Continuous
 62
     7
370
    25
100
AcDbCircle
 10
124.6190350916
 20
90.703171887
 30
0.0
 40
2.5
100
AcDbArc
 50
270.0
 51
333.2563160496
  0
ARC
  5
8B
330
1F
100
AcDbEntity
  8
0
  6
Continuous
 62
     7
370
    25
100
AcDbCircle
 10
123.1190350916
 20
92.203171887
 30
0.0
 40
2.500000000000009
100
AcDbArc
 50
116.7436839504
 51
180.0
  0
ARC
  5
8C
330
1F
100
AcDbEntity
  8
0
  6
Continuous
 62
     7
370
    25
100
AcDbCircle
 10
101.1190350916
 20
92.203171887
 30
0.0
 40
2.500000000000003
100
AcDbArc
 50
0.0
 51
63.2563160496
  0
LINE
  5
8D
330
1F
100
AcDbEntity
  8
0
  6
Continuous
 62
     7
370
    25
100
AcDbLine
 10
103.6190350916
 20
92.203171887
 30
0.0
 11
103.6190350916
 21
74.1987712186
 31
0.0
  0
LINE
  5
8E
330
1F
100
AcDbEntity
  8
0
  6
Continuous
 62
     7
370
    25
100
AcDbLine
 10
120.6190350916
 20
88.703171887
 30
0.0
 11
120.6190350916
 21
92.203171887
 31
0.0
  0
LINE
  5
8F
330
1F
100
AcDbEntity
  8
0
  6
Continuous
 62
     7
370
    25
100
AcDbLine
 10
124.6190350916
 20
88.203171887
 30
0.0
 11
121.1190350916
 21
88.203171887
 31
0.0
  0
LINE
  5
90
330
1F
100
AcDbEntity
  8
0
  6
Continuous
 62
     7
370
    25
100
AcDbLine
 10
106.6146344232
 20
71.203171887
 30
0.0
 11
124.6190350916
 21
71.203171887
 31
0.0
  0
SPLINE
  5
91
330
1F
100
AcDbEntity
  8
0
  6
Continuous
 62
     7
370
    25
100
AcDbSpline
210
0.0
220
0.0
230
1.0
 70
     8
 71
     3
 72
    21
 73
    17
 74
     0
 42
0.000000001
 43
0.00000001
 40
0.0
 40
0.0
 40
0.0
 40
0.0
 40
0.082675667536071
 40
0.1577159023869824
 40
0.225107122878268
 40
0.2848508575649881
 40
0.3526127842311548
 40
0.4067896671894032
 40
0.4520101410146769
 40
0.5086861790580107
 40
0.5792250314326626
 40
0.6636251927364243
 40
0.7360318665421361
 40
0.8162246244150331
 40
0.9042198598363963
 40
1.0
 40
1.0
 40
1.0
 40
1.0
 10
103.6190350919079
 20
74.2031322640257
 30
0.0
 10
103.6239328154806
 20
74.07325515719853
 30
0.0
 10
103.6332759380214
 20
73.8254956202862
 30
0.0
 10
103.702322534586
 20
73.47762647271745
 30
0.0
 10
103.7957106381902
 20
73.1738501052226
 30
0.0
 10
103.9153402420157
 20
72.89172703034883
 30
0.0
 10
104.0526358139646
 20
72.64111647926877
 30
0.0
 10
104.2001876419312
 20
72.42374971201352
 30
0.0
 10
104.3531982421607
 20
72.2321520128329
 30
0.0
 10
104.5387569609241
 20
72.03456784263192
 30
0.0
 10
104.7899407016953
 20
71.81613354241311
 30
0.0
 10
105.0864537972538
 20
71.61563576740409
 30
0.0
 10
105.4184369487203
 20
71.44580973694481
 30
0.0
 10
105.7740335147571
 20
71.31632108450594
 30
0.0
 10
106.1797347654399
 20
71.22239025523196
 30
0.0
 10
106.4684978059432
 20
71.20975640401542
 30
0.0
 10
106.6189954686765
 20
71.203171887257
 30
0.0
  0
SPLINE
  5
92
330
1F
100
AcDbEntity
  8
0
  6
Continuous
 62
     7
370
    25
100
AcDbSpline
210
0.0
220
0.0
230
1.0
 70
     8
 71
     3
 72
    11
 73
     7
 74
     0
 42
0.000000001
 43
0.00000001
 40
0.0
 40
0.0
 40
0.0
 40
0.0
 40
0.2500481156911711
 40
0.5000000000000012
 40
0.7499518843088333
 40
1.0
 40
1.0
 40
1.0
 40
1.0
 10
121.1238684228197
 20
88.20317188699195
 30
0.0
 10
121.0574672893329
 20
88.21026431125128
 30
0.0
 10
120.9246905769324
 20
88.22444643024012
 30
0.0
 10
120.7570922683473
 20
88.34122906369649
 30
0.0
 10
120.640309634891
 20
88.50882737228153
 30
0.0
 10
120.6261275159022
 20
88.641604084682
 30
0.0
 10
120.6190350916428
 20
88.70800521816881
 30
0.0
  0
SPLINE
  5
93
330
1F
100
AcDbEntity
  8
0
  6
Continuous
 62
     7
370
    25
100
AcDbSpline
210
0.0
220
0.0
230
1.0
 70
     8
 71
     3
 72
    11
 73
     7
 74
     0
 42
0.000000001
 43
0.00000001
 40
0.0
 40
0.0
 40
0.0
 40
0.0
 40
0.2896312968534329
 40
0.5811875798131639
 40
0.7902304971769971
 40
1.0
 40
1.0
 40
1.0
 40
1.0
 10
146.2074870178831
 20
91.6071500602112
 30
0.0
 10
146.2768338548986
 20
91.31623101995817
 30
0.0
 10
146.4159884311153
 20
90.73245939457412
 30
0.0
 10
146.4378794114421
 20
89.93227670069803
 30
0.0
 10
146.3654813604196
 20
89.21456445304526
 30
0.0
 10
146.2602126745867
 20
88.79430012219348
 30
0.0
 10
146.2074870178831
 20
88.58380340459925
 30
0.0
  0
SPLINE
  5
94
330
1F
100
AcDbEntity
  8
0
  6
Continuous
 62
     7
370
    25
100
AcDbSpline
210
0.0
220
0.0
230
1.0
 70
     8
 71
     3
 72
    10
 73
     6
 74
     0
 42
0.000000001
 43
0.00000001
 40
0.0
 40
0.0
 40
0.0
 40
0.0
 40
0.2491580587721897
 40
0.6240811857429049
 40
1.0
 40
1.0
 40
1.0
 40
1.0
 10
146.2074870178831
 20
88.58380340459925
 30
0.0
 10
146.1568034948106
 20
88.41961368223379
 30
0.0
 10
146.0298534241102
 20
88.00835780263037
 30
0.0
 10
145.7507845707777
 20
87.35577583703682
 30
0.0
 10
145.4851766633811
 20
86.87305540147784
 30
0.0
 10
145.3521965991047
 20
86.63137511726747
 30
0.0
  0
LINE
  5
95
330
1F
100
AcDbEntity
  8
0
  6
Continuous
 62
     7
370
    25
100
AcDbLine
 10
145.3521965991
 20
86.6313751173
 30
0.0
 11
131.7844652731
 21
86.6313751173
 31
0.0
  0
SPLINE
  5
96
330
1F
100
AcDbEntity
  8
0
  6
Continuous
 62
     7
370
    25
100
AcDbSpline
210
0.0
220
0.0
230
1.0
 70
     8
 71
     3
 72
    16
 73
    12
 74
     0
 42
0.000000001
 43
0.00000001
 40
0.0
 40
0.0
 40
0.0
 40
0.0
 40
0.1320247644072302
 40
0.2317995993197776
 40
0.3156168853403657
 40
0.3994283500700868
 40
0.535026266101586
 40
0.6499051871635351
 40
0.7654149132295867
 40
0.8825124270686535
 40
1.0
 40
1.0
 40
1.0
 40
1.0
 10
131.7844652731485
 20
86.63137511726747
 30
0.0
 10
131.6213867731043
 20
86.93005379229437
 30
0.0
 10
131.3350652550341
 20
87.45445235878641
 30
0.0
 10
131.0461513157599
 20
88.18065191772527
 30
0.0
 10
130.8618162211574
 20
88.80094432532167
 30
0.0
 10
130.7266142090904
 20
89.50891605130614
 30
0.0
 10
130.6914344844729
 20
90.2935988662993
 30
0.0
 10
130.7987639543258
 20
91.15075881096294
 30
0.0
 10
131.02157092111
 20
91.95833892831051
 30
0.0
 10
131.3474879202047
 20
92.76344708454593
 30
0.0
 10
131.6386447806774
 20
93.29390725026572
 30
0.0
 10
131.7844652731485
 20
93.55957834754298
 30
0.0
  0
LINE
  5
97
330
1F
100
AcDbEntity
  8
0
  6
Continuous
 62
     7
370
    25
100
AcDbLine
 10
145.3521965991
 20
93.5595783475
 30
0.0
 11
131.7844652731
 21
93.5595783475
 31
0.0
  0
SPLINE
  5
98
330
1F
100
AcDbEntity
  8
0
  6
Continuous
 62
     7
370
    25
100
AcDbSpline
210
0.0
220
0.0
230
1.0
 70
     8
 71
     3
 72
    11
 73
     7
 74
     0
 42
0.000000001
 43
0.00000001
 40
0.0
 40
0.0
 40
0.0
 40
0.0
 40
0.2493013230883979
 40
0.6239956154379632
 40
0.8745800399236844
 40
1.0
 40
1.0
 40
1.0
 40
1.0
 10
145.3521965991047
 20
93.55957834754298
 30
0.0
 10
145.4418135751881
 20
93.39949993974209
 30
0.0
 10
145.6661228546259
 20
92.99882727841558
 30
0.0
 10
145.927046265197
 20
92.43015717310354
 30
0.0
 10
146.1098387293527
 20
91.93790198378832
 30
0.0
 10
146.1830625068279
 20
91.68988017392383
 30
0.0
 10
146.2074870178831
 20
91.6071500602112
 30
0.0
  0
SPLINE
  5
99
330
1F
100
AcDbEntity
  8
0
  6
Continuous
 62
     7
370
    25
100
AcDbSpline
210
0.0
220
0.0
230
1.0
 70
     8
 71
     3
 72
    16
 73
    12
 74
     0
 42
0.000000001
 43
0.00000001
 40
0.0
 40
0.0
 40
0.0
 40
0.0
 40
0.121300518345492
 40
0.2462248504664026
 40
0.3717581507826658
 40
0.4995938594991272
 40
0.6283774394259346
 40
0.7206622353572151
 40
0.8132351217814902
 40
0.9065274415745372
 40
1.0
 40
1.0
 40
1.0
 40
1.0
 10
131.7844652731485
 20
72.77496865671644
 30
0.0
 10
131.6341629912666
 20
73.3236278073066
 30
0.0
 10
131.3290681954165
 20
74.43733712325782
 30
0.0
 10
130.9897823320066
 20
76.14876555665698
 30
0.0
 10
130.7647301155266
 20
77.90971947181121
 30
0.0
 10
130.6863617385971
 20
79.70211060367157
 30
0.0
 10
130.7578820137524
 20
81.33855542838023
 30
0.0
 10
130.9274503334863
 20
82.80010825167702
 30
0.0
 10
131.1498743084886
 20
84.0856982465667
 30
0.0
 10
131.4332751211728
 20
85.36504701616518
 30
0.0
 10
131.6673265982016
 20
86.20899426468186
 30
0.0
 10
131.7844652731485
 20
86.63137511726747
 30
0.0
  0
SPLINE
  5
9A
330
1F
100
AcDbEntity
  8
0
  6
Continuous
 62
     7
370
    25
100
AcDbSpline
210
0.0
220
0.0
230
1.0
 70
     8
 71
     3
 72
    16
 73
    12
 74
     0
 42
0.000000001
 43
0.00000001
 40
0.0
 40
0.0
 40
0.0
 40
0.0
 40
0.1320247244922889
 40
0.2317995292399904
 40
0.3155050157085214
 40
0.3994285316404321
 40
0.535026406676722
 40
0.6499052930074191
 40
0.7654149841515078
 40
0.8825124625885772
 40
1.0
 40
1.0
 40
1.0
 40
1.0
 10
131.7844652731485
 20
65.84676542644092
 30
0.0
 10
131.6213806887075
 20
66.1454436673076
 30
0.0
 10
131.3350484880906
 20
66.66984147153225
 30
0.0
 10
131.0462989117895
 20
67.39578827762588
 30
0.0
 10
130.8617406651065
 20
68.01606504387189
 30
0.0
 10
130.7266903256015
 20
68.72404683282224
 30
0.0
 10
130.6914173555094
 20
69.50898822948406
 30
0.0
 10
130.7987682417844
 20
70.36614935692172
 30
0.0
 10
131.0215697576733
 20
71.17372917323034
 30
0.0
 10
131.347488213853
 20
71.97883740993683
 30
0.0
 10
131.6386448786686
 20
72.50929756485097
 30
0.0
 10
131.7844652731485
 20
72.77496865671644
 30
0.0
  0
LINE
  5
9B
330
1F
100
AcDbEntity
  8
0
  6
Continuous
 62
     7
370
    25
100
AcDbLine
 10
130.5683309361
 20
79.703171887
 30
0.0
 11
130.5683309361
 21
91.453171887
 31
0.0
  0
LINE
  5
9C
330
1F
100
AcDbEntity
  8
0
  6
Continuous
 62
     7
370
    25
100
AcDbLine
 10
130.5683309361
 20
67.953171887
 30
0.0
 11
130.5683309361
 21
79.703171887
 31
0.0
  0
SPLINE
  5
9D
330
1F
100
AcDbEntity
  8
0
  6
Continuous
 62
     7
370
    25
100
AcDbSpline
210
0.0
220
0.0
230
1.0
 70
     8
 71
     3
 72
    11
 73
     7
 74
     0
 42
0.000000001
 43
0.00000001
 40
0.0
 40
0.0
 40
0.0
 40
0.0
 40
0.2896312968534328
 40
0.5811875798131637
 40
0.7902304971769971
 40
0.9999999999999999
 40
0.9999999999999999
 40
0.9999999999999999
 40
0.9999999999999999
 10
146.2074870178831
 20
70.82254036938465
 30
0.0
 10
146.2768338548986
 20
70.53162132913164
 30
0.0
 10
146.4159884311153
 20
69.94784970374758
 30
0.0
 10
146.4378794114421
 20
69.14766700987147
 30
0.0
 10
146.3654813604196
 20
68.4299547622187
 30
0.0
 10
146.2602126745867
 20
68.00969043136692
 30
0.0
 10
146.2074870178831
 20
67.79919371377271
 30
0.0
  0
SPLINE
  5
9E
330
1F
100
AcDbEntity
  8
0
  6
Continuous
 62
     7
370
    25
100
AcDbSpline
210
0.0
220
0.0
230
1.0
 70
     8
 71
     3
 72
    10
 73
     6
 74
     0
 42
0.000000001
 43
0.00000001
 40
0.0
 40
0.0
 40
0.0
 40
0.0
 40
0.249162623437082
 40
0.4987154826027844
 40
1.0
 40
1.0
 40
1.0
 40
1.0
 10
146.2074870178831
 20
67.79919371377271
 30
0.0
 10
146.1568981687657
 20
67.63499565713539
 30
0.0
 10
146.0556412388381
 20
67.30634237869133
 30
0.0
 10
145.7898732428285
 20
66.65265482814159
 30
0.0
 10
145.5274195755445
 20
66.1694016504026
 30
0.0
 10
145.3521965991047
 20
65.84676542644092
 30
0.0
  0
LINE
  5
9F
330
1F
100
AcDbEntity
  8
0
  6
Continuous
 62
     7
370
    25
100
AcDbLine
 10
145.3521965991
 20
65.8467654264
 30
0.0
 11
131.7844652731
 21
65.8467654264
 31
0.0
  0
LINE
  5
A0
330
1F
100
AcDbEntity
  8
0
  6
Continuous
 62
     7
370
    25
100
AcDbLine
 10
145.3521965991
 20
72.7749686567
 30
0.0
 11
131.7844652731
 21
72.7749686567
 31
0.0
  0
SPLINE
  5
A1
330
1F
100
AcDbEntity
  8
0
  6
Continuous
 62
     7
370
    25
100
AcDbSpline
210
0.0
220
0.0
230
1.0
 70
     8
 71
     3
 72
    10
 73
     6
 74
     0
 42
0.000000001
 43
0.00000001
 40
0.0
 40
0.0
 40
0.0
 40
0.0
 40
0.4987991814870257
 40
0.7492138627281386
 40
1.0
 40
1.0
 40
1.0
 40
1.0
 10
145.3521965991047
 20
72.77496865671644
 30
0.0
 10
145.5265923150347
 20
72.45393908746617
 30
0.0
 10
145.7885407961562
 20
71.97174141642968
 30
0.0
 10
146.0547290320986
 20
71.31809470943695
 30
0.0
 10
146.1565425368684
 20
70.9878067450764
 30
0.0
 10
146.2074870178831
 20
70.82254036938465
 30
0.0
  0
SPLINE
  5
A2
330
1F
100
AcDbEntity
  8
0
  6
Continuous
 62
     7
370
    25
100
AcDbSpline
210
0.0
220
0.0
230
1.0
 70
     8
 71
     3
 72
    12
 73
     8
 74
     0
 42
0.000000001
 43
0.00000001
 40
0.0
 40
0.0
 40
0.0
 40
0.0
 40
0.2129684305533258
 40
0.4081624072255345
 40
0.6039782819844951
 40
0.8016837761222427
 40
1.0
 40
1.0
 40
1.0
 40
1.0
 10
146.2074870178831
 20
82.7265185426039
 30
0.0
 10
146.2608743700281
 20
82.29907166656626
 30
0.0
 10
146.3631933386669
 20
81.47985284886983
 30
0.0
 10
146.4272825037614
 20
80.25921004248289
 30
0.0
 10
146.4251915308068
 20
79.0683627171841
 30
0.0
 10
146.3576749665692
 20
77.87251098889948
 30
0.0
 10
146.257601110819
 20
77.07779567720175
 30
0.0
 10
146.2074870178831
 20
76.67982523138
 30
0.0
  0
SPLINE
  5
A3
330
1F
100
AcDbEntity
  8
0
  6
Continuous
 62
     7
370
    25
100
AcDbSpline
210
0.0
220
0.0
230
1.0
 70
     8
 71
     3
 72
    10
 73
     6
 74
     0
 42
0.000000001
 43
0.00000001
 40
0.0
 40
0.0
 40
0.0
 40
0.0
 40
0.2966942842518304
 40
0.5940284356736802
 40
1.0
 40
1.0
 40
1.0
 40
1.0
 10
146.2074870178831
 20
76.67982523138
 30
0.0
 10
146.1463245572033
 20
76.2888967651294
 30
0.0
 10
146.0238677295254
 20
75.50619673485166
 30
0.0
 10
145.7435193680569
 20
74.20167142648165
 30
0.0
 10
145.4954122941538
 20
73.29711110538481
 30
0.0
 10
145.3521965991047
 20
72.77496865671644
 30
0.0
  0
SPLINE
  5
A4
330
1F
100
AcDbEntity
  8
0
  6
Continuous
 62
     7
370
    25
100
AcDbSpline
210
0.0
220
0.0
230
1.0
 70
     8
 71
     3
 72
    10
 73
     6
 74
     0
 42
0.000000001
 43
0.00000001
 40
0.0
 40
0.0
 40
0.0
 40
0.0
 40
0.4987991814870257
 40
0.7492138627281388
 40
1.0
 40
1.0
 40
1.0
 40
1.0
 10
145.3521965991047
 20
86.63137511726747
 30
0.0
 10
145.5265923150347
 20
85.98931597876692
 30
0.0
 10
145.7885407961562
 20
85.02492063669395
 30
0.0
 10
146.0547290320986
 20
83.7176272227085
 30
0.0
 10
146.1565425368684
 20
83.05705129398739
 30
0.0
 10
146.2074870178831
 20
82.7265185426039
 30
0.0
  0
SPLINE
  5
A5
330
1F
100
AcDbEntity
  8
0
  6
Continuous
 62
     7
370
    25
100
AcDbSpline
210
0.0
220
0.0
230
1.0
 70
     8
 71
     3
 72
    15
 73
    11
 74
     0
 42
0.000000001
 43
0.00000001
 40
0.0
 40
0.0
 40
0.0
 40
0.0
 40
0.1107123374795848
 40
0.2218859869850557
 40
0.3340511687093428
 40
0.4465871968369393
 40
0.5831347863171907
 40
0.7205976115345878
 40
0.8599287461656477
 40
0.9999999999999999
 40
0.9999999999999999
 40
0.9999999999999999
 40
0.9999999999999999
 10
147.2900187726136
 20
82.57382426706795
 30
0.0
 10
147.2868167039321
 20
82.36525166890343
 30
0.0
 10
147.280399224309
 20
81.94723740007535
 30
0.0
 10
147.2415783087785
 20
81.30987102773518
 30
0.0
 10
147.2004883852993
 20
80.66505007229414
 30
0.0
 10
147.1703395969992
 20
79.96726767727971
 30
0.0
 10
147.1754808218809
 20
79.21836923666274
 30
0.0
 10
147.219325981026
 20
78.42159862559316
 30
0.0
 10
147.2746393857977
 20
77.62363984362584
 30
0.0
 10
147.2848832652128
 20
77.09669157000262
 30
0.0
 10
147.2900187726136
 20
76.83251950691596
 30
0.0
  0
ARC
  5
A6
330
1F
100
AcDbEntity
  8
0
  6
Continuous
 62
     7
370
    25
100
AcDbCircle
 10
147.1791255607
 20
73.7050293245
 30
0.0
 40
3.129455566920015
100
AcDbArc
 50
87.9692814554
 51
108.0882596308
  0
ARC
  5
A7
330
1F
100
AcDbEntity
  8
0
  6
Continuous
 62
     7
370
    25
100
AcDbCircle
 10
147.1791255607
 20
85.7013144494
 30
0.0
 40
3.129455566916015
100
AcDbArc
 50
251.9117403692
 51
272.0307185446
  0
LINE
  5
A8
330
1F
100
AcDbEntity
  8
0
  6
Continuous
 62
     7
370
    25
100
AcDbLine
 10
146.2074870179
 20
82.7265185426
 30
0.0
 11
146.2074870179
 21
88.5838034046
 31
0.0
  0
LINE
  5
A9
330
1F
100
AcDbEntity
  8
0
  6
Continuous
 62
     7
370
    25
100
AcDbLine
 10
146.2074870179
 20
70.8225403694
 30
0.0
 11
146.2074870179
 21
76.6798252314
 31
0.0
  0
LINE
  5
AA
330
1F
100
AcDbEntity
  8
0
  6
Continuous
 62
     7
370
    25
100
AcDbLine
 10
147.2900187726
 20
76.8325195069
 30
0.0
 11
147.2900187726
 21
71.2710571127
 31
0.0
  0
ARC
  5
AB
330
1F
100
AcDbEntity
  8
0
  6
Continuous
 62
     7
370
    25
100
AcDbCircle
 10
147.2328202011
 20
69.878462803
 30
0.0
 40
1.393768484391511
100
AcDbArc
 50
87.647990046
 51
137.3626177873
  0
ARC
  5
AC
330
1F
100
AcDbEntity
  8
0
  6
Continuous
 62
     7
370
    25
100
AcDbCircle
 10
147.2328202011
 20
89.527880971
 30
0.0
 40
1.393768484391427
100
AcDbArc
 50
222.6373822127
 51
272.352009954
  0
LINE
  5
AD
330
1F
100
AcDbEntity
  8
0
  6
Continuous
 62
     7
370
    25
100
AcDbLine
 10
147.2900187726
 20
88.1352866613
 30
0.0
 11
147.2900187726
 21
82.5738242671
 31
0.0
  0
LINE
  5
AE
330
1F
100
AcDbEntity
  8
0
  6
Continuous
 62
     7
370
    25
100
AcDbLine
 10
148.5683309361
 20
91.253171887
 30
0.0
 11
148.5683309361
 21
68.153171887
 31
0.0
  0
LINE
  5
AF
330
1F
100
AcDbEntity
  8
0
  6
Continuous
 62
     7
370
    25
100
AcDbLine
 10
148.3683309361
 20
67.953171887
 30
0.0
 11
148.3683309361
 21
91.453171887
 31
0.0
  0
SPLINE
  5
B0
330
1F
100
AcDbEntity
  8
0
  6
Continuous
 62
     7
370
    25
100
AcDbSpline
210
0.0
220
0.0
230
1.0
 70
     8
 71
     3
 72
    15
 73
    11
 74
     0
 42
0.000000001
 43
0.00000001
 40
0.0
 40
0.0
 40
0.0
 40
0.0
 40
0.110931257180246
 40
0.2218878685175099
 40
0.3342489325819777
 40
0.4465909975315518
 40
0.5835720164058968
 40
0.7205960260516231
 40
0.8603243244460156
 40
1.0
 40
1.0
 40
1.0
 40
1.0
 10
147.2900187726136
 20
71.27105711269816
 30
0.0
 10
147.286758665025
 20
71.12401076157681
 30
0.0
 10
147.2802377047262
 20
70.82988445080603
 30
0.0
 10
147.2414646615822
 20
70.42099132440875
 30
0.0
 10
147.2008659474138
 20
70.0369305464315
 30
0.0
 10
147.1697974417561
 20
69.65494328279223
 30
0.0
 10
147.1774366098579
 20
69.28540796271685
 30
0.0
 10
147.2190081728637
 20
68.93923323454206
 30
0.0
 10
147.2744049287838
 20
68.63763738583677
 30
0.0
 10
147.2848148115349
 20
68.47947235411264
 30
0.0
 10
147.2900187726136
 20
68.40040473262215
 30
0.0
  0
SPLINE
  5
B1
330
1F
100
AcDbEntity
  8
0
  6
Continuous
 62
     7
370
    25
100
AcDbSpline
210
0.0
220
0.0
230
1.0
 70
     8
 71
     3
 72
    15
 73
    11
 74
     0
 42
0.000000001
 43
0.00000001
 40
0.0
 40
0.0
 40
0.0
 40
0.0
 40
0.1109312571802448
 40
0.2218878685175075
 40
0.3342489325819741
 40
0.4465909975315471
 40
0.5835720164058935
 40
0.7205960260516209
 40
0.8603243244460145
 40
0.9999999999999999
 40
0.9999999999999999
 40
0.9999999999999999
 40
0.9999999999999999
 10
147.2900187726136
 20
91.00593904136173
 30
0.0
 10
147.286758665025
 20
90.94400059721366
 30
0.0
 10
147.2802377047262
 20
90.82010955242927
 30
0.0
 10
147.2414646615822
 20
90.59126535073236
 30
0.0
 10
147.2008659474138
 20
90.33089975695545
 30
0.0
 10
147.1697974417561
 20
90.01428277717967
 30
0.0
 10
147.1774366098579
 20
89.6353387440742
 30
0.0
 10
147.2190081728638
 20
89.1839153395334
 30
0.0
 10
147.2744049287838
 20
88.68841303550201
 30
0.0
 10
147.2848148115349
 20
88.31963896776763
 30
0.0
 10
147.2900187726136
 20
88.13528666128576
 30
0.0
  0
ARC
  5
B2
330
1F
100
AcDbEntity
  8
0
  6
Continuous
 62
     7
370
    25
100
AcDbCircle
 10
147.2812120583
 20
67.141061053
 30
0.0
 40
1.259374472362013
100
AcDbArc
 50
89.599331506
 51
148.4940606845
  0
ARC
  5
B3
330
1F
100
AcDbEntity
  8
0
  6
Continuous
 62
     7
370
    25
100
AcDbCircle
 10
147.2812120583
 20
92.265282721
 30
0.0
 40
1.259374472359829
100
AcDbArc
 50
211.5059393155
 51
270.400668494
  0
LINE
  5
B4
330
1F
100
AcDbEntity
  8
0
  6
Continuous
 62
     7
370
    25
100
AcDbLine
 10
112.1190350916
 20
95.0427903417
 30
0.0
 11
122.7684220149
 21
95.0427903417
 31
0.0
  0
LINE
  5
B5
330
1F
100
AcDbEntity
  8
0
  6
Continuous
 62
     7
370
    25
100
AcDbLine
 10
101.4696481684
 20
95.0427903417
 30
0.0
 11
112.1190350916
 21
95.0427903417
 31
0.0
  0
LINE
  5
B6
330
1F
100
AcDbEntity
  8
0
  6
Continuous
 62
     7
370
    25
100
AcDbLine
 10
101.8122728644
 20
106.006780614
 30
0.0
 11
122.4257973189
 21
106.006780614
 31
0.0
  0
LINE
  5
B7
330
1F
100
AcDbEntity
  8
0
  6
Continuous
 62
     7
370
    25
100
AcDbLine
 10
127.2770409735
 20
69.225671887
 30
0.0
 11
127.2770409735
 21
90.180671887
 31
0.0
  0
LINE
  5
B8
330
1F
100
AcDbEntity
  8
0
  6
Continuous
 62
     7
370
    25
100
AcDbLine
 10
112.1190350916
 20
108.703171887
 30
0.0
 11
120.8690350916
 21
108.703171887
 31
0.0
  0
LINE
  5
B9
330
1F
100
AcDbEntity
  8
0
  6
Continuous
 62
     7
370
    25
100
AcDbLine
 10
103.3690350916
 20
108.703171887
 30
0.0
 11
112.1190350916
 21
108.703171887
 31
0.0
  0
SPLINE
  5
BA
330
1F
100
AcDbEntity
  8
0
  6
Continuous
 62
     7
370
    25
100
AcDbSpline
210
0.0
220
0.0
230
1.0
 70
    24
 71
     3
 72
     8
 73
     4
 74
     0
 42
0.000000001
 43
0.00000001
 40
0.0
 40
0.0
 40
0.0
 40
0.0
 40
1.0
 40
1.0
 40
1.0
 40
1.0
 10
112.1190350916428
 20
88.20317188699195
 30
0.0
 10
113.0956884344056
 20
88.20317188699195
 30
0.0
 10
114.0721132687821
 20
88.20317188699195
 30
0.0
 10
114.9913164149118
 20
88.20317188699195
 30
0.0
  0
SPLINE
  5
BB
330
1F
100
AcDbEntity
  8
0
  6
Continuous
 62
     7
370
    25
100
AcDbSpline
210
0.0
220
0.0
230
1.0
 70
    24
 71
     3
 72
     8
 73
     4
 74
     0
 42
0.000000001
 43
0.00000001
 40
0.0
 40
0.0
 40
0.0
 40
0.0
 40
1.0
 40
1.0
 40
1.0
 40
1.0
 10
109.2467537683738
 20
88.20317188699195
 30
0.0
 10
110.1659569145035
 20
88.20317188699195
 30
0.0
 10
111.14238174888
 20
88.20317188699195
 30
0.0
 10
112.1190350916428
 20
88.20317188699195
 30
0.0
  0
SPLINE
  5
BC
330
1F
100
AcDbEntity
  8
0
  6
Continuous
 62
     7
370
    25
100
AcDbSpline
210
0.0
220
0.0
230
1.0
 70
     8
 71
     3
 72
     8
 73
     4
 74
     0
 42
0.000000001
 43
0.00000001
 40
0.0
 40
0.0
 40
0.0
 40
0.0
 40
1.0
 40
1.0
 40
1.0
 40
1.0
 10
105.2270107155977
 20
88.01352151013728
 30
0.0
 10
105.1549444692553
 20
87.9224895798582
 30
0.0
 10
105.0944515116891
 20
87.81253434968392
 30
0.0
 10
105.0357017583095
 20
87.70317188699195
 30
0.0
  0
LINE
  5
BD
330
1F
100
AcDbEntity
  8
0
  6
Continuous
 62
     7
370
    25
100
AcDbLine
 10
105.0357017583
 20
87.703171887
 30
0.0
 11
105.0357017583
 21
75.703171887
 31
0.0
  0
SPLINE
  5
BE
330
1F
100
AcDbEntity
  8
0
  6
Continuous
 62
     7
370
    25
100
AcDbSpline
210
0.0
220
0.0
230
1.0
 70
     8
 71
     3
 72
    10
 73
     6
 74
     0
 42
0.000000001
 43
0.00000001
 40
0.0
 40
0.0
 40
0.0
 40
0.0
 40
0.0280934765544326
 40
0.0280934765544326
 40
0.0561869531088653
 40
0.0561869531088653
 40
0.0561869531088653
 40
0.0561869531088653
 10
105.0357017583095
 20
75.70317188699195
 30
0.0
 10
105.0357017583095
 20
75.60952696514384
 30
0.0
 10
105.0392792525541
 20
75.51547105993927
 30
0.0
 10
105.0534407306146
 20
75.32920034783325
 30
0.0
 10
105.0640200024609
 20
75.23701787854912
 30
0.0
 10
105.0777010082527
 20
75.14701453891598
 30
0.0
  0
ELLIPSE
  5
BF
330
1F
100
AcDbEntity
  8
0
  6
Continuous
 62
     7
370
    25
100
AcDbEllipse
 10
117.1190350916
 20
78.1643209949
 30
0.0
 11
0.5653269642954513
 21
1.222133505507372E-12
 31
0.0
210
0.0
220
0.0
230
1.0
 40
0.9531667975
 41
0.4357918987532571
 42
2.705800754832188
  0
LINE
  5
C0
330
1F
100
AcDbEntity
  8
0
  6
Continuous
 62
     7
370
    25
100
AcDbLine
 10
115.5144501102
 20
75.3383337777
 30
0.0
 11
116.6065458221
 21
78.3917852697
 31
0.0
  0
ELLIPSE
  5
C1
330
1F
100
AcDbEntity
  8
0
  6
Continuous
 62
     7
370
    25
100
AcDbEllipse
 10
114.9576108451
 20
75.5192749251
 30
0.0
 11
-0.5883077352006865
 21
1.421085471520200E-14
 31
0.0
210
0.0
220
0.0
230
1.0
 40
0.9531667975
 41
1.047197551197042
 42
2.813039483038222
  0
LINE
  5
C2
330
1F
100
AcDbEntity
  8
0
  6
Continuous
 62
     7
370
    25
100
AcDbLine
 10
114.618727217
 20
75.0582617875
 30
0.0
 11
114.6634569775
 21
75.0336465035
 31
0.0
  0
LINE
  5
C3
330
1F
100
AcDbEntity
  8
0
  6
Continuous
 62
     7
370
    25
100
AcDbLine
 10
115.3092373453
 20
73.7419191322
 30
0.0
 11
114.618727217
 21
75.0582617875
 31
0.0
  0
ELLIPSE
  5
C4
330
1F
100
AcDbEntity
  8
0
  6
Continuous
 62
     7
370
    25
100
AcDbEllipse
 10
115.3750121497
 20
73.773266312
 30
0.0
 11
0.07353846690021726
 21
0.0
 31
0.0
210
0.0
220
0.0
230
1.0
 40
0.9531667975
 41
3.60524026259047
 42
5.462183310215113
  0
ELLIPSE
  5
C5
330
1F
100
AcDbEntity
  8
0
  6
Continuous
 62
     7
370
    25
100
AcDbEllipse
 10
117.1190350916
 20
71.9881259728
 30
0.0
 11
2.48560018122744
 21
-1.705302565824240E-13
 31
0.0
210
0.0
220
0.0
230
1.0
 40
0.9531667975
 41
0.8210019969645151
 42
2.320590656625378
  0
ELLIPSE
  5
C6
330
1F
100
AcDbEntity
  8
0
  6
Continuous
 62
     7
370
    25
100
AcDbEllipse
 10
118.8630580336
 20
73.773266312
 30
0.0
 11
0.07353846690018884
 21
2.842170943040401E-14
 31
0.0
210
0.0
220
0.0
230
1.0
 40
0.9531667975
 41
3.962594650553561
 42
5.819537698178459
  0
LINE
  5
C7
330
1F
100
AcDbEntity
  8
0
  6
Continuous
 62
     7
370
    25
100
AcDbLine
 10
119.6193429663
 20
75.0582617875
 30
0.0
 11
118.928832838
 21
73.7419191322
 31
0.0
  0
LINE
  5
C8
330
1F
100
AcDbEntity
  8
0
  6
Continuous
 62
     7
370
    25
100
AcDbLine
 10
119.5832245444
 20
75.0376215422
 30
0.0
 11
119.6193429663
 21
75.0582617875
 31
0.0
  0
ELLIPSE
  5
C9
330
1F
100
AcDbEntity
  8
0
  6
Continuous
 62
     7
370
    25
100
AcDbEllipse
 10
119.2807138959
 20
75.5185631932
 30
0.0
 11
-0.588307735201596
 21
-1.563194018672220E-13
 31
0.0
210
0.0
220
0.0
230
1.0
 40
0.9531667975
 41
0.3285531705512083
 42
2.110876526947621
  0
LINE
  5
CA
330
1F
100
AcDbEntity
  8
0
  6
Continuous
 62
     7
370
    25
100
AcDbLine
 10
117.6315243612
 20
78.3917852697
 30
0.0
 11
118.7238746307
 21
75.3376220458
 31
0.0
  0
SPLINE
  5
CB
330
1F
100
AcDbEntity
  8
0
  6
Continuous
 62
     7
370
    25
100
AcDbSpline
210
0.0
220
0.0
230
1.0
 70
     8
 71
     3
 72
    10
 73
     6
 74
     0
 42
0.000000001
 43
0.00000001
 40
-0.2904940295525288
 40
-0.2904940295525288
 40
-0.2904940295525288
 40
-0.2904940295525288
 40
-0.1303072746110114
 40
-0.1303072746110114
 40
0.001056361752625
 40
0.001056361752625
 40
0.001056361752625
 40
0.001056361752625
 10
120.6190350916428
 20
79.70317188699195
 30
0.0
 10
120.4895317758685
 20
79.18515862389486
 30
0.0
 10
120.3577407977189
 20
78.66123282025076
 30
0.0
 10
120.1793168582781
 20
77.70283035665558
 30
0.0
 10
120.1190350916428
 20
77.26876935160173
 30
0.0
 10
120.1190350916428
 20
76.83089056372295
 30
0.0
  0
LINE
  5
CC
330
1F
100
AcDbEntity
  8
0
  6
Continuous
 62
     7
370
    25
100
AcDbLine
 10
120.1190350916
 20
76.8308905637
 30
0.0
 11
120.1190350916
 21
73.203171887
 31
0.0
  0
LINE
  5
CD
330
1F
100
AcDbEntity
  8
0
  6
Continuous
 62
     7
370
    25
100
AcDbLine
 10
120.1190350916
 20
73.203171887
 30
0.0
 11
108.1190350916
 21
73.203171887
 31
0.0
  0
ARC
  5
CE
330
1F
100
AcDbEntity
  8
0
  6
Continuous
 62
     7
370
    25
100
AcDbCircle
 10
108.1190350916
 20
75.703171887
 30
0.0
 40
2.5
100
AcDbArc
 50
180.0
 51
270.0
  0
LINE
  5
CF
330
1F
100
AcDbEntity
  8
0
  6
Continuous
 62
     7
370
    25
100
AcDbLine
 10
105.6190350916
 20
75.703171887
 30
0.0
 11
105.6190350916
 21
87.703171887
 31
0.0
  0
LINE
  5
D0
330
1F
100
AcDbEntity
  8
0
  6
Continuous
 62
     7
370
    25
100
AcDbLine
 10
105.6190350916
 20
87.703171887
 30
0.0
 11
109.2467537684
 21
87.703171887
 31
0.0
  0
SPLINE
  5
D1
330
1F
100
AcDbEntity
  8
0
  6
Continuous
 62
     7
370
    25
100
AcDbSpline
210
0.0
220
0.0
230
1.0
 70
     8
 71
     3
 72
    10
 73
     6
 74
     0
 42
0.000000001
 43
0.00000001
 40
-0.8711658249657241
 40
-0.8711658249657241
 40
-0.8711658249657241
 40
-0.8711658249657241
 40
-0.7398021886020881
 40
-0.7398021886020881
 40
-0.5796154507864705
 40
-0.5796154507864705
 40
-0.5796154507864705
 40
-0.5796154507864705
 10
109.2467537683738
 20
87.70317188699195
 30
0.0
 10
109.6846325562526
 20
87.70317188699195
 30
0.0
 10
110.118693561307
 20
87.76345365362737
 30
0.0
 10
111.0770959686046
 20
87.94187758258731
 30
0.0
 10
111.6010218839122
 20
88.07366858505921
 30
0.0
 10
112.1190350916428
 20
88.20317188699195
 30
0.0
  0
SPLINE
  5
D2
330
1F
100
AcDbEntity
  8
0
  6
Continuous
 62
     7
370
    25
100
AcDbSpline
210
0.0
220
0.0
230
1.0
 70
     8
 71
     3
 72
    10
 73
     6
 74
     0
 42
0.000000001
 43
0.00000001
 40
-0.2904940295525327
 40
-0.2904940295525327
 40
-0.2904940295525327
 40
-0.2904940295525327
 40
-0.130307291676468
 40
-0.130307291676468
 40
0.0010563446871674
 40
0.0010563446871674
 40
0.0010563446871674
 40
0.0010563446871674
 10
112.1190350916428
 20
88.20317188699195
 30
0.0
 10
112.637048299569
 20
88.07366858501041
 30
0.0
 10
113.1609742144824
 20
87.9418775826243
 30
0.0
 10
114.1193766219787
 20
87.76345365362737
 30
0.0
 10
114.553437627033
 20
87.70317188699195
 30
0.0
 10
114.9913164149118
 20
87.70317188699195
 30
0.0
  0
LINE
  5
D3
330
1F
100
AcDbEntity
  8
0
  6
Continuous
 62
     7
370
    25
100
AcDbLine
 10
114.9913164149
 20
87.703171887
 30
0.0
 11
118.6190350916
 21
87.703171887
 31
0.0
  0
ARC
  5
D4
330
1F
100
AcDbEntity
  8
0
  6
Continuous
 62
     7
370
    25
100
AcDbCircle
 10
120.1190350916
 20
87.703171887
 30
0.0
 40
1.5
100
AcDbArc
 50
180.0
 51
270.0
  0
LINE
  5
D5
330
1F
100
AcDbEntity
  8
0
  6
Continuous
 62
     7
370
    25
100
AcDbLine
 10
120.1190350916
 20
86.203171887
 30
0.0
 11
120.1190350916
 21
82.5754532103
 31
0.0
  0
SPLINE
  5
D6
330
1F
100
AcDbEntity
  8
0
  6
Continuous
 62
     7
370
    25
100
AcDbSpline
210
0.0
220
0.0
230
1.0
 70
     8
 71
     3
 72
    10
 73
     6
 74
     0
 42
0.000000001
 43
0.00000001
 40
-0.8711658421011628
 40
-0.8711658421011628
 40
-0.8711658421011628
 40
-0.8711658421011628
 40
-0.739802205737527
 40
-0.739802205737527
 40
-0.579615450786466
 40
-0.579615450786466
 40
-0.579615450786466
 40
-0.579615450786466
 10
120.1190350916428
 20
82.57545321026097
 30
0.0
 10
120.1190350916428
 20
82.13757442238219
 30
0.0
 10
120.1793168582781
 20
81.70351341732834
 30
0.0
 10
120.3577407977247
 20
80.7451109537018
 30
0.0
 10
120.4895317758608
 20
80.2211851501199
 30
0.0
 10
120.6190350916428
 20
79.70317188699195
 30
0.0
  0
SPLINE
  5
D7
330
1F
100
AcDbEntity
  8
0
  6
Continuous
 62
     7
370
    25
100
AcDbSpline
210
0.0
220
0.0
230
1.0
 70
    24
 71
     3
 72
     8
 73
     4
 74
     0
 42
0.000000001
 43
0.00000001
 40
0.0
 40
0.0
 40
0.0
 40
0.0
 40
1.0
 40
1.0
 40
1.0
 40
1.0
 10
120.6190350916428
 20
79.70317188699195
 30
0.0
 10
120.6190350916428
 20
78.72651854422912
 30
0.0
 10
120.6190350916428
 20
77.75009370985266
 30
0.0
 10
120.6190350916428
 20
76.83089056372295
 30
0.0
  0
SPLINE
  5
D8
330
1F
100
AcDbEntity
  8
0
  6
Continuous
 62
     7
370
    25
100
AcDbSpline
210
0.0
220
0.0
230
1.0
 70
    24
 71
     3
 72
     8
 73
     4
 74
     0
 42
0.000000001
 43
0.00000001
 40
0.0
 40
0.0
 40
0.0
 40
0.0
 40
1.0
 40
1.0
 40
1.0
 40
1.0
 10
120.6190350916428
 20
82.57545321026097
 30
0.0
 10
120.6190350916428
 20
81.65625006413124
 30
0.0
 10
120.6190350916428
 20
80.67982522975478
 30
0.0
 10
120.6190350916428
 20
79.70317188699195
 30
0.0
  0
SPLINE
  5
D9
330
1F
100
AcDbEntity
  8
0
  6
Continuous
 62
     7
370
    25
100
AcDbSpline
210
0.0
220
0.0
230
1.0
 70
     8
 71
     3
 72
    10
 73
     6
 74
     0
 42
0.000000001
 43
0.00000001
 40
0.0
 40
0.0
 40
0.0
 40
0.0
 40
0.0280934765544328
 40
0.0280934765544328
 40
0.0561869531088657
 40
0.0561869531088657
 40
0.0561869531088657
 40
0.0561869531088657
 10
107.5628777435668
 20
72.6618378036018
 30
0.0
 10
107.6528810832
 20
72.64815679781
 30
0.0
 10
107.7450635524841
 20
72.63757752596372
 30
0.0
 10
107.9313342645901
 20
72.62341604790319
 30
0.0
 10
108.0253901697947
 20
72.61983855365862
 30
0.0
 10
108.1190350916428
 20
72.61983855365862
 30
0.0
  0
LINE
  5
DA
330
1F
100
AcDbEntity
  8
0
  6
Continuous
 62
     7
370
    25
100
AcDbLine
 10
108.1190316585
 20
72.6198385537
 30
0.0
 11
120.1190350916
 21
72.6198385537
 31
0.0
  0
SPLINE
  5
DB
330
1F
100
AcDbEntity
  8
0
  6
Continuous
 62
     7
370
    25
100
AcDbSpline
210
0.0
220
0.0
230
1.0
 70
     8
 71
     3
 72
     8
 73
     4
 74
     0
 42
0.000000001
 43
0.00000001
 40
0.0
 40
0.0
 40
0.0
 40
0.0
 40
1.0
 40
1.0
 40
1.0
 40
1.0
 10
120.4293847147881
 20
72.81114751094685
 30
0.0
 10
120.3383527845091
 20
72.73908126460442
 30
0.0
 10
120.2283975543375
 20
72.67858830703665
 30
0.0
 10
120.1190350916428
 20
72.61983855365862
 30
0.0
  0
LINE
  5
DC
330
1F
100
AcDbEntity
  8
0
  6
Continuous
 62
     7
370
    25
100
AcDbLine
 10
120.6190350916
 20
82.5754532103
 30
0.0
 11
120.6190350916
 21
86.203171887
 31
0.0
  0
SPLINE
  5
DD
330
1F
100
AcDbEntity
  8
0
  6
Continuous
 62
     7
370
    25
100
AcDbSpline
210
0.0
220
0.0
230
1.0
 70
    24
 71
     3
 72
    10
 73
     6
 74
     0
 42
0.000000001
 43
0.00000001
 40
0.0
 40
0.0
 40
0.0
 40
0.0
 40
0.5
 40
0.5
 40
1.0
 40
1.0
 40
1.0
 40
1.0
 10
120.1190350916428
 20
82.57545321026097
 30
0.0
 10
120.2499347855424
 20
82.57545321026097
 30
0.0
 10
120.3800284210245
 20
82.57545321026097
 30
0.0
 10
120.5651485434477
 20
82.57545321026097
 30
0.0
 10
120.6190350916428
 20
82.57545321026097
 30
0.0
 10
120.6190350916428
 20
82.57545321026097
 30
0.0
  0
LINE
  5
DE
330
1F
100
AcDbEntity
  8
0
  6
Continuous
 62
     7
370
    25
100
AcDbLine
 10
120.1190350916
 20
86.203171887
 30
0.0
 11
120.6190350916
 21
86.203171887
 31
0.0
  0
LINE
  5
DF
330
1F
100
AcDbEntity
  8
0
  6
Continuous
 62
     7
370
    25
100
AcDbLine
 10
119.1190350916
 20
88.203171887
 30
0.0
 11
114.9913164149
 21
88.203171887
 31
0.0
  0
LINE
  5
E0
330
1F
100
AcDbEntity
  8
0
  6
Continuous
 62
     7
370
    25
100
AcDbLine
 10
118.6190350916
 20
87.703171887
 30
0.0
 11
119.1190350916
 21
88.203171887
 31
0.0
  0
SPLINE
  5
E1
330
1F
100
AcDbEntity
  8
0
  6
Continuous
 62
     7
370
    25
100
AcDbSpline
210
0.0
220
0.0
230
1.0
 70
    24
 71
     3
 72
    10
 73
     6
 74
     0
 42
0.000000001
 43
0.00000001
 40
0.0
 40
0.0
 40
0.0
 40
0.0
 40
0.5
 40
0.5
 40
1.0
 40
1.0
 40
1.0
 40
1.0
 10
114.9913164149118
 20
88.20317188699197
 30
0.0
 10
114.9913164149118
 20
88.20317188699197
 30
0.0
 10
114.9913164149118
 20
88.14928533879686
 30
0.0
 10
114.9913164149118
 20
87.9641652163736
 30
0.0
 10
114.9913164149118
 20
87.83407158089153
 30
0.0
 10
114.9913164149118
 20
87.70317188699197
 30
0.0
  0
SPLINE
  5
E2
330
1F
100
AcDbEntity
  8
0
  6
Continuous
 62
     7
370
    25
100
AcDbSpline
210
0.0
220
0.0
230
1.0
 70
    24
 71
     3
 72
    10
 73
     6
 74
     0
 42
0.000000001
 43
0.00000001
 40
0.0
 40
0.0
 40
0.0
 40
0.0
 40
0.5
 40
0.5
 40
1.0
 40
1.0
 40
1.0
 40
1.0
 10
109.2467537683738
 20
87.70317188699195
 30
0.0
 10
109.2467537683738
 20
87.83407158089153
 30
0.0
 10
109.2467537683738
 20
87.9641652163736
 30
0.0
 10
109.2467537683738
 20
88.14928533879686
 30
0.0
 10
109.2467537683738
 20
88.20317188699197
 30
0.0
 10
109.2467537683738
 20
88.20317188699195
 30
0.0
  0
LINE
  5
E3
330
1F
100
AcDbEntity
  8
0
  6
Continuous
 62
     7
370
    25
100
AcDbLine
 10
105.6190350916
 20
88.203171887
 30
0.0
 11
105.6190350916
 21
87.703171887
 31
0.0
  0
LINE
  5
E4
330
1F
100
AcDbEntity
  8
0
  6
Continuous
 62
     7
370
    25
100
AcDbLine
 10
109.2467537684
 20
88.203171887
 30
0.0
 11
105.6190350916
 21
88.203171887
 31
0.0
  0
SPLINE
  5
E5
330
1F
100
AcDbEntity
  8
0
  6
Continuous
 62
     7
370
    25
100
AcDbSpline
210
0.0
220
0.0
230
1.0
 70
    24
 71
     3
 72
    10
 73
     6
 74
     0
 42
0.000000001
 43
0.00000001
 40
0.0
 40
0.0
 40
0.0
 40
0.0
 40
0.5
 40
0.5
 40
1.0
 40
1.0
 40
1.0
 40
1.0
 10
120.6190350916428
 20
76.83089056372295
 30
0.0
 10
120.6190350916428
 20
76.83089056372295
 30
0.0
 10
120.5651485434477
 20
76.83089056372295
 30
0.0
 10
120.3800284210245
 20
76.83089056372295
 30
0.0
 10
120.2499347855424
 20
76.83089056372295
 30
0.0
 10
120.1190350916428
 20
76.83089056372295
 30
0.0
  0
LINE
  5
E6
330
1F
100
AcDbEntity
  8
0
  6
Continuous
 62
     7
370
    25
100
AcDbLine
 10
120.6190350916
 20
73.203171887
 30
0.0
 11
120.6190350916
 21
76.8308905637
 31
0.0
  0
LINE
  5
E7
330
1F
100
AcDbEntity
  8
0
  6
Continuous
 62
     7
370
    25
100
AcDbLine
 10
120.1190350916
 20
73.203171887
 30
0.0
 11
120.6190350916
 21
73.203171887
 31
0.0
  0
ELLIPSE
  5
E8
330
1F
100
AcDbEntity
  8
0
  6
Continuous
 62
     7
370
    25
100
AcDbEllipse
 10
116.855694203
 20
75.4087339124
 30
0.0
 11
-0.07353846690021726
 21
0.0
 31
0.0
210
0.0
220
0.0
230
1.0
 40
0.9531667975
 41
5.940161364897989
 42
7.853981633974483
  0
LINE
  5
E9
330
1F
100
AcDbEntity
  8
0
  6
Continuous
 62
     7
370
    25
100
AcDbLine
 10
117.049780837
 20
76.1351310356
 30
0.0
 11
116.7864399466
 21
75.4323092189
 31
0.0
  0
ELLIPSE
  5
EA
330
1F
100
AcDbEntity
  8
0
  6
Continuous
 62
     7
370
    25
100
AcDbEllipse
 10
117.1190350934
 20
76.1115557292
 30
0.0
 11
0.07353846690020305
 21
0.0
 31
0.0
210
0.0
220
0.0
230
1.0
 40
0.9531667975
 41
0.3430239394903
 42
2.798568712238662
  0
LINE
  5
EB
330
1F
100
AcDbEntity
  8
0
  6
Continuous
 62
     7
370
    25
100
AcDbLine
 10
117.4516302371
 20
75.4323092186
 30
0.0
 11
117.1882893498
 21
76.1351310354
 31
0.0
  0
ELLIPSE
  5
EC
330
1F
100
AcDbEntity
  8
0
  6
Continuous
 62
     7
370
    25
100
AcDbEllipse
 10
117.3823759807
 20
75.4087339124
 30
0.0
 11
0.07353846690023147
 21
1.421085471520200E-14
 31
0.0
210
0.0
220
0.0
230
1.0
 40
0.9531667975
 41
4.712388980384518
 42
6.626209245739393
  0
LINE
  5
ED
330
1F
100
AcDbEntity
  8
0
  6
Continuous
 62
     7
370
    25
100
AcDbLine
 10
116.855694203
 20
75.3386394874
 30
0.0
 11
117.3823759807
 21
75.3386394874
 31
0.0
  0
LINE
  5
EE
330
1F
100
AcDbEntity
  8
0
  6
Continuous
 62
     7
370
    25
100
AcDbLine
 10
108.1190350916
 20
73.203171887
 30
0.0
 11
108.1190350916
 21
72.703171887
 31
0.0
  0
LINE
  5
EF
330
1F
100
AcDbEntity
  8
0
  6
Continuous
 62
     7
370
    25
100
AcDbLine
 10
120.1190350916
 20
72.703171887
 30
0.0
 11
120.1190350916
 21
73.203171887
 31
0.0
  0
LINE
  5
F0
330
1F
100
AcDbEntity
  8
0
  6
Continuous
 62
     7
370
    25
100
AcDbLine
 10
108.1190350916
 20
72.703171887
 30
0.0
 11
120.1190350916
 21
72.703171887
 31
0.0
  0
LINE
  5
F1
330
1F
100
AcDbEntity
  8
0
  6
Continuous
 62
     7
370
    25
100
AcDbLine
 10
119.1190350916
 20
87.703171887
 30
0.0
 11
119.1190350916
 21
88.203171887
 31
0.0
  0
LINE
  5
F2
330
1F
100
AcDbEntity
  8
0
  6
Continuous
 62
     7
370
    25
100
AcDbLine
 10
118.6190350916
 20
87.703171887
 30
0.0
 11
119.1190350916
 21
87.703171887
 31
0.0
  0
ARC
  5
F3
330
1F
100
AcDbEntity
  8
0
  6
Continuous
 62
     7
370
    25
100
AcDbCircle
 10
108.1190350916
 20
75.703171887
 30
0.0
 40
3.0
100
AcDbArc
 50
180.0
 51
270.0
  0
LINE
  5
F4
330
1F
100
AcDbEntity
  8
0
  6
Continuous
 62
     7
370
    25
100
AcDbLine
 10
105.6190350916
 20
75.703171887
 30
0.0
 11
105.1190350916
 21
75.703171887
 31
0.0
  0
ARC
  5
F5
330
1F
100
AcDbEntity
  8
0
  6
Continuous
 62
     7
370
    25
100
AcDbCircle
 10
120.1190350916
 20
73.203171887
 30
0.0
 40
0.5
100
AcDbArc
 50
270.0
 51
0.0
  0
LINE
  5
F6
330
1F
100
AcDbEntity
  8
0
  6
Continuous
 62
     7
370
    25
100
AcDbLine
 10
105.1190350916
 20
87.703171887
 30
0.0
 11
105.1190350916
 21
75.703171887
 31
0.0
  0
LINE
  5
F7
330
1F
100
AcDbEntity
  8
0
  6
Continuous
 62
     7
370
    25
100
AcDbLine
 10
105.6190350916
 20
87.703171887
 30
0.0
 11
105.1190350916
 21
87.703171887
 31
0.0
  0
ARC
  5
F8
330
1F
100
AcDbEntity
  8
0
  6
Continuous
 62
     7
370
    25
100
AcDbCircle
 10
105.6190350916
 20
87.703171887
 30
0.0
 40
0.5
100
AcDbArc
 50
90.0
 51
180.0
  0
LINE
  5
F9
330
1F
100
AcDbEntity
  8
0
  6
Continuous
 62
     7
370
    25
100
AcDbLine
 10
120.1190350916
 20
86.203171887
 30
0.0
 11
120.1190350916
 21
86.703171887
 31
0.0
  0
ARC
  5
FA
330
1F
100
AcDbEntity
  8
0
  6
Continuous
 62
     7
370
    25
100
AcDbCircle
 10
120.1190350916
 20
86.203171887
 30
0.0
 40
0.5
100
AcDbArc
 50
0.0
 51
90.0
  0
ARC
  5
FB
330
1F
100
AcDbEntity
  8
0
  6
Continuous
 62
     7
370
    25
100
AcDbCircle
 10
120.1190350916
 20
87.703171887
 30
0.0
 40
1.0
100
AcDbArc
 50
180.0
 51
270.0
  0
LWPOLYLINE
  5
FC
330
1F
100
AcDbEntity
  8
0
  6
Continuous
 62
     7
370
    25
100
AcDbPolyline
 90
        9
 70
   128
 43
0.0
 10
107.6423287933
 20
72.7412888533
 10
107.6334494005
 20
72.7412314601
 10
107.6241557188
 20
72.7382764615
 10
107.6145023064
 20
72.7324412048
 10
107.6045458334
 20
72.7237599458
 10
107.594344749
 20
72.7122836474
 10
107.5839589384
 20
72.6980796811
 10
107.5734493712
 20
72.6812314307
 10
107.5628777436
 20
72.6618378036
  0
SPLINE
  5
FD
330
1F
100
AcDbEntity
  8
0
  6
Continuous
 62
     7
370
    25
100
AcDbSpline
210
0.0
220
0.0
230
1.0
 70
     8
 71
     3
 72
    14
 73
    10
 74
     0
 42
0.000000001
 43
0.00000001
 40
-0.4399100083495733
 40
-0.4399100083495733
 40
-0.4399100083495733
 40
-0.4399100083495733
 40
-0.2980125372576002
 40
-0.2980125372576002
 40
-0.1727985319285605
 40
-0.1727985319285605
 40
-0.0664609738186771
 40
-0.0664609738186771
 40
0.0
 40
0.0
 40
0.0
 40
0.0
 10
105.0777010082527
 20
75.14701453891598
 30
0.0
 10
105.1353257958285
 20
74.75226972682444
 30
0.0
 10
105.2747431831495
 20
74.36364887587406
 30
0.0
 10
105.6776475416307
 20
73.71352308947233
 30
0.0
 10
105.9240172341182
 20
73.44272135811055
 30
0.0
 10
106.4558854591756
 20
73.0409068268551
 30
0.0
 10
106.7262128577163
 20
72.89676700069688
 30
0.0
 10
107.1929864591986
 20
72.7337662722725
 30
0.0
 10
107.3779898493741
 20
72.68882771024995
 30
0.0
 10
107.5628777435668
 20
72.6618378036018
 30
0.0
  0
LWPOLYLINE
  5
FE
330
1F
100
AcDbEntity
  8
0
  6
Continuous
 62
     7
370
    25
100
AcDbPolyline
 90
        9
 70
   128
 43
0.0
 10
105.157152058
 20
75.2264655886
 10
105.1570946647
 20
75.2175861959
 10
105.1541396661
 20
75.2082925141
 10
105.1483044095
 20
75.1986391017
 10
105.1396231504
 20
75.1886826287
 10
105.1281468521
 20
75.1784815443
 10
105.1139428857
 20
75.1680957337
 10
105.0970946354
 20
75.1575861665
 10
105.0777010083
 20
75.1470145389
  0
LINE
  5
FF
330
1F
100
AcDbEntity
  8
0
  6
Continuous
 62
     7
370
    25
100
AcDbLine
 10
105.1190350916
 20
75.703171887
 30
0.0
 11
105.0357017583
 21
75.703171887
 31
0.0
  0
LWPOLYLINE
  5
100
330
1F
100
AcDbEntity
  8
0
  6
Continuous
 62
     7
370
    25
100
AcDbPolyline
 90
        9
 70
   128
 43
0.0
 10
108.1190350916
 20
72.703171887
 10
108.1190350916
 20
72.701832534
 10
108.1190350916
 20
72.6978216504
 10
108.1190350916
 20
72.6911607243
 10
108.1190350916
 20
72.6818854409
 10
108.1190350916
 20
72.6700454917
 10
108.1190350916
 20
72.6557043083
 10
108.1190350916
 20
72.6389387222
 10
108.1190316585
 20
72.6198385537
  0
LINE
  5
101
330
1F
100
AcDbEntity
  8
0
  6
Continuous
 62
     7
370
    25
100
AcDbLine
 10
105.1190350916
 20
87.703171887
 30
0.0
 11
105.0357017583
 21
87.703171887
 31
0.0
  0
LINE
  5
102
330
1F
100
AcDbEntity
  8
0
  6
Continuous
 62
     7
370
    25
100
AcDbLine
 10
120.1190350916
 20
72.6198385537
 30
0.0
 11
120.1190350916
 21
72.703171887
 31
0.0
  0
LINE
  5
103
330
1F
100
AcDbEntity
  8
0
  6
Continuous
 62
     7
370
    25
100
AcDbLine
 10
107.6423287933
 20
72.7412888533
 30
0.0
 11
107.8788216176
 21
72.7139381401
 31
0.0
  0
LINE
  5
104
330
1F
100
AcDbEntity
  8
0
  6
Continuous
 62
     1
370
    25
100
AcDbLine
 10
147.2900187726
 20
68.4004047326
 30
0.0
 11
147.2900187726
 21
67.953171887
 31
0.0
  0
LINE
  5
105
330
1F
100
AcDbEntity
  8
0
  6
Continuous
 62
     1
370
    25
100
AcDbLine
 10
147.2900187726
 20
91.453171887
 30
0.0
 11
147.2900187726
 21
91.0059390414
 31
0.0
  0
LINE
  5
106
330
1F
100
AcDbEntity
  8
0
  6
Continuous
 62
     1
370
    25
100
AcDbLine
 10
146.2074870179
 20
91.6071500602
 30
0.0
 11
146.2074870179
 21
92.078171887
 31
0.0
  0
LINE
  5
107
330
1F
100
AcDbEntity
  8
0
  6
Continuous
 62
     1
370
    25
100
AcDbLine
 10
146.2074870179
 20
67.328171887
 30
0.0
 11
146.2074870179
 21
67.7991937138
 31
0.0
  0
LINE
  5
108
330
1F
100
AcDbEntity
  8
0
  6
Continuous
 62
     1
370
    25
100
AcDbLine
 10
102.2440350916
 20
94.4357432744
 30
0.0
 11
121.9940350916
 21
94.4357432744
 31
0.0
  0
LINE
  5
109
330
1F
100
AcDbEntity
  8
0
  6
Continuous
 62
     1
370
    25
100
AcDbLine
 10
126.8516064791
 20
89.578171887
 30
0.0
 11
126.8516064791
 21
69.828171887
 31
0.0
  0
LINE
  5
10A
330
1F
100
AcDbEntity
  8
0
  6
Continuous
 62
     1
370
    25
100
AcDbLine
 10
124.6190350916
 20
88.203171887
 30
0.0
 11
124.6190350916
 21
71.203171887
 31
0.0
  0
LINE
  5
10B
330
1F
100
AcDbEntity
  8
0
  6
Continuous
 62
     1
370
    25
100
AcDbLine
 10
103.6190350916
 20
92.203171887
 30
0.0
 11
120.6190350916
 21
92.203171887
 31
0.0
  0
SPLINE
  5
10C
330
1F
100
AcDbEntity
  8
0
  6
Continuous
 62
     1
370
    25
100
AcDbSpline
210
0.0
220
0.0
230
1.0
 70
    24
 71
     3
 72
    12
 73
     8
 74
     0
 42
0.000000001
 43
0.00000001
 40
-0.5788447217180464
 40
-0.5788447217180464
 40
-0.5788447217180464
 40
-0.5788447217180464
 40
-0.3728576618289314
 40
-0.3728576618289314
 40
-0.0432783660063474
 40
-0.0432783660063474
 40
0.0
 40
0.0
 40
0.0
 40
0.0
 10
120.6190350916428
 20
88.70317188699195
 30
0.0
 10
120.619035091643
 20
88.70317188699214
 30
0.0
 10
120.5587133354497
 20
88.63930179219922
 30
0.0
 10
120.2483465008883
 20
88.3106780850166
 30
0.0
 10
119.9054114166462
 20
87.94757034876028
 30
0.0
 10
119.3662854006493
 20
87.37673103770467
 30
0.0
 10
119.3013962324991
 20
87.30802485966325
 30
0.0
 10
119.2342729816119
 20
87.23695318225336
 30
0.0
  0
SPLINE
  5
10D
330
1F
100
AcDbEntity
  8
0
  6
Continuous
 62
     1
370
    25
100
AcDbSpline
210
0.0
220
0.0
230
1.0
 70
     8
 71
     3
 72
    12
 73
     8
 74
     0
 42
0.000000001
 43
0.00000001
 40
0.0
 40
0.0
 40
0.0
 40
0.0
 40
0.0430206627346149
 40
0.0430206627346149
 40
0.3824319177041577
 40
0.3824319177041577
 40
0.594563952060122
 40
0.594563952060122
 40
0.594563952060122
 40
0.594563952060122
 10
105.0777522003324
 20
75.14701452566055
 30
0.0
 10
105.0094473916726
 20
75.10281699465571
 30
0.0
 10
104.9433216734786
 20
75.06002947330933
 30
0.0
 10
104.3755330566808
 20
74.69263433338749
 30
0.0
 10
104.0120457548786
 20
74.45743505766788
 30
0.0
 10
103.6830237087184
 20
74.24453695669288
 30
0.0
 10
103.6190350919079
 20
74.20313226402568
 30
0.0
 10
103.6190350919079
 20
74.20313226402568
 30
0.0
  0
SPLINE
  5
10E
330
1F
100
AcDbEntity
  8
0
  6
Continuous
 62
     1
370
    25
100
AcDbSpline
210
0.0
220
0.0
230
1.0
 70
    24
 71
     3
 72
    12
 73
     8
 74
     0
 42
0.000000001
 43
0.00000001
 40
-0.5788447217180465
 40
-0.5788447217180465
 40
-0.5788447217180465
 40
-0.5788447217180465
 40
-0.535566355711699
 40
-0.535566355711699
 40
-0.205987059889115
 40
-0.205987059889115
 40
0.0
 40
0.0
 40
0.0
 40
0.0
 10
119.6528163869042
 20
86.81840977696106
 30
0.0
 10
119.7238880643141
 20
86.88553302784818
 30
0.0
 10
119.7925942423555
 20
86.95042219599841
 30
0.0
 10
120.3634335534111
 20
87.48954821199538
 30
0.0
 10
120.7265412896675
 20
87.83248329623746
 30
0.0
 10
121.0551649968501
 20
88.1428501307988
 30
0.0
 10
121.119035091643
 20
88.20317188699214
 30
0.0
 10
121.1190350916428
 20
88.20317188699195
 30
0.0
  0
SPLINE
  5
10F
330
1F
100
AcDbEntity
  8
0
  6
Continuous
 62
     1
370
    25
100
AcDbSpline
210
0.0
220
0.0
230
1.0
 70
     8
 71
     3
 72
    12
 73
     8
 74
     0
 42
0.000000001
 43
0.00000001
 40
0.0
 40
0.0
 40
0.0
 40
0.0
 40
0.2121320343559643
 40
0.2121320343559643
 40
0.5515432893255071
 40
0.5515432893255071
 40
0.5945639520601226
 40
0.5945639520601226
 40
0.5945639520601226
 40
0.5945639520601226
 10
106.6189954686765
 20
71.203171887257
 30
0.0
 10
106.6189954686765
 20
71.203171887257
 30
0.0
 10
106.6604001613437
 20
71.26716050406748
 30
0.0
 10
106.8732982623187
 20
71.59618255022775
 30
0.0
 10
107.1084975380383
 20
71.9596698520299
 30
0.0
 10
107.4758926779602
 20
72.52745846882773
 30
0.0
 10
107.5186801993066
 20
72.59358418702169
 30
0.0
 10
107.5628777303114
 20
72.66188899568154
 30
0.0
  0
LINE
  5
110
330
1F
100
AcDbEntity
  8
0
  6
Continuous
 62
     7
370
    25
100
AcDbLine
 10
130.7126685034
 20
178.1590283582
 30
0.0
 11
130.5683309361
 21
177.9090283582
 31
0.0
  0
LINE
  5
111
330
1F
100
AcDbEntity
  8
0
  6
Continuous
 62
     7
370
    25
100
AcDbLine
 10
130.5683309361
 20
154.4090283582
 30
0.0
 11
130.7126685034
 21
154.1590283582
 31
0.0
  0
LINE
  5
112
330
1F
100
AcDbEntity
  8
0
  6
Continuous
 62
     7
370
    25
100
AcDbLine
 10
148.3683309361
 20
177.9090283582
 30
0.0
 11
147.1790312059
 21
177.9090283582
 31
0.0
  0
LINE
  5
113
330
1F
100
AcDbEntity
  8
0
  6
Continuous
 62
     7
370
    25
100
AcDbLine
 10
147.1790312059
 20
154.4090283582
 30
0.0
 11
148.3683309361
 21
154.4090283582
 31
0.0
  0
LINE
  5
114
330
1F
100
AcDbEntity
  8
0
  6
Continuous
 62
     7
370
    25
100
AcDbLine
 10
148.3683309361
 20
154.4090283582
 30
0.0
 11
148.5683309361
 21
154.6090283582
 31
0.0
  0
LINE
  5
115
330
1F
100
AcDbEntity
  8
0
  6
Continuous
 62
     7
370
    25
100
AcDbLine
 10
148.5683309361
 20
177.7090283582
 30
0.0
 11
148.3683309361
 21
177.9090283582
 31
0.0
  0
SPLINE
  5
116
330
1F
100
AcDbEntity
  8
0
  6
Continuous
 62
     7
370
    25
100
AcDbSpline
210
0.0
220
0.0
230
1.0
 70
     8
 71
     3
 72
    13
 73
     9
 74
     0
 42
0.000000001
 43
0.00000001
 40
0.0
 40
0.0
 40
0.0
 40
0.0
 40
0.1686631171587152
 40
0.3767114201172121
 40
0.5719934137436905
 40
0.7526024133648561
 40
0.9154192879876586
 40
1.0
 40
1.0
 40
1.0
 40
1.0
 10
147.1793581541163
 20
177.9114803427691
 30
0.0
 10
147.1320449579721
 20
177.911962944158
 30
0.0
 10
147.0263702757415
 20
177.9130408410785
 30
0.0
 10
146.86888695698
 20
177.9442525995597
 30
0.0
 10
146.7142020360392
 20
177.9943769285127
 30
0.0
 10
146.5813235000371
 20
178.0577898029383
 30
0.0
 10
146.4827355309074
 20
178.1176596968087
 30
0.0
 10
146.436235750841
 20
178.1538468565034
 30
0.0
 10
146.4203383261332
 20
178.1662185848388
 30
0.0
  0
SPLINE
  5
117
330
1F
100
AcDbEntity
  8
0
  6
Continuous
 62
     7
370
    25
100
AcDbSpline
210
0.0
220
0.0
230
1.0
 70
     8
 71
     3
 72
    13
 73
     9
 74
     0
 42
0.000000001
 43
0.00000001
 40
0.0
 40
0.0
 40
0.0
 40
0.0
 40
0.0545419232308014
 40
0.2307990945045666
 40
0.4332992028651412
 40
0.6522930357631976
 40
0.8851658365611409
 40
1.0
 40
1.0
 40
1.0
 40
1.0
 10
146.4210888323115
 20
154.1523863101347
 30
0.0
 10
146.4309083742968
 20
154.1602879386423
 30
0.0
 10
146.4724606567321
 20
154.1937243962634
 30
0.0
 10
146.57196950605
 20
154.2555413419335
 30
0.0
 10
146.7185036660971
 20
154.3264477056709
 30
0.0
 10
146.8926769207845
 20
154.380048320977
 30
0.0
 10
147.0494253452345
 20
154.4086301800588
 30
0.0
 10
147.1467985261879
 20
154.4057847776404
 30
0.0
 10
147.1789571221501
 20
154.4048450512617
 30
0.0
  0
LINE
  5
118
330
1F
100
AcDbEntity
  8
0
  6
Continuous
 62
     7
370
    25
100
AcDbLine
 10
130.5683309361
 20
176.6365283582
 30
0.0
 11
127.2770409735
 21
176.6365283582
 31
0.0
  0
LINE
  5
119
330
1F
100
AcDbEntity
  8
0
  6
Continuous
 62
     7
370
    25
100
AcDbLine
 10
127.2770409735
 20
155.6815283582
 30
0.0
 11
130.5683309361
 21
155.6815283582
 31
0.0
  0
ARC
  5
11A
330
1F
100
AcDbEntity
  8
0
  6
Continuous
 62
     7
370
    25
100
AcDbCircle
 10
129.0841778665
 20
157.4090283582
 30
0.0
 40
2.500000000000009
100
AcDbArc
 50
206.7436839504
 51
223.7093197495
  0
ARC
  5
11B
330
1F
100
AcDbEntity
  8
0
  6
Continuous
 62
     7
370
    25
100
AcDbCircle
 10
129.0841778665
 20
174.9090283582
 30
0.0
 40
2.500000000000022
100
AcDbArc
 50
136.2906802505
 51
153.2563160496
  0
ARC
  5
11C
330
1F
100
AcDbEntity
  8
0
  6
Continuous
 62
     7
370
    25
100
AcDbCircle
 10
124.6190350916
 20
155.1590283582
 30
0.0
 40
2.500000000000009
100
AcDbArc
 50
26.7436839504
 51
90.0
  0
ARC
  5
11D
330
1F
100
AcDbEntity
  8
0
  6
Continuous
 62
     7
370
    25
100
AcDbCircle
 10
124.6190350916
 20
177.1590283582
 30
0.0
 40
2.5
100
AcDbArc
 50
270.0
 51
333.2563160496
  0
LINE
  5
11E
330
1F
100
AcDbEntity
  8
0
  6
Continuous
 62
     7
370
    25
100
AcDbLine
 10
124.6190350916
 20
174.6590283582
 30
0.0
 11
120.6190350916
 21
174.6590283582
 31
0.0
  0
LINE
  5
11F
330
1F
100
AcDbEntity
  8
0
  6
Continuous
 62
     7
370
    25
100
AcDbLine
 10
120.6190350916
 20
157.6590283582
 30
0.0
 11
124.6190350916
 21
157.6590283582
 31
0.0
  0
SPLINE
  5
120
330
1F
100
AcDbEntity
  8
0
  6
Continuous
 62
     7
370
    25
100
AcDbSpline
210
0.0
220
0.0
230
1.0
 70
     8
 71
     3
 72
    16
 73
    12
 74
     0
 42
0.000000001
 43
0.00000001
 40
0.0
 40
0.0
 40
0.0
 40
0.0
 40
0.1320247644072303
 40
0.2317995993197776
 40
0.3156168853403656
 40
0.3994283500700867
 40
0.5350262661015859
 40
0.6499051871635348
 40
0.7654149132295867
 40
0.8825124270686534
 40
1.0
 40
1.0
 40
1.0
 40
1.0
 10
131.7844652731485
 20
154.159028358209
 30
0.0
 10
131.6213867731043
 20
154.6763549984929
 30
0.0
 10
131.3350652550342
 20
155.5846399590734
 30
0.0
 10
131.0461513157599
 20
156.8424544915896
 30
0.0
 10
130.8618162211574
 20
157.9168324570958
 30
0.0
 10
130.7266142090904
 20
159.1430754568232
 30
0.0
 10
130.6914344844729
 20
160.5021859602175
 30
0.0
 10
130.7987639543258
 20
161.9868305345878
 30
0.0
 10
131.02157092111
 20
163.3856003290163
 30
0.0
 10
131.3474879202047
 20
164.7800885612041
 30
0.0
 10
131.6386447806774
 20
165.6988725196222
 30
0.0
 10
131.7844652731485
 20
166.159028358209
 30
0.0
  0
SPLINE
  5
121
330
1F
100
AcDbEntity
  8
0
  6
Continuous
 62
     7
370
    25
100
AcDbSpline
210
0.0
220
0.0
230
1.0
 70
    24
 71
     3
 72
    12
 73
     8
 74
     0
 42
0.000000001
 43
0.00000001
 40
0.0
 40
0.0
 40
0.0
 40
0.0
 40
0.2568033721128097
 40
0.4413609216744862
 40
0.6264946146290425
 40
0.8130670804418315
 40
0.9999999999999999
 40
0.9999999999999999
 40
0.9999999999999999
 40
0.9999999999999999
 10
130.7128951015109
 20
154.159028358209
 30
0.0
 10
130.7277040250546
 20
154.159028358209
 30
0.0
 10
130.7531557163251
 20
154.159028358209
 30
0.0
 10
130.9285867095089
 20
154.159028358209
 30
0.0
 10
131.1495682616873
 20
154.159028358209
 30
0.0
 10
131.4333520524978
 20
154.159028358209
 30
0.0
 10
131.6673522584697
 20
154.159028358209
 30
0.0
 10
131.7844652731485
 20
154.159028358209
 30
0.0
  0
SPLINE
  5
122
330
1F
100
AcDbEntity
  8
0
  6
Continuous
 62
     7
370
    25
100
AcDbSpline
210
0.0
220
0.0
230
1.0
 70
    24
 71
     3
 72
    13
 73
     9
 74
     0
 42
0.000000001
 43
0.00000001
 40
0.0
 40
0.0
 40
0.0
 40
0.0
 40
0.1848239244558963
 40
0.3699631874164586
 40
0.5563278026088748
 40
0.7432455722175636
 40
0.9925553113195104
 40
1.0
 40
1.0
 40
1.0
 40
1.0
 10
131.7844652731485
 20
178.159028358209
 30
0.0
 10
131.6685667492773
 20
178.159028358209
 30
0.0
 10
131.4365719605372
 20
178.159028358209
 30
0.0
 10
131.1540804900334
 20
178.159028358209
 30
0.0
 10
130.9273349267184
 20
178.159028358209
 30
0.0
 10
130.7684151015448
 20
178.159028358209
 30
0.0
 10
130.6895377221377
 20
178.159028358209
 30
0.0
 10
130.714100502989
 20
178.159028358209
 30
0.0
 10
130.7148127098169
 20
178.159028358209
 30
0.0
  0
SPLINE
  5
123
330
1F
100
AcDbEntity
  8
0
  6
Continuous
 62
     7
370
    25
100
AcDbSpline
210
0.0
220
0.0
230
1.0
 70
     8
 71
     3
 72
    16
 73
    12
 74
     0
 42
0.000000001
 43
0.00000001
 40
0.0
 40
0.0
 40
0.0
 40
0.0
 40
0.1320247479111875
 40
0.2237695262662815
 40
0.3155048942909712
 40
0.3994284251094594
 40
0.5350263241984631
 40
0.6499052309066843
 40
0.7654149425401908
 40
0.8825124417483237
 40
1.0
 40
1.0
 40
1.0
 40
1.0
 10
131.7844652731485
 20
166.159028358209
 30
0.0
 10
131.6213227203707
 20
166.6763471872466
 30
0.0
 10
131.3448114425492
 20
167.5531539309355
 30
0.0
 10
131.0531296986226
 20
168.8098678858331
 30
0.0
 10
130.8652886363593
 20
169.8838952221159
 30
0.0
 10
130.7267028432018
 20
171.1426247165844
 30
0.0
 10
130.6914140220609
 20
172.5021846479756
 30
0.0
 10
130.7987690761619
 20
173.986830863048
 30
0.0
 10
131.0215695312581
 20
175.3856002398859
 30
0.0
 10
131.3474882709996
 20
176.7800885837003
 30
0.0
 10
131.6386448977386
 20
177.6988725271292
 30
0.0
 10
131.7844652731485
 20
178.159028358209
 30
0.0
  0
LINE
  5
124
330
1F
100
AcDbEntity
  8
0
  6
Continuous
 62
     7
370
    25
100
AcDbLine
 10
130.5683309361
 20
154.4090283582
 30
0.0
 11
130.5683309361
 21
177.9090283582
 31
0.0
  0
SPLINE
  5
125
330
1F
100
AcDbEntity
  8
0
  6
Continuous
 62
     7
370
    25
100
AcDbSpline
210
0.0
220
0.0
230
1.0
 70
     8
 71
     3
 72
    11
 73
     7
 74
     0
 42
0.000000001
 43
0.00000001
 40
0.0
 40
0.0
 40
0.0
 40
0.0
 40
0.2896312968534338
 40
0.5811875798131656
 40
0.7902304971769981
 40
1.0
 40
1.0
 40
1.0
 40
1.0
 10
146.2074870178831
 20
174.7773233664157
 30
0.0
 10
146.2768338548986
 20
174.2734368078083
 30
0.0
 10
146.4159884311153
 20
173.262314692626
 30
0.0
 10
146.4378794114421
 20
171.8763576114953
 30
0.0
 10
146.3654813604196
 20
170.6332435333462
 30
0.0
 10
146.2602126745867
 20
169.905324359702
 30
0.0
 10
146.2074870178831
 20
169.5407333500023
 30
0.0
  0
SPLINE
  5
126
330
1F
100
AcDbEntity
  8
0
  6
Continuous
 62
     7
370
    25
100
AcDbSpline
210
0.0
220
0.0
230
1.0
 70
     8
 71
     3
 72
    11
 73
     7
 74
     0
 42
0.000000001
 43
0.00000001
 40
0.0
 40
0.0
 40
0.0
 40
0.0
 40
0.124555827148912
 40
0.3739064841187158
 40
0.7492086610687425
 40
1.0
 40
1.0
 40
1.0
 40
1.0
 10
146.2074870178831
 20
169.5407333500023
 30
0.0
 10
146.183237971806
 20
169.3984270360538
 30
0.0
 10
146.1104443035413
 20
168.9712350311965
 30
0.0
 10
145.9282584606586
 20
168.1202804234134
 30
0.0
 10
145.6673608072651
 20
167.1342812536697
 30
0.0
 10
145.4423343786706
 20
166.4379532114629
 30
0.0
 10
145.3521965991047
 20
166.159028358209
 30
0.0
  0
LINE
  5
127
330
1F
100
AcDbEntity
  8
0
  6
Continuous
 62
     7
370
    25
100
AcDbLine
 10
145.3521965991
 20
166.1590283582
 30
0.0
 11
131.7844652731
 21
166.1590283582
 31
0.0
  0
LINE
  5
128
330
1F
100
AcDbEntity
  8
0
  6
Continuous
 62
     7
370
    25
100
AcDbLine
 10
145.3521965991
 20
178.1590283582
 30
0.0
 11
131.7844652731
 21
178.1590283582
 31
0.0
  0
SPLINE
  5
129
330
1F
100
AcDbEntity
  8
0
  6
Continuous
 62
     7
370
    25
100
AcDbSpline
210
0.0
220
0.0
230
1.0
 70
     8
 71
     3
 72
     9
 73
     5
 74
     0
 42
0.000000001
 43
0.00000001
 40
0.0
 40
0.0
 40
0.0
 40
0.0
 40
0.4988470384231434
 40
1.0
 40
1.0
 40
1.0
 40
1.0
 10
145.3521965991047
 20
178.159028358209
 30
0.0
 10
145.5287725994432
 20
177.6032300204258
 30
0.0
 10
145.8827408236442
 20
176.4890641640141
 30
0.0
 10
146.0990720054431
 20
175.3487801014224
 30
0.0
 10
146.2074870178831
 20
174.7773233664157
 30
0.0
  0
LINE
  5
12A
330
1F
100
AcDbEntity
  8
0
  6
Continuous
 62
     7
370
    25
100
AcDbLine
 10
146.2074870179
 20
162.7773233664
 30
0.0
 11
146.2074870179
 21
169.54073335
 31
0.0
  0
SPLINE
  5
12B
330
1F
100
AcDbEntity
  8
0
  6
Continuous
 62
     7
370
    25
100
AcDbSpline
210
0.0
220
0.0
230
1.0
 70
     8
 71
     3
 72
    11
 73
     7
 74
     0
 42
0.000000001
 43
0.00000001
 40
0.0
 40
0.0
 40
0.0
 40
0.0
 40
0.3117570306560825
 40
0.6239984428063949
 40
0.8745809830202292
 40
1.0
 40
1.0
 40
1.0
 40
1.0
 10
145.3521965991047
 20
166.159028358209
 30
0.0
 10
145.4635700008282
 20
165.8121088486361
 30
0.0
 10
145.6864898467711
 20
165.1177308155342
 30
0.0
 10
145.9421730579817
 20
164.1318766466358
 30
0.0
 10
146.1098467205106
 20
163.3502033298754
 30
0.0
 10
146.1830645056353
 20
162.920616333568
 30
0.0
 10
146.2074870178831
 20
162.7773233664157
 30
0.0
  0
SPLINE
  5
12C
330
1F
100
AcDbEntity
  8
0
  6
Continuous
 62
     7
370
    25
100
AcDbSpline
210
0.0
220
0.0
230
1.0
 70
     8
 71
     3
 72
    11
 73
     7
 74
     0
 42
0.000000001
 43
0.00000001
 40
0.0
 40
0.0
 40
0.0
 40
0.0
 40
0.2896312968534331
 40
0.5811875798131643
 40
0.7902304971769973
 40
0.9999999999999999
 40
0.9999999999999999
 40
0.9999999999999999
 40
0.9999999999999999
 10
146.2074870178831
 20
162.7773233664157
 30
0.0
 10
146.2768338548986
 20
162.2734368078082
 30
0.0
 10
146.4159884311153
 20
161.262314692626
 30
0.0
 10
146.4378794114421
 20
159.8763576114953
 30
0.0
 10
146.3654813604196
 20
158.6332435333462
 30
0.0
 10
146.2602126745867
 20
157.905324359702
 30
0.0
 10
146.2074870178831
 20
157.5407333500023
 30
0.0
  0
SPLINE
  5
12D
330
1F
100
AcDbEntity
  8
0
  6
Continuous
 62
     7
370
    25
100
AcDbSpline
210
0.0
220
0.0
230
1.0
 70
     8
 71
     3
 72
    10
 73
     6
 74
     0
 42
0.000000001
 43
0.00000001
 40
0.0
 40
0.0
 40
0.0
 40
0.0
 40
0.2491580587721896
 40
0.6240811857429045
 40
1.0
 40
1.0
 40
1.0
 40
1.0
 10
146.2074870178831
 20
157.5407333500023
 30
0.0
 10
146.1568034948106
 20
157.2563484087847
 30
0.0
 10
146.0298534241102
 20
156.5440323304001
 30
0.0
 10
145.7507845707777
 20
155.4137272098889
 30
0.0
 10
145.4851766633811
 20
154.577630889649
 30
0.0
 10
145.3521965991047
 20
154.159028358209
 30
0.0
  0
LINE
  5
12E
330
1F
100
AcDbEntity
  8
0
  6
Continuous
 62
     7
370
    25
100
AcDbLine
 10
145.3521965991
 20
154.1590283582
 30
0.0
 11
131.7844652731
 21
154.1590283582
 31
0.0
  0
ARC
  5
12F
330
1F
100
AcDbEntity
  8
0
  6
Continuous
 62
     7
370
    25
100
AcDbCircle
 10
147.1808931551
 20
172.1943544998
 30
0.0
 40
2.826521663600077
100
AcDbArc
 50
249.8558609029
 51
272.2126105423
  0
LINE
  5
130
330
1F
100
AcDbEntity
  8
0
  6
Continuous
 62
     7
370
    25
100
AcDbLine
 10
147.2900187726
 20
169.3699401686
 30
0.0
 11
147.2900187726
 21
162.9481165478
 31
0.0
  0
ARC
  5
131
330
1F
100
AcDbEntity
  8
0
  6
Continuous
 62
     7
370
    25
100
AcDbCircle
 10
147.1808931551
 20
160.1237022166
 30
0.0
 40
2.826521663601856
100
AcDbArc
 50
87.7873894577
 51
110.1441390971
  0
ARC
  5
132
330
1F
100
AcDbEntity
  8
0
  6
Continuous
 62
     7
370
    25
100
AcDbCircle
 10
147.2292850123
 20
175.7547969523
 30
0.0
 40
1.414045880661576
100
AcDbArc
 50
223.7299446481
 51
272.4616308106
  0
SPLINE
  5
133
330
1F
100
AcDbEntity
  8
0
  6
Continuous
 62
     7
370
    25
100
AcDbSpline
210
0.0
220
0.0
230
1.0
 70
     8
 71
     3
 72
    15
 73
    11
 74
     0
 42
0.000000001
 43
0.00000001
 40
0.0
 40
0.0
 40
0.0
 40
0.0
 40
0.1109312571802452
 40
0.2218878685175086
 40
0.3342489325819753
 40
0.4465909975315486
 40
0.5835720164058946
 40
0.7205960260516217
 40
0.8603243244460147
 40
1.0
 40
1.0
 40
1.0
 40
1.0
 10
147.2900187726136
 20
174.3420559417588
 30
0.0
 10
147.286758665025
 20
174.1856383365513
 30
0.0
 10
147.2802377047262
 20
173.8727673757392
 30
0.0
 10
147.2414646615822
 20
173.3724462962395
 30
0.0
 10
147.2008659474138
 20
172.8500644113796
 30
0.0
 10
147.1697974417561
 20
172.2639261648833
 30
0.0
 10
147.1774366098579
 20
171.6130079693202
 30
0.0
 10
147.2190081728637
 20
170.8918850485616
 30
0.0
 10
147.2744049287838
 20
170.1456018268919
 30
0.0
 10
147.2848148115349
 20
169.6284615886964
 30
0.0
 10
147.2900187726136
 20
169.3699401685986
 30
0.0
  0
SPLINE
  5
134
330
1F
100
AcDbEntity
  8
0
  6
Continuous
 62
     7
370
    25
100
AcDbSpline
210
0.0
220
0.0
230
1.0
 70
     8
 71
     3
 72
    15
 73
    11
 74
     0
 42
0.000000001
 43
0.00000001
 40
0.0
 40
0.0
 40
0.0
 40
0.0
 40
0.1109312571802447
 40
0.2218878685175076
 40
0.3342489325819742
 40
0.4465909975315472
 40
0.5835720164058938
 40
0.7205960260516212
 40
0.8603243244460146
 40
1.0
 40
1.0
 40
1.0
 40
1.0
 10
147.2900187726136
 20
162.9481165478194
 30
0.0
 10
147.286758665025
 20
162.7425618696107
 30
0.0
 10
147.2802377047262
 20
162.3314055321558
 30
0.0
 10
147.2414646615822
 20
161.7271331575131
 30
0.0
 10
147.2008659474138
 20
161.1333358247576
 30
0.0
 10
147.1697974417561
 20
160.5094560272757
 30
0.0
 10
147.1774366098579
 20
159.8639699547133
 30
0.0
 10
147.2190081728638
 20
159.2036123855864
 30
0.0
 10
147.2744049287838
 20
158.5692811080969
 30
0.0
 10
147.2848148115349
 20
158.1737360535357
 30
0.0
 10
147.2900187726136
 20
157.9760007746592
 30
0.0
  0
ARC
  5
135
330
1F
100
AcDbEntity
  8
0
  6
Continuous
 62
     7
370
    25
100
AcDbCircle
 10
147.2292850123
 20
156.5632597641
 30
0.0
 40
1.414045880661835
100
AcDbArc
 50
87.5383691894
 51
136.2700553519
  0
LINE
  5
136
330
1F
100
AcDbEntity
  8
0
  6
Continuous
 62
     7
370
    25
100
AcDbLine
 10
148.3683309361
 20
154.4090283582
 30
0.0
 11
148.3683309361
 21
177.9090283582
 31
0.0
  0
LINE
  5
137
330
1F
100
AcDbEntity
  8
0
  6
Continuous
 62
     7
370
    25
100
AcDbLine
 10
147.2900187726
 20
157.9760007747
 30
0.0
 11
147.2900187726
 21
154.7650889643
 31
0.0
  0
LINE
  5
138
330
1F
100
AcDbEntity
  8
0
  6
Continuous
 62
     7
370
    25
100
AcDbLine
 10
147.2900187726
 20
177.5529677521
 30
0.0
 11
147.2900187726
 21
174.3420559418
 31
0.0
  0
LINE
  5
139
330
1F
100
AcDbEntity
  8
0
  6
Continuous
 62
     7
370
    25
100
AcDbLine
 10
148.5683309361
 20
177.7090283582
 30
0.0
 11
148.5683309361
 21
154.6090283582
 31
0.0
  0
LINE
  5
13A
330
1F
100
AcDbEntity
  8
0
  6
Continuous
 62
     7
370
    25
100
AcDbLine
 10
146.2074870179
 20
174.7773233664
 30
0.0
 11
146.2074870179
 21
178.1590283582
 31
0.0
  0
ARC
  5
13B
330
1F
100
AcDbEntity
  8
0
  6
Continuous
 62
     7
370
    25
100
AcDbCircle
 10
147.2829796527
 20
178.8102218133
 30
0.0
 40
1.257273766365424
100
AcDbArc
 50
211.1942295043
 51
270.3207845255
  0
SPLINE
  5
13C
330
1F
100
AcDbEntity
  8
0
  6
Continuous
 62
     7
370
    25
100
AcDbSpline
210
0.0
220
0.0
230
1.0
 70
    24
 71
     3
 72
    10
 73
     6
 74
     0
 42
0.000000001
 43
0.00000001
 40
0.0
 40
0.0
 40
0.0
 40
0.0
 40
0.2491626234370819
 40
0.498715482602784
 40
1.0
 40
1.0
 40
1.0
 40
1.0
 10
146.2074870178831
 20
178.159028358209
 30
0.0
 10
146.1568981687657
 20
178.159028358209
 30
0.0
 10
146.0556412388381
 20
178.159028358209
 30
0.0
 10
145.7898732428285
 20
178.159028358209
 30
0.0
 10
145.5274195755445
 20
178.159028358209
 30
0.0
 10
145.3521965991047
 20
178.159028358209
 30
0.0
  0
LINE
  5
13D
330
1F
100
AcDbEntity
  8
0
  6
Continuous
 62
     7
370
    25
100
AcDbLine
 10
146.2074870179
 20
154.1590283582
 30
0.0
 11
146.2074870179
 21
157.54073335
 31
0.0
  0
ARC
  5
13E
330
1F
100
AcDbEntity
  8
0
  6
Continuous
 62
     7
370
    25
100
AcDbCircle
 10
147.2829796527
 20
153.5078349031
 30
0.0
 40
1.25727376636558
100
AcDbArc
 50
89.6792154746
 51
148.8057704957
  0
SPLINE
  5
13F
330
1F
100
AcDbEntity
  8
0
  6
Continuous
 62
     7
370
    25
100
AcDbSpline
210
0.0
220
0.0
230
1.0
 70
    24
 71
     3
 72
    10
 73
     6
 74
     0
 42
0.000000001
 43
0.00000001
 40
0.0
 40
0.0
 40
0.0
 40
0.0
 40
0.4987991814870261
 40
0.7492138627281391
 40
1.0
 40
1.0
 40
1.0
 40
1.0
 10
145.3521965991047
 20
154.159028358209
 30
0.0
 10
145.5265923150347
 20
154.159028358209
 30
0.0
 10
145.7885407961562
 20
154.159028358209
 30
0.0
 10
146.0547290320986
 20
154.159028358209
 30
0.0
 10
146.1565425368684
 20
154.159028358209
 30
0.0
 10
146.2074870178831
 20
154.159028358209
 30
0.0
  0
SPLINE
  5
140
330
1F
100
AcDbEntity
  8
0
  6
Continuous
 62
     7
370
    25
100
AcDbSpline
210
0.0
220
0.0
230
1.0
 70
    24
 71
     3
 72
    10
 73
     6
 74
     0
 42
0.000000001
 43
0.00000001
 40
0.0
 40
0.0
 40
0.0
 40
0.0
 40
0.2246889910123654
 40
0.5985282400496659
 40
1.0
 40
1.0
 40
1.0
 40
1.0
 10
146.4148981300504
 20
178.159028358209
 30
0.0
 10
146.417739826759
 20
178.159028358209
 30
0.0
 10
146.425309560025
 20
178.159028358209
 30
0.0
 10
146.3621421805061
 20
178.159028358209
 30
0.0
 10
146.2602492455113
 20
178.159028358209
 30
0.0
 10
146.2074870178831
 20
178.159028358209
 30
0.0
  0
SPLINE
  5
141
330
1F
100
AcDbEntity
  8
0
  6
Continuous
 62
     7
370
    25
100
AcDbSpline
210
0.0
220
0.0
230
1.0
 70
    24
 71
     3
 72
    10
 73
     6
 74
     0
 42
0.000000001
 43
0.00000001
 40
0.0
 40
0.0
 40
0.0
 40
0.0
 40
0.4535570473357999
 40
0.8692599920734811
 40
0.9999999999999999
 40
0.9999999999999999
 40
0.9999999999999999
 40
0.9999999999999999
 10
146.2074870178831
 20
154.159028358209
 30
0.0
 10
146.2598638359736
 20
154.159028358209
 30
0.0
 10
146.3602460761916
 20
154.159028358209
 30
0.0
 10
146.4206532390384
 20
154.159028358209
 30
0.0
 10
146.4167948524135
 20
154.159028358209
 30
0.0
 10
146.4158717084779
 20
154.159028358209
 30
0.0
  0
CIRCLE
  5
142
330
1F
100
AcDbEntity
  8
0
  6
Continuous
 62
     7
370
    25
100
AcDbCircle
 10
112.1190350916
 20
166.1590283582
 30
0.0
 40
10.30676222727976
  0
CIRCLE
  5
143
330
1F
100
AcDbEntity
  8
0
  6
Continuous
 62
     7
370
    25
100
AcDbCircle
 10
112.1190350916
 20
166.1590283582
 30
0.0
 40
8.750000000000028
  0
CIRCLE
  5
144
330
1F
100
AcDbEntity
  8
0
  6
Continuous
 62
     7
370
    25
100
AcDbCircle
 10
112.1190350916
 20
166.1590283582
 30
0.0
 40
7.0
  0
CIRCLE
  5
145
330
1F
100
AcDbEntity
  8
0
  6
Continuous
 62
     7
370
    25
100
AcDbCircle
 10
112.1190350916
 20
166.1590283582
 30
0.0
 40
6.5
  0
CIRCLE
  5
146
330
1F
100
AcDbEntity
  8
0
  6
Continuous
 62
     7
370
    25
100
AcDbCircle
 10
112.1190350916
 20
166.1590283582
 30
0.0
 40
10.6493869232919
  0
LINE
  5
147
330
1F
100
AcDbEntity
  8
0
  6
Continuous
 62
     7
370
    25
100
AcDbLine
 10
127.2770409735
 20
155.6815283582
 30
0.0
 11
127.2770409735
 21
176.6365283582
 31
0.0
  0
SPLINE
  5
148
330
1F
100
AcDbEntity
  8
0
  6
Continuous
 62
     7
370
    25
100
AcDbSpline
210
0.0
220
0.0
230
1.0
 70
    24
 71
     3
 72
     8
 73
     4
 74
     0
 42
0.000000001
 43
0.00000001
 40
0.0
 40
0.0
 40
0.0
 40
0.0
 40
1.0
 40
1.0
 40
1.0
 40
1.0
 10
120.6190350916428
 20
158.159028358209
 30
0.0
 10
120.6190350916428
 20
157.8290021045942
 30
0.0
 10
120.6190350916428
 20
157.659028358209
 30
0.0
 10
120.6190350916428
 20
157.659028358209
 30
0.0
  0
SPLINE
  5
149
330
1F
100
AcDbEntity
  8
0
  6
Continuous
 62
     7
370
    25
100
AcDbSpline
210
0.0
220
0.0
230
1.0
 70
    24
 71
     3
 72
     8
 73
     4
 74
     0
 42
0.000000001
 43
0.00000001
 40
0.0
 40
0.0
 40
0.0
 40
0.0
 40
1.0
 40
1.0
 40
1.0
 40
1.0
 10
120.6190350916428
 20
174.659028358209
 30
0.0
 10
120.6190350916428
 20
174.659028358209
 30
0.0
 10
120.6190350916428
 20
174.4890546118238
 30
0.0
 10
120.6190350916428
 20
174.159028358209
 30
0.0
  0
ARC
  5
14A
330
1F
100
AcDbEntity
  8
0
  6
Continuous
 62
     7
370
    25
100
AcDbCircle
 10
118.6190350916
 20
158.1590283582
 30
0.0
 40
0.5000000000000082
100
AcDbArc
 50
270.0
 51
357.0025302101
  0
LINE
  5
14B
330
1F
100
AcDbEntity
  8
0
  6
Continuous
 62
     7
370
    25
100
AcDbLine
 10
118.5345975644
 20
157.6590283582
 30
0.0
 11
118.6190350916
 21
157.6590283582
 31
0.0
  0
LINE
  5
14C
330
1F
100
AcDbEntity
  8
0
  6
Continuous
 62
     7
370
    25
100
AcDbLine
 10
105.7034726189
 20
174.6590283582
 30
0.0
 11
105.6190350916
 21
174.6590283582
 31
0.0
  0
LINE
  5
14D
330
1F
100
AcDbEntity
  8
0
  6
Continuous
 62
     7
370
    25
100
AcDbLine
 10
105.6190350916
 20
157.6590283582
 30
0.0
 11
105.7034726189
 21
157.6590283582
 31
0.0
  0
ARC
  5
14E
330
1F
100
AcDbEntity
  8
0
  6
Continuous
 62
     7
370
    25
100
AcDbCircle
 10
118.6190350916
 20
174.1590283582
 30
0.0
 40
0.5000000000000052
100
AcDbArc
 50
2.9974697899
 51
90.0
  0
LINE
  5
14F
330
1F
100
AcDbEntity
  8
0
  6
Continuous
 62
     7
370
    25
100
AcDbLine
 10
118.6190350916
 20
174.6590283582
 30
0.0
 11
118.5345975644
 21
174.6590283582
 31
0.0
  0
ARC
  5
150
330
1F
100
AcDbEntity
  8
0
  6
Continuous
 62
     7
370
    25
100
AcDbCircle
 10
105.6190350916
 20
174.1590283582
 30
0.0
 40
0.5000000000000052
100
AcDbArc
 50
90.0
 51
177.0025302101
  0
ARC
  5
151
330
1F
100
AcDbEntity
  8
0
  6
Continuous
 62
     7
370
    25
100
AcDbCircle
 10
105.6190350916
 20
158.1590283582
 30
0.0
 40
0.5
100
AcDbArc
 50
182.9974697899
 51
270.0
  0
LINE
  5
152
330
1F
100
AcDbEntity
  8
0
  6
Continuous
 62
     7
370
    25
100
AcDbLine
 10
120.1190350916
 20
174.6590283582
 30
0.0
 11
120.1190350916
 21
174.1590283582
 31
0.0
  0
LINE
  5
153
330
1F
100
AcDbEntity
  8
0
  6
Continuous
 62
     7
370
    25
100
AcDbLine
 10
120.1190350916
 20
174.6590283582
 30
0.0
 11
118.6190350916
 21
174.6590283582
 31
0.0
  0
LINE
  5
154
330
1F
100
AcDbEntity
  8
0
  6
Continuous
 62
     7
370
    25
100
AcDbLine
 10
120.1190350916
 20
157.6590283582
 30
0.0
 11
120.1190350916
 21
158.1590283582
 31
0.0
  0
LINE
  5
155
330
1F
100
AcDbEntity
  8
0
  6
Continuous
 62
     7
370
    25
100
AcDbLine
 10
118.6190350916
 20
157.6590283582
 30
0.0
 11
120.1190350916
 21
157.6590283582
 31
0.0
  0
ARC
  5
156
330
1F
100
AcDbEntity
  8
0
  6
Continuous
 62
     7
370
    25
100
AcDbCircle
 10
120.1190350916
 20
174.1590283582
 30
0.0
 40
0.5
100
AcDbArc
 50
0.0
 51
90.0
  0
LINE
  5
157
330
1F
100
AcDbEntity
  8
0
  6
Continuous
 62
     7
370
    25
100
AcDbLine
 10
120.1190350916
 20
174.1590283582
 30
0.0
 11
120.6190350916
 21
174.1590283582
 31
0.0
  0
LINE
  5
158
330
1F
100
AcDbEntity
  8
0
  6
Continuous
 62
     7
370
    25
100
AcDbLine
 10
120.6190350916
 20
172.574590831
 30
0.0
 11
120.6190350916
 21
174.1590283582
 31
0.0
  0
LINE
  5
159
330
1F
100
AcDbEntity
  8
0
  6
Continuous
 62
     7
370
    25
100
AcDbLine
 10
120.6190350916
 20
158.1590283582
 30
0.0
 11
120.6190350916
 21
159.7434658854
 31
0.0
  0
LINE
  5
15A
330
1F
100
AcDbEntity
  8
0
  6
Continuous
 62
     7
370
    25
100
AcDbLine
 10
120.1190350916
 20
158.1590283582
 30
0.0
 11
120.6190350916
 21
158.1590283582
 31
0.0
  0
ARC
  5
15B
330
1F
100
AcDbEntity
  8
0
  6
Continuous
 62
     7
370
    25
100
AcDbCircle
 10
120.1190350916
 20
158.1590283582
 30
0.0
 40
0.5
100
AcDbArc
 50
270.0
 51
0.0
  0
SPLINE
  5
15C
330
1F
100
AcDbEntity
  8
0
  6
Continuous
 62
     7
370
    25
100
AcDbSpline
210
0.0
220
0.0
230
1.0
 70
     8
 71
     3
 72
    52
 73
    48
 74
     0
 42
0.000000001
 43
0.00000001
 40
0.0
 40
0.0
 40
0.0
 40
0.0
 40
0.1249999999999998
 40
0.1249999999999998
 40
0.1874999999999996
 40
0.1874999999999996
 40
0.2499999999999994
 40
0.2499999999999994
 40
0.2812499999999993
 40
0.2812499999999993
 40
0.3124999999999993
 40
0.3124999999999993
 40
0.3281249999999993
 40
0.3281249999999993
 40
0.3437499999999993
 40
0.3437499999999993
 40
0.3749999999999993
 40
0.3749999999999993
 40
0.4062499999999993
 40
0.4062499999999993
 40
0.4374999999999993
 40
0.4374999999999993
 40
0.4687499999999993
 40
0.4687499999999993
 40
0.4999999999999993
 40
0.4999999999999993
 40
0.5624999999999993
 40
0.5624999999999993
 40
0.5937499999999993
 40
0.5937499999999993
 40
0.6249999999999994
 40
0.6249999999999994
 40
0.6562499999999994
 40
0.6562499999999994
 40
0.6718749999999994
 40
0.6718749999999994
 40
0.6874999999999994
 40
0.6874999999999994
 40
0.7187499999999994
 40
0.7187499999999994
 40
0.7499999999999994
 40
0.7499999999999994
 40
0.8124999999999997
 40
0.8124999999999997
 40
0.8749999999999998
 40
0.8749999999999998
 40
1.0
 40
1.0
 40
1.0
 40
1.0
 10
116.7288073202893
 20
161.5764526632531
 30
0.0
 10
116.1606758249274
 20
161.7060773195305
 30
0.0
 10
115.6008658871498
 20
161.8676782381603
 30
0.0
 10
114.7809723366067
 20
162.1771412390721
 30
0.0
 10
114.5106694332269
 20
162.2916604853325
 30
0.0
 10
113.9823872714911
 20
162.5521446796859
 30
0.0
 10
113.7257787226523
 20
162.695692204636
 30
0.0
 10
113.3703357614324
 20
162.9518486696462
 30
0.0
 10
113.2556656901432
 20
163.0449556766078
 30
0.0
 10
113.0569163427321
 20
163.2547007649126
 30
0.0
 10
112.9708511621881
 20
163.3741781824505
 30
0.0
 10
112.9127474643522
 20
163.5782948833997
 30
0.0
 10
112.9060007523264
 20
163.6504676579153
 30
0.0
 10
112.9162463378414
 20
163.793814500321
 30
0.0
 10
112.9328236256981
 20
163.866688776087
 30
0.0
 10
112.9994149208912
 20
164.0789213603228
 30
0.0
 10
113.0644307872707
 20
164.216209336536
 30
0.0
 10
113.1951607473451
 20
164.4955773917929
 30
0.0
 10
113.2622820988227
 20
164.6378087630393
 30
0.0
 10
113.3840944385373
 20
164.9283222922263
 30
0.0
 10
113.4391307819804
 20
165.0765539592983
 30
0.0
 10
113.5304601317883
 20
165.3811801990495
 30
0.0
 10
113.5668540674927
 20
165.537545766551
 30
0.0
 10
113.61571700412
 20
165.8603383103032
 30
0.0
 10
113.62760352155
 20
166.0251015190441
 30
0.0
 10
113.6229744596099
 20
166.5129729440292
 30
0.0
 10
113.5639477141755
 20
166.8404751967493
 30
0.0
 10
113.4194914651584
 20
167.2970442627797
 30
0.0
 10
113.3623391455864
 20
167.4448156808866
 30
0.0
 10
113.2376890362342
 20
167.734193133746
 30
0.0
 10
113.1698164026717
 20
167.8756831298232
 30
0.0
 10
113.0401325878664
 20
168.1551041684305
 30
0.0
 10
112.976440773246
 20
168.2943450163523
 30
0.0
 10
112.9203048058876
 20
168.5065868690984
 30
0.0
 10
112.9087200448481
 20
168.5790861688948
 30
0.0
 10
112.9101419361938
 20
168.7207039922924
 30
0.0
 10
112.9233681877172
 20
168.7904452981718
 30
0.0
 10
112.9977349662079
 20
168.9882838892859
 30
0.0
 10
113.0890031267992
 20
169.1023037242273
 30
0.0
 10
113.2912399424126
 20
169.303431452023
 30
0.0
 10
113.4046622759844
 20
169.3927749316308
 30
0.0
 10
113.7615145210059
 20
169.6435050849714
 30
0.0
 10
114.0152379093532
 20
169.7833564134906
 30
0.0
 10
114.5335571626061
 20
170.0362929820969
 30
0.0
 10
114.7992797816783
 20
170.1482753672834
 30
0.0
 10
115.6091304038524
 20
170.4525596087878
 30
0.0
 10
116.1666407498777
 20
170.6133403517944
 30
0.0
 10
116.7288073202893
 20
170.7416040531648
 30
0.0
  0
SPLINE
  5
15D
330
1F
100
AcDbEntity
  8
0
  6
Continuous
 62
     7
370
    25
100
AcDbSpline
210
0.0
220
0.0
230
1.0
 70
    24
 71
     3
 72
    10
 73
     6
 74
     0
 42
0.000000001
 43
0.00000001
 40
-0.2904940295525288
 40
-0.2904940295525288
 40
-0.2904940295525288
 40
-0.2904940295525288
 40
-0.1303072746364131
 40
-0.1303072746364131
 40
0.0010563617272233
 40
0.0010563617272233
 40
0.0010563617272233
 40
0.0010563617272233
 10
120.6190350916428
 20
174.659028358209
 30
0.0
 10
120.4895317758892
 20
174.659028358209
 30
0.0
 10
120.3577407977033
 20
174.659028358209
 30
0.0
 10
120.1793168582781
 20
174.659028358209
 30
0.0
 10
120.1190350916428
 20
174.659028358209
 30
0.0
 10
120.1190350916428
 20
174.659028358209
 30
0.0
  0
SPLINE
  5
15E
330
1F
100
AcDbEntity
  8
0
  6
Continuous
 62
     7
370
    25
100
AcDbSpline
210
0.0
220
0.0
230
1.0
 70
    24
 71
     3
 72
    10
 73
     6
 74
     0
 42
0.000000001
 43
0.00000001
 40
-0.8711658421011628
 40
-0.8711658421011628
 40
-0.8711658421011628
 40
-0.8711658421011628
 40
-0.739802205737527
 40
-0.739802205737527
 40
-0.579615450786466
 40
-0.579615450786466
 40
-0.579615450786466
 40
-0.579615450786466
 10
120.1190350916428
 20
157.659028358209
 30
0.0
 10
120.1190350916428
 20
157.659028358209
 30
0.0
 10
120.1793168582781
 20
157.659028358209
 30
0.0
 10
120.3577407977247
 20
157.659028358209
 30
0.0
 10
120.4895317758608
 20
157.659028358209
 30
0.0
 10
120.6190350916428
 20
157.659028358209
 30
0.0
  0
SPLINE
  5
15F
330
1F
100
AcDbEntity
  8
0
  6
Continuous
 62
     7
370
    25
100
AcDbSpline
210
0.0
220
0.0
230
1.0
 70
     8
 71
     3
 72
     8
 73
     4
 74
     0
 42
0.000000001
 43
0.00000001
 40
0.0
 40
0.0
 40
0.0
 40
0.0
 40
1.0
 40
1.0
 40
1.0
 40
1.0
 10
111.1190350916428
 20
163.1906465126957
 30
0.0
 10
111.0848723045877
 20
163.5714325849002
 30
0.0
 10
111.0848373975717
 20
163.9522018098662
 30
0.0
 10
111.1190350916428
 20
164.3328691782037
 30
0.0
  0
SPLINE
  5
160
330
1F
100
AcDbEntity
  8
0
  6
Continuous
 62
     7
370
    25
100
AcDbSpline
210
0.0
220
0.0
230
1.0
 70
     8
 71
     3
 72
    14
 73
    10
 74
     0
 42
0.000000001
 43
0.00000001
 40
0.0
 40
0.0
 40
0.0
 40
0.0
 40
0.25
 40
0.25
 40
0.5
 40
0.5
 40
0.75
 40
0.75
 40
1.0
 40
1.0
 40
1.0
 40
1.0
 10
111.1190350916428
 20
164.3328691782037
 30
0.0
 10
111.1652519818672
 20
164.2338365066694
 30
0.0
 10
111.2104980958161
 20
164.1357028574665
 30
0.0
 10
111.2860644299348
 20
163.9378681899576
 30
0.0
 10
111.3167317066165
 20
163.8363218470649
 30
0.0
 10
111.3349779147119
 20
163.6348951599947
 30
0.0
 10
111.3199917044853
 20
163.5335775754059
 30
0.0
 10
111.2443245283955
 20
163.350439747473
 30
0.0
 10
111.1855427817944
 20
163.2664333595567
 30
0.0
 10
111.119035091643
 20
163.1906465126957
 30
0.0
  0
SPLINE
  5
161
330
1F
100
AcDbEntity
  8
0
  6
Continuous
 62
     7
370
    25
100
AcDbSpline
210
0.0
220
0.0
230
1.0
 70
     8
 71
     3
 72
     8
 73
     4
 74
     0
 42
0.000000001
 43
0.00000001
 40
0.0
 40
0.0
 40
0.0
 40
0.0
 40
1.0
 40
1.0
 40
1.0
 40
1.0
 10
111.1190350916428
 20
167.9851875382147
 30
0.0
 10
111.0848373975717
 20
168.3658549065521
 30
0.0
 10
111.0848723045878
 20
168.746624131518
 30
0.0
 10
111.1190350916428
 20
169.1274102037225
 30
0.0
  0
SPLINE
  5
162
330
1F
100
AcDbEntity
  8
0
  6
Continuous
 62
     7
370
    25
100
AcDbSpline
210
0.0
220
0.0
230
1.0
 70
     8
 71
     3
 72
    14
 73
    10
 74
     0
 42
0.000000001
 43
0.00000001
 40
0.0
 40
0.0
 40
0.0
 40
0.0
 40
0.25
 40
0.25
 40
0.5
 40
0.5
 40
0.75
 40
0.75
 40
1.0
 40
1.0
 40
1.0
 40
1.0
 10
111.1190350916428
 20
169.1274102037225
 30
0.0
 10
111.1861712329706
 20
169.0509072241412
 30
0.0
 10
111.2438634018794
 20
168.9686685421248
 30
0.0
 10
111.3203275144913
 20
168.783730766662
 30
0.0
 10
111.3350659288109
 20
168.6835461546637
 30
0.0
 10
111.3165755377923
 20
168.4806000599979
 30
0.0
 10
111.2863927712126
 20
168.3810901576321
 30
0.0
 10
111.2103876071747
 20
168.1820226919962
 30
0.0
 10
111.1651175971564
 20
168.083932252752
 30
0.0
 10
111.1190350916428
 20
167.9851875382148
 30
0.0
  0
LINE
  5
163
330
1F
100
AcDbEntity
  8
0
  6
Continuous
 62
     7
370
    25
100
AcDbLine
 10
111.1190350916
 20
163.1906465127
 30
0.0
 11
111.1190350916
 21
164.3328691782
 31
0.0
  0
LINE
  5
164
330
1F
100
AcDbEntity
  8
0
  6
Continuous
 62
     7
370
    25
100
AcDbLine
 10
111.1190350916
 20
167.9851875382
 30
0.0
 11
111.1190350916
 21
169.1274102037
 31
0.0
  0
SPLINE
  5
165
330
1F
100
AcDbEntity
  8
0
  6
Continuous
 62
     1
370
    25
100
AcDbSpline
210
0.0
220
0.0
230
1.0
 70
     8
 71
     3
 72
    12
 73
     8
 74
     0
 42
0.000000001
 43
0.00000001
 40
0.0
 40
0.0
 40
0.0
 40
0.0
 40
0.2214157654634546
 40
0.4437541178549276
 40
0.6680754548911917
 40
0.8931384548904769
 40
1.0
 40
1.0
 40
1.0
 40
1.0
 10
147.2900187726136
 20
154.7650889642696
 30
0.0
 10
147.2868437164207
 20
154.7160685719568
 30
0.0
 10
147.2804803743295
 20
154.6178235309946
 30
0.0
 10
147.2412509174835
 20
154.5134064185814
 30
0.0
 10
147.2017298957747
 20
154.4439335191172
 30
0.0
 10
147.173658129674
 20
154.408555855688
 30
0.0
 10
147.1777226520132
 20
154.413730824473
 30
0.0
 10
147.1790312058508
 20
154.4153968813176
 30
0.0
  0
SPLINE
  5
166
330
1F
100
AcDbEntity
  8
0
  6
Continuous
 62
     1
370
    25
100
AcDbSpline
210
0.0
220
0.0
230
1.0
 70
     8
 71
     3
 72
    11
 73
     7
 74
     0
 42
0.000000001
 43
0.00000001
 40
0.0
 40
0.0
 40
0.0
 40
0.0
 40
0.1662360229812971
 40
0.4411727365363972
 40
0.7198462192821723
 40
1.0
 40
1.0
 40
1.0
 40
1.0
 10
147.1790312058516
 20
177.9026598350993
 30
0.0
 10
147.1786607146028
 20
177.9032656467879
 30
0.0
 10
147.177677470206
 20
177.9048734066205
 30
0.0
 10
147.2204535043716
 20
177.8459663514945
 30
0.0
 10
147.2743541646819
 20
177.7359174469805
 30
0.0
 10
147.2847880237594
 20
177.6140585825597
 30
0.0
 10
147.2900187726136
 20
177.5529677521484
 30
0.0
  0
LINE
  5
167
330
1F
100
AcDbEntity
  8
0
  6
Continuous
 62
     1
370
    25
100
AcDbLine
 10
126.8516064791
 20
166.1590283582
 30
0.0
 11
126.8516064791
 21
156.2840283582
 31
0.0
  0
LINE
  5
168
330
1F
100
AcDbEntity
  8
0
  6
Continuous
 62
     1
370
    25
100
AcDbLine
 10
126.8516064791
 20
176.0340283582
 30
0.0
 11
126.8516064791
 21
166.1590283582
 31
0.0
  0
LINE
  5
169
330
1F
100
AcDbEntity
  8
0
  6
Continuous
 62
     1
370
    25
100
AcDbLine
 10
124.6190350916
 20
166.1590283582
 30
0.0
 11
124.6190350916
 21
157.6590283582
 31
0.0
  0
LINE
  5
16A
330
1F
100
AcDbEntity
  8
0
  6
Continuous
 62
     1
370
    25
100
AcDbLine
 10
124.6190350916
 20
174.6590283582
 30
0.0
 11
124.6190350916
 21
166.1590283582
 31
0.0
  0
LINE
  5
16B
330
1F
100
AcDbEntity
  8
0
  6
Continuous
 62
     1
370
    25
100
AcDbLine
 10
105.6190350916
 20
174.6590283582
 30
0.0
 11
105.6190350916
 21
174.5946339584
 31
0.0
  0
LINE
  5
16C
330
1F
100
AcDbEntity
  8
0
  6
Continuous
 62
     1
370
    25
100
AcDbLine
 10
105.6190350916
 20
157.723422758
 30
0.0
 11
105.6190350916
 21
157.6590283582
 31
0.0
  0
LINE
  5
16D
330
1F
100
AcDbEntity
  8
0
  6
Continuous
 62
     1
370
    25
100
AcDbLine
 10
120.1190350916
 20
173.1882133637
 30
0.0
 11
120.1190350916
 21
174.1590283582
 31
0.0
  0
LINE
  5
16E
330
1F
100
AcDbEntity
  8
0
  6
Continuous
 62
     1
370
    25
100
AcDbLine
 10
119.1482200972
 20
174.1590283582
 30
0.0
 11
120.1190350916
 21
174.1590283582
 31
0.0
  0
LINE
  5
16F
330
1F
100
AcDbEntity
  8
0
  6
Continuous
 62
     1
370
    25
100
AcDbLine
 10
120.1190350916
 20
158.1590283582
 30
0.0
 11
120.1190350916
 21
159.1298433527
 31
0.0
  0
LINE
  5
170
330
1F
100
AcDbEntity
  8
0
  6
Continuous
 62
     1
370
    25
100
AcDbLine
 10
120.1190350916
 20
158.1590283582
 30
0.0
 11
119.1482200972
 21
158.1590283582
 31
0.0
  0
ARC
  5
171
330
1F
100
AcDbEntity
  8
0
  6
Continuous
 62
     7
370
    25
100
AcDbCircle
 10
198.5196552239
 20
96.6683146619
 30
0.0
 40
2.499999999999987
100
AcDbArc
 50
296.7436839504
 51
319.4425836614
  0
ARC
  5
172
330
1F
100
AcDbEntity
  8
0
  6
Continuous
 62
     7
370
    25
100
AcDbCircle
 10
181.0196552239
 20
96.6683146619
 30
0.0
 40
2.500000000000008
100
AcDbArc
 50
220.5574163386
 51
243.2563160496
  0
LINE
  5
173
330
1F
100
AcDbEntity
  8
0
  6
Continuous
 62
     7
370
    25
100
AcDbLine
 10
200.4190421472
 20
95.0427903417
 30
0.0
 11
200.0764174512
 21
106.006780614
 31
0.0
  0
LINE
  5
174
330
1F
100
AcDbEntity
  8
0
  6
Continuous
 62
     7
370
    25
100
AcDbLine
 10
179.4628929966
 20
106.006780614
 30
0.0
 11
179.1202683006
 21
95.0427903417
 31
0.0
  0
LINE
  5
175
330
1F
100
AcDbEntity
  8
0
  6
Continuous
 62
     7
370
    25
100
AcDbLine
 10
200.0764174512
 20
106.006780614
 30
0.0
 11
198.5196552239
 21
108.703171887
 31
0.0
  0
LINE
  5
176
330
1F
100
AcDbEntity
  8
0
  6
Continuous
 62
     7
370
    25
100
AcDbLine
 10
181.0196552239
 20
108.703171887
 30
0.0
 11
179.4628929966
 21
106.006780614
 31
0.0
  0
ARC
  5
177
330
1F
100
AcDbEntity
  8
0
  6
Continuous
 62
     7
370
    25
100
AcDbCircle
 10
200.7696552239
 20
92.203171887
 30
0.0
 40
2.500000000000009
100
AcDbArc
 50
116.7436839504
 51
180.0
  0
ARC
  5
178
330
1F
100
AcDbEntity
  8
0
  6
Continuous
 62
     7
370
    25
100
AcDbCircle
 10
178.7696552239
 20
92.203171887
 30
0.0
 40
2.500000000000009
100
AcDbArc
 50
0.0
 51
63.2563160496
  0
LINE
  5
179
330
1F
100
AcDbEntity
  8
0
  6
Continuous
 62
     7
370
    25
100
AcDbLine
 10
181.2696552239
 20
92.203171887
 30
0.0
 11
181.2696552239
 21
88.6521010594
 31
0.0
  0
LINE
  5
17A
330
1F
100
AcDbEntity
  8
0
  6
Continuous
 62
     7
370
    25
100
AcDbLine
 10
198.2696552239
 20
88.6521010594
 30
0.0
 11
198.2696552239
 21
92.203171887
 31
0.0
  0
CIRCLE
  5
17B
330
1F
100
AcDbEntity
  8
0
  6
Continuous
 62
     7
370
    25
100
AcDbCircle
 10
189.7696552239
 20
79.703171887
 30
0.0
 40
11.55000000000001
  0
CIRCLE
  5
17C
330
1F
100
AcDbEntity
  8
0
  6
Continuous
 62
     7
370
    25
100
AcDbCircle
 10
189.7696552239
 20
79.703171887
 30
0.0
 40
11.75
  0
CIRCLE
  5
17D
330
1F
100
AcDbEntity
  8
0
  6
Continuous
 62
     7
370
    25
100
AcDbCircle
 10
189.7696552239
 20
79.703171887
 30
0.0
 40
6.175000000000011
  0
CIRCLE
  5
17E
330
1F
100
AcDbEntity
  8
0
  6
Continuous
 62
     7
370
    25
100
AcDbCircle
 10
189.7696552239
 20
79.703171887
 30
0.0
 40
6.074999999999989
  0
LINE
  5
17F
330
1F
100
AcDbEntity
  8
0
  6
Continuous
 62
     7
370
    25
100
AcDbLine
 10
201.7696552239
 20
82.7265185426
 30
0.0
 11
201.1635946178
 21
82.5738242671
 31
0.0
  0
SPLINE
  5
180
330
1F
100
AcDbEntity
  8
0
  6
Continuous
 62
     7
370
    25
100
AcDbSpline
210
0.0
220
0.0
230
1.0
 70
    24
 71
     3
 72
    12
 73
     8
 74
     0
 42
0.000000001
 43
0.00000001
 40
0.0
 40
0.0
 40
0.0
 40
0.0
 40
0.1952499241818977
 40
0.3910647929541105
 40
0.5887212893264687
 40
0.787031544902466
 40
1.0
 40
1.0
 40
1.0
 40
1.0
 10
201.7696552238806
 20
76.67982523137995
 30
0.0
 10
201.7696552238806
 20
77.07162831369702
 30
0.0
 10
201.7696552238806
 20
77.85636813834537
 30
0.0
 10
201.7696552238806
 20
79.0458192023048
 30
0.0
 10
201.7696552238806
 20
80.24287826570949
 30
0.0
 10
201.7696552238806
 20
81.47359678744827
 30
0.0
 10
201.7696552238806
 20
82.29907117049773
 30
0.0
 10
201.7696552238806
 20
82.72651854260394
 30
0.0
  0
LINE
  5
181
330
1F
100
AcDbEntity
  8
0
  6
Continuous
 62
     7
370
    25
100
AcDbLine
 10
201.1635946178
 20
76.8325195069
 30
0.0
 11
201.7696552239
 21
76.6798252314
 31
0.0
  0
SPLINE
  5
182
330
1F
100
AcDbEntity
  8
0
  6
Continuous
 62
     7
370
    25
100
AcDbSpline
210
0.0
220
0.0
230
1.0
 70
    24
 71
     3
 72
    11
 73
     7
 74
     0
 42
0.000000001
 43
0.00000001
 40
0.0
 40
0.0
 40
0.0
 40
0.0
 40
0.289631296853434
 40
0.5811875798131658
 40
0.7902304971769981
 40
1.0
 40
1.0
 40
1.0
 40
1.0
 10
198.3879502320873
 20
88.58380340459927
 30
0.0
 10
197.8840636734799
 20
88.87472244485228
 30
0.0
 10
196.8729415582976
 20
89.45849407023633
 30
0.0
 10
195.4869844771669
 20
90.25867676411244
 30
0.0
 10
194.2438703990178
 20
90.9763890117652
 30
0.0
 10
193.5159512253736
 20
91.39665334261699
 30
0.0
 10
193.151360215674
 20
91.60715006021121
 30
0.0
  0
LINE
  5
183
330
1F
100
AcDbEntity
  8
0
  6
Continuous
 62
     7
370
    25
100
AcDbLine
 10
198.3879502321
 20
88.5838034046
 30
0.0
 11
197.9526828074
 21
88.1352866613
 31
0.0
  0
LINE
  5
184
330
1F
100
AcDbEntity
  8
0
  6
Continuous
 62
     7
370
    25
100
AcDbLine
 10
193.1513602157
 20
91.6071500602
 30
0.0
 11
192.9805670343
 21
91.0059390414
 31
0.0
  0
LINE
  5
185
330
1F
100
AcDbEntity
  8
0
  6
Continuous
 62
     7
370
    25
100
AcDbLine
 10
197.9526828074
 20
71.2710571127
 30
0.0
 11
198.3879502321
 21
70.8225403694
 31
0.0
  0
SPLINE
  5
186
330
1F
100
AcDbEntity
  8
0
  6
Continuous
 62
     7
370
    25
100
AcDbSpline
210
0.0
220
0.0
230
1.0
 70
    24
 71
     3
 72
    11
 73
     7
 74
     0
 42
0.000000001
 43
0.00000001
 40
0.0
 40
0.0
 40
0.0
 40
0.0
 40
0.2896312968534326
 40
0.5811875798131634
 40
0.7902304971769967
 40
1.0
 40
1.0
 40
1.0
 40
1.0
 10
193.1513602156739
 20
67.79919371377268
 30
0.0
 10
193.6552467742813
 20
68.09011275402571
 30
0.0
 10
194.6663688894636
 20
68.67388437940977
 30
0.0
 10
196.0523259705944
 20
69.47406707328588
 30
0.0
 10
197.2954400487434
 20
70.19177932093865
 30
0.0
 10
198.0233592223876
 20
70.61204365179044
 30
0.0
 10
198.3879502320873
 20
70.82254036938465
 30
0.0
  0
LINE
  5
187
330
1F
100
AcDbEntity
  8
0
  6
Continuous
 62
     7
370
    25
100
AcDbLine
 10
192.9805670343
 20
68.4004047326
 30
0.0
 11
193.1513602157
 21
67.7991937138
 31
0.0
  0
SPLINE
  5
188
330
1F
100
AcDbEntity
  8
0
  6
Continuous
 62
     7
370
    25
100
AcDbSpline
210
0.0
220
0.0
230
1.0
 70
    24
 71
     3
 72
    11
 73
     7
 74
     0
 42
0.000000001
 43
0.00000001
 40
0.0
 40
0.0
 40
0.0
 40
0.0
 40
0.2896312968534335
 40
0.5811875798131648
 40
0.7902304971769979
 40
1.0
 40
1.0
 40
1.0
 40
1.0
 10
186.3879502320873
 20
91.60715006021121
 30
0.0
 10
185.8840636734799
 20
91.31623101995818
 30
0.0
 10
184.8729415582976
 20
90.73245939457412
 30
0.0
 10
183.4869844771669
 20
89.93227670069803
 30
0.0
 10
182.2438703990178
 20
89.21456445304526
 30
0.0
 10
181.5159512253736
 20
88.79430012219348
 30
0.0
 10
181.1513602156739
 20
88.58380340459927
 30
0.0
  0
LINE
  5
189
330
1F
100
AcDbEntity
  8
0
  6
Continuous
 62
     7
370
    25
100
AcDbLine
 10
186.3879502321
 20
91.6071500602
 30
0.0
 11
186.5587434135
 21
91.0059390414
 31
0.0
  0
LINE
  5
18A
330
1F
100
AcDbEntity
  8
0
  6
Continuous
 62
     7
370
    25
100
AcDbLine
 10
181.1513602157
 20
88.5838034046
 30
0.0
 11
181.5866276403
 21
88.1352866613
 31
0.0
  0
LINE
  5
18B
330
1F
100
AcDbEntity
  8
0
  6
Continuous
 62
     7
370
    25
100
AcDbLine
 10
186.5587434135
 20
68.4004047326
 30
0.0
 11
186.3879502321
 21
67.7991937138
 31
0.0
  0
SPLINE
  5
18C
330
1F
100
AcDbEntity
  8
0
  6
Continuous
 62
     7
370
    25
100
AcDbSpline
210
0.0
220
0.0
230
1.0
 70
    24
 71
     3
 72
    11
 73
     7
 74
     0
 42
0.000000001
 43
0.00000001
 40
0.0
 40
0.0
 40
0.0
 40
0.0
 40
0.2896312968534324
 40
0.5811875798131635
 40
0.7902304971769966
 40
1.0
 40
1.0
 40
1.0
 40
1.0
 10
181.1513602156739
 20
70.82254036938465
 30
0.0
 10
181.6552467742813
 20
70.53162132913162
 30
0.0
 10
182.6663688894636
 20
69.94784970374756
 30
0.0
 10
184.0523259705944
 20
69.14766700987147
 30
0.0
 10
185.2954400487434
 20
68.4299547622187
 30
0.0
 10
186.0233592223876
 20
68.0096904313669
 30
0.0
 10
186.3879502320873
 20
67.79919371377268
 30
0.0
  0
LINE
  5
18D
330
1F
100
AcDbEntity
  8
0
  6
Continuous
 62
     7
370
    25
100
AcDbLine
 10
181.5866276403
 20
71.2710571127
 30
0.0
 11
181.1513602157
 21
70.8225403694
 31
0.0
  0
LINE
  5
18E
330
1F
100
AcDbEntity
  8
0
  6
Continuous
 62
     7
370
    25
100
AcDbLine
 10
178.3757158299
 20
76.8325195069
 30
0.0
 11
177.7696552239
 21
76.6798252314
 31
0.0
  0
SPLINE
  5
18F
330
1F
100
AcDbEntity
  8
0
  6
Continuous
 62
     7
370
    25
100
AcDbSpline
210
0.0
220
0.0
230
1.0
 70
    24
 71
     3
 72
    12
 73
     8
 74
     0
 42
0.000000001
 43
0.00000001
 40
0.0
 40
0.0
 40
0.0
 40
0.0
 40
0.212968430553326
 40
0.4081624072255347
 40
0.6039782819844952
 40
0.8016837761222427
 40
1.0
 40
1.0
 40
1.0
 40
1.0
 10
177.7696552238806
 20
82.7265185426039
 30
0.0
 10
177.7696552238806
 20
82.29907166656626
 30
0.0
 10
177.7696552238806
 20
81.47985284886983
 30
0.0
 10
177.7696552238806
 20
80.25921004248289
 30
0.0
 10
177.7696552238806
 20
79.0683627171841
 30
0.0
 10
177.7696552238806
 20
77.87251098889948
 30
0.0
 10
177.7696552238806
 20
77.07779567720175
 30
0.0
 10
177.7696552238806
 20
76.67982523138
 30
0.0
  0
LINE
  5
190
330
1F
100
AcDbEntity
  8
0
  6
Continuous
 62
     7
370
    25
100
AcDbLine
 10
177.7696552239
 20
82.7265185426
 30
0.0
 11
178.3757158299
 21
82.5738242671
 31
0.0
  0
ARC
  5
191
330
1F
100
AcDbEntity
  8
0
  6
Continuous
 62
     7
370
    25
100
AcDbCircle
 10
189.7696552239
 20
79.703171887
 30
0.0
 40
12.37500000000001
100
AcDbArc
 50
14.1411102339
 51
45.8588897661
  0
ARC
  5
192
330
1F
100
AcDbEntity
  8
0
  6
Continuous
 62
     7
370
    25
100
AcDbCircle
 10
189.7696552239
 20
79.703171887
 30
0.0
 40
12.37500000000001
100
AcDbArc
 50
314.1411102339
 51
345.8588897661
  0
ARC
  5
193
330
1F
100
AcDbEntity
  8
0
  6
Continuous
 62
     7
370
    25
100
AcDbCircle
 10
189.7696552239
 20
79.703171887
 30
0.0
 40
12.37500000000002
100
AcDbArc
 50
74.1411102339
 51
105.8588897661
  0
ARC
  5
194
330
1F
100
AcDbEntity
  8
0
  6
Continuous
 62
     7
370
    25
100
AcDbCircle
 10
189.7696552239
 20
79.703171887
 30
0.0
 40
12.37500000000004
100
AcDbArc
 50
254.1411102339
 51
285.8588897661
  0
ARC
  5
195
330
1F
100
AcDbEntity
  8
0
  6
Continuous
 62
     7
370
    25
100
AcDbCircle
 10
189.7696552239
 20
79.703171887
 30
0.0
 40
12.37500000000003
100
AcDbArc
 50
194.1411102339
 51
225.8588897661
  0
ARC
  5
196
330
1F
100
AcDbEntity
  8
0
  6
Continuous
 62
     7
370
    25
100
AcDbCircle
 10
189.7696552239
 20
79.703171887
 30
0.0
 40
12.37500000000002
100
AcDbArc
 50
134.1411102339
 51
165.8588897661
  0
SPLINE
  5
197
330
1F
100
AcDbEntity
  8
0
  6
Continuous
 62
     7
370
    25
100
AcDbSpline
210
0.0
220
0.0
230
1.0
 70
    24
 71
     3
 72
     9
 73
     5
 74
     0
 42
0.000000001
 43
0.00000001
 40
0.0
 40
0.0
 40
0.0
 40
0.0
 40
0.4988470384231437
 40
1.0
 40
1.0
 40
1.0
 40
1.0
 10
201.7696552238806
 20
86.63137511726748
 30
0.0
 10
201.2138568860975
 20
86.95226543720173
 30
0.0
 10
200.0996910296858
 20
87.59552939432291
 30
0.0
 10
198.959406967094
 20
88.25387270481289
 30
0.0
 10
198.3879502320873
 20
88.58380340459927
 30
0.0
  0
SPLINE
  5
198
330
1F
100
AcDbEntity
  8
0
  6
Continuous
 62
     7
370
    25
100
AcDbSpline
210
0.0
220
0.0
230
1.0
 70
    24
 71
     3
 72
    10
 73
     6
 74
     0
 42
0.000000001
 43
0.00000001
 40
0.0
 40
0.0
 40
0.0
 40
0.0
 40
0.2491626234370818
 40
0.4987154826027837
 40
1.0
 40
1.0
 40
1.0
 40
1.0
 10
201.7696552238806
 20
82.72651854260394
 30
0.0
 10
201.7696552238806
 20
83.05491465587858
 30
0.0
 10
201.7696552238806
 20
83.71222121276669
 30
0.0
 10
201.7696552238806
 20
85.01959631386617
 30
0.0
 10
201.7696552238806
 20
85.98610266934412
 30
0.0
 10
201.7696552238806
 20
86.63137511726748
 30
0.0
  0
SPLINE
  5
199
330
1F
100
AcDbEntity
  8
0
  6
Continuous
 62
     7
370
    25
100
AcDbSpline
210
0.0
220
0.0
230
1.0
 70
    24
 71
     3
 72
    10
 73
     6
 74
     0
 42
0.000000001
 43
0.00000001
 40
0.0
 40
0.0
 40
0.0
 40
0.0
 40
0.2491626234370817
 40
0.4987154826027833
 40
1.0
 40
1.0
 40
1.0
 40
1.0
 10
198.3879502320873
 20
70.82254036938465
 30
0.0
 10
198.6723496086872
 20
70.98673842602197
 30
0.0
 10
199.2415937850264
 20
71.31539170446602
 30
0.0
 10
200.3738138348538
 20
71.96907925501576
 30
0.0
 10
201.2108328916168
 20
72.45233243275474
 30
0.0
 10
201.7696552238806
 20
72.77496865671642
 30
0.0
  0
SPLINE
  5
19A
330
1F
100
AcDbEntity
  8
0
  6
Continuous
 62
     7
370
    25
100
AcDbSpline
210
0.0
220
0.0
230
1.0
 70
    24
 71
     3
 72
    10
 73
     6
 74
     0
 42
0.000000001
 43
0.00000001
 40
0.0
 40
0.0
 40
0.0
 40
0.0
 40
0.4059715743866132
 40
0.7026896990791636
 40
1.0
 40
1.0
 40
1.0
 40
1.0
 10
201.7696552238806
 20
72.77496865671642
 30
0.0
 10
201.7696552238806
 20
73.29711100618343
 30
0.0
 10
201.7696552238806
 20
74.20087884012061
 30
0.0
 10
201.7696552238806
 20
75.50538905008041
 30
0.0
 10
201.7696552238806
 20
76.28808641864804
 30
0.0
 10
201.7696552238806
 20
76.67982523137995
 30
0.0
  0
SPLINE
  5
19B
330
1F
100
AcDbEntity
  8
0
  6
Continuous
 62
     7
370
    25
100
AcDbSpline
210
0.0
220
0.0
230
1.0
 70
    24
 71
     3
 72
    10
 73
     6
 74
     0
 42
0.000000001
 43
0.00000001
 40
0.0
 40
0.0
 40
0.0
 40
0.0
 40
0.3117689808905947
 40
0.6240223618426742
 40
1.0
 40
1.0
 40
1.0
 40
1.0
 10
189.7696552238806
 20
93.559578347543
 30
0.0
 10
189.4226930460242
 20
93.35925964075898
 30
0.0
 10
188.7282296100609
 20
92.95831098906324
 30
0.0
 10
187.6017274655728
 20
92.3079246727003
 30
0.0
 10
186.8167694249954
 20
91.85472893667041
 30
0.0
 10
186.3879502320873
 20
91.60715006021121
 30
0.0
  0
SPLINE
  5
19C
330
1F
100
AcDbEntity
  8
0
  6
Continuous
 62
     7
370
    25
100
AcDbSpline
210
0.0
220
0.0
230
1.0
 70
    24
 71
     3
 72
    11
 73
     7
 74
     0
 42
0.000000001
 43
0.00000001
 40
0.0
 40
0.0
 40
0.0
 40
0.0
 40
0.124555827148912
 40
0.3739064841187159
 40
0.7492086610687425
 40
1.0
 40
1.0
 40
1.0
 40
1.0
 10
193.151360215674
 20
91.60715006021121
 30
0.0
 10
193.0090539017254
 20
91.68931064887678
 30
0.0
 10
192.5818618968682
 20
91.93595006787677
 30
0.0
 10
191.7309072890851
 20
92.42724893974848
 30
0.0
 10
190.7449081193413
 20
92.99651582582078
 30
0.0
 10
190.0485800771345
 20
93.39854100843316
 30
0.0
 10
189.7696552238806
 20
93.559578347543
 30
0.0
  0
SPLINE
  5
19D
330
1F
100
AcDbEntity
  8
0
  6
Continuous
 62
     7
370
    25
100
AcDbSpline
210
0.0
220
0.0
230
1.0
 70
    24
 71
     3
 72
    10
 73
     6
 74
     0
 42
0.000000001
 43
0.00000001
 40
0.0
 40
0.0
 40
0.0
 40
0.0
 40
0.249162623437082
 40
0.4987154826027841
 40
1.0
 40
1.0
 40
1.0
 40
1.0
 10
186.3879502320873
 20
67.79919371377268
 30
0.0
 10
186.6723496086872
 20
67.63499565713538
 30
0.0
 10
187.2415937850264
 20
67.30634237869133
 30
0.0
 10
188.3738138348538
 20
66.65265482814158
 30
0.0
 10
189.2108328916168
 20
66.16940165040259
 30
0.0
 10
189.7696552238806
 20
65.84676542644091
 30
0.0
  0
SPLINE
  5
19E
330
1F
100
AcDbEntity
  8
0
  6
Continuous
 62
     7
370
    25
100
AcDbSpline
210
0.0
220
0.0
230
1.0
 70
    24
 71
     3
 72
    10
 73
     6
 74
     0
 42
0.000000001
 43
0.00000001
 40
0.0
 40
0.0
 40
0.0
 40
0.0
 40
0.498799181487025
 40
0.7492138627281386
 40
1.0
 40
1.0
 40
1.0
 40
1.0
 10
189.7696552238806
 20
65.84676542644091
 30
0.0
 10
190.325694748554
 20
66.16779499569118
 30
0.0
 10
191.1608856140806
 20
66.64999266672768
 30
0.0
 10
192.2930349207921
 20
67.30363937372039
 30
0.0
 10
192.8651104561931
 20
67.63392733808095
 30
0.0
 10
193.1513602156739
 20
67.79919371377268
 30
0.0
  0
SPLINE
  5
19F
330
1F
100
AcDbEntity
  8
0
  6
Continuous
 62
     7
370
    25
100
AcDbSpline
210
0.0
220
0.0
230
1.0
 70
    24
 71
     3
 72
    10
 73
     6
 74
     0
 42
0.000000001
 43
0.00000001
 40
0.0
 40
0.0
 40
0.0
 40
0.0
 40
0.4987991814870264
 40
0.7492138627281392
 40
1.0
 40
1.0
 40
1.0
 40
1.0
 10
177.7696552238806
 20
86.63137511726748
 30
0.0
 10
177.7696552238806
 20
85.98931597876692
 30
0.0
 10
177.7696552238806
 20
85.02492063669395
 30
0.0
 10
177.7696552238806
 20
83.7176272227085
 30
0.0
 10
177.7696552238806
 20
83.05705129398739
 30
0.0
 10
177.7696552238806
 20
82.7265185426039
 30
0.0
  0
SPLINE
  5
1A0
330
1F
100
AcDbEntity
  8
0
  6
Continuous
 62
     7
370
    25
100
AcDbSpline
210
0.0
220
0.0
230
1.0
 70
    24
 71
     3
 72
    10
 73
     6
 74
     0
 42
0.000000001
 43
0.00000001
 40
0.0
 40
0.0
 40
0.0
 40
0.0
 40
0.2491580587721894
 40
0.624081185742904
 40
1.0
 40
1.0
 40
1.0
 40
1.0
 10
181.1513602156739
 20
88.58380340459927
 30
0.0
 10
180.8669752744563
 20
88.41961368223379
 30
0.0
 10
180.1546591960718
 20
88.00835780263037
 30
0.0
 10
179.0243540755606
 20
87.35577583703683
 30
0.0
 10
178.1882577553206
 20
86.87305540147784
 30
0.0
 10
177.7696552238806
 20
86.63137511726748
 30
0.0
  0
SPLINE
  5
1A1
330
1F
100
AcDbEntity
  8
0
  6
Continuous
 62
     7
370
    25
100
AcDbSpline
210
0.0
220
0.0
230
1.0
 70
    24
 71
     3
 72
    10
 73
     6
 74
     0
 42
0.000000001
 43
0.00000001
 40
0.0
 40
0.0
 40
0.0
 40
0.0
 40
0.2966942842518303
 40
0.59402843567368
 40
1.0
 40
1.0
 40
1.0
 40
1.0
 10
177.7696552238806
 20
76.67982523138
 30
0.0
 10
177.7696552238806
 20
76.2888967651294
 30
0.0
 10
177.7696552238806
 20
75.50619673485164
 30
0.0
 10
177.7696552238806
 20
74.20167142648165
 30
0.0
 10
177.7696552238806
 20
73.2971111053848
 30
0.0
 10
177.7696552238806
 20
72.77496865671644
 30
0.0
  0
SPLINE
  5
1A2
330
1F
100
AcDbEntity
  8
0
  6
Continuous
 62
     7
370
    25
100
AcDbSpline
210
0.0
220
0.0
230
1.0
 70
    24
 71
     3
 72
    10
 73
     6
 74
     0
 42
0.000000001
 43
0.00000001
 40
0.0
 40
0.0
 40
0.0
 40
0.0
 40
0.4987991814870265
 40
0.7492138627281391
 40
1.0
 40
1.0
 40
1.0
 40
1.0
 10
177.7696552238806
 20
72.77496865671644
 30
0.0
 10
178.325694748554
 20
72.45393908746617
 30
0.0
 10
179.1608856140806
 20
71.97174141642968
 30
0.0
 10
180.2930349207921
 20
71.31809470943695
 30
0.0
 10
180.8651104561931
 20
70.98780674507638
 30
0.0
 10
181.1513602156739
 20
70.82254036938465
 30
0.0
  0
CIRCLE
  5
1A3
330
1F
100
AcDbEntity
  8
0
  6
Continuous
 62
     7
370
    25
100
AcDbCircle
 10
189.7696552239
 20
79.703171887
 30
0.0
 40
5.0
  0
LINE
  5
1A4
330
1F
100
AcDbEntity
  8
0
  6
Continuous
 62
     7
370
    25
100
AcDbLine
 10
179.1202683006
 20
95.0427903417
 30
0.0
 11
200.4190421472
 21
95.0427903417
 31
0.0
  0
LINE
  5
1A5
330
1F
100
AcDbEntity
  8
0
  6
Continuous
 62
     7
370
    25
100
AcDbLine
 10
179.4628929966
 20
106.006780614
 30
0.0
 11
200.0764174512
 21
106.006780614
 31
0.0
  0
LINE
  5
1A6
330
1F
100
AcDbEntity
  8
0
  6
Continuous
 62
     7
370
    25
100
AcDbLine
 10
181.0196552239
 20
108.703171887
 30
0.0
 11
198.5196552239
 21
108.703171887
 31
0.0
  0
LINE
  5
1A7
330
1F
100
AcDbEntity
  8
0
  6
Continuous
 62
     7
370
    25
100
AcDbLine
 10
194.3522309188
 20
77.703171887
 30
0.0
 11
185.1870795289
 21
77.703171887
 31
0.0
  0
LINE
  5
1A8
330
1F
100
AcDbEntity
  8
0
  6
Continuous
 62
     1
370
    25
100
AcDbLine
 10
189.7696552239
 20
94.4357432744
 30
0.0
 11
199.6446552239
 21
94.4357432744
 31
0.0
  0
LINE
  5
1A9
330
1F
100
AcDbEntity
  8
0
  6
Continuous
 62
     1
370
    25
100
AcDbLine
 10
179.8946552239
 20
94.4357432744
 30
0.0
 11
189.7696552239
 21
94.4357432744
 31
0.0
  0
LINE
  5
1AA
330
1F
100
AcDbEntity
  8
0
  6
Continuous
 62
     1
370
    25
100
AcDbLine
 10
192.1210968659
 20
92.203171887
 30
0.0
 11
198.2696552239
 21
92.203171887
 31
0.0
  0
LINE
  5
1AB
330
1F
100
AcDbEntity
  8
0
  6
Continuous
 62
     1
370
    25
100
AcDbLine
 10
181.2696552239
 20
92.203171887
 30
0.0
 11
187.4138750895
 21
92.203171887
 31
0.0
  0
LINE
  5
1AC
330
1F
100
AcDbEntity
  8
0
  6
Continuous
 62
     7
370
    25
100
AcDbLine
 10
5.6936789512
 20
12.0
 30
0.0
 11
5.5493413839
 21
11.75
 31
0.0
  0
LINE
  5
1AD
330
1F
100
AcDbEntity
  8
0
  6
Continuous
 62
     7
370
    25
100
AcDbLine
 10
5.5493413839
 20
-11.75
 30
0.0
 11
5.6936789512
 21
-12.0
 31
0.0
  0
LINE
  5
1AE
330
1F
100
AcDbEntity
  8
0
  6
Continuous
 62
     7
370
    25
100
AcDbLine
 10
23.3493413839
 20
11.75
 30
0.0
 11
22.1600416536
 21
11.75
 31
0.0
  0
LINE
  5
1AF
330
1F
100
AcDbEntity
  8
0
  6
Continuous
 62
     7
370
    25
100
AcDbLine
 10
22.1600416536
 20
-11.75
 30
0.0
 11
23.3493413839
 21
-11.75
 31
0.0
  0
LINE
  5
1B0
330
1F
100
AcDbEntity
  8
0
  6
Continuous
 62
     7
370
    25
100
AcDbLine
 10
23.3493413839
 20
-11.75
 30
0.0
 11
23.5493413839
 21
-11.55
 31
0.0
  0
LINE
  5
1B1
330
1F
100
AcDbEntity
  8
0
  6
Continuous
 62
     7
370
    25
100
AcDbLine
 10
23.5493413839
 20
11.55
 30
0.0
 11
23.3493413839
 21
11.75
 31
0.0
  0
SPLINE
  5
1B2
330
1F
100
AcDbEntity
  8
0
  6
Continuous
 62
     7
370
    25
100
AcDbSpline
210
0.0
220
0.0
230
1.0
 70
     8
 71
     3
 72
    13
 73
     9
 74
     0
 42
0.000000001
 43
0.00000001
 40
0.0
 40
0.0
 40
0.0
 40
0.0
 40
0.1686632817186495
 40
0.3767115749582338
 40
0.5719935579711959
 40
0.7526025449303663
 40
0.9154194048188679
 40
1.0
 40
1.0
 40
1.0
 40
1.0
 10
22.16036860266383
 20
11.75245197865067
 30
0.0
 10
22.11305536033434
 20
11.75293458524742
 30
0.0
 10
22.00738063461631
 20
11.75401249319093
 30
0.0
 10
21.84989727951863
 20
11.78522427280159
 30
0.0
 10
21.69521237293287
 20
11.8353486150589
 30
0.0
 10
21.56233385500237
 20
11.89876149594263
 30
0.0
 10
21.46374592482792
 20
11.9586313755518
 30
0.0
 10
21.41724617526677
 20
11.99481851539761
 30
0.0
 10
21.40134877449299
 20
12.00719022643725
 30
0.0
  0
SPLINE
  5
1B3
330
1F
100
AcDbEntity
  8
0
  6
Continuous
 62
     7
370
    25
100
AcDbSpline
210
0.0
220
0.0
230
1.0
 70
     8
 71
     3
 72
    13
 73
     9
 74
     0
 42
0.000000001
 43
0.00000001
 40
0.0
 40
0.0
 40
0.0
 40
0.0
 40
0.054541923230567
 40
0.2307990945046944
 40
0.4332992028650166
 40
0.6522930357630276
 40
0.8851658365611563
 40
1.0
 40
1.0
 40
1.0
 40
1.0
 10
21.40209928007275
 20
-12.0066420480743
 30
0.0
 10
21.41191882205798
 20
-11.99874041956666
 30
0.0
 10
21.45347110449326
 20
-11.96530396194551
 30
0.0
 10
21.5529799538111
 20
-11.90348701627549
 30
0.0
 10
21.69951411385826
 20
-11.83258065253812
 30
0.0
 10
21.87368736854559
 20
-11.77898003723199
 30
0.0
 10
22.0304357929957
 20
-11.75039817815019
 30
0.0
 10
22.1278089739491
 20
-11.7532435805685
 30
0.0
 10
22.15996756991135
 20
-11.7541833069472
 30
0.0
  0
LINE
  5
1B4
330
1F
100
AcDbEntity
  8
0
  6
Continuous
 62
     7
370
    25
100
AcDbLine
 10
5.5493413839
 20
10.4775
 30
0.0
 11
2.2580514213
 21
10.4775
 31
0.0
  0
LINE
  5
1B5
330
1F
100
AcDbEntity
  8
0
  6
Continuous
 62
     7
370
    25
100
AcDbLine
 10
2.2580514213
 20
-10.4775
 30
0.0
 11
5.5493413839
 21
-10.4775
 31
0.0
  0
ARC
  5
1B6
330
1F
100
AcDbEntity
  8
0
  6
Continuous
 62
     7
370
    25
100
AcDbCircle
 10
4.0651883143
 20
-8.75
 30
0.0
 40
2.5
100
AcDbArc
 50
206.7436839504
 51
223.7093197495
  0
ARC
  5
1B7
330
1F
100
AcDbEntity
  8
0
  6
Continuous
 62
     7
370
    25
100
AcDbCircle
 10
4.0651883143
 20
8.75
 30
0.0
 40
2.500000000000001
100
AcDbArc
 50
136.2906802505
 51
153.2563160496
  0
ARC
  5
1B8
330
1F
100
AcDbEntity
  8
0
  6
Continuous
 62
     7
370
    25
100
AcDbCircle
 10
-0.3999544606
 20
-11.0
 30
0.0
 40
2.5
100
AcDbArc
 50
26.7436839504
 51
90.0
  0
ARC
  5
1B9
330
1F
100
AcDbEntity
  8
0
  6
Continuous
 62
     7
370
    25
100
AcDbCircle
 10
-0.3999544606
 20
11.0
 30
0.0
 40
2.5
100
AcDbArc
 50
270.0
 51
333.2563160496
  0
LINE
  5
1BA
330
1F
100
AcDbEntity
  8
0
  6
Continuous
 62
     7
370
    25
100
AcDbLine
 10
-0.3999544606
 20
8.5
 30
0.0
 11
-4.3999544606
 21
8.5
 31
0.0
  0
LINE
  5
1BB
330
1F
100
AcDbEntity
  8
0
  6
Continuous
 62
     7
370
    25
100
AcDbLine
 10
-4.3999544606
 20
-8.5
 30
0.0
 11
-0.3999544606
 21
-8.5
 31
0.0
  0
SPLINE
  5
1BC
330
1F
100
AcDbEntity
  8
0
  6
Continuous
 62
     7
370
    25
100
AcDbSpline
210
0.0
220
0.0
230
1.0
 70
     8
 71
     3
 72
    16
 73
    12
 74
     0
 42
0.000000001
 43
0.00000001
 40
0.0
 40
0.0
 40
0.0
 40
0.0
 40
0.1320247644072306
 40
0.2317995993197778
 40
0.3156168853403656
 40
0.3994283500700866
 40
0.5350262661015859
 40
0.6499051871635348
 40
0.7654149132295868
 40
0.8825124270686536
 40
1.0
 40
1.0
 40
1.0
 40
1.0
 10
6.765475720909755
 20
-11.99999999999999
 30
0.0
 10
6.602397220865499
 20
-11.48267335971603
 30
0.0
 10
6.316075702795378
 20
-10.57438839913556
 30
0.0
 10
6.027161763521153
 20
-9.31657386661932
 30
0.0
 10
5.842826668918604
 20
-8.242195901113153
 30
0.0
 10
5.707624656851637
 20
-7.015952901385783
 30
0.0
 10
5.672444932234119
 20
-5.656842397991482
 30
0.0
 10
5.779774402087063
 20
-4.172197823621151
 30
0.0
 10
6.002581368871236
 20
-2.773428029192707
 30
0.0
 10
6.32849836796593
 20
-1.378939797004871
 30
0.0
 10
6.619655228438614
 20
-0.4601558385867733
 30
0.0
 10
6.765475720909748
 20
0.0000000000000295
 30
0.0
  0
SPLINE
  5
1BD
330
1F
100
AcDbEntity
  8
0
  6
Continuous
 62
     7
370
    25
100
AcDbSpline
210
0.0
220
0.0
230
1.0
 70
    24
 71
     3
 72
    12
 73
     8
 74
     0
 42
0.000000001
 43
0.00000001
 40
0.0
 40
0.0
 40
0.0
 40
0.0
 40
0.2568033721128097
 40
0.4413609216744862
 40
0.6264946146290422
 40
0.8130670804418311
 40
0.9999999999999999
 40
0.9999999999999999
 40
0.9999999999999999
 40
0.9999999999999999
 10
5.693905549272113
 20
-11.99999999999999
 30
0.0
 10
5.708714472815791
 20
-11.99999999999999
 30
0.0
 10
5.734166164086316
 20
-11.99999999999999
 30
0.0
 10
5.909597157270154
 20
-11.99999999999999
 30
0.0
 10
6.13057870944855
 20
-11.99999999999999
 30
0.0
 10
6.414362500259056
 20
-11.99999999999999
 30
0.0
 10
6.648362706230992
 20
-11.99999999999999
 30
0.0
 10
6.765475720909759
 20
-11.99999999999999
 30
0.0
  0
SPLINE
  5
1BE
330
1F
100
AcDbEntity
  8
0
  6
Continuous
 62
     7
370
    25
100
AcDbSpline
210
0.0
220
0.0
230
1.0
 70
    24
 71
     3
 72
    13
 73
     9
 74
     0
 42
0.000000001
 43
0.00000001
 40
0.0
 40
0.0
 40
0.0
 40
0.0
 40
0.1848239244558968
 40
0.3699631874164588
 40
0.5563278026088749
 40
0.7432455722175637
 40
0.9925553113195105
 40
1.0
 40
1.0
 40
1.0
 40
1.0
 10
6.765475720909741
 20
12.00000000000006
 30
0.0
 10
6.649577197038511
 20
12.00000000000006
 30
0.0
 10
6.4175824082984
 20
12.00000000000006
 30
0.0
 10
6.135090937794557
 20
12.00000000000006
 30
0.0
 10
5.90834537447963
 20
12.00000000000005
 30
0.0
 10
5.749425549305982
 20
12.00000000000006
 30
0.0
 10
5.670548169898954
 20
12.00000000000004
 30
0.0
 10
5.69511095075019
 20
12.00000000000005
 30
0.0
 10
5.695823157578106
 20
12.00000000000005
 30
0.0
  0
SPLINE
  5
1BF
330
1F
100
AcDbEntity
  8
0
  6
Continuous
 62
     7
370
    25
100
AcDbSpline
210
0.0
220
0.0
230
1.0
 70
     8
 71
     3
 72
    16
 73
    12
 74
     0
 42
0.000000001
 43
0.00000001
 40
0.0
 40
0.0
 40
0.0
 40
0.0
 40
0.1320247479111874
 40
0.2237695262662816
 40
0.3155048942909713
 40
0.3994284251094595
 40
0.5350263241984632
 40
0.6499052309066844
 40
0.7654149425401909
 40
0.8825124417483236
 40
1.0
 40
1.0
 40
1.0
 40
1.0
 10
6.765475720909745
 20
0.0000000000000295
 30
0.0
 10
6.602333168131878
 20
0.5173188290376025
 30
0.0
 10
6.325821890310449
 20
1.394125572726571
 30
0.0
 10
6.034140146383819
 20
2.650839527624135
 30
0.0
 10
5.84629908412056
 20
3.724866863906976
 30
0.0
 10
5.707713290963017
 20
4.983596358375427
 30
0.0
 10
5.672424469822134
 20
6.343156289766688
 30
0.0
 10
5.779779523923144
 20
7.827802504839063
 30
0.0
 10
6.002579979019363
 20
9.226571881676973
 30
0.0
 10
6.328498718760813
 20
10.62106022549141
 30
0.0
 10
6.61965534549978
 20
11.53984416892031
 30
0.0
 10
6.765475720909738
 20
12.00000000000006
 30
0.0
  0
LINE
  5
1C0
330
1F
100
AcDbEntity
  8
0
  6
Continuous
 62
     7
370
    25
100
AcDbLine
 10
5.5493413839
 20
-11.75
 30
0.0
 11
5.5493413839
 21
11.75
 31
0.0
  0
SPLINE
  5
1C1
330
1F
100
AcDbEntity
  8
0
  6
Continuous
 62
     7
370
    25
100
AcDbSpline
210
0.0
220
0.0
230
1.0
 70
     8
 71
     3
 72
    11
 73
     7
 74
     0
 42
0.000000001
 43
0.00000001
 40
0.0
 40
0.0
 40
0.0
 40
0.0
 40
0.2896312968534341
 40
0.5811875798131659
 40
0.790230497176998
 40
1.0
 40
1.0
 40
1.0
 40
1.0
 10
21.18849746564433
 20
8.618295008206712
 30
0.0
 10
21.25784430265983
 20
8.114408449599306
 30
0.0
 10
21.39699887887652
 20
7.103286334417051
 30
0.0
 10
21.41888985920335
 20
5.717329253286303
 30
0.0
 10
21.34649180818077
 20
4.474215175137252
 30
0.0
 10
21.24122312234795
 20
3.746296001493043
 30
0.0
 10
21.18849746564434
 20
3.381704991793382
 30
0.0
  0
SPLINE
  5
1C2
330
1F
100
AcDbEntity
  8
0
  6
Continuous
 62
     7
370
    25
100
AcDbSpline
210
0.0
220
0.0
230
1.0
 70
     8
 71
     3
 72
    11
 73
     7
 74
     0
 42
0.000000001
 43
0.00000001
 40
0.0
 40
0.0
 40
0.0
 40
0.0
 40
0.1245558271489119
 40
0.3739064841187159
 40
0.7492086610687425
 40
1.0
 40
1.0
 40
1.0
 40
1.0
 10
21.18849746564434
 20
3.381704991793382
 30
0.0
 10
21.16424841956724
 20
3.239398677844829
 30
0.0
 10
21.09145475130251
 20
2.812206672987573
 30
0.0
 10
20.90926890841978
 20
1.961252065204512
 30
0.0
 10
20.64837125502632
 20
0.9752528954607596
 30
0.0
 10
20.42334482643183
 20
0.2789248532539612
 30
0.0
 10
20.33320704686596
 20
0.0000000000000312
 30
0.0
  0
LINE
  5
1C3
330
1F
100
AcDbEntity
  8
0
  6
Continuous
 62
     7
370
    25
100
AcDbLine
 10
20.3332070469
 20
0.0
 30
0.0
 11
6.7654757209
 21
0.0
 31
0.0
  0
LINE
  5
1C4
330
1F
100
AcDbEntity
  8
0
  6
Continuous
 62
     7
370
    25
100
AcDbLine
 10
20.3332070469
 20
12.0
 30
0.0
 11
6.7654757209
 21
12.0
 31
0.0
  0
SPLINE
  5
1C5
330
1F
100
AcDbEntity
  8
0
  6
Continuous
 62
     7
370
    25
100
AcDbSpline
210
0.0
220
0.0
230
1.0
 70
     8
 71
     3
 72
     9
 73
     5
 74
     0
 42
0.000000001
 43
0.00000001
 40
0.0
 40
0.0
 40
0.0
 40
0.0
 40
0.4988470384231441
 40
1.0
 40
1.0
 40
1.0
 40
1.0
 10
20.33320704686596
 20
12.00000000000006
 30
0.0
 10
20.50978304720447
 20
11.4442016622169
 30
0.0
 10
20.86375127140537
 20
10.3300358058052
 30
0.0
 10
21.08008245320435
 20
9.189751743213453
 30
0.0
 10
21.18849746564433
 20
8.618295008206712
 30
0.0
  0
LINE
  5
1C6
330
1F
100
AcDbEntity
  8
0
  6
Continuous
 62
     7
370
    25
100
AcDbLine
 10
21.1884974656
 20
-3.3817049918
 30
0.0
 11
21.1884974656
 21
3.3817049918
 31
0.0
  0
SPLINE
  5
1C7
330
1F
100
AcDbEntity
  8
0
  6
Continuous
 62
     7
370
    25
100
AcDbSpline
210
0.0
220
0.0
230
1.0
 70
     8
 71
     3
 72
    10
 73
     6
 74
     0
 42
0.000000001
 43
0.00000001
 40
0.0
 40
0.0
 40
0.0
 40
0.0
 40
0.3117689808905947
 40
0.6240223618426742
 40
1.0
 40
1.0
 40
1.0
 40
1.0
 10
20.33320704686596
 20
0.0000000000000312
 30
0.0
 10
20.44426411728758
 20
-0.3469621778563895
 30
0.0
 10
20.66655080913827
 20
-1.041425613819634
 30
0.0
 10
20.9639668844176
 20
-2.167927758307816
 30
0.0
 10
21.10917234735359
 20
-2.95288579888514
 30
0.0
 10
21.18849746564434
 20
-3.381704991793312
 30
0.0
  0
SPLINE
  5
1C8
330
1F
100
AcDbEntity
  8
0
  6
Continuous
 62
     7
370
    25
100
AcDbSpline
210
0.0
220
0.0
230
1.0
 70
     8
 71
     3
 72
    11
 73
     7
 74
     0
 42
0.000000001
 43
0.00000001
 40
0.0
 40
0.0
 40
0.0
 40
0.0
 40
0.2896312968534338
 40
0.5811875798131653
 40
0.7902304971769983
 40
1.0
 40
1.0
 40
1.0
 40
1.0
 10
21.18849746564434
 20
-3.381704991793312
 30
0.0
 10
21.25784430265984
 20
-3.885591550400717
 30
0.0
 10
21.39699887887653
 20
-4.896713665582964
 30
0.0
 10
21.41888985920336
 20
-6.282670746713717
 30
0.0
 10
21.34649180818079
 20
-7.525784824862767
 30
0.0
 10
21.24122312234795
 20
-8.253703998506982
 30
0.0
 10
21.18849746564434
 20
-8.618295008206644
 30
0.0
  0
SPLINE
  5
1C9
330
1F
100
AcDbEntity
  8
0
  6
Continuous
 62
     7
370
    25
100
AcDbSpline
210
0.0
220
0.0
230
1.0
 70
     8
 71
     3
 72
    10
 73
     6
 74
     0
 42
0.000000001
 43
0.00000001
 40
0.0
 40
0.0
 40
0.0
 40
0.0
 40
0.2491580587721892
 40
0.6240811857429037
 40
1.0
 40
1.0
 40
1.0
 40
1.0
 10
21.18849746564434
 20
-8.618295008206644
 30
0.0
 10
21.13781394257185
 20
-8.90267994942425
 30
0.0
 10
21.01086387187144
 20
-9.614996027808795
 30
0.0
 10
20.73179501853894
 20
-10.74530114832
 30
0.0
 10
20.46618711114231
 20
-11.58139746855994
 30
0.0
 10
20.33320704686596
 20
-11.99999999999999
 30
0.0
  0
LINE
  5
1CA
330
1F
100
AcDbEntity
  8
0
  6
Continuous
 62
     7
370
    25
100
AcDbLine
 10
20.3332070469
 20
-12.0
 30
0.0
 11
6.7654757209
 21
-12.0
 31
0.0
  0
ARC
  5
1CB
330
1F
100
AcDbEntity
  8
0
  6
Continuous
 62
     7
370
    25
100
AcDbCircle
 10
22.1619036029
 20
6.0353261416
 30
0.0
 40
2.826521663600835
100
AcDbArc
 50
249.8558609029
 51
272.2126105423
  0
LINE
  5
1CC
330
1F
100
AcDbEntity
  8
0
  6
Continuous
 62
     7
370
    25
100
AcDbLine
 10
22.2710292204
 20
3.2109118104
 30
0.0
 11
22.2710292204
 21
-3.2109118104
 31
0.0
  0
ARC
  5
1CD
330
1F
100
AcDbEntity
  8
0
  6
Continuous
 62
     7
370
    25
100
AcDbCircle
 10
22.1619036029
 20
-6.0353261416
 30
0.0
 40
2.826521663601011
100
AcDbArc
 50
87.7873894577
 51
110.1441390971
  0
ARC
  5
1CE
330
1F
100
AcDbEntity
  8
0
  6
Continuous
 62
     7
370
    25
100
AcDbCircle
 10
22.2102954601
 20
9.5957685941
 30
0.0
 40
1.414045880661721
100
AcDbArc
 50
223.7299446481
 51
272.4616308106
  0
SPLINE
  5
1CF
330
1F
100
AcDbEntity
  8
0
  6
Continuous
 62
     7
370
    25
100
AcDbSpline
210
0.0
220
0.0
230
1.0
 70
     8
 71
     3
 72
    15
 73
    11
 74
     0
 42
0.000000001
 43
0.00000001
 40
0.0
 40
0.0
 40
0.0
 40
0.0
 40
0.1109312571802453
 40
0.2218878685175085
 40
0.3342489325819754
 40
0.4465909975315484
 40
0.583572016405895
 40
0.720596026051622
 40
0.8603243244460148
 40
1.0
 40
1.0
 40
1.0
 40
1.0
 10
22.27102922037488
 20
8.183027583549805
 30
0.0
 10
22.26776911278628
 20
8.026609978342398
 30
0.0
 10
22.26124815248743
 20
7.713739017530234
 30
0.0
 10
22.2224751093434
 20
7.213417938030568
 30
0.0
 10
22.181876395175
 20
6.691036053170611
 30
0.0
 10
22.15080788951732
 20
6.10489780667435
 30
0.0
 10
22.15844705761914
 20
5.45397961111127
 30
0.0
 10
22.20001862062497
 20
4.73285669035266
 30
0.0
 10
22.25541537654501
 20
3.98657346868297
 30
0.0
 10
22.26582525929607
 20
3.46943323048748
 30
0.0
 10
22.27102922037488
 20
3.210911810389678
 30
0.0
  0
SPLINE
  5
1D0
330
1F
100
AcDbEntity
  8
0
  6
Continuous
 62
     7
370
    25
100
AcDbSpline
210
0.0
220
0.0
230
1.0
 70
     8
 71
     3
 72
    15
 73
    11
 74
     0
 42
0.000000001
 43
0.00000001
 40
0.0
 40
0.0
 40
0.0
 40
0.0
 40
0.1109312571802446
 40
0.2218878685175074
 40
0.3342489325819739
 40
0.4465909975315469
 40
0.5835720164058936
 40
0.7205960260516212
 40
0.8603243244460144
 40
1.0
 40
1.0
 40
1.0
 40
1.0
 10
22.27102922037488
 20
-3.210911810389607
 30
0.0
 10
22.26776911278628
 20
-3.416466488598194
 30
0.0
 10
22.26124815248743
 20
-3.82762282605317
 30
0.0
 10
22.22247510934339
 20
-4.431895200695885
 30
0.0
 10
22.18187639517502
 20
-5.025692533451361
 30
0.0
 10
22.15080788951731
 20
-5.64957233093321
 30
0.0
 10
22.15844705761915
 20
-6.295058403495657
 30
0.0
 10
22.20001862062498
 20
-6.955415972622511
 30
0.0
 10
22.25541537654501
 20
-7.589747250112072
 30
0.0
 10
22.26582525929607
 20
-7.985292304673282
 30
0.0
 10
22.27102922037488
 20
-8.183027583549746
 30
0.0
  0
ARC
  5
1D1
330
1F
100
AcDbEntity
  8
0
  6
Continuous
 62
     7
370
    25
100
AcDbCircle
 10
22.2102954601
 20
-9.5957685941
 30
0.0
 40
1.414045880661638
100
AcDbArc
 50
87.5383691894
 51
136.2700553519
  0
LINE
  5
1D2
330
1F
100
AcDbEntity
  8
0
  6
Continuous
 62
     7
370
    25
100
AcDbLine
 10
23.3493413839
 20
-11.75
 30
0.0
 11
23.3493413839
 21
11.75
 31
0.0
  0
LINE
  5
1D3
330
1F
100
AcDbEntity
  8
0
  6
Continuous
 62
     7
370
    25
100
AcDbLine
 10
22.2710292204
 20
-8.1830275835
 30
0.0
 11
22.2710292204
 21
-11.3939393939
 31
0.0
  0
LINE
  5
1D4
330
1F
100
AcDbEntity
  8
0
  6
Continuous
 62
     7
370
    25
100
AcDbLine
 10
22.2710292204
 20
11.3939393939
 30
0.0
 11
22.2710292204
 21
8.1830275835
 31
0.0
  0
LINE
  5
1D5
330
1F
100
AcDbEntity
  8
0
  6
Continuous
 62
     7
370
    25
100
AcDbLine
 10
23.5493413839
 20
11.55
 30
0.0
 11
23.5493413839
 21
-11.55
 31
0.0
  0
LINE
  5
1D6
330
1F
100
AcDbEntity
  8
0
  6
Continuous
 62
     7
370
    25
100
AcDbLine
 10
21.1884974656
 20
8.6182950082
 30
0.0
 11
21.1884974656
 21
12.0
 31
0.0
  0
ARC
  5
1D7
330
1F
100
AcDbEntity
  8
0
  6
Continuous
 62
     7
370
    25
100
AcDbCircle
 10
22.2639901005
 20
12.6511934551
 30
0.0
 40
1.257273766365465
100
AcDbArc
 50
211.1942295043
 51
270.3207845254
  0
SPLINE
  5
1D8
330
1F
100
AcDbEntity
  8
0
  6
Continuous
 62
     7
370
    25
100
AcDbSpline
210
0.0
220
0.0
230
1.0
 70
    24
 71
     3
 72
    10
 73
     6
 74
     0
 42
0.000000001
 43
0.00000001
 40
0.0
 40
0.0
 40
0.0
 40
0.0
 40
0.2491626234370816
 40
0.4987154826027834
 40
1.0
 40
1.0
 40
1.0
 40
1.0
 10
21.18849746564433
 20
12.00000000000005
 30
0.0
 10
21.13790861652689
 20
12.00000000000005
 30
0.0
 10
21.03665168659938
 20
12.00000000000005
 30
0.0
 10
20.77088369058977
 20
12.00000000000005
 30
0.0
 10
20.50843002330575
 20
12.00000000000005
 30
0.0
 10
20.33320704686596
 20
12.00000000000006
 30
0.0
  0
LINE
  5
1D9
330
1F
100
AcDbEntity
  8
0
  6
Continuous
 62
     7
370
    25
100
AcDbLine
 10
21.1884974656
 20
-12.0
 30
0.0
 11
21.1884974656
 21
-8.6182950082
 31
0.0
  0
ARC
  5
1DA
330
1F
100
AcDbEntity
  8
0
  6
Continuous
 62
     7
370
    25
100
AcDbCircle
 10
22.2639901005
 20
-12.6511934551
 30
0.0
 40
1.257273766365504
100
AcDbArc
 50
89.6792154746
 51
148.8057704957
  0
SPLINE
  5
1DB
330
1F
100
AcDbEntity
  8
0
  6
Continuous
 62
     7
370
    25
100
AcDbSpline
210
0.0
220
0.0
230
1.0
 70
    24
 71
     3
 72
    10
 73
     6
 74
     0
 42
0.000000001
 43
0.00000001
 40
0.0
 40
0.0
 40
0.0
 40
0.0
 40
0.4987991814870267
 40
0.7492138627281394
 40
1.0
 40
1.0
 40
1.0
 40
1.0
 10
20.33320704686596
 20
-11.99999999999999
 30
0.0
 10
20.50760276279597
 20
-11.99999999999999
 30
0.0
 10
20.76955124391744
 20
-11.99999999999998
 30
0.0
 10
21.03573947985984
 20
-12.0
 30
0.0
 10
21.13755298462958
 20
-11.99999999999999
 30
0.0
 10
21.18849746564434
 20
-12.0
 30
0.0
  0
SPLINE
  5
1DC
330
1F
100
AcDbEntity
  8
0
  6
Continuous
 62
     7
370
    25
100
AcDbSpline
210
0.0
220
0.0
230
1.0
 70
    24
 71
     3
 72
    10
 73
     6
 74
     0
 42
0.000000001
 43
0.00000001
 40
0.0
 40
0.0
 40
0.0
 40
0.0
 40
0.2246889913413098
 40
0.5985282402199998
 40
1.0
 40
1.0
 40
1.0
 40
1.0
 10
21.39590857780762
 20
12.00000000000005
 30
0.0
 10
21.39875027452398
 20
12.00000000000005
 30
0.0
 10
21.40632000780168
 20
12.00000000000006
 30
0.0
 10
21.34315262827096
 20
12.00000000000005
 30
0.0
 10
21.24125969327379
 20
12.00000000000005
 30
0.0
 10
21.18849746564433
 20
12.00000000000005
 30
0.0
  0
SPLINE
  5
1DD
330
1F
100
AcDbEntity
  8
0
  6
Continuous
 62
     7
370
    25
100
AcDbSpline
210
0.0
220
0.0
230
1.0
 70
    24
 71
     3
 72
    10
 73
     6
 74
     0
 42
0.000000001
 43
0.00000001
 40
0.0
 40
0.0
 40
0.0
 40
0.0
 40
0.4535570473358089
 40
0.8692599920734982
 40
1.0
 40
1.0
 40
1.0
 40
1.0
 10
21.18849746564435
 20
-12.0
 30
0.0
 10
21.24087428373486
 20
-12.0
 30
0.0
 10
21.3412565239528
 20
-11.99999999999999
 30
0.0
 10
21.40166368679966
 20
-12.0
 30
0.0
 10
21.39780530017477
 20
-12.0
 30
0.0
 10
21.39688215623914
 20
-12.0
 30
0.0
  0
CIRCLE
  5
1DE
330
1F
100
AcDbEntity
  8
0
  6
Continuous
 62
     7
370
    25
100
AcDbCircle
 10
-12.8999544606
 20
0.0
 30
0.0
 40
10.30676222727977
  0
CIRCLE
  5
1DF
330
1F
100
AcDbEntity
  8
0
  6
Continuous
 62
     7
370
    25
100
AcDbCircle
 10
-12.8999544606
 20
0.0
 30
0.0
 40
8.750000000000004
  0
CIRCLE
  5
1E0
330
1F
100
AcDbEntity
  8
0
  6
Continuous
 62
     7
370
    25
100
AcDbCircle
 10
-12.8999544606
 20
0.0
 30
0.0
 40
6.999999999999993
  0
CIRCLE
  5
1E1
330
1F
100
AcDbEntity
  8
0
  6
Continuous
 62
     7
370
    25
100
AcDbCircle
 10
-12.8999544606
 20
0.0
 30
0.0
 40
6.499999999999993
  0
CIRCLE
  5
1E2
330
1F
100
AcDbEntity
  8
0
  6
Continuous
 62
     7
370
    25
100
AcDbCircle
 10
-12.8999544606
 20
0.0
 30
0.0
 40
10.6493869232919
  0
LINE
  5
1E3
330
1F
100
AcDbEntity
  8
0
  6
Continuous
 62
     7
370
    25
100
AcDbLine
 10
2.2580514213
 20
-10.4775
 30
0.0
 11
2.2580514213
 21
10.4775
 31
0.0
  0
SPLINE
  5
1E4
330
1F
100
AcDbEntity
  8
0
  6
Continuous
 62
     7
370
    25
100
AcDbSpline
210
0.0
220
0.0
230
1.0
 70
    24
 71
     3
 72
     8
 73
     4
 74
     0
 42
0.000000001
 43
0.00000001
 40
0.0
 40
0.0
 40
0.0
 40
0.0
 40
1.0
 40
1.0
 40
1.0
 40
1.0
 10
-4.399954460595958
 20
-7.999999999999969
 30
0.0
 10
-4.399954460595958
 20
-8.330026253614784
 30
0.0
 10
-4.399954460595958
 20
-8.49999999999997
 30
0.0
 10
-4.399954460595958
 20
-8.49999999999997
 30
0.0
  0
SPLINE
  5
1E5
330
1F
100
AcDbEntity
  8
0
  6
Continuous
 62
     7
370
    25
100
AcDbSpline
210
0.0
220
0.0
230
1.0
 70
    24
 71
     3
 72
     8
 73
     4
 74
     0
 42
0.000000001
 43
0.00000001
 40
0.0
 40
0.0
 40
0.0
 40
0.0
 40
1.0
 40
1.0
 40
1.0
 40
1.0
 10
-4.399954460595958
 20
8.500000000000032
 30
0.0
 10
-4.399954460595958
 20
8.500000000000032
 30
0.0
 10
-4.399954460595958
 20
8.330026253614848
 30
0.0
 10
-4.399954460595958
 20
8.000000000000034
 30
0.0
  0
ARC
  5
1E6
330
1F
100
AcDbEntity
  8
0
  6
Continuous
 62
     7
370
    25
100
AcDbCircle
 10
-6.3999544606
 20
-8.0
 30
0.0
 40
0.5000000000000009
100
AcDbArc
 50
270.0
 51
357.0025302101
  0
LINE
  5
1E7
330
1F
100
AcDbEntity
  8
0
  6
Continuous
 62
     7
370
    25
100
AcDbLine
 10
-6.4843919878
 20
-8.5
 30
0.0
 11
-6.3999544606
 21
-8.5
 31
0.0
  0
LINE
  5
1E8
330
1F
100
AcDbEntity
  8
0
  6
Continuous
 62
     7
370
    25
100
AcDbLine
 10
-19.3155169334
 20
8.5
 30
0.0
 11
-19.3999544606
 21
8.5
 31
0.0
  0
LINE
  5
1E9
330
1F
100
AcDbEntity
  8
0
  6
Continuous
 62
     7
370
    25
100
AcDbLine
 10
-19.3999544606
 20
-8.5
 30
0.0
 11
-19.3155169334
 21
-8.5
 31
0.0
  0
ARC
  5
1EA
330
1F
100
AcDbEntity
  8
0
  6
Continuous
 62
     7
370
    25
100
AcDbCircle
 10
-6.3999544606
 20
8.0
 30
0.0
 40
0.5
100
AcDbArc
 50
2.9974697899
 51
90.0
  0
LINE
  5
1EB
330
1F
100
AcDbEntity
  8
0
  6
Continuous
 62
     7
370
    25
100
AcDbLine
 10
-6.3999544606
 20
8.5
 30
0.0
 11
-6.4843919878
 21
8.5
 31
0.0
  0
ARC
  5
1EC
330
1F
100
AcDbEntity
  8
0
  6
Continuous
 62
     7
370
    25
100
AcDbCircle
 10
-19.3999544606
 20
8.0
 30
0.0
 40
0.5
100
AcDbArc
 50
90.0
 51
177.0025302101
  0
ARC
  5
1ED
330
1F
100
AcDbEntity
  8
0
  6
Continuous
 62
     7
370
    25
100
AcDbCircle
 10
-19.3999544606
 20
-8.0
 30
0.0
 40
0.5000000000000022
100
AcDbArc
 50
182.9974697899
 51
270.0
  0
LINE
  5
1EE
330
1F
100
AcDbEntity
  8
0
  6
Continuous
 62
     7
370
    25
100
AcDbLine
 10
-4.8999544606
 20
8.5
 30
0.0
 11
-4.8999544606
 21
8.0
 31
0.0
  0
LINE
  5
1EF
330
1F
100
AcDbEntity
  8
0
  6
Continuous
 62
     7
370
    25
100
AcDbLine
 10
-4.8999544606
 20
8.5
 30
0.0
 11
-6.3999544606
 21
8.5
 31
0.0
  0
LINE
  5
1F0
330
1F
100
AcDbEntity
  8
0
  6
Continuous
 62
     7
370
    25
100
AcDbLine
 10
-4.8999544606
 20
-8.5
 30
0.0
 11
-4.8999544606
 21
-8.0
 31
0.0
  0
LINE
  5
1F1
330
1F
100
AcDbEntity
  8
0
  6
Continuous
 62
     7
370
    25
100
AcDbLine
 10
-6.3999544606
 20
-8.5
 30
0.0
 11
-4.8999544606
 21
-8.5
 31
0.0
  0
ARC
  5
1F2
330
1F
100
AcDbEntity
  8
0
  6
Continuous
 62
     7
370
    25
100
AcDbCircle
 10
-4.8999544606
 20
8.0
 30
0.0
 40
0.5000000000000009
100
AcDbArc
 50
0.0
 51
90.0
  0
LINE
  5
1F3
330
1F
100
AcDbEntity
  8
0
  6
Continuous
 62
     7
370
    25
100
AcDbLine
 10
-4.8999544606
 20
8.0
 30
0.0
 11
-4.3999544606
 21
8.0
 31
0.0
  0
LINE
  5
1F4
330
1F
100
AcDbEntity
  8
0
  6
Continuous
 62
     7
370
    25
100
AcDbLine
 10
-4.3999544606
 20
6.4155624728
 30
0.0
 11
-4.3999544606
 21
8.0
 31
0.0
  0
LINE
  5
1F5
330
1F
100
AcDbEntity
  8
0
  6
Continuous
 62
     7
370
    25
100
AcDbLine
 10
-4.3999544606
 20
-8.0
 30
0.0
 11
-4.3999544606
 21
-6.4155624728
 31
0.0
  0
LINE
  5
1F6
330
1F
100
AcDbEntity
  8
0
  6
Continuous
 62
     7
370
    25
100
AcDbLine
 10
-4.8999544606
 20
-8.0
 30
0.0
 11
-4.3999544606
 21
-8.0
 31
0.0
  0
ARC
  5
1F7
330
1F
100
AcDbEntity
  8
0
  6
Continuous
 62
     7
370
    25
100
AcDbCircle
 10
-4.8999544606
 20
-8.0
 30
0.0
 40
0.5000000000000009
100
AcDbArc
 50
270.0
 51
0.0
  0
SPLINE
  5
1F8
330
1F
100
AcDbEntity
  8
0
  6
Continuous
 62
     7
370
    25
100
AcDbSpline
210
0.0
220
0.0
230
1.0
 70
     8
 71
     3
 72
    52
 73
    48
 74
     0
 42
0.000000001
 43
0.00000001
 40
0.0
 40
0.0
 40
0.0
 40
0.0
 40
0.1249999999999998
 40
0.1249999999999998
 40
0.1874999999999996
 40
0.1874999999999996
 40
0.2499999999999994
 40
0.2499999999999994
 40
0.2812499999999993
 40
0.2812499999999993
 40
0.3124999999999993
 40
0.3124999999999993
 40
0.3281249999999993
 40
0.3281249999999993
 40
0.3437499999999993
 40
0.3437499999999993
 40
0.3749999999999993
 40
0.3749999999999993
 40
0.4062499999999993
 40
0.4062499999999993
 40
0.4374999999999993
 40
0.4374999999999993
 40
0.4687499999999993
 40
0.4687499999999993
 40
0.4999999999999993
 40
0.4999999999999993
 40
0.5624999999999993
 40
0.5624999999999993
 40
0.5937499999999993
 40
0.5937499999999993
 40
0.6249999999999994
 40
0.6249999999999994
 40
0.6562499999999994
 40
0.6562499999999994
 40
0.6718749999999994
 40
0.6718749999999994
 40
0.6874999999999994
 40
0.6874999999999994
 40
0.7187499999999994
 40
0.7187499999999994
 40
0.7499999999999994
 40
0.7499999999999994
 40
0.8124999999999997
 40
0.8124999999999997
 40
0.8749999999999998
 40
0.8749999999999998
 40
1.0
 40
1.0
 40
1.0
 40
1.0
 10
-8.290182231949515
 20
-4.582575694955805
 30
0.0
 10
-8.858313727311382
 20
-4.452951038678456
 30
0.0
 10
-9.418123665088968
 20
-4.291350120048651
 30
0.0
 10
-10.23801721563209
 20
-3.981887119136884
 30
0.0
 10
-10.50832011901189
 20
-3.867367872876457
 30
0.0
 10
-11.0366022807477
 20
-3.606883678523092
 30
0.0
 10
-11.29321082958652
 20
-3.463336153572971
 30
0.0
 10
-11.64865379080635
 20
-3.207179688562731
 30
0.0
 10
-11.76332386209558
 20
-3.114072681601128
 30
0.0
 10
-11.96207320950672
 20
-2.904327593296334
 30
0.0
 10
-12.04813839005072
 20
-2.784850175758506
 30
0.0
 10
-12.10624208788655
 20
-2.580733474809215
 30
0.0
 10
-12.11298879991237
 20
-2.508560700293681
 30
0.0
 10
-12.10274321439736
 20
-2.365213857887893
 30
0.0
 10
-12.08616592654071
 20
-2.292339582121958
 30
0.0
 10
-12.01957463134761
 20
-2.08010699788615
 30
0.0
 10
-11.95455876496814
 20
-1.942819021672936
 30
0.0
 10
-11.82382880489373
 20
-1.663450966415998
 30
0.0
 10
-11.75670745341605
 20
-1.521219595169663
 30
0.0
 10
-11.63489511370144
 20
-1.230706065982641
 30
0.0
 10
-11.57985877025837
 20
-1.082474398910714
 30
0.0
 10
-11.48852942045046
 20
-0.7778481591594067
 30
0.0
 10
-11.45213548474606
 20
-0.6214825916579629
 30
0.0
 10
-11.40327254811875
 20
-0.298690047905793
 30
0.0
 10
-11.39138603068873
 20
-0.1339268391648742
 30
0.0
 10
-11.3960150926289
 20
0.353944585820256
 30
0.0
 10
-11.45504183806332
 20
0.6814468385403737
 30
0.0
 10
-11.59949808708037
 20
1.138015904570777
 30
0.0
 10
-11.65665040665237
 20
1.285787322677696
 30
0.0
 10
-11.78130051600455
 20
1.575164775537
 30
0.0
 10
-11.84917314956713
 20
1.716654771614243
 30
0.0
 10
-11.97885696437239
 20
1.996075810221572
 30
0.0
 10
-12.04254877899275
 20
2.13531665814335
 30
0.0
 10
-12.09868474635119
 20
2.34755851088944
 30
0.0
 10
-12.11026950739064
 20
2.420057810685877
 30
0.0
 10
-12.10884761604503
 20
2.561675634083506
 30
0.0
 10
-12.09562136452162
 20
2.631416939962808
 30
0.0
 10
-12.02125458603085
 20
2.829255531076946
 30
0.0
 10
-11.92998642543962
 20
2.943275366018297
 30
0.0
 10
-11.72774960982621
 20
3.144403093814089
 30
0.0
 10
-11.61432727625436
 20
3.233746573421902
 30
0.0
 10
-11.25747503123287
 20
3.484476726762443
 30
0.0
 10
-11.00375164288558
 20
3.62432805528167
 30
0.0
 10
-10.48543238963268
 20
3.877264623887993
 30
0.0
 10
-10.21970977056044
 20
3.989247009074486
 30
0.0
 10
-9.409859148386392
 20
4.293531250578838
 30
0.0
 10
-8.852348802361101
 20
4.454311993585462
 30
0.0
 10
-8.290182231949519
 20
4.582575694955867
 30
0.0
  0
SPLINE
  5
1F9
330
1F
100
AcDbEntity
  8
0
  6
Continuous
 62
     7
370
    25
100
AcDbSpline
210
0.0
220
0.0
230
1.0
 70
    24
 71
     3
 72
    10
 73
     6
 74
     0
 42
0.000000001
 43
0.00000001
 40
-0.2904940295525288
 40
-0.2904940295525288
 40
-0.2904940295525288
 40
-0.2904940295525288
 40
-0.1303072746364131
 40
-0.1303072746364131
 40
0.0010563617272233
 40
0.0010563617272233
 40
0.0010563617272233
 40
0.0010563617272233
 10
-4.399954460595958
 20
8.500000000000032
 30
0.0
 10
-4.529457776349617
 20
8.500000000000032
 30
0.0
 10
-4.661248754535461
 20
8.500000000000034
 30
0.0
 10
-4.839672693960642
 20
8.500000000000034
 30
0.0
 10
-4.899954460595959
 20
8.500000000000032
 30
0.0
 10
-4.899954460595959
 20
8.500000000000032
 30
0.0
  0
SPLINE
  5
1FA
330
1F
100
AcDbEntity
  8
0
  6
Continuous
 62
     7
370
    25
100
AcDbSpline
210
0.0
220
0.0
230
1.0
 70
    24
 71
     3
 72
    10
 73
     6
 74
     0
 42
0.000000001
 43
0.00000001
 40
-0.8711658421011628
 40
-0.8711658421011628
 40
-0.8711658421011628
 40
-0.8711658421011628
 40
-0.739802205737527
 40
-0.739802205737527
 40
-0.579615450786466
 40
-0.579615450786466
 40
-0.579615450786466
 40
-0.579615450786466
 10
-4.899954460595959
 20
-8.49999999999997
 30
0.0
 10
-4.899954460595959
 20
-8.49999999999997
 30
0.0
 10
-4.839672693960638
 20
-8.49999999999997
 30
0.0
 10
-4.661248754514076
 20
-8.49999999999997
 30
0.0
 10
-4.52945777637801
 20
-8.49999999999997
 30
0.0
 10
-4.399954460595958
 20
-8.49999999999997
 30
0.0
  0
SPLINE
  5
1FB
330
1F
100
AcDbEntity
  8
0
  6
Continuous
 62
     7
370
    25
100
AcDbSpline
210
0.0
220
0.0
230
1.0
 70
     8
 71
     3
 72
     8
 73
     4
 74
     0
 42
0.000000001
 43
0.00000001
 40
0.0
 40
0.0
 40
0.0
 40
0.0
 40
1.0
 40
1.0
 40
1.0
 40
1.0
 10
-13.89995446059598
 20
-2.968381845513239
 30
0.0
 10
-13.93411724765103
 20
-2.587595773308718
 30
0.0
 10
-13.93415215466706
 20
-2.206826548342706
 30
0.0
 10
-13.89995446059596
 20
-1.826159180005294
 30
0.0
  0
SPLINE
  5
1FC
330
1F
100
AcDbEntity
  8
0
  6
Continuous
 62
     7
370
    25
100
AcDbSpline
210
0.0
220
0.0
230
1.0
 70
     8
 71
     3
 72
    14
 73
    10
 74
     0
 42
0.000000001
 43
0.00000001
 40
0.0
 40
0.0
 40
0.0
 40
0.0
 40
0.25
 40
0.25
 40
0.5
 40
0.5
 40
0.75
 40
0.75
 40
1.0
 40
1.0
 40
1.0
 40
1.0
 10
-13.89995446059596
 20
-1.826159180005293
 30
0.0
 10
-13.85373757037157
 20
-1.925191851539589
 30
0.0
 10
-13.80849145642263
 20
-2.023325500742454
 30
0.0
 10
-13.73292512230402
 20
-2.221160168251317
 30
0.0
 10
-13.7022578456223
 20
-2.322706511144091
 30
0.0
 10
-13.68401163752684
 20
-2.524133198214237
 30
0.0
 10
-13.69899784775349
 20
-2.625450782803083
 30
0.0
 10
-13.7746650238433
 20
-2.808588610735954
 30
0.0
 10
-13.83344677044436
 20
-2.892594998652212
 30
0.0
 10
-13.89995446059574
 20
-2.968381845513259
 30
0.0
  0
SPLINE
  5
1FD
330
1F
100
AcDbEntity
  8
0
  6
Continuous
 62
     7
370
    25
100
AcDbSpline
210
0.0
220
0.0
230
1.0
 70
     8
 71
     3
 72
     8
 73
     4
 74
     0
 42
0.000000001
 43
0.00000001
 40
0.0
 40
0.0
 40
0.0
 40
0.0
 40
1.0
 40
1.0
 40
1.0
 40
1.0
 10
-13.899954460596
 20
1.826159180005822
 30
0.0
 10
-13.93415215466706
 20
2.206826548343168
 30
0.0
 10
-13.93411724765102
 20
2.587595773309115
 30
0.0
 10
-13.89995446059596
 20
2.968381845513573
 30
0.0
  0
SPLINE
  5
1FE
330
1F
100
AcDbEntity
  8
0
  6
Continuous
 62
     7
370
    25
100
AcDbSpline
210
0.0
220
0.0
230
1.0
 70
     8
 71
     3
 72
    14
 73
    10
 74
     0
 42
0.000000001
 43
0.00000001
 40
0.0
 40
0.0
 40
0.0
 40
0.0
 40
0.25
 40
0.25
 40
0.5
 40
0.5
 40
0.75
 40
0.75
 40
1.0
 40
1.0
 40
1.0
 40
1.0
 10
-13.89995446059596
 20
2.968381845513574
 30
0.0
 10
-13.83281831926814
 20
2.891878865932273
 30
0.0
 10
-13.77512615035941
 20
2.809640183915837
 30
0.0
 10
-13.69866203774752
 20
2.624702408453089
 30
0.0
 10
-13.68392362342784
 20
2.524517796454736
 30
0.0
 10
-13.70241401444645
 20
2.321571701788926
 30
0.0
 10
-13.73259678102615
 20
2.22206179942317
 30
0.0
 10
-13.80860194506406
 20
2.022994333787207
 30
0.0
 10
-13.85387195508239
 20
1.924903894543015
 30
0.0
 10
-13.89995446059594
 20
1.826159180005863
 30
0.0
  0
LINE
  5
1FF
330
1F
100
AcDbEntity
  8
0
  6
Continuous
 62
     7
370
    25
100
AcDbLine
 10
-13.8999544606
 20
-2.9683818455
 30
0.0
 11
-13.8999544606
 21
-1.82615918
 31
0.0
  0
LINE
  5
200
330
1F
100
AcDbEntity
  8
0
  6
Continuous
 62
     7
370
    25
100
AcDbLine
 10
-13.8999544606
 20
1.82615918
 30
0.0
 11
-13.8999544606
 21
2.9683818455
 31
0.0
  0
SPLINE
  5
201
330
1F
100
AcDbEntity
  8
0
  6
Continuous
 62
     1
370
    25
100
AcDbSpline
210
0.0
220
0.0
230
1.0
 70
     8
 71
     3
 72
    12
 73
     8
 74
     0
 42
0.000000001
 43
0.00000001
 40
0.0
 40
0.0
 40
0.0
 40
0.0
 40
0.2214157654634545
 40
0.4437541178549269
 40
0.6680754548911915
 40
0.8931384548904768
 40
1.0
 40
1.0
 40
1.0
 40
1.0
 10
22.27102922037488
 20
-11.39393939393938
 30
0.0
 10
22.26785416418195
 20
-11.44295978625212
 30
0.0
 10
22.26149082209074
 20
-11.54120482721435
 30
0.0
 10
22.22226136524475
 20
-11.64562193962754
 30
0.0
 10
22.1827403435359
 20
-11.71509483909178
 30
0.0
 10
22.15466857743522
 20
-11.75047250252102
 30
0.0
 10
22.15873309977444
 20
-11.74529753373591
 30
0.0
 10
22.16004165361205
 20
-11.74363147689131
 30
0.0
  0
SPLINE
  5
202
330
1F
100
AcDbEntity
  8
0
  6
Continuous
 62
     1
370
    25
100
AcDbSpline
210
0.0
220
0.0
230
1.0
 70
     8
 71
     3
 72
    11
 73
     7
 74
     0
 42
0.000000001
 43
0.00000001
 40
0.0
 40
0.0
 40
0.0
 40
0.0
 40
0.1662360229812971
 40
0.4411727365363976
 40
0.7198462192821724
 40
1.0
 40
1.0
 40
1.0
 40
1.0
 10
22.16004165361286
 20
11.74363147689037
 30
0.0
 10
22.15967116236397
 20
11.74423728857895
 30
0.0
 10
22.15868791796724
 20
11.74584504841154
 30
0.0
 10
22.2014639521328
 20
11.68693799328558
 30
0.0
 10
22.25536461244308
 20
11.57688908877154
 30
0.0
 10
22.26579847152066
 20
11.45503022435074
 30
0.0
 10
22.27102922037488
 20
11.39393939393943
 30
0.0
  0
LINE
  5
203
330
1F
100
AcDbEntity
  8
0
  6
Continuous
 62
     1
370
    25
100
AcDbLine
 10
1.8326169268
 20
0.0
 30
0.0
 11
1.8326169268
 21
-9.875
 31
0.0
  0
LINE
  5
204
330
1F
100
AcDbEntity
  8
0
  6
Continuous
 62
     1
370
    25
100
AcDbLine
 10
1.8326169268
 20
9.875
 30
0.0
 11
1.8326169268
 21
0.0
 31
0.0
  0
LINE
  5
205
330
1F
100
AcDbEntity
  8
0
  6
Continuous
 62
     1
370
    25
100
AcDbLine
 10
-0.3999544606
 20
0.0
 30
0.0
 11
-0.3999544606
 21
-8.5
 31
0.0
  0
LINE
  5
206
330
1F
100
AcDbEntity
  8
0
  6
Continuous
 62
     1
370
    25
100
AcDbLine
 10
-0.3999544606
 20
8.5
 30
0.0
 11
-0.3999544606
 21
0.0
 31
0.0
  0
LINE
  5
207
330
1F
100
AcDbEntity
  8
0
  6
Continuous
 62
     1
370
    25
100
AcDbLine
 10
-19.3999544606
 20
8.5
 30
0.0
 11
-19.3999544606
 21
8.4356056002
 31
0.0
  0
LINE
  5
208
330
1F
100
AcDbEntity
  8
0
  6
Continuous
 62
     1
370
    25
100
AcDbLine
 10
-19.3999544606
 20
-8.4356056002
 30
0.0
 11
-19.3999544606
 21
-8.5
 31
0.0
  0
LINE
  5
209
330
1F
100
AcDbEntity
  8
0
  6
Continuous
 62
     1
370
    25
100
AcDbLine
 10
-4.8999544606
 20
7.0291850055
 30
0.0
 11
-4.8999544606
 21
8.0
 31
0.0
  0
LINE
  5
20A
330
1F
100
AcDbEntity
  8
0
  6
Continuous
 62
     1
370
    25
100
AcDbLine
 10
-5.8707694551
 20
8.0
 30
0.0
 11
-4.8999544606
 21
8.0
 31
0.0
  0
LINE
  5
20B
330
1F
100
AcDbEntity
  8
0
  6
Continuous
 62
     1
370
    25
100
AcDbLine
 10
-4.8999544606
 20
-8.0
 30
0.0
 11
-4.8999544606
 21
-7.0291850055
 31
0.0
  0
LINE
  5
20C
330
1F
100
AcDbEntity
  8
0
  6
Continuous
 62
     1
370
    25
100
AcDbLine
 10
-4.8999544606
 20
-8.0
 30
0.0
 11
-5.8707694551
 21
-8.0
 31
0.0
  0
ENDSEC
  0
SECTION
  2
OBJECTS
  0
DICTIONARY
  5
C
330
0
100
AcDbDictionary
281
     1
  3
ACAD_GROUP
350
D
  3
ACAD_LAYOUT
350
1A
  3
ACAD_MLINESTYLE
350
17
  3
ACAD_PLOTSETTINGS
350
19
  3
ACAD_PLOTSTYLENAME
350
E
  3
ACAD_SCALELIST
350
47
  0
DICTIONARY
  5
D
102
{ACAD_REACTORS
330
C
102
}
330
C
100
AcDbDictionary
281
     1
  0
DICTIONARY
  5
1A
102
{ACAD_REACTORS
330
C
102
}
330
C
100
AcDbDictionary
281
     1
  3
Layout1
350
1E
  3
Layout2
350
26
  3
Model
350
22
  0
DICTIONARY
  5
17
102
{ACAD_REACTORS
330
C
102
}
330
C
100
AcDbDictionary
281
     1
  3
Standard
350
18
  0
DICTIONARY
  5
19
102
{ACAD_REACTORS
330
C
102
}
330
C
100
AcDbDictionary
281
     1
  0
ACDBDICTIONARYWDFLT
  5
E
102
{ACAD_REACTORS
330
C
102
}
330
C
100
AcDbDictionary
281
     1
  3
Normal
350
F
100
AcDbDictionaryWithDefault
340
F
  0
DICTIONARY
  5
47
102
{ACAD_REACTORS
330
C
102
}
330
C
100
AcDbDictionary
281
     1
  3
A0
350
48
  3
A1
350
49
  3
A2
350
4A
  3
A3
350
4B
  3
A4
350
4C
  3
A5
350
4D
  3
A6
350
4E
  3
A7
350
4F
  3
A8
350
50
  3
A9
350
51
  3
B0
350
52
  3
B1
350
53
  3
B2
350
54
  3
B3
350
55
  3
B4
350
56
  3
B5
350
57
  3
B6
350
58
  3
B7
350
59
  3
B8
350
5A
  3
B9
350
5B
  3
C0
350
5C
  3
C1
350
5D
  3
C2
350
5E
  3
C3
350
5F
  3
C4
350
60
  3
C5
350
61
  3
C6
350
62
  3
C7
350
63
  3
C8
350
64
  3
C9
350
65
  3
D0
350
66
  3
D1
350
67
  3
D2
350
68
  0
LAYOUT
  5
1E
102
{ACAD_REACTORS
330
1A
102
}
330
1A
100
AcDbPlotSettings
  1

  2
none_device
  4

  6

 40
0.0
 41
0.0
 42
0.0
 43
0.0
 44
0.0
 45
0.0
 46
0.0
 47
0.0
 48
0.0
 49
0.0
140
0.0
141
0.0
142
1.0
143
1.0
 70
   688
 72
     1
 73
     0
 74
     5
  7

 75
    16
147
1.0
148
0.0
149
0.0
100
AcDbLayout
  1
Layout1
 70
     1
 71
     1
 10
0.0
 20
0.0
 11
420.0
 21
297.0
 12
0.0
 22
0.0
 32
0.0
 14
1.0000000000E+20
 24
1.0000000000E+20
 34
1.0000000000E+20
 15
-1.0000000000E+20
 25
-1.0000000000E+20
 35
-1.0000000000E+20
146
0.0
 13
0.0
 23
0.0
 33
0.0
 16
1.0
 26
0.0
 36
0.0
 17
0.0
 27
1.0
 37
0.0
 76
     0
330
1B
  0
LAYOUT
  5
26
102
{ACAD_REACTORS
330
1A
102
}
330
1A
100
AcDbPlotSettings
  1

  2
none_device
  4

  6

 40
0.0
 41
0.0
 42
0.0
 43
0.0
 44
0.0
 45
0.0
 46
0.0
 47
0.0
 48
0.0
 49
0.0
140
0.0
141
0.0
142
1.0
143
1.0
 70
   688
 72
     1
 73
     0
 74
     5
  7

 75
    16
147
1.0
148
0.0
149
0.0
100
AcDbLayout
  1
Layout2
 70
     1
 71
     2
 10
0.0
 20
0.0
 11
0.0
 21
0.0
 12
0.0
 22
0.0
 32
0.0
 14
0.0
 24
0.0
 34
0.0
 15
0.0
 25
0.0
 35
0.0
146
0.0
 13
0.0
 23
0.0
 33
0.0
 16
1.0
 26
0.0
 36
0.0
 17
0.0
 27
1.0
 37
0.0
 76
     0
330
23
  0
LAYOUT
  5
22
102
{ACAD_REACTORS
330
1A
102
}
330
1A
100
AcDbPlotSettings
  1

  2
none_device
  4
Letter_(8.50_x_11.00_Inches)
  6

 40
6.35
 41
6.35
 42
6.35000508
 43
6.35000508
 44
215.9
 45
279.4
 46
0.0
 47
0.0
 48
0.0
 49
0.0
140
0.0
141
0.0
142
1.0
143
1.0
 70
  1712
 72
     1
 73
     0
 74
     0
  7

 75
     0
147
1.0
148
0.0
149
0.0
100
AcDbLayout
  1
Model
 70
     1
 71
     0
 10
0.0
 20
0.0
 11
431.8
 21
279.4
 12
0.0
 22
0.0
 32
0.0
 14
0.0
 24
0.0
 34
0.0
 15
431.8
 25
279.4
 35
0.0
146
0.0
 13
0.0
 23
0.0
 33
0.0
 16
1.0
 26
0.0
 36
0.0
 17
0.0
 27
1.0
 37
0.0
 76
     0
330
1F
331
29
  0
MLINESTYLE
  5
18
102
{ACAD_REACTORS
330
17
102
}
330
17
100
AcDbMlineStyle
  2
Standard
 70
     0
  3

 62
   256
 51
90.0
 52
90.0
 71
     2
 49
0.5
 62
   256
  6
BYLAYER
 49
-0.5
 62
   256
  6
BYLAYER
  0
ACDBPLACEHOLDER
  5
F
102
{ACAD_REACTORS
330
E
102
}
330
E
  0
SCALE
  5
48
102
{ACAD_REACTORS
330
47
102
}
330
47
100
AcDbScale
 70
     0
300
1:1
140
1.0
141
1.0
290
     1
  0
SCALE
  5
49
102
{ACAD_REACTORS
330
47
102
}
330
47
100
AcDbScale
 70
     0
300
1:2
140
1.0
141
2.0
290
     0
  0
SCALE
  5
4A
102
{ACAD_REACTORS
330
47
102
}
330
47
100
AcDbScale
 70
     0
300
1:4
140
1.0
141
4.0
290
     0
  0
SCALE
  5
4B
102
{ACAD_REACTORS
330
47
102
}
330
47
100
AcDbScale
 70
     0
300
1:5
140
1.0
141
5.0
290
     0
  0
SCALE
  5
4C
102
{ACAD_REACTORS
330
47
102
}
330
47
100
AcDbScale
 70
     0
300
1:8
140
1.0
141
8.0
290
     0
  0
SCALE
  5
4D
102
{ACAD_REACTORS
330
47
102
}
330
47
100
AcDbScale
 70
     0
300
1:10
140
1.0
141
10.0
290
     0
  0
SCALE
  5
4E
102
{ACAD_REACTORS
330
47
102
}
330
47
100
AcDbScale
 70
     0
300
1:16
140
1.0
141
16.0
290
     0
  0
SCALE
  5
4F
102
{ACAD_REACTORS
330
47
102
}
330
47
100
AcDbScale
 70
     0
300
1:20
140
1.0
141
20.0
290
     0
  0
SCALE
  5
50
102
{ACAD_REACTORS
330
47
102
}
330
47
100
AcDbScale
 70
     0
300
1:30
140
1.0
141
30.0
290
     0
  0
SCALE
  5
51
102
{ACAD_REACTORS
330
47
102
}
330
47
100
AcDbScale
 70
     0
300
1:40
140
1.0
141
40.0
290
     0
  0
SCALE
  5
52
102
{ACAD_REACTORS
330
47
102
}
330
47
100
AcDbScale
 70
     0
300
1:50
140
1.0
141
50.0
290
     0
  0
SCALE
  5
53
102
{ACAD_REACTORS
330
47
102
}
330
47
100
AcDbScale
 70
     0
300
1:100
140
1.0
141
100.0
290
     0
  0
SCALE
  5
54
102
{ACAD_REACTORS
330
47
102
}
330
47
100
AcDbScale
 70
     0
300
2:1
140
2.0
141
1.0
290
     0
  0
SCALE
  5
55
102
{ACAD_REACTORS
330
47
102
}
330
47
100
AcDbScale
 70
     0
300
4:1
140
4.0
141
1.0
290
     0
  0
SCALE
  5
56
102
{ACAD_REACTORS
330
47
102
}
330
47
100
AcDbScale
 70
     0
300
8:1
140
8.0
141
1.0
290
     0
  0
SCALE
  5
57
102
{ACAD_REACTORS
330
47
102
}
330
47
100
AcDbScale
 70
     0
300
10:1
140
10.0
141
1.0
290
     0
  0
SCALE
  5
58
102
{ACAD_REACTORS
330
47
102
}
330
47
100
AcDbScale
 70
     0
300
100:1
140
100.0
141
1.0
290
     0
  0
SCALE
  5
59
102
{ACAD_REACTORS
330
47
102
}
330
47
100
AcDbScale
 70
     0
300
1/128" = 1'-0"
140
0.0078125
141
12.0
290
     0
  0
SCALE
  5
5A
102
{ACAD_REACTORS
330
47
102
}
330
47
100
AcDbScale
 70
     0
300
1/64" = 1'-0"
140
0.015625
141
12.0
290
     0
  0
SCALE
  5
5B
102
{ACAD_REACTORS
330
47
102
}
330
47
100
AcDbScale
 70
     0
300
1/32" = 1'-0"
140
0.03125
141
12.0
290
     0
  0
SCALE
  5
5C
102
{ACAD_REACTORS
330
47
102
}
330
47
100
AcDbScale
 70
     0
300
1/16" = 1'-0"
140
0.0625
141
12.0
290
     0
  0
SCALE
  5
5D
102
{ACAD_REACTORS
330
47
102
}
330
47
100
AcDbScale
 70
     0
300
3/32" = 1'-0"
140
0.09375
141
12.0
290
     0
  0
SCALE
  5
5E
102
{ACAD_REACTORS
330
47
102
}
330
47
100
AcDbScale
 70
     0
300
1/8" = 1'-0"
140
0.125
141
12.0
290
     0
  0
SCALE
  5
5F
102
{ACAD_REACTORS
330
47
102
}
330
47
100
AcDbScale
 70
     0
300
3/16" = 1'-0"
140
0.1875
141
12.0
290
     0
  0
SCALE
  5
60
102
{ACAD_REACTORS
330
47
102
}
330
47
100
AcDbScale
 70
     0
300
1/4" = 1'-0"
140
0.25
141
12.0
290
     0
  0
SCALE
  5
61
102
{ACAD_REACTORS
330
47
102
}
330
47
100
AcDbScale
 70
     0
300
3/8" = 1'-0"
140
0.375
141
12.0
290
     0
  0
SCALE
  5
62
102
{ACAD_REACTORS
330
47
102
}
330
47
100
AcDbScale
 70
     0
300
1/2" = 1'-0"
140
0.5
141
12.0
290
     0
  0
SCALE
  5
63
102
{ACAD_REACTORS
330
47
102
}
330
47
100
AcDbScale
 70
     0
300
3/4" = 1'-0"
140
0.75
141
12.0
290
     0
  0
SCALE
  5
64
102
{ACAD_REACTORS
330
47
102
}
330
47
100
AcDbScale
 70
     0
300
1" = 1'-0"
140
1.0
141
12.0
290
     0
  0
SCALE
  5
65
102
{ACAD_REACTORS
330
47
102
}
330
47
100
AcDbScale
 70
     0
300
1-1/2" = 1'-0"
140
1.5
141
12.0
290
     0
  0
SCALE
  5
66
102
{ACAD_REACTORS
330
47
102
}
330
47
100
AcDbScale
 70
     0
300
3" = 1'-0"
140
3.0
141
12.0
290
     0
  0
SCALE
  5
67
102
{ACAD_REACTORS
330
47
102
}
330
47
100
AcDbScale
 70
     0
300
6" = 1'-0"
140
6.0
141
12.0
290
     0
  0
SCALE
  5
68
102
{ACAD_REACTORS
330
47
102
}
330
47
100
AcDbScale
 70
     0
300
1'-0" = 1'-0"
140
12.0
141
12.0
290
     0
  0
ENDSEC
  0
EOF
