  0
SECTION
  2
HEADER
  9
$ACADVER
  1
AC1015
  9
$ACADMAINTVER
 70
     6
  9
$DWGCODEPAGE
  3
DOS932
  9
$INSBASE
 10
0.0
 20
0.0
 30
0.0
  9
$EXTMIN
 10
0.0
 20
0.0
 30
0.0
  9
$EXTMAX
 10
431.8
 20
279.4
 30
0.0
  9
$LIMMIN
 10
0.0
 20
0.0
  9
$LIMMAX
 10
431.8
 20
279.4
  9
$ORTHOMODE
 70
     0
  9
$REGENMODE
 70
     1
  9
$FILLMODE
 70
     1
  9
$QTEXTMODE
 70
     0
  9
$MIRRTEXT
 70
     1
  9
$LTSCALE
 40
1.0
  9
$ATTMODE
 70
     1
  9
$TEXTSIZE
 40
3.5
  9
$TRACEWID
 40
1.0
  9
$TEXTSTYLE
  7
Standard
  9
$CLAYER
  8
0
  9
$CELTYPE
  6
ByLayer
  9
$CECOLOR
 62
   256
  9
$CELTSCALE
 40
1.0
  9
$DISPSILH
 70
     0
  9
$DIMSCALE
 40
1.0
  9
$DIMASZ
 40
3.556
  9
$DIMEXO
 40
1.0
  9
$DIMDLI
 40
3.75
  9
$DIMRND
 40
0.0
  9
$DIMDLE
 40
0.0
  9
$DIMEXE
 40
1.0
  9
$DIMTP
 40
0.0
  9
$DIMTM
 40
0.0
  9
$DIMTXT
 40
3.5
  9
$DIMCEN
 40
2.5
  9
$DIMTSZ
 40
0.0
  9
$DIMTOL
 70
     0
  9
$DIMLIM
 70
     0
  9
$DIMTIH
 70
     1
  9
$DIMTOH
 70
     1
  9
$DIMSE1
 70
     0
  9
$DIMSE2
 70
     0
  9
$DIMTAD
 70
     1
  9
$DIMZIN
 70
     1
  9
$DIMBLK
  1

  9
$DIMASO
 70
     1
  9
$DIMSHO
 70
     1
  9
$DIMPOST
  1

  9
$DIMAPOST
  1

  9
$DIMALT
 70
     0
  9
$DIMALTD
 70
     3
  9
$DIMALTF
 40
0.0393700787
  9
$DIMLFAC
 40
1.0
  9
$DIMTOFL
 70
     1
  9
$DIMTVP
 40
0.0
  9
$DIMTIX
 70
     0
  9
$DIMSOXD
 70
     0
  9
$DIMSAH
 70
     0
  9
$DIMBLK1
  1

  9
$DIMBLK2
  1

  9
$DIMSTYLE
  2
ISO-25
  9
$DIMCLRD
 70
     0
  9
$DIMCLRE
 70
     0
  9
$DIMCLRT
 70
     0
  9
$DIMTFAC
 40
1.0
  9
$DIMGAP
 40
1.524
  9
$DIMJUST
 70
     0
  9
$DIMSD1
 70
     0
  9
$DIMSD2
 70
     0
  9
$DIMTOLJ
 70
     0
  9
$DIMTZIN
 70
     1
  9
$DIMALTZ
 70
     0
  9
$DIMALTTZ
 70
     0
  9
$DIMUPT
 70
     0
  9
$DIMDEC
 70
     2
  9
$DIMTDEC
 70
     2
  9
$DIMALTU
 70
     2
  9
$DIMALTTD
 70
     3
  9
$DIMTXSTY
  7
Standard
  9
$DIMAUNIT
 70
     0
  9
$DIMADEC
 70
     2
  9
$DIMALTRND
 40
0.0
  9
$DIMAZIN
 70
     0
  9
$DIMDSEP
 70
    44
  9
$DIMATFIT
 70
     3
  9
$DIMFRAC
 70
     0
  9
$DIMLDRBLK
  1

  9
$DIMLUNIT
 70
     2
  9
$DIMLWD
 70
    -2
  9
$DIMLWE
 70
    -2
  9
$DIMTMOVE
 70
     0
  9
$LUNITS
 70
     2
  9
$LUPREC
 70
     2
  9
$SKETCHINC
 40
1.0
  9
$FILLETRAD
 40
10.0
  9
$AUNITS
 70
     0
  9
$AUPREC
 70
     2
  9
$MENU
  1
.
  9
$ELEVATION
 40
0.0
  9
$PELEVATION
 40
0.0
  9
$THICKNESS
 40
0.0
  9
$LIMCHECK
 70
     0
  9
$CHAMFERA
 40
0.0
  9
$CHAMFERB
 40
0.0
  9
$CHAMFERC
 40
0.0
  9
$CHAMFERD
 40
0.0
  9
$SKPOLY
 70
     0
  9
$TDCREATE
 40
2459375.496003877
  9
$TDUCREATE
 40
2459375.121003877
  9
$TDUPDATE
 40
2459375.496004618
  9
$TDUUPDATE
 40
2459375.121004618
  9
$TDINDWG
 40
0.0000000116
  9
$TDUSRTIMER
 40
0.0000000116
  9
$USRTIMER
 70
     1
  9
$ANGBASE
 50
0.0
  9
$ANGDIR
 70
     0
  9
$PDMODE
 70
     0
  9
$PDSIZE
 40
-1.0
  9
$PLINEWID
 40
0.0
  9
$SPLFRAME
 70
     0
  9
$SPLINETYPE
 70
     6
  9
$SPLINESEGS
 70
     8
  9
$HANDSEED
  5
224
  9
$SURFTAB1
 70
     6
  9
$SURFTAB2
 70
     6
  9
$SURFTYPE
 70
     6
  9
$SURFU
 70
     6
  9
$SURFV
 70
     6
  9
$UCSBASE
  2

  9
$UCSNAME
  2

  9
$UCSORG
 10
0.0
 20
0.0
 30
0.0
  9
$UCSXDIR
 10
1.0
 20
0.0
 30
0.0
  9
$UCSYDIR
 10
0.0
 20
1.0
 30
0.0
  9
$UCSORTHOREF
  2

  9
$UCSORTHOVIEW
 70
     0
  9
$UCSORGTOP
 10
0.0
 20
0.0
 30
0.0
  9
$UCSORGBOTTOM
 10
0.0
 20
0.0
 30
0.0
  9
$UCSORGLEFT
 10
0.0
 20
0.0
 30
0.0
  9
$UCSORGRIGHT
 10
0.0
 20
0.0
 30
0.0
  9
$UCSORGFRONT
 10
0.0
 20
0.0
 30
0.0
  9
$UCSORGBACK
 10
0.0
 20
0.0
 30
0.0
  9
$PUCSBASE
  2

  9
$PUCSNAME
  2

  9
$PUCSORG
 10
0.0
 20
0.0
 30
0.0
  9
$PUCSXDIR
 10
1.0
 20
0.0
 30
0.0
  9
$PUCSYDIR
 10
0.0
 20
1.0
 30
0.0
  9
$PUCSORTHOREF
  2

  9
$PUCSORTHOVIEW
 70
     0
  9
$PUCSORGTOP
 10
0.0
 20
0.0
 30
0.0
  9
$PUCSORGBOTTOM
 10
0.0
 20
0.0
 30
0.0
  9
$PUCSORGLEFT
 10
0.0
 20
0.0
 30
0.0
  9
$PUCSORGRIGHT
 10
0.0
 20
0.0
 30
0.0
  9
$PUCSORGFRONT
 10
0.0
 20
0.0
 30
0.0
  9
$PUCSORGBACK
 10
0.0
 20
0.0
 30
0.0
  9
$USERI1
 70
     0
  9
$USERI2
 70
     0
  9
$USERI3
 70
     0
  9
$USERI4
 70
     0
  9
$USERI5
 70
     0
  9
$USERR1
 40
0.0
  9
$USERR2
 40
0.0
  9
$USERR3
 40
0.0
  9
$USERR4
 40
0.0
  9
$USERR5
 40
0.0
  9
$WORLDVIEW
 70
     1
  9
$SHADEDGE
 70
     3
  9
$SHADEDIF
 70
    70
  9
$TILEMODE
 70
     1
  9
$MAXACTVP
 70
    64
  9
$PINSBASE
 10
0.0
 20
0.0
 30
0.0
  9
$PLIMCHECK
 70
     0
  9
$PEXTMIN
 10
1.0000000000E+20
 20
1.0000000000E+20
 30
1.0000000000E+20
  9
$PEXTMAX
 10
-1.0000000000E+20
 20
-1.0000000000E+20
 30
-1.0000000000E+20
  9
$PLIMMIN
 10
0.0
 20
0.0
  9
$PLIMMAX
 10
420.0
 20
297.0
  9
$UNITMODE
 70
     0
  9
$VISRETAIN
 70
     1
  9
$PLINEGEN
 70
     0
  9
$PSLTSCALE
 70
     1
  9
$TREEDEPTH
 70
  3020
  9
$CMLSTYLE
  2
Standard
  9
$CMLJUST
 70
     0
  9
$CMLSCALE
 40
20.0
  9
$PROXYGRAPHICS
 70
     1
  9
$MEASUREMENT
 70
     1
  9
$CELWEIGHT
370
    -1
  9
$ENDCAPS
280
     0
  9
$JOINSTYLE
280
     0
  9
$LWDISPLAY
290
     1
  9
$INSUNITS
 70
     4
  9
$HYPERLINKBASE
  1

  9
$STYLESHEET
  1

  9
$XEDIT
290
     1
  9
$CEPSNTYPE
380
     0
  9
$PSTYLEMODE
290
     1
  9
$FINGERPRINTGUID
  2
{6D44560D-10A2-48CA-934A-8657AEDC2162}
  9
$VERSIONGUID
  2
{FAEB1C32-E019-11D5-929B-00C0DF256EC4}
  9
$EXTNAMES
290
     1
  9
$PSVPSCALE
 40
0.0
  9
$OLESTARTUP
290
     0
  0
ENDSEC
  0
SECTION
  2
CLASSES
  0
CLASS
  1
ACDBDICTIONARYWDFLT
  2
AcDbDictionaryWithDefault
  3
ObjectDBX Classes
 90
        0
280
     0
281
     0
  0
CLASS
  1
VISUALSTYLE
  2
AcDbVisualStyle
  3
ObjectDBX Classes
 90
     4095
280
     0
281
     0
  0
CLASS
  1
MATERIAL
  2
AcDbMaterial
  3
ObjectDBX Classes
 90
     1153
280
     0
281
     0
  0
CLASS
  1
SCALE
  2
AcDbScale
  3
ObjectDBX Classes
 90
     1153
280
     0
281
     0
  0
CLASS
  1
TABLESTYLE
  2
AcDbTableStyle
  3
ObjectDBX Classes
 90
     4095
280
     0
281
     0
  0
CLASS
  1
MLEADERSTYLE
  2
AcDbMLeaderStyle
  3
ACDB_MLEADERSTYLE_CLASS
 90
     4095
280
     0
281
     0
  0
CLASS
  1
SUN
  2
AcDbSun
  3
SCENEOE
 90
     1153
280
     0
281
     0
  0
CLASS
  1
ACDBPLACEHOLDER
  2
AcDbPlaceHolder
  3
ObjectDBX Classes
 90
        0
280
     0
281
     0
  0
CLASS
  1
LAYOUT
  2
AcDbLayout
  3
ObjectDBX Classes
 90
        0
280
     0
281
     0
  0
ENDSEC
  0
SECTION
  2
TABLES
  0
TABLE
  2
VPORT
  5
8
330
0
100
AcDbSymbolTable
 70
     1
  0
VPORT
  5
29
330
8
100
AcDbSymbolTableRecord
100
AcDbViewportTableRecord
  2
*Active
 70
     0
 10
0.0
 20
0.0
 11
1.0
 21
1.0
 12
215.9
 22
139.7
 13
0.0
 23
0.0
 14
10.0
 24
10.0
 15
10.0
 25
10.0
 16
0.0
 26
0.0
 36
1.0
 17
0.0
 27
0.0
 37
0.0
 40
279.4
 41
1.5454545455
 42
50.0
 43
0.0
 44
0.0
 50
0.0
 51
0.0
 71
     0
 72
  2000
 73
     1
 74
     3
 75
     0
 76
     0
 77
     0
 78
     0
281
     0
 65
     1
110
0.0
120
0.0
130
0.0
111
1.0
121
0.0
131
0.0
112
0.0
122
1.0
132
0.0
 79
     0
146
0.0
  0
ENDTAB
  0
TABLE
  2
LTYPE
  5
5
330
0
100
AcDbSymbolTable
 70
     6
  0
LTYPE
  5
14
330
5
100
AcDbSymbolTableRecord
100
AcDbLinetypeTableRecord
  2
ByBlock
 70
     0
  3

 72
    65
 73
     0
 40
0.0
  0
LTYPE
  5
15
330
5
100
AcDbSymbolTableRecord
100
AcDbLinetypeTableRecord
  2
ByLayer
 70
     0
  3

 72
    65
 73
     0
 40
0.0
  0
LTYPE
  5
16
330
5
100
AcDbSymbolTableRecord
100
AcDbLinetypeTableRecord
  2
Continuous
 70
     0
  3
Solid line
 72
    65
 73
     0
 40
0.0
  0
LTYPE
  5
6E
330
5
100
AcDbSymbolTableRecord
100
AcDbLinetypeTableRecord
  2
HIDDEN
 70
     0
  3
Hidden __ __ __ __ __ __ __ __ __ __ __ __ __ __
 72
    65
 73
     2
 40
1.905
 49
1.27
 74
     0
 49
-0.635
 74
     0
  0
LTYPE
  5
6F
330
5
100
AcDbSymbolTableRecord
100
AcDbLinetypeTableRecord
  2
PHANTOM
 70
     0
  3
Phantom ______  __  __  ______  __  __  ______
 72
    65
 73
     6
 40
12.7
 49
6.35
 74
     0
 49
-1.27
 74
     0
 49
1.27
 74
     0
 49
-1.27
 74
     0
 49
1.27
 74
     0
 49
-1.27
 74
     0
  0
LTYPE
  5
70
330
5
100
AcDbSymbolTableRecord
100
AcDbLinetypeTableRecord
  2
CENTER
 70
     0
  3
Center ____ _ ____ _ ____ _ ____ _ ____ _ ____
 72
    65
 73
     4
 40
10.16
 49
6.35
 74
     0
 49
-1.27
 74
     0
 49
1.27
 74
     0
 49
-1.27
 74
     0
  0
LTYPE
  5
71
330
5
100
AcDbSymbolTableRecord
100
AcDbLinetypeTableRecord
  2
CENTERX2
 70
     0
  3
Center (2x) ________  __  ________  __  _____
 72
    65
 73
     4
 40
20.32
 49
12.7
 74
     0
 49
-2.54
 74
     0
 49
2.54
 74
     0
 49
-2.54
 74
     0
  0
LTYPE
  5
72
330
5
100
AcDbSymbolTableRecord
100
AcDbLinetypeTableRecord
  2
DOT2
 70
     0
  3
Dot (.5x) ........................................
 72
    65
 73
     2
 40
0.635
 49
0.0
 74
     0
 49
-0.635
 74
     0
  0
ENDTAB
  0
TABLE
  2
LAYER
  5
2
330
0
100
AcDbSymbolTable
 70
     1
  0
LAYER
  5
10
330
2
100
AcDbSymbolTableRecord
100
AcDbLayerTableRecord
  2
0
 70
     0
 62
     7
  6
Continuous
370
    -3
390
F
  0
ENDTAB
  0
TABLE
  2
STYLE
  5
3
330
0
100
AcDbSymbolTable
 70
     2
  0
STYLE
  5
11
330
3
100
AcDbSymbolTableRecord
100
AcDbTextStyleTableRecord
  2
Standard
 70
     0
 40
0.0
 41
1.0
 50
0.0
 71
     0
 42
3.5
  3
txt
  4
bigfont
  0
STYLE
  5
73
330
3
100
AcDbSymbolTableRecord
100
AcDbTextStyleTableRecord
  2
SLDTEXTSTYLE0
 70
     0
 40
0.0
 41
0.75
 50
0.0
 71
     0
 42
3.5
  3
TXT
  4
bigfont
  0
ENDTAB
  0
TABLE
  2
VIEW
  5
6
330
0
100
AcDbSymbolTable
 70
     0
  0
ENDTAB
  0
TABLE
  2
UCS
  5
7
330
0
100
AcDbSymbolTable
 70
     0
  0
ENDTAB
  0
TABLE
  2
APPID
  5
9
330
0
100
AcDbSymbolTable
 70
     1
  0
APPID
  5
12
330
9
100
AcDbSymbolTableRecord
100
AcDbRegAppTableRecord
  2
ACAD
 70
     0
  0
ENDTAB
  0
TABLE
  2
DIMSTYLE
  5
A
330
0
100
AcDbSymbolTable
 70
     1
100
AcDbDimStyleTable
  0
DIMSTYLE
105
27
330
A
100
AcDbSymbolTableRecord
100
AcDbDimStyleTableRecord
  2
ISO-25
 70
     0
 41
2.5
 42
0.625
 43
3.75
 44
1.25
 73
     0
 74
     0
 77
     1
 78
     8
140
2.5
141
2.5
143
0.0393700787
147
0.625
171
     3
172
     1
178
     0
271
     2
272
     2
274
     3
278
    44
283
     0
284
     8
340
11
  0
ENDTAB
  0
TABLE
  2
BLOCK_RECORD
  5
1
330
0
100
AcDbSymbolTable
 70
     1
  0
BLOCK_RECORD
  5
1F
330
1
100
AcDbSymbolTableRecord
100
AcDbBlockTableRecord
  2
*Model_Space
340
22
  0
BLOCK_RECORD
  5
1B
330
1
100
AcDbSymbolTableRecord
100
AcDbBlockTableRecord
  2
*Paper_Space
340
1E
  0
BLOCK_RECORD
  5
23
330
1
100
AcDbSymbolTableRecord
100
AcDbBlockTableRecord
  2
*Paper_Space0
340
26
  0
ENDTAB
  0
ENDSEC
  0
SECTION
  2
BLOCKS
  0
BLOCK
  5
20
330
1F
100
AcDbEntity
  8
0
100
AcDbBlockBegin
  2
*Model_Space
 70
     0
 10
0.0
 20
0.0
 30
0.0
  3
*Model_Space
  1

  0
ENDBLK
  5
21
330
1F
100
AcDbEntity
  8
0
100
AcDbBlockEnd
  0
BLOCK
  5
1C
330
1B
100
AcDbEntity
 67
     1
  8
0
100
AcDbBlockBegin
  2
*Paper_Space
 70
     0
 10
0.0
 20
0.0
 30
0.0
  3
*Paper_Space
  1

  0
ENDBLK
  5
1D
330
1B
100
AcDbEntity
 67
     1
  8
0
100
AcDbBlockEnd
  0
BLOCK
  5
24
330
23
100
AcDbEntity
  8
0
100
AcDbBlockBegin
  2
*Paper_Space0
 70
     0
 10
0.0
 20
0.0
 30
0.0
  3
*Paper_Space0
  1

  0
ENDBLK
  5
25
330
23
100
AcDbEntity
  8
0
100
AcDbBlockEnd
  0
ENDSEC
  0
SECTION
  2
ENTITIES
  0
MTEXT
  5
74
330
1F
100
AcDbEntity
  8
0
  6
Continuous
 62
     7
370
     0
100
AcDbMText
 10
151.3136761194
 20
141.9308880686
 30
0.0
 40
5.2916666667
 41
0.0
 71
     1
 72
     1
  1
5R-RL1310
  7
SLDTEXTSTYLE0
 73
     1
 44
1.0
  0
LINE
  5
75
330
1F
100
AcDbEntity
  8
0
  6
Continuous
 62
     7
370
    25
100
AcDbLine
 10
144.4426903508
 20
117.2840874402
 30
0.0
 11
143.3605298407
 21
115.409731841
 31
0.0
  0
LINE
  5
76
330
1F
100
AcDbEntity
  8
0
  6
Continuous
 62
     7
370
    25
100
AcDbLine
 10
143.3605298407
 20
94.9097312747
 30
0.0
 11
144.4426903508
 21
93.0353756754
 31
0.0
  0
LINE
  5
77
330
1F
100
AcDbEntity
  8
0
  6
Continuous
 62
     7
370
    25
100
AcDbLine
 10
158.1605298452
 20
94.9097312747
 30
0.0
 11
158.3605295054
 21
95.1097318663
 31
0.0
  0
LINE
  5
78
330
1F
100
AcDbEntity
  8
0
  6
Continuous
 62
     7
370
    25
100
AcDbLine
 10
158.3605295054
 20
115.2097312494
 30
0.0
 11
158.1605298452
 21
115.409731841
 31
0.0
  0
LINE
  5
79
330
1F
100
AcDbEntity
  8
0
  6
Continuous
 62
     7
370
    25
100
AcDbLine
 10
158.1605298452
 20
115.409731841
 30
0.0
 11
157.4378794066
 21
115.409731841
 31
0.0
  0
LINE
  5
7A
330
1F
100
AcDbEntity
  8
0
  6
Continuous
 62
     7
370
    25
100
AcDbLine
 10
157.4378794066
 20
94.9097312747
 30
0.0
 11
158.1605298452
 21
94.9097312747
 31
0.0
  0
LINE
  5
7B
330
1F
100
AcDbEntity
  8
0
  6
Continuous
 62
     7
370
    25
100
AcDbLine
 10
156.571855583
 20
115.9097319229
 30
0.0
 11
155.7783706121
 21
117.2840874402
 31
0.0
  0
ARC
  5
7C
330
1F
100
AcDbEntity
  8
0
  6
Continuous
 62
     7
370
    25
100
AcDbCircle
 10
157.4378802253
 20
116.4097315578
 30
0.0
 40
1.0
100
AcDbArc
 50
210.0
 51
270.0
  0
LINE
  5
7D
330
1F
100
AcDbEntity
  8
0
  6
Continuous
 62
     7
370
    25
100
AcDbLine
 10
155.7783706121
 20
93.0353756754
 30
0.0
 11
156.571855583
 21
94.4097311928
 31
0.0
  0
ARC
  5
7E
330
1F
100
AcDbEntity
  8
0
  6
Continuous
 62
     7
370
    25
100
AcDbCircle
 10
157.4378802253
 20
93.9097315578
 30
0.0
 40
1.0
100
AcDbArc
 50
90.0
 51
150.0
  0
LINE
  5
7F
330
1F
100
AcDbEntity
  8
0
  6
Continuous
 62
     7
370
    25
100
AcDbLine
 10
137.0122058324
 20
117.3142371459
 30
0.0
 11
136.6755932577
 21
128.085821843
 31
0.0
  0
LINE
  5
80
330
1F
100
AcDbEntity
  8
0
  6
Continuous
 62
     7
370
    25
100
AcDbLine
 10
120.2808495618
 20
128.085821843
 30
0.0
 11
119.9442369871
 21
117.3142371459
 31
0.0
  0
ARC
  5
81
330
1F
100
AcDbEntity
  8
0
  6
Continuous
 62
     7
370
    25
100
AcDbCircle
 10
120.4782214098
 20
118.1597315578
 30
0.0
 40
1.0
100
AcDbArc
 50
237.7249513296
 51
270.0
  0
ARC
  5
82
330
1F
100
AcDbEntity
  8
0
  6
Continuous
 62
     7
370
    25
100
AcDbCircle
 10
136.4782214098
 20
118.1597315578
 30
0.0
 40
1.0
100
AcDbArc
 50
270.0
 51
302.2750486704
  0
ARC
  5
83
330
1F
100
AcDbEntity
  8
0
  6
Continuous
 62
     7
370
    25
100
AcDbCircle
 10
141.4782214098
 20
113.1597315578
 30
0.0
 40
1.0
100
AcDbArc
 50
160.6705173466
 51
180.0
  0
ARC
  5
84
330
1F
100
AcDbEntity
  8
0
  6
Continuous
 62
     7
370
    25
100
AcDbCircle
 10
141.4782214098
 20
97.1597315578
 30
0.0
 40
1.000000000000003
100
AcDbArc
 50
180.0
 51
199.3294826534
  0
LINE
  5
85
330
1F
100
AcDbEntity
  8
0
  6
Continuous
 62
     7
370
    25
100
AcDbLine
 10
143.3605298407
 20
113.4907314314
 30
0.0
 11
140.5345907442
 21
113.4907314314
 31
0.0
  0
LINE
  5
86
330
1F
100
AcDbEntity
  8
0
  6
Continuous
 62
     7
370
    25
100
AcDbLine
 10
140.5345907442
 20
96.8287316843
 30
0.0
 11
143.3605298407
 21
96.8287316843
 31
0.0
  0
LINE
  5
87
330
1F
100
AcDbEntity
  8
0
  6
Continuous
 62
     7
370
    25
100
AcDbLine
 10
136.6755932577
 20
128.085821843
 30
0.0
 11
135.4782216258
 21
130.1597319304
 31
0.0
  0
LINE
  5
88
330
1F
100
AcDbEntity
  8
0
  6
Continuous
 62
     7
370
    25
100
AcDbLine
 10
121.4782211937
 20
130.1597319304
 30
0.0
 11
120.2808495618
 21
128.085821843
 31
0.0
  0
ARC
  5
89
330
1F
100
AcDbEntity
  8
0
  6
Continuous
 62
     7
370
    25
100
AcDbCircle
 10
120.4782214098
 20
116.1597315578
 30
0.0
 40
1.0
100
AcDbArc
 50
0.0
 51
90.0
  0
ARC
  5
8A
330
1F
100
AcDbEntity
  8
0
  6
Continuous
 62
     7
370
    25
100
AcDbCircle
 10
136.4782214098
 20
116.1597315578
 30
0.0
 40
1.0
100
AcDbArc
 50
90.0
 51
180.0
  0
ARC
  5
8B
330
1F
100
AcDbEntity
  8
0
  6
Continuous
 62
     7
370
    25
100
AcDbCircle
 10
139.4782214098
 20
113.1597315578
 30
0.0
 40
1.0
100
AcDbArc
 50
270.0
 51
0.0
  0
ARC
  5
8C
330
1F
100
AcDbEntity
  8
0
  6
Continuous
 62
     7
370
    25
100
AcDbCircle
 10
139.4782214098
 20
97.1597315578
 30
0.0
 40
1.0
100
AcDbArc
 50
0.0
 51
90.0
  0
LINE
  5
8D
330
1F
100
AcDbEntity
  8
0
  6
Continuous
 62
     7
370
    25
100
AcDbLine
 10
135.4782216258
 20
112.1597317739
 30
0.0
 11
135.4782216258
 21
116.1597314982
 31
0.0
  0
LINE
  5
8E
330
1F
100
AcDbEntity
  8
0
  6
Continuous
 62
     7
370
    25
100
AcDbLine
 10
121.4782211937
 20
116.1597314982
 30
0.0
 11
121.4782211937
 21
100.1597316696
 31
0.0
  0
LINE
  5
8F
330
1F
100
AcDbEntity
  8
0
  6
Continuous
 62
     7
370
    25
100
AcDbLine
 10
123.4782215215
 20
98.1597313418
 30
0.0
 11
139.4782213501
 21
98.1597313418
 31
0.0
  0
LINE
  5
90
330
1F
100
AcDbEntity
  8
0
  6
Continuous
 62
     7
370
    25
100
AcDbLine
 10
139.4782213501
 20
112.1597317739
 30
0.0
 11
135.4782216258
 21
112.1597317739
 31
0.0
  0
ARC
  5
91
330
1F
100
AcDbEntity
  8
0
  6
Continuous
 62
     7
370
    25
100
AcDbCircle
 10
123.4782214098
 20
100.1597315578
 30
0.0
 40
2.000000000000001
100
AcDbArc
 50
179.9716574441
 51
270.0247234831
  0
SPLINE
  5
92
330
1F
100
AcDbEntity
  8
0
  6
Continuous
 62
     7
370
    25
100
AcDbSpline
210
0.0
220
0.0
230
1.0
 70
     8
 71
     3
 72
    11
 73
     7
 74
     0
 42
0.000000001
 43
0.00000001
 40
0.0
 40
0.0
 40
0.0
 40
0.0
 40
0.2958382859360417
 40
0.5932610291220336
 40
0.7963744107694746
 40
1.0
 40
1.0
 40
1.0
 40
1.0
 10
156.5718555830247
 20
115.4054412378552
 30
0.0
 10
156.618957298481
 20
115.1787138366383
 30
0.0
 10
156.7134129978053
 20
114.724044722563
 30
0.0
 10
156.7248292991129
 20
114.1099011504938
 30
0.0
 10
156.6747729905027
 20
113.5679224231394
 30
0.0
 10
156.6061901743648
 20
113.2564753440695
 30
0.0
 10
156.5718555830247
 20
113.100555701423
 30
0.0
  0
SPLINE
  5
93
330
1F
100
AcDbEntity
  8
0
  6
Continuous
 62
     7
370
    25
100
AcDbSpline
210
0.0
220
0.0
230
1.0
 70
     8
 71
     3
 72
    10
 73
     6
 74
     0
 42
0.000000001
 43
0.00000001
 40
0.0
 40
0.0
 40
0.0
 40
0.0
 40
0.249181697418464
 40
0.4983791255472624
 40
0.9999999999999999
 40
0.9999999999999999
 40
0.9999999999999999
 40
0.9999999999999999
 10
156.5718555830247
 20
113.100555701423
 30
0.0
 10
156.5280678539805
 20
112.9424191941056
 30
0.0
 10
156.4404896315955
 20
112.6261361963958
 30
0.0
 10
156.1966199459636
 20
111.9968229453824
 30
0.0
 10
155.9458858099932
 20
111.5322740801752
 30
0.0
 10
155.7783706120975
 20
111.2219094990375
 30
0.0
  0
LINE
  5
94
330
1F
100
AcDbEntity
  8
0
  6
Continuous
 62
     7
370
    25
100
AcDbLine
 10
155.7783706121
 20
111.221909499
 30
0.0
 11
144.4426903508
 21
111.221909499
 31
0.0
  0
SPLINE
  5
95
330
1F
100
AcDbEntity
  8
0
  6
Continuous
 62
     7
370
    25
100
AcDbSpline
210
0.0
220
0.0
230
1.0
 70
     8
 71
     3
 72
    16
 73
    12
 74
     0
 42
0.000000001
 43
0.00000001
 40
0.0
 40
0.0
 40
0.0
 40
0.0
 40
0.1322996907626897
 40
0.2645619368204545
 40
0.3546999137095673
 40
0.4449068776301038
 40
0.5350279699103498
 40
0.6502124438493435
 40
0.7654148778645278
 40
0.882696097690469
 40
1.0
 40
1.0
 40
1.0
 40
1.0
 10
144.4426903508432
 20
111.2219094990375
 30
0.0
 10
144.2999082933957
 20
111.4838151596379
 30
0.0
 10
144.014384590024
 20
112.0075523538311
 30
0.0
 10
143.7420945480366
 20
112.7232106905749
 30
0.0
 10
143.5817483389852
 20
113.3596941627905
 30
0.0
 10
143.5070276910479
 20
113.9135911850655
 30
0.0
 10
143.4976461701954
 20
114.5201234135207
 30
0.0
 10
143.5809151757361
 20
115.176978659437
 30
0.0
 10
143.7753426937289
 20
115.8839938500308
 30
0.0
 10
144.0605787861814
 20
116.5878331522175
 30
0.0
 10
144.3153116190879
 20
117.0519877175691
 30
0.0
 10
144.4426903508432
 20
117.2840874402407
 30
0.0
  0
LINE
  5
96
330
1F
100
AcDbEntity
  8
0
  6
Continuous
 62
     7
370
    25
100
AcDbLine
 10
155.7783706121
 20
117.2840874402
 30
0.0
 11
144.4426903508
 21
117.2840874402
 31
0.0
  0
SPLINE
  5
97
330
1F
100
AcDbEntity
  8
0
  6
Continuous
 62
     7
370
    25
100
AcDbSpline
210
0.0
220
0.0
230
1.0
 70
     8
 71
     3
 72
    10
 73
     6
 74
     0
 42
0.000000001
 43
0.00000001
 40
0.0
 40
0.0
 40
0.0
 40
0.0
 40
0.4984983233277318
 40
0.7492570598271863
 40
1.0
 40
1.0
 40
1.0
 40
1.0
 10
155.7783706120975
 20
117.2840874402407
 30
0.0
 10
155.9448977097065
 20
116.9756642453917
 30
0.0
 10
156.1951926408974
 20
116.5120954722564
 30
0.0
 10
156.439580006937
 20
115.8828288699698
 30
0.0
 10
156.5277646502103
 20
115.5645671070181
 30
0.0
 10
156.5718555830247
 20
115.4054412378552
 30
0.0
  0
SPLINE
  5
98
330
1F
100
AcDbEntity
  8
0
  6
Continuous
 62
     7
370
    25
100
AcDbSpline
210
0.0
220
0.0
230
1.0
 70
     8
 71
     3
 72
    12
 73
     8
 74
     0
 42
0.000000001
 43
0.00000001
 40
0.0
 40
0.0
 40
0.0
 40
0.0
 40
0.1850710496583546
 40
0.3877424667381881
 40
0.590410823521426
 40
0.795201581384874
 40
1.0
 40
1.0
 40
1.0
 40
1.0
 10
156.5718555830247
 20
107.464617559928
 30
0.0
 10
156.6033537287733
 20
107.1812312460315
 30
0.0
 10
156.6693455127545
 20
106.5875084104346
 30
0.0
 10
156.7163186783902
 20
105.6786519026352
 30
0.0
 10
156.7191142002491
 20
104.7385439373443
 30
0.0
 10
156.6750990992203
 20
103.7957941152758
 30
0.0
 10
156.6062705175351
 20
103.1684989864576
 30
0.0
 10
156.5718555830247
 20
102.8548455557409
 30
0.0
  0
SPLINE
  5
99
330
1F
100
AcDbEntity
  8
0
  6
Continuous
 62
     7
370
    25
100
AcDbSpline
210
0.0
220
0.0
230
1.0
 70
     8
 71
     3
 72
    10
 73
     6
 74
     0
 42
0.000000001
 43
0.00000001
 40
0.0
 40
0.0
 40
0.0
 40
0.0
 40
0.3258685062369207
 40
0.6527960398165602
 40
1.0
 40
1.0
 40
1.0
 40
1.0
 10
156.5718555830247
 20
102.8548455557409
 30
0.0
 10
156.5128386253631
 20
102.4414259006132
 30
0.0
 10
156.3946129131319
 20
101.6132430339526
 30
0.0
 10
156.1251483751816
 20
100.3594637419459
 30
0.0
 10
155.8962580428933
 20
99.52654116544477
 30
0.0
 10
155.7783706120975
 20
99.0975536166313
 30
0.0
  0
LINE
  5
9A
330
1F
100
AcDbEntity
  8
0
  6
Continuous
 62
     7
370
    25
100
AcDbLine
 10
155.7783706121
 20
99.0975536166
 30
0.0
 11
144.4426903508
 21
99.0975536166
 31
0.0
  0
SPLINE
  5
9B
330
1F
100
AcDbEntity
  8
0
  6
Continuous
 62
     7
370
    25
100
AcDbSpline
210
0.0
220
0.0
230
1.0
 70
     8
 71
     3
 72
    16
 73
    12
 74
     0
 42
0.000000001
 43
0.00000001
 40
0.0
 40
0.0
 40
0.0
 40
0.0
 40
0.1151108383957123
 40
0.2406804202559691
 40
0.3662176796670575
 40
0.494847725331992
 40
0.6234766656559717
 40
0.7171032245336609
 40
0.8107395004038193
 40
0.9053651224860243
 40
1.0
 40
1.0
 40
1.0
 40
1.0
 10
144.4426903508432
 20
99.0975536166313
 30
0.0
 10
144.3175656203701
 20
99.55303078111237
 30
0.0
 10
144.0559475734999
 20
100.5053688657977
 30
0.0
 10
143.7594025159436
 20
101.9796778874147
 30
0.0
 10
143.5556136927942
 20
103.5256079511533
 30
0.0
 10
143.482995287204
 20
105.0964077531662
 30
0.0
 10
143.5398026300352
 20
106.5366484985971
 30
0.0
 10
143.6863239685761
 20
107.8250644870858
 30
0.0
 10
143.8813728483869
 20
108.9654454230817
 30
0.0
 10
144.1315481422834
 20
110.0993698202286
 30
0.0
 10
144.338972900083
 20
110.8477174072535
 30
0.0
 10
144.4426903508432
 20
111.2219094990375
 30
0.0
  0
SPLINE
  5
9C
330
1F
100
AcDbEntity
  8
0
  6
Continuous
 62
     7
370
    25
100
AcDbSpline
210
0.0
220
0.0
230
1.0
 70
     8
 71
     3
 72
    10
 73
     6
 74
     0
 42
0.000000001
 43
0.00000001
 40
0.0
 40
0.0
 40
0.0
 40
0.0
 40
0.4984982663075753
 40
0.7492570864262477
 40
0.9999999999999999
 40
0.9999999999999999
 40
0.9999999999999999
 40
0.9999999999999999
 10
155.7783706120975
 20
111.2219094990375
 30
0.0
 10
155.9448977313884
 20
110.6050637807158
 30
0.0
 10
156.195192732683
 20
109.6779271045792
 30
0.0
 10
156.4395799606112
 20
108.4193918348994
 30
0.0
 10
156.527764641229
 20
107.7828689218774
 30
0.0
 10
156.5718555830247
 20
107.464617559928
 30
0.0
  0
SPLINE
  5
9D
330
1F
100
AcDbEntity
  8
0
  6
Continuous
 62
     7
370
    25
100
AcDbSpline
210
0.0
220
0.0
230
1.0
 70
     8
 71
     3
 72
    16
 73
    12
 74
     0
 42
0.000000001
 43
0.00000001
 40
0.0
 40
0.0
 40
0.0
 40
0.0
 40
0.1322997195762649
 40
0.2645619873979405
 40
0.3546999130805565
 40
0.4449069148286668
 40
0.5350279693540674
 40
0.6502124433932223
 40
0.7654149099764218
 40
0.8826960817417341
 40
0.9999999999999999
 40
0.9999999999999999
 40
0.9999999999999999
 40
0.9999999999999999
 10
144.4426903508432
 20
93.03537567542818
 30
0.0
 10
144.2999082899449
 20
93.29728176545599
 30
0.0
 10
144.0143845872719
 20
93.8210198044428
 30
0.0
 10
143.7420946483789
 20
94.53667722123393
 30
0.0
 10
143.5817482641166
 20
95.17316018939432
 30
0.0
 10
143.5070277254892
 20
95.7270586463292
 30
0.0
 10
143.4976461590541
 20
96.33358922376074
 30
0.0
 10
143.5809152242078
 20
96.9904451288149
 30
0.0
 10
143.7753425725845
 20
97.6974596467615
 30
0.0
 10
144.0605789068864
 20
98.40129960748179
 30
0.0
 10
144.3153116361561
 20
98.8654539447062
 30
0.0
 10
144.4426903508432
 20
99.0975536166313
 30
0.0
  0
LINE
  5
9E
330
1F
100
AcDbEntity
  8
0
  6
Continuous
 62
     7
370
    25
100
AcDbLine
 10
143.3605298407
 20
105.1597315578
 30
0.0
 11
143.3605298407
 21
115.409731841
 31
0.0
  0
LINE
  5
9F
330
1F
100
AcDbEntity
  8
0
  6
Continuous
 62
     7
370
    25
100
AcDbLine
 10
143.3605298407
 20
94.9097312747
 30
0.0
 11
143.3605298407
 21
105.1597315578
 31
0.0
  0
LINE
  5
A0
330
1F
100
AcDbEntity
  8
0
  6
Continuous
 62
     7
370
    25
100
AcDbLine
 10
156.571855583
 20
97.2189074142
 30
0.0
 11
156.571855583
 21
102.8548455557
 31
0.0
  0
SPLINE
  5
A1
330
1F
100
AcDbEntity
  8
0
  6
Continuous
 62
     7
370
    25
100
AcDbSpline
210
0.0
220
0.0
230
1.0
 70
     8
 71
     3
 72
    10
 73
     6
 74
     0
 42
0.000000001
 43
0.00000001
 40
0.0
 40
0.0
 40
0.0
 40
0.0
 40
0.4984981873458691
 40
0.7492569956265313
 40
0.9999999999999999
 40
0.9999999999999999
 40
0.9999999999999999
 40
0.9999999999999999
 10
155.7783706120975
 20
99.0975536166313
 30
0.0
 10
155.944897733083
 20
98.78913070303722
 30
0.0
 10
156.1951927462389
 20
98.32556226590354
 30
0.0
 10
156.4395799976118
 20
97.69629491416765
 30
0.0
 10
156.5277646475461
 20
97.37803323774268
 30
0.0
 10
156.5718555830247
 20
97.21890741424588
 30
0.0
  0
LINE
  5
A2
330
1F
100
AcDbEntity
  8
0
  6
Continuous
 62
     7
370
    25
100
AcDbLine
 10
156.571855583
 20
107.4646175599
 30
0.0
 11
156.571855583
 21
113.1005557014
 31
0.0
  0
SPLINE
  5
A3
330
1F
100
AcDbEntity
  8
0
  6
Continuous
 62
     7
370
    25
100
AcDbSpline
210
0.0
220
0.0
230
1.0
 70
     8
 71
     3
 72
    13
 73
     9
 74
     0
 42
0.000000001
 43
0.00000001
 40
0.0
 40
0.0
 40
0.0
 40
0.0
 40
0.1365245428548474
 40
0.2730742145402921
 40
0.4115382288735975
 40
0.5499846098809906
 40
0.7739370262806539
 40
1.0
 40
1.0
 40
1.0
 40
1.0
 10
157.4378794066436
 20
107.3574137168559
 30
0.0
 10
157.4351504076595
 20
107.1597178222623
 30
0.0
 10
157.4296919073893
 20
106.7642896449902
 30
0.0
 10
157.4008504694146
 20
106.1613221745779
 30
0.0
 10
157.3797998221689
 20
105.5522043508982
 30
0.0
 10
157.3735505880729
 20
104.812107738003
 30
0.0
 10
157.4152517288624
 20
103.9434029714237
 30
0.0
 10
157.4303133012908
 20
103.2901884412088
 30
0.0
 10
157.4378794066436
 20
102.9620493988129
 30
0.0
  0
ARC
  5
A4
330
1F
100
AcDbEntity
  8
0
  6
Continuous
 62
     7
370
    25
100
AcDbCircle
 10
157.3478702671
 20
100.1375713235
 30
0.0
 40
2.82591189584448
100
AcDbArc
 50
88.1747427393
 51
105.9385846799
  0
ARC
  5
A5
330
1F
100
AcDbEntity
  8
0
  6
Continuous
 62
     7
370
    25
100
AcDbCircle
 10
157.3478702671
 20
110.1818917922
 30
0.0
 40
2.825911895844495
100
AcDbArc
 50
254.0614153201
 51
271.8252572607
  0
ARC
  5
A6
330
1F
100
AcDbEntity
  8
0
  6
Continuous
 62
     7
370
    25
100
AcDbCircle
 10
157.3950119507
 20
113.8306882413
 30
0.0
 40
1.100309016288064
100
AcDbArc
 50
221.5727468178
 51
272.232778272
  0
LINE
  5
A7
330
1F
100
AcDbEntity
  8
0
  6
Continuous
 62
     7
370
    25
100
AcDbLine
 10
157.4378794066
 20
112.7312145887
 30
0.0
 11
157.4378794066
 21
107.3574137169
 31
0.0
  0
LINE
  5
A8
330
1F
100
AcDbEntity
  8
0
  6
Continuous
 62
     7
370
    25
100
AcDbLine
 10
157.4378794066
 20
102.9620493988
 30
0.0
 11
157.4378794066
 21
97.5882485269
 31
0.0
  0
ARC
  5
A9
330
1F
100
AcDbEntity
  8
0
  6
Continuous
 62
     7
370
    25
100
AcDbCircle
 10
157.3950119507
 20
96.4887748744
 30
0.0
 40
1.100309016288054
100
AcDbArc
 50
87.767221728
 51
138.4272531822
  0
SPLINE
  5
AA
330
1F
100
AcDbEntity
  8
0
  6
Continuous
 62
     7
370
    25
100
AcDbSpline
210
0.0
220
0.0
230
1.0
 70
     8
 71
     3
 72
    11
 73
     7
 74
     0
 42
0.000000001
 43
0.00000001
 40
0.0
 40
0.0
 40
0.0
 40
0.0
 40
0.2958382423581058
 40
0.5932610726957092
 40
0.7963744542672688
 40
1.0
 40
1.0
 40
1.0
 40
1.0
 10
156.5718555830247
 20
97.21890741424588
 30
0.0
 10
156.6189572983486
 20
96.99217998120342
 30
0.0
 10
156.7134130182588
 20
96.53751070293784
 30
0.0
 10
156.7248292981887
 20
95.92336743575444
 30
0.0
 10
156.6747730008954
 20
95.38138864822332
 30
0.0
 10
156.6061901753955
 20
95.06994152564057
 30
0.0
 10
156.5718555830247
 20
94.91402187781361
 30
0.0
  0
SPLINE
  5
AB
330
1F
100
AcDbEntity
  8
0
  6
Continuous
 62
     7
370
    25
100
AcDbSpline
210
0.0
220
0.0
230
1.0
 70
     8
 71
     3
 72
    10
 73
     6
 74
     0
 42
0.000000001
 43
0.00000001
 40
0.0
 40
0.0
 40
0.0
 40
0.0
 40
0.2491816849879178
 40
0.4983790234172428
 40
0.9999999999999999
 40
0.9999999999999999
 40
0.9999999999999999
 40
0.9999999999999999
 10
156.5718555830247
 20
94.91402187781361
 30
0.0
 10
156.5280678611993
 20
94.75588538691206
 30
0.0
 10
156.4404896668305
 20
94.43960247107107
 30
0.0
 10
156.1966198347415
 20
93.81028885843415
 30
0.0
 10
155.9458857842305
 20
93.34574018589586
 30
0.0
 10
155.7783706120975
 20
93.03537567542818
 30
0.0
  0
LINE
  5
AC
330
1F
100
AcDbEntity
  8
0
  6
Continuous
 62
     7
370
    25
100
AcDbLine
 10
155.7783706121
 20
93.0353756754
 30
0.0
 11
144.4426903508
 21
93.0353756754
 31
0.0
  0
LINE
  5
AD
330
1F
100
AcDbEntity
  8
0
  6
Continuous
 62
     7
370
    25
100
AcDbLine
 10
158.3605295054
 20
115.2097312494
 30
0.0
 11
158.3605295054
 21
95.1097318663
 31
0.0
  0
LINE
  5
AE
330
1F
100
AcDbEntity
  8
0
  6
Continuous
 62
     7
370
    25
100
AcDbLine
 10
158.1605298452
 20
94.9097312747
 30
0.0
 11
158.1605298452
 21
115.409731841
 31
0.0
  0
SPLINE
  5
AF
330
1F
100
AcDbEntity
  8
0
  6
Continuous
 62
     7
370
    25
100
AcDbSpline
210
0.0
220
0.0
230
1.0
 70
     8
 71
     3
 72
    13
 73
     9
 74
     0
 42
0.000000001
 43
0.00000001
 40
0.0
 40
0.0
 40
0.0
 40
0.0
 40
0.136524552743634
 40
0.273074181603066
 40
0.4115382135751807
 40
0.5499846723555979
 40
0.7739370488870739
 40
1.0
 40
1.0
 40
1.0
 40
1.0
 10
157.4378794066436
 20
97.58824852691916
 30
0.0
 10
157.4351504089373
 20
97.4548721076475
 30
0.0
 10
157.4296919122767
 20
97.18809477122106
 30
0.0
 10
157.4008504621817
 20
96.82139719853203
 30
0.0
 10
157.3797998211428
 20
96.48022434849865
 30
0.0
 10
157.3735505841167
 20
96.1056251708374
 30
0.0
 10
157.4152517294896
 20
95.71960305902178
 30
0.0
 10
157.4303133013049
 20
95.50058781442903
 30
0.0
 10
157.4378794066436
 20
95.3905666007283
 30
0.0
  0
SPLINE
  5
B0
330
1F
100
AcDbEntity
  8
0
  6
Continuous
 62
     7
370
    25
100
AcDbSpline
210
0.0
220
0.0
230
1.0
 70
     8
 71
     3
 72
    13
 73
     9
 74
     0
 42
0.000000001
 43
0.00000001
 40
0.0
 40
0.0
 40
0.0
 40
0.0
 40
0.1365245298395308
 40
0.2730741794829983
 40
0.4115382313923687
 40
0.5499846615414782
 40
0.7739370489087758
 40
1.0
 40
1.0
 40
1.0
 40
1.0
 10
157.4378794066436
 20
114.9288965149405
 30
0.0
 10
157.4351504080647
 20
114.8645768826755
 30
0.0
 10
157.4296919087855
 20
114.7359257836674
 30
0.0
 10
157.4008504624575
 20
114.4996575605345
 30
0.0
 10
157.3797998234253
 20
114.2317116833975
 30
0.0
 10
157.3735505847765
 20
113.8662135666631
 30
0.0
 10
157.4152517290374
 20
113.3835310427698
 30
0.0
 10
157.4303133012752
 20
112.9493322016364
 30
0.0
 10
157.4378794066436
 20
112.7312145887497
 30
0.0
  0
ARC
  5
B1
330
1F
100
AcDbEntity
  8
0
  6
Continuous
 62
     7
370
    25
100
AcDbCircle
 10
157.4292356012
 20
115.9383722335
 30
0.0
 40
1.009512724938654
100
AcDbArc
 50
211.8642924774
 51
270.4905927458
  0
ARC
  5
B2
330
1F
100
AcDbEntity
  8
0
  6
Continuous
 62
     7
370
    25
100
AcDbCircle
 10
157.4292356012
 20
94.3810908821
 30
0.0
 40
1.009512724938652
100
AcDbArc
 50
89.5094072542
 51
148.1357075226
  0
LINE
  5
B3
330
1F
100
AcDbEntity
  8
0
  6
Continuous
 62
     7
370
    25
100
AcDbLine
 10
119.9442369871
 20
117.3142371459
 30
0.0
 11
137.0122058324
 21
117.3142371459
 31
0.0
  0
LINE
  5
B4
330
1F
100
AcDbEntity
  8
0
  6
Continuous
 62
     7
370
    25
100
AcDbLine
 10
136.6755932577
 20
128.085821843
 30
0.0
 11
120.2808495618
 21
128.085821843
 31
0.0
  0
LINE
  5
B5
330
1F
100
AcDbEntity
  8
0
  6
Continuous
 62
     7
370
    25
100
AcDbLine
 10
120.4782210298
 20
117.1597316621
 30
0.0
 11
136.4782217897
 21
117.1597316621
 31
0.0
  0
LINE
  5
B6
330
1F
100
AcDbEntity
  8
0
  6
Continuous
 62
     7
370
    25
100
AcDbLine
 10
140.5345907442
 20
96.8287316843
 30
0.0
 11
140.5345907442
 21
113.4907314314
 31
0.0
  0
LINE
  5
B7
330
1F
100
AcDbEntity
  8
0
  6
Continuous
 62
     7
370
    25
100
AcDbLine
 10
140.4782215141
 20
97.1597311779
 30
0.0
 11
140.4782215141
 21
113.1597319378
 31
0.0
  0
LINE
  5
B8
330
1F
100
AcDbEntity
  8
0
  6
Continuous
 62
     7
370
    25
100
AcDbLine
 10
135.4782216258
 20
130.1597319304
 30
0.0
 11
121.4782211937
 21
130.1597319304
 31
0.0
  0
LINE
  5
B9
330
1F
100
AcDbEntity
  8
0
  6
Continuous
 62
     7
370
    25
100
AcDbLine
 10
134.2282214209
 20
112.4097313492
 30
0.0
 11
131.1239726383
 21
112.4097313492
 31
0.0
  0
LINE
  5
BA
330
1F
100
AcDbEntity
  8
0
  6
Continuous
 62
     7
370
    25
100
AcDbLine
 10
134.2282214209
 20
112.1597317739
 30
0.0
 11
134.2282214209
 21
112.4097313492
 31
0.0
  0
ARC
  5
BB
330
1F
100
AcDbEntity
  8
0
  6
Continuous
 62
     7
370
    25
100
AcDbCircle
 10
135.4782214098
 20
112.1597315578
 30
0.0
 40
1.25
100
AcDbArc
 50
180.0
 51
270.0
  0
LINE
  5
BC
330
1F
100
AcDbEntity
  8
0
  6
Continuous
 62
     7
370
    25
100
AcDbLine
 10
135.7282212011
 20
110.909731569
 30
0.0
 11
135.4782216258
 21
110.909731569
 31
0.0
  0
LINE
  5
BD
330
1F
100
AcDbEntity
  8
0
  6
Continuous
 62
     7
370
    25
100
AcDbLine
 10
135.7282212011
 20
107.8054827864
 30
0.0
 11
135.7282212011
 21
110.909731569
 31
0.0
  0
LINE
  5
BE
330
1F
100
AcDbEntity
  8
0
  6
Continuous
 62
     7
370
    25
100
AcDbLine
 10
135.7282212011
 20
107.8054827864
 30
0.0
 11
135.7282212011
 21
105.1597315578
 31
0.0
  0
LINE
  5
BF
330
1F
100
AcDbEntity
  8
0
  6
Continuous
 62
     7
370
    25
100
AcDbLine
 10
135.7282212011
 20
105.1597315578
 30
0.0
 11
135.7282212011
 21
102.5139803293
 31
0.0
  0
LINE
  5
C0
330
1F
100
AcDbEntity
  8
0
  6
Continuous
 62
     7
370
    25
100
AcDbLine
 10
135.7282212011
 20
99.4097315467
 30
0.0
 11
135.7282212011
 21
102.5139803293
 31
0.0
  0
LINE
  5
C1
330
1F
100
AcDbEntity
  8
0
  6
Continuous
 62
     7
370
    25
100
AcDbLine
 10
124.4782212198
 20
99.4097315467
 30
0.0
 11
135.7282212011
 21
99.4097315467
 31
0.0
  0
ARC
  5
C2
330
1F
100
AcDbEntity
  8
0
  6
Continuous
 62
     7
370
    25
100
AcDbCircle
 10
124.4782214098
 20
101.1597315578
 30
0.0
 40
1.75
100
AcDbArc
 50
180.0
 51
270.0
  0
LINE
  5
C3
330
1F
100
AcDbEntity
  8
0
  6
Continuous
 62
     7
370
    25
100
AcDbLine
 10
122.7282213986
 20
112.4097313492
 30
0.0
 11
122.7282213986
 21
101.1597313678
 31
0.0
  0
LINE
  5
C4
330
1F
100
AcDbEntity
  8
0
  6
Continuous
 62
     7
370
    25
100
AcDbLine
 10
125.8324701812
 20
112.4097313492
 30
0.0
 11
122.7282213986
 21
112.4097313492
 31
0.0
  0
LINE
  5
C5
330
1F
100
AcDbEntity
  8
0
  6
Continuous
 62
     7
370
    25
100
AcDbLine
 10
125.8324701812
 20
112.4097313492
 30
0.0
 11
128.4782214098
 21
112.4097313492
 31
0.0
  0
LINE
  5
C6
330
1F
100
AcDbEntity
  8
0
  6
Continuous
 62
     7
370
    25
100
AcDbLine
 10
128.4782214098
 20
112.4097313492
 30
0.0
 11
131.1239726383
 21
112.4097313492
 31
0.0
  0
LINE
  5
C7
330
1F
100
AcDbEntity
  8
0
  6
Continuous
 62
     7
370
    25
100
AcDbLine
 10
133.3301233135
 20
104.9787770659
 30
0.0
 11
134.3053987257
 21
102.2519496961
 31
0.0
  0
SPLINE
  5
C8
330
1F
100
AcDbEntity
  8
0
  6
Continuous
 62
     7
370
    25
100
AcDbSpline
210
0.0
220
0.0
230
1.0
 70
     8
 71
     3
 72
    14
 73
    10
 74
     0
 42
0.000000001
 43
0.00000001
 40
0.0
 40
0.0
 40
0.0
 40
0.0
 40
0.25
 40
0.25
 40
0.5
 40
0.5
 40
0.75
 40
0.75
 40
1.0
 40
1.0
 40
1.0
 40
1.0
 10
131.9564756393969
 20
104.9787770624772
 30
0.0
 10
132.0168720625958
 20
105.109414442782
 30
0.0
 10
132.1164016242531
 20
105.2194788079476
 30
0.0
 10
132.3574873149995
 20
105.3692560914207
 30
0.0
 10
132.4988043482929
 20
105.4096020285552
 30
0.0
 10
132.7863975624056
 20
105.4098604594847
 30
0.0
 10
132.9278552182945
 20
105.370039422387
 30
0.0
 10
133.1714751553928
 20
105.2186820082319
 30
0.0
 10
133.2697321543599
 20
105.1094027623322
 30
0.0
 10
133.3301231774396
 20
104.9787770624777
 30
0.0
  0
LINE
  5
C9
330
1F
100
AcDbEntity
  8
0
  6
Continuous
 62
     7
370
    25
100
AcDbLine
 10
130.9814265005
 20
102.252582297
 30
0.0
 11
131.9564756013
 21
104.9787770659
 31
0.0
  0
SPLINE
  5
CA
330
1F
100
AcDbEntity
  8
0
  6
Continuous
 62
     7
370
    25
100
AcDbSpline
210
0.0
220
0.0
230
1.0
 70
     8
 71
     3
 72
    10
 73
     6
 74
     0
 42
0.000000001
 43
0.00000001
 40
0.0
 40
0.0
 40
0.0
 40
0.0
 40
0.5
 40
0.5
 40
1.0
 40
1.0
 40
1.0
 40
1.0
 10
130.5808224639339
 20
102.1165486895495
 30
0.0
 10
130.6512743621909
 20
102.0777782274193
 30
0.0
 10
130.7366063572857
 20
102.0704558873658
 30
0.0
 10
130.8885922704473
 20
102.1194212024081
 30
0.0
 10
130.9542968357124
 20
102.1767292839328
 30
0.0
 10
130.9814264222614
 20
102.2525824125801
 30
0.0
  0
LINE
  5
CB
330
1F
100
AcDbEntity
  8
0
  6
Continuous
 62
     7
370
    25
100
AcDbLine
 10
129.8132129486
 20
102.5389728362
 30
0.0
 11
130.5808225188
 21
102.1165486651
 31
0.0
  0
LINE
  5
CC
330
1F
100
AcDbEntity
  8
0
  6
Continuous
 62
     7
370
    25
100
AcDbLine
 10
130.8130003054
 20
100.6330447032
 30
0.0
 11
129.8132129486
 21
102.5389728362
 31
0.0
  0
SPLINE
  5
CD
330
1F
100
AcDbEntity
  8
0
  6
Continuous
 62
     7
370
    25
100
AcDbSpline
210
0.0
220
0.0
230
1.0
 70
     8
 71
     3
 72
    10
 73
     6
 74
     0
 42
0.000000001
 43
0.00000001
 40
0.0
 40
0.0
 40
0.0
 40
0.0
 40
0.5
 40
0.5
 40
1.0
 40
1.0
 40
1.0
 40
1.0
 10
131.3033721541363
 20
100.5444704703292
 30
0.0
 10
131.2312611598143
 20
100.4804647005252
 30
0.0
 10
131.1301570329745
 20
100.4528793622717
 30
0.0
 10
130.9425991749345
 20
100.4866801222354
 30
0.0
 10
130.8577959493421
 20
100.5476490804058
 30
0.0
 10
130.8130003105586
 20
100.6330445115319
 30
0.0
  0
SPLINE
  5
CE
330
1F
100
AcDbEntity
  8
0
  6
Continuous
 62
     7
370
    25
100
AcDbSpline
210
0.0
220
0.0
230
1.0
 70
     8
 71
     3
 72
    14
 73
    10
 74
     0
 42
0.000000001
 43
0.00000001
 40
0.0
 40
0.0
 40
0.0
 40
0.0
 40
0.4999999999999987
 40
0.4999999999999987
 40
0.6249999999999988
 40
0.6249999999999988
 40
0.7499999999999993
 40
0.7499999999999993
 40
1.0
 40
1.0
 40
1.0
 40
1.0
 10
133.9832266627003
 20
100.5444704703291
 30
0.0
 10
133.6152061741304
 20
100.8711257175073
 30
0.0
 10
133.1311583904091
 20
101.0462485608994
 30
0.0
 10
132.5214326043375
 20
101.0462716593886
 30
0.0
 10
132.3983257456968
 20
101.0353047769986
 30
0.0
 10
132.1592576532399
 20
100.9924242930684
 30
0.0
 10
132.0420707211278
 20
100.960578436342
 30
0.0
 10
131.6978336588052
 20
100.8325720764132
 30
0.0
 10
131.4874028722381
 20
100.7078162664927
 30
0.0
 10
131.3033721541363
 20
100.5444704703292
 30
0.0
  0
SPLINE
  5
CF
330
1F
100
AcDbEntity
  8
0
  6
Continuous
 62
     7
370
    25
100
AcDbSpline
210
0.0
220
0.0
230
1.0
 70
     8
 71
     3
 72
    10
 73
     6
 74
     0
 42
0.000000001
 43
0.00000001
 40
0.0
 40
0.0
 40
0.0
 40
0.0
 40
0.5
 40
0.5
 40
1.0
 40
1.0
 40
1.0
 40
1.0
 10
134.4735985062782
 20
100.6330445115322
 30
0.0
 10
134.4287995168909
 20
100.5476426930375
 30
0.0
 10
134.3435156712334
 20
100.4864542432617
 30
0.0
 10
134.1560258116326
 20
100.4529437251886
 30
0.0
 10
134.0553467463133
 20
100.480456632864
 30
0.0
 10
133.9832266627003
 20
100.5444704703291
 30
0.0
  0
LINE
  5
D0
330
1F
100
AcDbEntity
  8
0
  6
Continuous
 62
     7
370
    25
100
AcDbLine
 10
135.4849453091
 20
102.5610090925
 30
0.0
 11
134.4735983766
 21
100.6330447032
 31
0.0
  0
LINE
  5
D1
330
1F
100
AcDbEntity
  8
0
  6
Continuous
 62
     7
370
    25
100
AcDbLine
 10
134.7099238083
 20
102.1181151497
 30
0.0
 11
135.4849453091
 21
102.5610090925
 31
0.0
  0
SPLINE
  5
D2
330
1F
100
AcDbEntity
  8
0
  6
Continuous
 62
     7
370
    25
100
AcDbSpline
210
0.0
220
0.0
230
1.0
 70
     8
 71
     3
 72
    10
 73
     6
 74
     0
 42
0.000000001
 43
0.00000001
 40
0.0
 40
0.0
 40
0.0
 40
0.0
 40
0.5
 40
0.5
 40
1.0
 40
1.0
 40
1.0
 40
1.0
 10
134.3053986963079
 20
102.2519496829042
 30
0.0
 10
134.3328408714981
 20
102.1752225701899
 30
0.0
 10
134.3999235021705
 20
102.1176153848248
 30
0.0
 10
134.5527313566307
 20
102.0696596359414
 30
0.0
 10
134.6393238417955
 20
102.0777699841881
 30
0.0
 10
134.7099239006462
 20
102.118115117185
 30
0.0
  0
SPLINE
  5
D3
330
1F
100
AcDbEntity
  8
0
  6
Continuous
 62
     7
370
    25
100
AcDbSpline
210
0.0
220
0.0
230
1.0
 70
     8
 71
     3
 72
     8
 73
     4
 74
     0
 42
0.000000001
 43
0.00000001
 40
0.0
 40
0.0
 40
0.0
 40
0.0
 40
1.0
 40
1.0
 40
1.0
 40
1.0
 10
122.4627204362327
 20
100.8629451481787
 30
0.0
 10
122.4502045785481
 20
100.96036056729
 30
0.0
 10
122.44373865113
 20
101.0592413048173
 30
0.0
 10
122.44373865113
 20
101.1597315578344
 30
0.0
  0
LINE
  5
D4
330
1F
100
AcDbEntity
  8
0
  6
Continuous
 62
     7
370
    25
100
AcDbLine
 10
134.8465078518
 20
111.5280179998
 30
0.0
 11
135.4782216258
 21
112.1597317739
 31
0.0
  0
SPLINE
  5
D5
330
1F
100
AcDbEntity
  8
0
  6
Continuous
 62
     7
370
    25
100
AcDbSpline
210
0.0
220
0.0
230
1.0
 70
     8
 71
     3
 72
    12
 73
     8
 74
     0
 42
0.000000001
 43
0.00000001
 40
0.0
 40
0.0
 40
0.0
 40
0.0
 40
0.2500000000000002
 40
0.2500000000000002
 40
0.5000000000000004
 40
0.5000000000000004
 40
1.0
 40
1.0
 40
1.0
 40
1.0
 10
134.5127041683714
 20
112.1597315578344
 30
0.0
 10
134.5127041683714
 20
112.0729257807178
 30
0.0
 10
134.5278030213096
 20
111.9894405821809
 30
0.0
 10
134.5752548794961
 20
111.8454603934427
 30
0.0
 10
134.6061598914123
 20
111.7862242605194
 30
0.0
 10
134.7054936431615
 20
111.6359106923624
 30
0.0
 10
134.777825914897
 20
111.5735419194337
 30
0.0
 10
134.846507898448
 20
111.5280180465317
 30
0.0
  0
LINE
  5
D6
330
1F
100
AcDbEntity
  8
0
  6
Continuous
 62
     7
370
    25
100
AcDbLine
 10
134.5127041459
 20
112.4097313492
 30
0.0
 11
134.5127041459
 21
112.1597317739
 31
0.0
  0
SPLINE
  5
D7
330
1F
100
AcDbEntity
  8
0
  6
Continuous
 62
     7
370
    25
100
AcDbSpline
210
0.0
220
0.0
230
1.0
 70
     8
 71
     3
 72
    14
 73
    10
 74
     0
 42
0.000000001
 43
0.00000001
 40
0.0
 40
0.0
 40
0.0
 40
0.0
 40
0.25
 40
0.25
 40
0.5
 40
0.5
 40
0.75
 40
0.75
 40
1.0
 40
1.0
 40
1.0
 40
1.0
 10
134.5127041683714
 20
112.4097315578344
 30
0.0
 10
134.5127041683714
 20
112.5015339524474
 30
0.0
 10
134.4871939744323
 20
112.5856978913628
 30
0.0
 10
134.4202276066428
 20
112.7127935719342
 30
0.0
 10
134.3784129740413
 20
112.7609160411853
 30
0.0
 10
134.2884524563598
 20
112.8362338209641
 30
0.0
 10
134.2394454642601
 20
112.8636100340574
 30
0.0
 10
134.1381316137208
 20
112.9001718846795
 30
0.0
 10
134.0852629970702
 20
112.9097315578344
 30
0.0
 10
134.0299455476817
 20
112.9097315578344
 30
0.0
  0
LINE
  5
D8
330
1F
100
AcDbEntity
  8
0
  6
Continuous
 62
     7
370
    25
100
AcDbLine
 10
131.0327398132
 20
112.9097314312
 30
0.0
 11
134.0299456388
 21
112.9097314312
 31
0.0
  0
SPLINE
  5
D9
330
1F
100
AcDbEntity
  8
0
  6
Continuous
 62
     7
370
    25
100
AcDbSpline
210
0.0
220
0.0
230
1.0
 70
    24
 71
     3
 72
    14
 73
    10
 74
     0
 42
0.000000001
 43
0.00000001
 40
0.0
 40
0.0
 40
0.0
 40
0.0
 40
0.25
 40
0.25
 40
0.5
 40
0.5
 40
0.75
 40
0.75
 40
1.0
 40
1.0
 40
1.0
 40
1.0
 10
128.4782214097507
 20
112.9097315578344
 30
0.0
 10
128.6935176402733
 20
112.9097315578344
 30
0.0
 10
128.9088150014165
 20
112.9097315578344
 30
0.0
 10
129.3385487660125
 20
112.9097315578344
 30
0.0
 10
129.552987435409
 20
112.9097315578344
 30
0.0
 10
129.9800772391191
 20
112.9097315578344
 30
0.0
 10
130.1927306505537
 20
112.9097315578344
 30
0.0
 10
130.615187353066
 20
112.9097315578344
 30
0.0
 10
130.8249929299513
 20
112.9097315578344
 30
0.0
 10
131.0327399169855
 20
112.9097315578344
 30
0.0
  0
SPLINE
  5
DA
330
1F
100
AcDbEntity
  8
0
  6
Continuous
 62
     7
370
    25
100
AcDbSpline
210
0.0
220
0.0
230
1.0
 70
    24
 71
     3
 72
    14
 73
    10
 74
     0
 42
0.000000001
 43
0.00000001
 40
0.0
 40
0.0
 40
0.0
 40
0.0
 40
0.25
 40
0.25
 40
0.5
 40
0.5
 40
0.75
 40
0.75
 40
1.0
 40
1.0
 40
1.0
 40
1.0
 10
128.4782214097507
 20
112.9097315578344
 30
0.0
 10
128.2629251792281
 20
112.9097315578344
 30
0.0
 10
128.0476278180849
 20
112.9097315578344
 30
0.0
 10
127.6178940534888
 20
112.9097315578344
 30
0.0
 10
127.4034553840924
 20
112.9097315578344
 30
0.0
 10
126.9763655803823
 20
112.9097315578344
 30
0.0
 10
126.7637121689477
 20
112.9097315578344
 30
0.0
 10
126.3412554664353
 20
112.9097315578344
 30
0.0
 10
126.1314498895501
 20
112.9097315578344
 30
0.0
 10
125.9237029025159
 20
112.9097315578344
 30
0.0
  0
LINE
  5
DB
330
1F
100
AcDbEntity
  8
0
  6
Continuous
 62
     7
370
    25
100
AcDbLine
 10
122.9264971807
 20
112.9097314312
 30
0.0
 11
125.9237030063
 21
112.9097314312
 31
0.0
  0
SPLINE
  5
DC
330
1F
100
AcDbEntity
  8
0
  6
Continuous
 62
     7
370
    25
100
AcDbSpline
210
0.0
220
0.0
230
1.0
 70
     8
 71
     3
 72
    14
 73
    10
 74
     0
 42
0.000000001
 43
0.00000001
 40
0.0
 40
0.0
 40
0.0
 40
0.0
 40
0.25
 40
0.25
 40
0.5
 40
0.5
 40
0.75
 40
0.75
 40
1.0
 40
1.0
 40
1.0
 40
1.0
 10
122.9264972718196
 20
112.9097315578344
 30
0.0
 10
122.8712184951941
 20
112.9097315578344
 30
0.0
 10
122.8182398170278
 20
112.9001829935983
 30
0.0
 10
122.7164983493016
 20
112.8633928754735
 30
0.0
 10
122.6674540755792
 20
112.8358418281853
 30
0.0
 10
122.578006030611
 20
112.7608387406151
 30
0.0
 10
122.5361314622864
 20
112.7126583604232
 30
0.0
 10
122.4692598340827
 20
112.5856949826463
 30
0.0
 10
122.44373865113
 20
112.5016725025576
 30
0.0
 10
122.44373865113
 20
112.4097315578344
 30
0.0
  0
LINE
  5
DD
330
1F
100
AcDbEntity
  8
0
  6
Continuous
 62
     7
370
    25
100
AcDbLine
 10
122.4437386736
 20
101.1597313678
 30
0.0
 11
122.4437386736
 21
112.4097313492
 31
0.0
  0
SPLINE
  5
DE
330
1F
100
AcDbEntity
  8
0
  6
Continuous
 62
     7
370
    25
100
AcDbSpline
210
0.0
220
0.0
230
1.0
 70
     8
 71
     3
 72
    12
 73
     8
 74
     0
 42
0.000000001
 43
0.00000001
 40
0.0
 40
0.0
 40
0.0
 40
0.0
 40
0.25
 40
0.25
 40
0.5
 40
0.5
 40
1.0
 40
1.0
 40
1.0
 40
1.0
 10
131.1106067727477
 20
112.5865082531296
 30
0.0
 10
131.1089126279218
 20
112.6007855548843
 30
0.0
 10
131.1069864183657
 20
112.6125006623057
 30
0.0
 10
131.1040709570752
 20
112.6315840200958
 30
0.0
 10
131.1030817053408
 20
112.6389522704646
 30
0.0
 10
131.1036210177934
 20
112.6557030334129
 30
0.0
 10
131.1086566496362
 20
112.6597315578344
 30
0.0
 10
131.1239727208153
 20
112.6597315578344
 30
0.0
  0
LINE
  5
DF
330
1F
100
AcDbEntity
  8
0
  6
Continuous
 62
     7
370
    25
100
AcDbLine
 10
131.1239726383
 20
112.6597313902
 30
0.0
 11
134.2282214209
 21
112.6597313902
 31
0.0
  0
LINE
  5
E0
330
1F
100
AcDbEntity
  8
0
  6
Continuous
 62
     7
370
    25
100
AcDbLine
 10
134.2282214209
 20
112.6597313902
 30
0.0
 11
134.2282214209
 21
112.4097313492
 31
0.0
  0
SPLINE
  5
E1
330
1F
100
AcDbEntity
  8
0
  6
Continuous
 62
     7
370
    25
100
AcDbSpline
210
0.0
220
0.0
230
1.0
 70
     8
 71
     3
 72
    10
 73
     6
 74
     0
 42
0.000000001
 43
0.00000001
 40
0.0
 40
0.0
 40
0.0
 40
0.0
 40
0.5
 40
0.5
 40
1.0
 40
1.0
 40
1.0
 40
1.0
 10
131.1106067727477
 20
112.5865082531296
 30
0.0
 10
131.1139950623995
 20
112.5579536496201
 30
0.0
 10
131.1173365494163
 20
112.5249321145433
 30
0.0
 10
131.1223253786243
 20
112.4619937073974
 30
0.0
 10
131.1239727208153
 20
112.4320768353283
 30
0.0
 10
131.1239727208153
 20
112.4097315578344
 30
0.0
  0
LINE
  5
E2
330
1F
100
AcDbEntity
  8
0
  6
Continuous
 62
     7
370
    25
100
AcDbLine
 10
122.7282213986
 20
112.6597313902
 30
0.0
 11
125.8324701812
 21
112.6597313902
 31
0.0
  0
SPLINE
  5
E3
330
1F
100
AcDbEntity
  8
0
  6
Continuous
 62
     7
370
    25
100
AcDbSpline
210
0.0
220
0.0
230
1.0
 70
     8
 71
     3
 72
    12
 73
     8
 74
     0
 42
0.000000001
 43
0.00000001
 40
0.0
 40
0.0
 40
0.0
 40
0.0
 40
0.25
 40
0.25
 40
0.5
 40
0.5
 40
1.0
 40
1.0
 40
1.0
 40
1.0
 10
125.8458360467537
 20
112.5865082531296
 30
0.0
 10
125.8475301915796
 20
112.6007855548843
 30
0.0
 10
125.8494564011357
 20
112.6125006623057
 30
0.0
 10
125.8523718624262
 20
112.6315840200958
 30
0.0
 10
125.8533611141606
 20
112.6389522704646
 30
0.0
 10
125.852821801708
 20
112.6557030334129
 30
0.0
 10
125.8477861698652
 20
112.6597315578344
 30
0.0
 10
125.8324700986861
 20
112.6597315578344
 30
0.0
  0
SPLINE
  5
E4
330
1F
100
AcDbEntity
  8
0
  6
Continuous
 62
     7
370
    25
100
AcDbSpline
210
0.0
220
0.0
230
1.0
 70
     8
 71
     3
 72
    10
 73
     6
 74
     0
 42
0.000000001
 43
0.00000001
 40
0.0
 40
0.0
 40
0.0
 40
0.0
 40
0.5
 40
0.5
 40
1.0
 40
1.0
 40
1.0
 40
1.0
 10
125.8458360467537
 20
112.5865082531296
 30
0.0
 10
125.8424477571019
 20
112.5579536496201
 30
0.0
 10
125.839106270085
 20
112.5249321145433
 30
0.0
 10
125.8341174408771
 20
112.4619937073974
 30
0.0
 10
125.8324700986861
 20
112.4320768353283
 30
0.0
 10
125.8324700986861
 20
112.4097315578344
 30
0.0
  0
LINE
  5
E5
330
1F
100
AcDbEntity
  8
0
  6
Continuous
 62
     7
370
    25
100
AcDbLine
 10
122.7282213986
 20
112.6597313902
 30
0.0
 11
122.7282213986
 21
112.4097313492
 31
0.0
  0
LINE
  5
E6
330
1F
100
AcDbEntity
  8
0
  6
Continuous
 62
     7
370
    25
100
AcDbLine
 10
135.9782212421
 20
110.909731569
 30
0.0
 11
135.9782212421
 21
107.8054827864
 31
0.0
  0
SPLINE
  5
E7
330
1F
100
AcDbEntity
  8
0
  6
Continuous
 62
     7
370
    25
100
AcDbSpline
210
0.0
220
0.0
230
1.0
 70
     8
 71
     3
 72
    12
 73
     8
 74
     0
 42
0.000000001
 43
0.00000001
 40
0.0
 40
0.0
 40
0.0
 40
0.0
 40
0.25
 40
0.25
 40
0.5
 40
0.5
 40
1.0
 40
1.0
 40
1.0
 40
1.0
 10
135.9049981050458
 20
107.7921169208314
 30
0.0
 10
135.9192754068005
 20
107.7904227760055
 30
0.0
 10
135.9309905142219
 20
107.7884965664494
 30
0.0
 10
135.9500738720121
 20
107.7855811051589
 30
0.0
 10
135.9574421223809
 20
107.7845918534245
 30
0.0
 10
135.9741928853292
 20
107.7851311658771
 30
0.0
 10
135.9782214097507
 20
107.7901667977199
 30
0.0
 10
135.9782214097507
 20
107.805482868899
 30
0.0
  0
SPLINE
  5
E8
330
1F
100
AcDbEntity
  8
0
  6
Continuous
 62
     7
370
    25
100
AcDbSpline
210
0.0
220
0.0
230
1.0
 70
     8
 71
     3
 72
    10
 73
     6
 74
     0
 42
0.000000001
 43
0.00000001
 40
0.0
 40
0.0
 40
0.0
 40
0.0
 40
0.5
 40
0.5
 40
1.0
 40
1.0
 40
1.0
 40
1.0
 10
135.9049981050458
 20
107.7921169208314
 30
0.0
 10
135.8764435015364
 20
107.7955052104832
 30
0.0
 10
135.8434219664596
 20
107.7988466975001
 30
0.0
 10
135.7804835593136
 20
107.803835526708
 30
0.0
 10
135.7505666872445
 20
107.805482868899
 30
0.0
 10
135.7282214097507
 20
107.805482868899
 30
0.0
  0
LINE
  5
E9
330
1F
100
AcDbEntity
  8
0
  6
Continuous
 62
     7
370
    25
100
AcDbLine
 10
135.7282212011
 20
110.909731569
 30
0.0
 11
135.9782212421
 21
110.909731569
 31
0.0
  0
SPLINE
  5
EA
330
1F
100
AcDbEntity
  8
0
  6
Continuous
 62
     7
370
    25
100
AcDbSpline
210
0.0
220
0.0
230
1.0
 70
     8
 71
     3
 72
    10
 73
     6
 74
     0
 42
0.000000001
 43
0.00000001
 40
0.0
 40
0.0
 40
0.0
 40
0.0
 40
0.5
 40
0.5
 40
1.0
 40
1.0
 40
1.0
 40
1.0
 10
135.9049981050458
 20
102.5273461948374
 30
0.0
 10
135.8764435015364
 20
102.5239579051857
 30
0.0
 10
135.8434219664596
 20
102.5206164181688
 30
0.0
 10
135.7804835593136
 20
102.5156275889609
 30
0.0
 10
135.7505666872445
 20
102.5139802467698
 30
0.0
 10
135.7282214097507
 20
102.5139802467698
 30
0.0
  0
SPLINE
  5
EB
330
1F
100
AcDbEntity
  8
0
  6
Continuous
 62
     7
370
    25
100
AcDbSpline
210
0.0
220
0.0
230
1.0
 70
     8
 71
     3
 72
    12
 73
     8
 74
     0
 42
0.000000001
 43
0.00000001
 40
0.0
 40
0.0
 40
0.0
 40
0.0
 40
0.25
 40
0.25
 40
0.5
 40
0.5
 40
1.0
 40
1.0
 40
1.0
 40
1.0
 10
135.9049981050458
 20
102.5273461948374
 30
0.0
 10
135.9192754068005
 20
102.5290403396633
 30
0.0
 10
135.9309905142219
 20
102.5309665492194
 30
0.0
 10
135.9500738720121
 20
102.5338820105099
 30
0.0
 10
135.9574421223809
 20
102.5348712622444
 30
0.0
 10
135.9741928853292
 20
102.5343319497917
 30
0.0
 10
135.9782214097507
 20
102.5292963179489
 30
0.0
 10
135.9782214097507
 20
102.5139802467698
 30
0.0
  0
LINE
  5
EC
330
1F
100
AcDbEntity
  8
0
  6
Continuous
 62
     7
370
    25
100
AcDbLine
 10
135.9782212421
 20
102.5139803293
 30
0.0
 11
135.9782212421
 21
99.4097315467
 31
0.0
  0
LINE
  5
ED
330
1F
100
AcDbEntity
  8
0
  6
Continuous
 62
     7
370
    25
100
AcDbLine
 10
135.7282212011
 20
99.4097315467
 30
0.0
 11
135.9782212421
 21
99.4097315467
 31
0.0
  0
SPLINE
  5
EE
330
1F
100
AcDbEntity
  8
0
  6
Continuous
 62
     7
370
    25
100
AcDbSpline
210
0.0
220
0.0
230
1.0
 70
    24
 71
     3
 72
    14
 73
    10
 74
     0
 42
0.000000001
 43
0.00000001
 40
0.0
 40
0.0
 40
0.0
 40
0.0
 40
0.25
 40
0.25
 40
0.5
 40
0.5
 40
0.75
 40
0.75
 40
1.0
 40
1.0
 40
1.0
 40
1.0
 10
136.2282214097507
 20
105.1597315578344
 30
0.0
 10
136.2282214097507
 20
104.9444353273118
 30
0.0
 10
136.2282214097507
 20
104.7291379661686
 30
0.0
 10
136.2282214097507
 20
104.2994042015726
 30
0.0
 10
136.2282214097507
 20
104.0849655321761
 30
0.0
 10
136.2282214097507
 20
103.657875728466
 30
0.0
 10
136.2282214097507
 20
103.4452223170315
 30
0.0
 10
136.2282214097507
 20
103.0227656145191
 30
0.0
 10
136.2282214097507
 20
102.8129600376338
 30
0.0
 10
136.2282214097507
 20
102.6052130505996
 30
0.0
  0
SPLINE
  5
EF
330
1F
100
AcDbEntity
  8
0
  6
Continuous
 62
     7
370
    25
100
AcDbSpline
210
0.0
220
0.0
230
1.0
 70
    24
 71
     3
 72
    14
 73
    10
 74
     0
 42
0.000000001
 43
0.00000001
 40
0.0
 40
0.0
 40
0.0
 40
0.0
 40
0.25
 40
0.25
 40
0.5
 40
0.5
 40
0.75
 40
0.75
 40
1.0
 40
1.0
 40
1.0
 40
1.0
 10
136.2282214097507
 20
105.1597315578344
 30
0.0
 10
136.2282214097507
 20
105.375027788357
 30
0.0
 10
136.2282214097507
 20
105.5903251495002
 30
0.0
 10
136.2282214097507
 20
106.0200589140963
 30
0.0
 10
136.2282214097507
 20
106.2344975834927
 30
0.0
 10
136.2282214097507
 20
106.6615873872028
 30
0.0
 10
136.2282214097507
 20
106.8742407986374
 30
0.0
 10
136.2282214097507
 20
107.2966975011498
 30
0.0
 10
136.2282214097507
 20
107.5065030780351
 30
0.0
 10
136.2282214097507
 20
107.7142500650692
 30
0.0
  0
LINE
  5
F0
330
1F
100
AcDbEntity
  8
0
  6
Continuous
 62
     7
370
    25
100
AcDbLine
 10
136.2282212831
 20
110.7114557868
 30
0.0
 11
136.2282212831
 21
107.7142499613
 31
0.0
  0
SPLINE
  5
F1
330
1F
100
AcDbEntity
  8
0
  6
Continuous
 62
     7
370
    25
100
AcDbSpline
210
0.0
220
0.0
230
1.0
 70
     8
 71
     3
 72
    14
 73
    10
 74
     0
 42
0.000000001
 43
0.00000001
 40
0.0
 40
0.0
 40
0.0
 40
0.0
 40
0.25
 40
0.25
 40
0.5
 40
0.5
 40
0.75
 40
0.75
 40
1.0
 40
1.0
 40
1.0
 40
1.0
 10
136.2282214097507
 20
110.7114556957655
 30
0.0
 10
136.2282214097507
 20
110.7667344723911
 30
0.0
 10
136.2186728455146
 20
110.8197131505573
 30
0.0
 10
136.1818827273897
 20
110.9214546182834
 30
0.0
 10
136.1543316801015
 20
110.9704988920059
 30
0.0
 10
136.0793285925314
 20
111.0599469369741
 30
0.0
 10
136.0311482123394
 20
111.1018215052987
 30
0.0
 10
135.9041848345626
 20
111.1686931335024
 30
0.0
 10
135.8201623544738
 20
111.1942143164551
 30
0.0
 10
135.7282214097507
 20
111.1942143164551
 30
0.0
  0
LINE
  5
F2
330
1F
100
AcDbEntity
  8
0
  6
Continuous
 62
     7
370
    25
100
AcDbLine
 10
135.4782216258
 20
111.194214294
 30
0.0
 11
135.7282212011
 21
111.194214294
 31
0.0
  0
SPLINE
  5
F3
330
1F
100
AcDbEntity
  8
0
  6
Continuous
 62
     7
370
    25
100
AcDbSpline
210
0.0
220
0.0
230
1.0
 70
     8
 71
     3
 72
    12
 73
     8
 74
     0
 42
0.000000001
 43
0.00000001
 40
0.0
 40
0.0
 40
0.0
 40
0.0
 40
0.4999999999999991
 40
0.4999999999999991
 40
0.7499999999999996
 40
0.7499999999999996
 40
1.0
 40
1.0
 40
1.0
 40
1.0
 10
134.846507898448
 20
111.5280180465317
 30
0.0
 10
134.8920317713499
 20
111.4593360629808
 30
0.0
 10
134.9544005442787
 20
111.3870037912452
 30
0.0
 10
135.1047141124357
 20
111.287670039496
 30
0.0
 10
135.1639502453589
 20
111.2567650275798
 30
0.0
 10
135.3079304340972
 20
111.2093131693933
 30
0.0
 10
135.3914156326341
 20
111.1942143164551
 30
0.0
 10
135.4782214097507
 20
111.1942143164551
 30
0.0
  0
SPLINE
  5
F4
330
1F
100
AcDbEntity
  8
0
  6
Continuous
 62
     7
370
    25
100
AcDbSpline
210
0.0
220
0.0
230
1.0
 70
     8
 71
     3
 72
     8
 73
     4
 74
     0
 42
0.000000001
 43
0.00000001
 40
0.0
 40
0.0
 40
0.0
 40
0.0
 40
1.0
 40
1.0
 40
1.0
 40
1.0
 10
124.4782214097507
 20
99.12524879921374
 30
0.0
 10
124.3777311567335
 20
99.12524879921374
 30
0.0
 10
124.2788504192063
 20
99.13171472663181
 30
0.0
 10
124.181435000095
 20
99.1442305843164
 30
0.0
  0
LINE
  5
F5
330
1F
100
AcDbEntity
  8
0
  6
Continuous
 62
     7
370
    25
100
AcDbLine
 10
135.7282212011
 20
99.1252488217
 30
0.0
 11
124.4782212198
 21
99.1252488217
 31
0.0
  0
SPLINE
  5
F6
330
1F
100
AcDbEntity
  8
0
  6
Continuous
 62
     7
370
    25
100
AcDbSpline
210
0.0
220
0.0
230
1.0
 70
     8
 71
     3
 72
    14
 73
    10
 74
     0
 42
0.000000001
 43
0.00000001
 40
0.0
 40
0.0
 40
0.0
 40
0.0
 40
0.25
 40
0.25
 40
0.5
 40
0.5
 40
0.75
 40
0.75
 40
1.0
 40
1.0
 40
1.0
 40
1.0
 10
135.7282214097507
 20
99.12524879921372
 30
0.0
 10
135.8200238043636
 20
99.12524879921374
 30
0.0
 10
135.904187743279
 20
99.15075899315286
 30
0.0
 10
136.0312834238504
 20
99.21772536094234
 30
0.0
 10
136.0794058931016
 20
99.2595399935438
 30
0.0
 10
136.1547236728803
 20
99.34950051122532
 30
0.0
 10
136.1820998859737
 20
99.39850750332502
 30
0.0
 10
136.2186617365958
 20
99.4998213538643
 30
0.0
 10
136.2282214097507
 20
99.55268997051492
 30
0.0
 10
136.2282214097507
 20
99.60800741990339
 30
0.0
  0
LINE
  5
F7
330
1F
100
AcDbEntity
  8
0
  6
Continuous
 62
     7
370
    25
100
AcDbLine
 10
136.2282212831
 20
102.6052131543
 30
0.0
 11
136.2282212831
 21
99.6080073288
 31
0.0
  0
SPLINE
  5
F8
330
1F
100
AcDbEntity
  8
0
  6
Continuous
 62
     7
370
    25
100
AcDbSpline
210
0.0
220
0.0
230
1.0
 70
    24
 71
     3
 72
    10
 73
     6
 74
     0
 42
0.000000001
 43
0.00000001
 40
0.0
 40
0.0
 40
0.0
 40
0.0
 40
0.5
 40
0.5
 40
1.0
 40
1.0
 40
1.0
 40
1.0
 10
135.979941167405
 20
105.1597315578344
 30
0.0
 10
135.9389727736087
 20
105.1597315578344
 30
0.0
 10
135.8950082638642
 20
105.1597315578344
 30
0.0
 10
135.8039616241204
 20
105.1597315578344
 30
0.0
 10
135.7710131835395
 20
105.1597315578344
 30
0.0
 10
135.7282214097507
 20
105.1597315578344
 30
0.0
  0
SPLINE
  5
F9
330
1F
100
AcDbEntity
  8
0
  6
Continuous
 62
     7
370
    25
100
AcDbSpline
210
0.0
220
0.0
230
1.0
 70
     8
 71
     3
 72
    12
 73
     8
 74
     0
 42
0.000000001
 43
0.00000001
 40
0.0
 40
0.0
 40
0.0
 40
0.0
 40
0.25
 40
0.25
 40
0.5
 40
0.5
 40
1.0
 40
1.0
 40
1.0
 40
1.0
 10
135.979941167405
 20
105.1597315578344
 30
0.0
 10
135.9696990689559
 20
105.3784206440408
 30
0.0
 10
135.9621598574026
 20
105.5968034454541
 30
0.0
 10
135.9478303417783
 20
106.0350735974819
 30
0.0
 10
135.9410400377072
 20
106.2549609480962
 30
0.0
 10
135.914807187254
 20
106.9200555019215
 30
0.0
 10
135.9051244705657
 20
107.3532432069935
 30
0.0
 10
135.9049981050458
 20
107.7921169208314
 30
0.0
  0
SPLINE
  5
FA
330
1F
100
AcDbEntity
  8
0
  6
Continuous
 62
     7
370
    25
100
AcDbSpline
210
0.0
220
0.0
230
1.0
 70
     8
 71
     3
 72
    12
 73
     8
 74
     0
 42
0.000000001
 43
0.00000001
 40
0.0
 40
0.0
 40
0.0
 40
0.0
 40
0.25
 40
0.25
 40
0.5
 40
0.5
 40
1.0
 40
1.0
 40
1.0
 40
1.0
 10
135.979941167405
 20
105.1597315578344
 30
0.0
 10
135.9696990689559
 20
104.9410424716281
 30
0.0
 10
135.9621598574026
 20
104.7226596702147
 30
0.0
 10
135.9478303417782
 20
104.284389518187
 30
0.0
 10
135.9410400377072
 20
104.0645021675726
 30
0.0
 10
135.914807187254
 20
103.3994076137474
 30
0.0
 10
135.9051244705657
 20
102.9662199086753
 30
0.0
 10
135.9049981050458
 20
102.5273461948374
 30
0.0
  0
SPLINE
  5
FB
330
1F
100
AcDbEntity
  8
0
  6
Continuous
 62
     7
370
    25
100
AcDbSpline
210
0.0
220
0.0
230
1.0
 70
    24
 71
     3
 72
    10
 73
     6
 74
     0
 42
0.000000001
 43
0.00000001
 40
0.0
 40
0.0
 40
0.0
 40
0.0
 40
0.5
 40
0.5
 40
1.0
 40
1.0
 40
1.0
 40
1.0
 10
128.4782214097507
 20
112.6614513154887
 30
0.0
 10
128.4782214097507
 20
112.6204829216925
 30
0.0
 10
128.4782214097507
 20
112.576518411948
 30
0.0
 10
128.4782214097507
 20
112.4854717722041
 30
0.0
 10
128.4782214097507
 20
112.4525233316233
 30
0.0
 10
128.4782214097507
 20
112.4097315578344
 30
0.0
  0
SPLINE
  5
FC
330
1F
100
AcDbEntity
  8
0
  6
Continuous
 62
     7
370
    25
100
AcDbSpline
210
0.0
220
0.0
230
1.0
 70
     8
 71
     3
 72
    12
 73
     8
 74
     0
 42
0.000000001
 43
0.00000001
 40
0.0
 40
0.0
 40
0.0
 40
0.0
 40
0.25
 40
0.25
 40
0.5
 40
0.5
 40
1.0
 40
1.0
 40
1.0
 40
1.0
 10
128.4782214097507
 20
112.6614513154887
 30
0.0
 10
128.2595323235443
 20
112.6512092170397
 30
0.0
 10
128.041149522131
 20
112.6436700054863
 30
0.0
 10
127.6028793701033
 20
112.629340489862
 30
0.0
 10
127.3829920194889
 20
112.622550185791
 30
0.0
 10
126.7178974656636
 20
112.5963173353377
 30
0.0
 10
126.2847097605916
 20
112.5866346186494
 30
0.0
 10
125.8458360467537
 20
112.5865082531296
 30
0.0
  0
SPLINE
  5
FD
330
1F
100
AcDbEntity
  8
0
  6
Continuous
 62
     7
370
    25
100
AcDbSpline
210
0.0
220
0.0
230
1.0
 70
     8
 71
     3
 72
    12
 73
     8
 74
     0
 42
0.000000001
 43
0.00000001
 40
0.0
 40
0.0
 40
0.0
 40
0.0
 40
0.25
 40
0.25
 40
0.5
 40
0.5
 40
1.0
 40
1.0
 40
1.0
 40
1.0
 10
128.4782214097507
 20
112.6614513154887
 30
0.0
 10
128.696910495957
 20
112.6512092170397
 30
0.0
 10
128.9152932973704
 20
112.6436700054863
 30
0.0
 10
129.3535634493981
 20
112.629340489862
 30
0.0
 10
129.5734508000125
 20
112.622550185791
 30
0.0
 10
130.2385453538377
 20
112.5963173353377
 30
0.0
 10
130.6717330589098
 20
112.5866346186494
 30
0.0
 10
131.1106067727477
 20
112.5865082531296
 30
0.0
  0
SPLINE
  5
FE
330
1F
100
AcDbEntity
  8
0
  6
Continuous
 62
     7
370
    25
100
AcDbSpline
210
0.0
220
0.0
230
1.0
 70
     8
 71
     3
 72
    10
 73
     6
 74
     0
 42
0.000000001
 43
0.00000001
 40
0.0
 40
0.0
 40
0.0
 40
0.0
 40
0.5
 40
0.5
 40
1.0
 40
1.0
 40
1.0
 40
1.0
 10
133.0989023690563
 20
104.8829088550842
 30
0.0
 10
133.0989023690563
 20
104.8829088550842
 30
0.0
 10
133.1239198764901
 20
104.8934897856146
 30
0.0
 10
133.2091367510008
 20
104.9290245766789
 30
0.0
 10
133.2698263374875
 20
104.9541020948732
 30
0.0
 10
133.3301231774396
 20
104.9787770624778
 30
0.0
  0
SPLINE
  5
FF
330
1F
100
AcDbEntity
  8
0
  6
Continuous
 62
     7
370
    25
100
AcDbSpline
210
0.0
220
0.0
230
1.0
 70
     8
 71
     3
 72
    14
 73
    10
 74
     0
 42
0.000000001
 43
0.00000001
 40
0.0
 40
0.0
 40
0.0
 40
0.0
 40
0.25
 40
0.25
 40
0.5
 40
0.5
 40
0.75
 40
0.75
 40
1.0
 40
1.0
 40
1.0
 40
1.0
 10
133.0989023690563
 20
104.8829088550842
 30
0.0
 10
133.0574543497545
 20
104.9677512995653
 30
0.0
 10
132.9915282945273
 20
105.0379086888614
 30
0.0
 10
132.8296859550677
 20
105.1347986286841
 30
0.0
 10
132.7370816893517
 20
105.1598280288689
 30
0.0
 10
132.5484354743973
 20
105.1596345320675
 30
0.0
 10
132.4555986163196
 20
105.1340613857732
 30
0.0
 10
132.2959868075326
 20
105.0384075617578
 30
0.0
 10
132.2291516473642
 20
104.9677659973164
 30
0.0
 10
132.1876964477804
 20
104.8829088550841
 30
0.0
  0
SPLINE
  5
100
330
1F
100
AcDbEntity
  8
0
  6
Continuous
 62
     7
370
    25
100
AcDbSpline
210
0.0
220
0.0
230
1.0
 70
     8
 71
     3
 72
    10
 73
     6
 74
     0
 42
0.000000001
 43
0.00000001
 40
0.0
 40
0.0
 40
0.0
 40
0.0
 40
0.5
 40
0.5
 40
1.0
 40
1.0
 40
1.0
 40
1.0
 10
132.1876964477804
 20
104.8829088550841
 30
0.0
 10
132.1876964477804
 20
104.8829088550841
 30
0.0
 10
132.1626789403463
 20
104.8934897856142
 30
0.0
 10
132.0774620658354
 20
104.9290245766785
 30
0.0
 10
132.0167724793494
 20
104.9541020948722
 30
0.0
 10
131.9564756393969
 20
104.9787770624772
 30
0.0
  0
LINE
  5
101
330
1F
100
AcDbEntity
  8
0
  6
Continuous
 62
     7
370
    25
100
AcDbLine
 10
132.1876964539
 20
104.8829088446
 30
0.0
 11
131.2168234035
 21
102.1683905034
 31
0.0
  0
LWPOLYLINE
  5
102
330
1F
100
AcDbEntity
  8
0
  6
Continuous
 62
     7
370
    25
100
AcDbPolyline
 90
        9
 70
   128
 43
0.0
 10
130.9814265005
 20
102.252582297
 10
131.0273500167
 20
102.236157492
 10
131.0715089094
 20
102.2203636582
 10
131.1122058432
 20
102.2058077848
 10
131.1478771277
 20
102.1930498297
 10
131.1771518558
 20
102.1825794356
 10
131.1989047572
 20
102.1747991669
 10
131.2123002026
 20
102.1700082107
 10
131.2168234035
 20
102.1683905034
  0
LWPOLYLINE
  5
103
330
1F
100
AcDbEntity
  8
0
  6
Continuous
 62
     7
370
    25
100
AcDbPolyline
 90
        9
 70
   128
 43
0.0
 10
134.3053987257
 20
102.2519496961
 10
134.2594752095
 20
102.2355246584
 10
134.215316084
 20
102.2197308245
 10
134.1746191501
 20
102.205175184
 10
134.1389480986
 20
102.192416996
 10
134.1096733704
 20
102.181946602
 10
134.087920469
 20
102.174166566
 10
134.0745247908
 20
102.169375377
 10
134.0700018227
 20
102.1677576697
  0
LINE
  5
104
330
1F
100
AcDbEntity
  8
0
  6
Continuous
 62
     7
370
    25
100
AcDbLine
 10
134.0700018227
 20
102.1677576697
 30
0.0
 11
133.0989024609
 21
104.8829088446
 31
0.0
  0
SPLINE
  5
105
330
1F
100
AcDbEntity
  8
0
  6
Continuous
 62
     7
370
    25
100
AcDbSpline
210
0.0
220
0.0
230
1.0
 70
     8
 71
     3
 72
     8
 73
     4
 74
     0
 42
0.000000001
 43
0.00000001
 40
0.0
 40
0.0
 40
0.0
 40
0.0
 40
1.0
 40
1.0
 40
1.0
 40
1.0
 10
131.0327399169855
 20
112.9097315578344
 30
0.0
 10
131.0287346867285
 20
112.8442788773983
 30
0.0
 10
131.034556999654
 20
112.77922931239
 30
0.0
 10
131.0473178090845
 20
112.7329488519077
 30
0.0
  0
SPLINE
  5
106
330
1F
100
AcDbEntity
  8
0
  6
Continuous
 62
     7
370
    25
100
AcDbSpline
210
0.0
220
0.0
230
1.0
 70
     8
 71
     3
 72
    12
 73
     8
 74
     0
 42
0.000000001
 43
0.00000001
 40
0.0
 40
0.0
 40
0.0
 40
0.0
 40
0.25
 40
0.25
 40
0.5
 40
0.5
 40
1.0
 40
1.0
 40
1.0
 40
1.0
 10
128.4782214097507
 20
112.6614513154887
 30
0.0
 10
128.696910495957
 20
112.6716934139378
 30
0.0
 10
128.9140894009655
 20
112.6863761284012
 30
0.0
 10
129.3454384355459
 20
112.7181985190591
 30
0.0
 10
129.5596085651179
 20
112.7353381952535
 30
0.0
 10
130.1976231711177
 20
112.7808062609871
 30
0.0
 10
130.6271497944539
 20
112.7739734099229
 30
0.0
 10
131.0473178090845
 20
112.7329488519077
 30
0.0
  0
SPLINE
  5
107
330
1F
100
AcDbEntity
  8
0
  6
Continuous
 62
     7
370
    25
100
AcDbSpline
210
0.0
220
0.0
230
1.0
 70
    24
 71
     3
 72
    10
 73
     6
 74
     0
 42
0.000000001
 43
0.00000001
 40
0.0
 40
0.0
 40
0.0
 40
0.0
 40
0.5
 40
0.5
 40
1.0
 40
1.0
 40
1.0
 40
1.0
 10
128.4782214097507
 20
112.6614513154887
 30
0.0
 10
128.4782214097507
 20
112.702419709285
 30
0.0
 10
128.4782214097507
 20
112.7458751563569
 30
0.0
 10
128.4782214097507
 20
112.8349610015742
 30
0.0
 10
128.4782214097507
 20
112.8673482301895
 30
0.0
 10
128.4782214097507
 20
112.9097315578344
 30
0.0
  0
SPLINE
  5
108
330
1F
100
AcDbEntity
  8
0
  6
Continuous
 62
     7
370
    25
100
AcDbSpline
210
0.0
220
0.0
230
1.0
 70
     8
 71
     3
 72
    12
 73
     8
 74
     0
 42
0.000000001
 43
0.00000001
 40
0.0
 40
0.0
 40
0.0
 40
0.0
 40
0.25
 40
0.25
 40
0.5
 40
0.5
 40
1.0
 40
1.0
 40
1.0
 40
1.0
 10
128.4782214097507
 20
112.6614513154887
 30
0.0
 10
128.2595323235443
 20
112.6716934139378
 30
0.0
 10
128.0423534185358
 20
112.6863761284012
 30
0.0
 10
127.6110043839554
 20
112.7181985190591
 30
0.0
 10
127.3968342543835
 20
112.7353381952535
 30
0.0
 10
126.7588196483836
 20
112.7808062609871
 30
0.0
 10
126.3292930250475
 20
112.7739734099229
 30
0.0
 10
125.9091250104168
 20
112.7329488519077
 30
0.0
  0
SPLINE
  5
109
330
1F
100
AcDbEntity
  8
0
  6
Continuous
 62
     7
370
    25
100
AcDbSpline
210
0.0
220
0.0
230
1.0
 70
     8
 71
     3
 72
    10
 73
     6
 74
     0
 42
0.000000001
 43
0.00000001
 40
0.0
 40
0.0
 40
0.0
 40
0.0
 40
0.5
 40
0.5
 40
1.0
 40
1.0
 40
1.0
 40
1.0
 10
125.9091250104168
 20
112.7329488519077
 30
0.0
 10
125.9164169908745
 20
112.7615026738713
 30
0.0
 10
125.9203141534993
 20
112.7958627056037
 30
0.0
 10
125.923850357481
 20
112.8589055301328
 30
0.0
 10
125.9237029025159
 20
112.8873844401111
 30
0.0
 10
125.9237029025159
 20
112.9097315578344
 30
0.0
  0
SPLINE
  5
10A
330
1F
100
AcDbEntity
  8
0
  6
Continuous
 62
     7
370
    25
100
AcDbSpline
210
0.0
220
0.0
230
1.0
 70
     8
 71
     3
 72
    14
 73
    10
 74
     0
 42
0.000000001
 43
0.00000001
 40
0.0
 40
0.0
 40
0.0
 40
0.0
 40
0.25
 40
0.25
 40
0.5
 40
0.5
 40
0.75
 40
0.75
 40
1.0
 40
1.0
 40
1.0
 40
1.0
 10
135.979941167405
 20
105.1597315578344
 30
0.0
 10
135.9901832658541
 20
105.3784206440408
 30
0.0
 10
136.0048659803175
 20
105.5955995490493
 30
0.0
 10
136.0366883709753
 20
106.0269485836297
 30
0.0
 10
136.0538280471698
 20
106.2411187132016
 30
0.0
 10
136.0841400909922
 20
106.6664617838682
 30
0.0
 10
136.0900098891817
 20
106.8801792073689
 30
0.0
 10
136.0839153351014
 20
107.3063202903612
 30
0.0
 10
136.0719509828316
 20
107.5187439498529
 30
0.0
 10
136.051438703824
 20
107.7288279571682
 30
0.0
  0
SPLINE
  5
10B
330
1F
100
AcDbEntity
  8
0
  6
Continuous
 62
     7
370
    25
100
AcDbSpline
210
0.0
220
0.0
230
1.0
 70
     8
 71
     3
 72
     8
 73
     4
 74
     0
 42
0.000000001
 43
0.00000001
 40
0.0
 40
0.0
 40
0.0
 40
0.0
 40
1.0
 40
1.0
 40
1.0
 40
1.0
 10
136.051438703824
 20
107.7288279571682
 30
0.0
 10
136.0977191643063
 20
107.7160671477377
 30
0.0
 10
136.1627687293145
 20
107.7102448348122
 30
0.0
 10
136.2282214097507
 20
107.7142500650692
 30
0.0
  0
SPLINE
  5
10C
330
1F
100
AcDbEntity
  8
0
  6
Continuous
 62
     7
370
    25
100
AcDbSpline
210
0.0
220
0.0
230
1.0
 70
    24
 71
     3
 72
    10
 73
     6
 74
     0
 42
0.000000001
 43
0.00000001
 40
0.0
 40
0.0
 40
0.0
 40
0.0
 40
0.5
 40
0.5
 40
1.0
 40
1.0
 40
1.0
 40
1.0
 10
135.979941167405
 20
105.1597315578344
 30
0.0
 10
136.0209095612013
 20
105.1597315578344
 30
0.0
 10
136.0643650082732
 20
105.1597315578344
 30
0.0
 10
136.1534508534904
 20
105.1597315578344
 30
0.0
 10
136.1858380821057
 20
105.1597315578344
 30
0.0
 10
136.2282214097507
 20
105.1597315578344
 30
0.0
  0
SPLINE
  5
10D
330
1F
100
AcDbEntity
  8
0
  6
Continuous
 62
     7
370
    25
100
AcDbSpline
210
0.0
220
0.0
230
1.0
 70
     8
 71
     3
 72
    10
 73
     6
 74
     0
 42
0.000000001
 43
0.00000001
 40
0.0
 40
0.0
 40
0.0
 40
0.0
 40
0.5
 40
0.5
 40
1.0
 40
1.0
 40
1.0
 40
1.0
 10
136.051438703824
 20
102.5906351585006
 30
0.0
 10
136.0799925257875
 20
102.5979271389582
 30
0.0
 10
136.11435255752
 20
102.6018243015831
 30
0.0
 10
136.1773953820491
 20
102.6053605055648
 30
0.0
 10
136.2058742920273
 20
102.6052130505996
 30
0.0
 10
136.2282214097507
 20
102.6052130505996
 30
0.0
  0
SPLINE
  5
10E
330
1F
100
AcDbEntity
  8
0
  6
Continuous
 62
     7
370
    25
100
AcDbSpline
210
0.0
220
0.0
230
1.0
 70
     8
 71
     3
 72
    14
 73
    10
 74
     0
 42
0.000000001
 43
0.00000001
 40
0.0
 40
0.0
 40
0.0
 40
0.0
 40
0.25
 40
0.25
 40
0.5
 40
0.5
 40
0.75
 40
0.75
 40
1.0
 40
1.0
 40
1.0
 40
1.0
 10
135.979941167405
 20
105.1597315578344
 30
0.0
 10
135.9901832658541
 20
104.9410424716281
 30
0.0
 10
136.0048659803175
 20
104.7238635666196
 30
0.0
 10
136.0366883709753
 20
104.2925145320392
 30
0.0
 10
136.0538280471698
 20
104.0783444024672
 30
0.0
 10
136.0841400909922
 20
103.6530013318007
 30
0.0
 10
136.0900098891817
 20
103.4392839083
 30
0.0
 10
136.0839153351014
 20
103.0131428253076
 30
0.0
 10
136.0719509828316
 20
102.8007191658159
 30
0.0
 10
136.051438703824
 20
102.5906351585006
 30
0.0
  0
SPLINE
  5
10F
330
1F
100
AcDbEntity
  8
0
  6
Continuous
 62
     7
370
    25
100
AcDbSpline
210
0.0
220
0.0
230
1.0
 70
     8
 71
     3
 72
    15
 73
    11
 74
     0
 42
0.000000001
 43
0.00000001
 40
0.0
 40
0.0
 40
0.0
 40
0.0
 40
0.0425877399909041
 40
0.1028282325346875
 40
0.1864706729280299
 40
0.2956205441869006
 40
0.4311891005861807
 40
0.5936297641565581
 40
0.7831876993469636
 40
1.0
 40
1.0
 40
1.0
 40
1.0
 10
135.9782214097507
 20
107.805482868899
 30
0.0
 10
135.9782272028528
 20
107.8026635454185
 30
0.0
 10
135.9782411903162
 20
107.7958562799824
 30
0.0
 10
135.978732891148
 20
107.7873160836415
 30
0.0
 10
135.9803602451065
 20
107.7780184011111
 30
0.0
 10
135.9841853934906
 20
107.7682106654841
 30
0.0
 10
135.9915577035314
 20
107.757885019435
 30
0.0
 10
136.0041756925083
 20
107.747418307983
 30
0.0
 10
136.0234198947124
 20
107.7370850727423
 30
0.0
 10
136.0416906410827
 20
107.7317007017006
 30
0.0
 10
136.051438703824
 20
107.7288279571682
 30
0.0
  0
SPLINE
  5
110
330
1F
100
AcDbEntity
  8
0
  6
Continuous
 62
     7
370
    25
100
AcDbSpline
210
0.0
220
0.0
230
1.0
 70
     8
 71
     3
 72
    12
 73
     8
 74
     0
 42
0.000000001
 43
0.00000001
 40
0.0
 40
0.0
 40
0.0
 40
0.0
 40
0.25
 40
0.25
 40
0.5
 40
0.5
 40
1.0
 40
1.0
 40
1.0
 40
1.0
 10
125.9091250104168
 20
112.7329488519077
 30
0.0
 10
125.905479020188
 20
112.7186719409259
 30
0.0
 10
125.9009224872556
 20
112.7059094046764
 30
0.0
 10
125.8903038732717
 20
112.6847626517975
 30
0.0
 10
125.8842417922201
 20
112.6763784351682
 30
0.0
 10
125.8642705328191
 20
112.6598176199439
 30
0.0
 10
125.8489197398499
 20
112.6597315578344
 30
0.0
 10
125.8324700986861
 20
112.6597315578344
 30
0.0
  0
SPLINE
  5
111
330
1F
100
AcDbEntity
  8
0
  6
Continuous
 62
     7
370
    25
100
AcDbSpline
210
0.0
220
0.0
230
1.0
 70
     8
 71
     3
 72
    12
 73
     8
 74
     0
 42
0.000000001
 43
0.00000001
 40
0.0
 40
0.0
 40
0.0
 40
0.0
 40
0.25
 40
0.25
 40
0.5
 40
0.5
 40
1.0
 40
1.0
 40
1.0
 40
1.0
 10
136.051438703824
 20
102.5906351585006
 30
0.0
 10
136.0371617928422
 20
102.5869891682718
 30
0.0
 10
136.0243992565926
 20
102.5824326353394
 30
0.0
 10
136.0032525037138
 20
102.5718140213554
 30
0.0
 10
135.9948682870844
 20
102.5657519403039
 30
0.0
 10
135.9783074718602
 20
102.5457806809029
 30
0.0
 10
135.9782214097507
 20
102.5304298879337
 30
0.0
 10
135.9782214097507
 20
102.5139802467698
 30
0.0
  0
SPLINE
  5
112
330
1F
100
AcDbEntity
  8
0
  6
Continuous
 62
     7
370
    25
100
AcDbSpline
210
0.0
220
0.0
230
1.0
 70
     8
 71
     3
 72
    14
 73
    10
 74
     0
 42
0.000000001
 43
0.00000001
 40
0.0
 40
0.0
 40
0.0
 40
0.0
 40
0.2455893235675696
 40
0.4556181963142487
 40
0.6303106213393677
 40
0.7701164303669036
 40
0.8759901151610805
 40
0.9502659312389182
 40
1.0
 40
1.0
 40
1.0
 40
1.0
 10
131.0473178090845
 20
112.7329488519077
 30
0.0
 10
131.0506093865577
 20
112.7219838125924
 30
0.0
 10
131.0567159329239
 20
112.7016414322203
 30
0.0
 10
131.068638923183
 20
112.6814894197438
 30
0.0
 10
131.0805680056976
 20
112.6693698602729
 30
0.0
 10
131.0920152130617
 20
112.6631640370405
 30
0.0
 10
131.1029007381085
 20
112.6605443380667
 30
0.0
 10
131.1125879998996
 20
112.6597641437217
 30
0.0
 10
131.1207138534929
 20
112.6597408855188
 30
0.0
 10
131.1239727208153
 20
112.6597315578344
 30
0.0
  0
ARC
  5
113
330
1F
100
AcDbEntity
  8
0
  6
Continuous
 62
     7
370
    25
100
AcDbCircle
 10
134.2282214098
 20
112.4097315578
 30
0.0
 40
0.25
100
AcDbArc
 50
0.0
 51
90.0
  0
LINE
  5
114
330
1F
100
AcDbEntity
  8
0
  6
Continuous
 62
     7
370
    25
100
AcDbLine
 10
134.2282214209
 20
112.4097313492
 30
0.0
 11
134.4782214619
 21
112.4097313492
 31
0.0
  0
LINE
  5
115
330
1F
100
AcDbEntity
  8
0
  6
Continuous
 62
     7
370
    25
100
AcDbLine
 10
122.7282213986
 20
101.1597313678
 30
0.0
 11
122.4782213576
 21
101.1597313678
 31
0.0
  0
LINE
  5
116
330
1F
100
AcDbEntity
  8
0
  6
Continuous
 62
     7
370
    25
100
AcDbLine
 10
122.4782213576
 20
101.1597313678
 30
0.0
 11
122.4782213576
 21
112.4097313492
 31
0.0
  0
LINE
  5
117
330
1F
100
AcDbEntity
  8
0
  6
Continuous
 62
     7
370
    25
100
AcDbLine
 10
122.4782213576
 20
112.4097313492
 30
0.0
 11
122.7282213986
 21
112.4097313492
 31
0.0
  0
ARC
  5
118
330
1F
100
AcDbEntity
  8
0
  6
Continuous
 62
     7
370
    25
100
AcDbCircle
 10
135.4782214098
 20
112.1597315578
 30
0.0
 40
1.0
100
AcDbArc
 50
180.0
 51
270.0
  0
LINE
  5
119
330
1F
100
AcDbEntity
  8
0
  6
Continuous
 62
     7
370
    25
100
AcDbLine
 10
135.4782216258
 20
111.15973161
 30
0.0
 11
135.4782216258
 21
110.909731569
 31
0.0
  0
LINE
  5
11A
330
1F
100
AcDbEntity
  8
0
  6
Continuous
 62
     7
370
    25
100
AcDbLine
 10
134.4782214619
 20
112.1597317739
 30
0.0
 11
134.2282214209
 21
112.1597317739
 31
0.0
  0
LINE
  5
11B
330
1F
100
AcDbEntity
  8
0
  6
Continuous
 62
     7
370
    25
100
AcDbLine
 10
134.4782214619
 20
112.4097313492
 30
0.0
 11
134.4782214619
 21
112.1597317739
 31
0.0
  0
SPLINE
  5
11C
330
1F
100
AcDbEntity
  8
0
  6
Continuous
 62
     7
370
    25
100
AcDbSpline
210
0.0
220
0.0
230
1.0
 70
     8
 71
     3
 72
    23
 73
    19
 74
     0
 42
0.000000001
 43
0.00000001
 40
0.0
 40
0.0
 40
0.0
 40
0.0
 40
0.0000210594021204
 40
0.0000210594021204
 40
0.0000210594021204
 40
0.0000429122282046
 40
0.0000429122282046
 40
0.0000429122282046
 40
0.0000655452306719
 40
0.0000655452306719
 40
0.0000655452306719
 40
0.000088492665435
 40
0.000088492665435
 40
0.000088492665435
 40
0.0001110534468608
 40
0.0001110534468608
 40
0.0001110534468608
 40
0.000119364715226
 40
0.000119364715226
 40
0.000119364715226
 40
0.000119364715226
 10
131.0343892119407
 20
100.7491778587875
 30
0.0
 10
131.0376501437533
 20
100.7429614349219
 30
0.0
 10
131.042054075043
 20
100.7372399309871
 30
0.0
 10
131.0471929903171
 20
100.7324577607926
 30
0.0
 10
131.052524723208
 20
100.7274961584396
 30
0.0
 10
131.0587939819119
 20
100.723403342405
 30
0.0
 10
131.0654602730558
 20
100.7204698400761
 30
0.0
 10
131.0723624209578
 20
100.7174325489486
 30
0.0
 10
131.0798821538482
 20
100.7155505053851
 30
0.0
 10
131.0873990462114
 20
100.7149495792204
 30
0.0
 10
131.0950185471031
 20
100.7143404501779
 30
0.0
 10
131.1028482535069
 20
100.7150304109166
 30
0.0
 10
131.1102409954838
 20
100.7169733978165
 30
0.0
 10
131.117509329976
 20
100.718883687496
 30
0.0
 10
131.1245571680361
 20
100.7220606408759
 30
0.0
 10
131.1307759639832
 20
100.7262801752008
 30
0.0
 10
131.1330958340706
 20
100.7278542373741
 30
0.0
 10
131.1353190994997
 20
100.729581329806
 30
0.0
 10
131.1374157830168
 20
100.7314423475858
 30
0.0
  0
LWPOLYLINE
  5
11D
330
1F
100
AcDbEntity
  8
0
  6
Continuous
 62
     7
370
    25
100
AcDbPolyline
 90
        9
 70
   128
 43
0.0
 10
131.137415814
 20
100.7314421928
 10
131.1406046625
 20
100.727849616
 10
131.1500485062
 20
100.7172101869
 10
131.1653843622
 20
100.6999318248
 10
131.186023169
 20
100.6766794941
 10
131.2111716725
 20
100.6483463331
 10
131.2398633927
 20
100.6160215235
 10
131.2709956437
 20
100.580946984
 10
131.3033721417
 20
100.5444703384
  0
LWPOLYLINE
  5
11E
330
1F
100
AcDbEntity
  8
0
  6
Continuous
 62
     7
370
    25
100
AcDbPolyline
 90
        9
 70
   128
 43
0.0
 10
131.0343891855
 20
100.7491778343
 10
131.0301353697
 20
100.7469463854
 10
131.0175369035
 20
100.7403377204
 10
130.9970785405
 20
100.7296060904
 10
130.9695458513
 20
100.7151631399
 10
130.9359972838
 20
100.6975648685
 10
130.8977222543
 20
100.6774869508
 10
130.8561910882
 20
100.6557009874
 10
130.8130003054
 20
100.6330447032
  0
LINE
  5
11F
330
1F
100
AcDbEntity
  8
0
  6
Continuous
 62
     7
370
    25
100
AcDbLine
 10
135.7282212011
 20
99.4097315467
 30
0.0
 11
135.7282212011
 21
99.1597315057
 31
0.0
  0
LINE
  5
120
330
1F
100
AcDbEntity
  8
0
  6
Continuous
 62
     7
370
    25
100
AcDbLine
 10
135.7282212011
 20
99.1597315057
 30
0.0
 11
124.4782212198
 21
99.1597315057
 31
0.0
  0
LINE
  5
121
330
1F
100
AcDbEntity
  8
0
  6
Continuous
 62
     7
370
    25
100
AcDbLine
 10
124.4782212198
 20
99.4097315467
 30
0.0
 11
124.4782212198
 21
99.1597315057
 31
0.0
  0
LWPOLYLINE
  5
122
330
1F
100
AcDbEntity
  8
0
  6
Continuous
 62
     7
370
    25
100
AcDbPolyline
 90
       10
 70
   128
 43
0.0
 10
134.8660730764
 20
101.9194065353
 10
134.8754752435
 20
101.9291537574
 10
134.9033958286
 20
101.9580999615
 10
134.9489863969
 20
102.0053650478
 10
135.0108616061
 20
102.069512917
 10
135.0871420473
 20
102.1485950092
 10
135.1755091928
 20
102.2402078139
 10
135.2732785053
 20
102.3415680735
 10
135.3774795316
 20
102.4495961371
 10
135.4849453091
 20
102.5610090925
  0
LINE
  5
123
330
1F
100
AcDbEntity
  8
0
  6
Continuous
 62
     7
370
    25
100
AcDbLine
 10
134.8660730764
 20
101.9194065353
 30
0.0
 11
134.833963868
 21
101.9010573851
 31
0.0
  0
LWPOLYLINE
  5
124
330
1F
100
AcDbEntity
  8
0
  6
Continuous
 62
     7
370
    25
100
AcDbPolyline
 90
        9
 70
   128
 43
0.0
 10
134.7099238083
 20
102.1181151497
 10
134.7341228284
 20
102.0757693092
 10
134.7573919229
 20
102.0350507221
 10
134.7788370222
 20
101.9975242431
 10
134.79763344
 20
101.9646320252
 10
134.8130594015
 20
101.9376381061
 10
134.8245216541
 20
101.9175797461
 10
134.8315806135
 20
101.9052280805
 10
134.833963868
 20
101.9010573851
  0
SPLINE
  5
125
330
1F
100
AcDbEntity
  8
0
  6
Continuous
 62
     7
370
    25
100
AcDbSpline
210
0.0
220
0.0
230
1.0
 70
     8
 71
     3
 72
    10
 73
     6
 74
     0
 42
0.000000001
 43
0.00000001
 40
0.0
 40
0.0
 40
0.0
 40
0.0
 40
0.5
 40
0.5
 40
1.0
 40
1.0
 40
1.0
 40
1.0
 10
134.8339638319557
 20
101.9010573012908
 30
0.0
 10
134.6995292843638
 20
101.8242332902309
 30
0.0
 10
134.5338639172022
 20
101.8099837997455
 30
0.0
 10
134.2450844754922
 20
101.9080698547897
 30
0.0
 10
134.1222016870514
 20
102.0218090491073
 30
0.0
 10
134.0700017586379
 20
102.1677577489938
 30
0.0
  0
SPLINE
  5
126
330
1F
100
AcDbEntity
  8
0
  6
Continuous
 62
     7
370
    25
100
AcDbSpline
210
0.0
220
0.0
230
1.0
 70
     8
 71
     3
 72
    23
 73
    19
 74
     0
 42
0.000000001
 43
0.00000001
 40
0.0
 40
0.0
 40
0.0
 40
0.0
 40
0.0000221251499261
 40
0.0000221251499261
 40
0.0000221251499261
 40
0.0000448428854419
 40
0.0000448428854419
 40
0.0000448428854419
 40
0.000067774629955
 40
0.000067774629955
 40
0.000067774629955
 40
0.0000902663208602
 40
0.0000902663208602
 40
0.0000902663208602
 40
0.000111841557339
 40
0.000111841557339
 40
0.000111841557339
 40
0.0001193253350659
 40
0.0001193253350659
 40
0.0001193253350659
 40
0.0001193253350659
 10
134.1491830338197
 20
100.7314423475858
 30
0.0
 10
134.1546987415747
 20
100.7265466014628
 30
0.0
 10
134.1611523758699
 20
100.7225607272718
 30
0.0
 10
134.1679795881283
 20
100.7197713662486
 30
0.0
 10
134.1749889570888
 20
100.7169075823444
 30
0.0
 10
134.1825885892728
 20
100.7152212657149
 30
0.0
 10
134.1901500553683
 20
100.7148253592102
 30
0.0
 10
134.197781486456
 20
100.7144257894484
 30
0.0
 10
134.2055876896607
 20
100.7153293190312
 30
0.0
 10
134.2129220225292
 20
100.7174754685634
 30
0.0
 10
134.220115936341
 20
100.7195805291106
 30
0.0
 10
134.2270554611964
 20
100.7229420803932
 30
0.0
 10
134.2331385413543
 20
100.7273215565756
 30
0.0
 10
134.2389755728375
 20
100.7315238915266
 30
0.0
 10
134.244182849423
 20
100.7367825151288
 30
0.0
 10
134.2482804168057
 20
100.7426935638615
 30
0.0
 10
134.2497202329334
 20
100.7447706067755
 30
0.0
 10
134.2510355958691
 20
100.7469398059389
 30
0.0
 10
134.2522096048959
 20
100.7491778587875
 30
0.0
  0
LWPOLYLINE
  5
127
330
1F
100
AcDbEntity
  8
0
  6
Continuous
 62
     7
370
    25
100
AcDbPolyline
 90
        9
 70
   128
 43
0.0
 10
134.2522094965
 20
100.7491778343
 10
134.2564633123
 20
100.7469463854
 10
134.2690617785
 20
100.7403377204
 10
134.2895201415
 20
100.7296060904
 10
134.3170528307
 20
100.7151631399
 10
134.3506013982
 20
100.6975648685
 10
134.3888764277
 20
100.6774869508
 10
134.4304078266
 20
100.6557009874
 10
134.4735983766
 20
100.6330447032
  0
LWPOLYLINE
  5
128
330
1F
100
AcDbEntity
  8
0
  6
Continuous
 62
     7
370
    25
100
AcDbPolyline
 90
        9
 70
   128
 43
0.0
 10
134.149182868
 20
100.7314421928
 10
134.1459940195
 20
100.727849616
 10
134.1365504086
 20
100.7172101869
 10
134.1212143197
 20
100.6999318248
 10
134.1005757458
 20
100.6766794941
 10
134.0754272424
 20
100.6483463331
 10
134.0467355221
 20
100.6160215235
 10
134.0156032711
 20
100.580946984
 10
133.9832267731
 20
100.5444703384
  0
ELLIPSE
  5
129
330
1F
100
AcDbEntity
  8
0
  6
Continuous
 62
     7
370
    25
100
AcDbEllipse
 10
132.64329941
 20
102.8557847935
 30
0.0
 11
0.0653756970743018
 21
0.0
 31
0.0
210
0.0
220
0.0
230
1.0
 40
0.9531667975
 41
0.3430239404201333
 42
2.798568713169299
  0
LINE
  5
12A
330
1F
100
AcDbEntity
  8
0
  6
Continuous
 62
     7
370
    25
100
AcDbLine
 10
132.7048663989
 20
102.8767432778
 30
0.0
 11
132.9389766797
 21
102.2519345621
 31
0.0
  0
LINE
  5
12B
330
1F
100
AcDbEntity
  8
0
  6
Continuous
 62
     7
370
    25
100
AcDbLine
 10
132.8774092726
 20
102.1686622168
 30
0.0
 11
132.4091891765
 21
102.1686622168
 31
0.0
  0
ELLIPSE
  5
12C
330
1F
100
AcDbEntity
  8
0
  6
Continuous
 62
     7
370
    25
100
AcDbEllipse
 10
132.4091893584
 20
102.2309761984
 30
0.0
 11
-0.0653756970743018
 21
0.0
 31
0.0
210
0.0
220
0.0
230
1.0
 40
0.9531667975
 41
5.940161364895827
 42
7.853981633974483
  0
LINE
  5
12D
330
1F
100
AcDbEntity
  8
0
  6
Continuous
 62
     7
370
    25
100
AcDbLine
 10
132.3476222351
 20
102.2519345621
 30
0.0
 11
132.581732516
 21
102.8767432778
 31
0.0
  0
ELLIPSE
  5
12E
330
1F
100
AcDbEntity
  8
0
  6
Continuous
 62
     7
370
    25
100
AcDbEllipse
 10
132.8774094588
 20
102.2309761984
 30
0.0
 11
0.06537569707427338
 21
0.0
 31
0.0
210
0.0
220
0.0
230
1.0
 40
0.9531667975
 41
4.712388980384268
 42
6.626209245739265
  0
LINE
  5
12F
330
1F
100
AcDbEntity
  8
0
  6
Continuous
 62
     7
370
    25
100
AcDbLine
 10
130.420525722
 20
101.9194065353
 30
0.0
 11
131.0343891855
 21
100.7491778343
 31
0.0
  0
LWPOLYLINE
  5
130
330
1F
100
AcDbEntity
  8
0
  6
Continuous
 62
     7
370
    25
100
AcDbPolyline
 90
       10
 70
   128
 43
0.0
 10
130.420525722
 20
101.9194065353
 10
130.4112992257
 20
101.9288191798
 10
130.3839002976
 20
101.9567709642
 10
130.3391611909
 20
102.0024125225
 10
130.2784415202
 20
102.064357348
 10
130.203586119
 20
102.140723238
 10
130.1168692771
 20
102.2291895694
 10
130.0209261717
 20
102.3270685452
 10
129.918671726
 20
102.4313862196
 10
129.8132129486
 20
102.5389728362
  0
ARC
  5
131
330
1F
100
AcDbEntity
  8
0
  6
Continuous
 62
     7
370
    25
100
AcDbCircle
 10
135.7282214098
 20
99.4097315578
 30
0.0
 40
0.25
100
AcDbArc
 50
270.0
 51
0.0
  0
SPLINE
  5
132
330
1F
100
AcDbEntity
  8
0
  6
Continuous
 62
     7
370
    25
100
AcDbSpline
210
0.0
220
0.0
230
1.0
 70
     8
 71
     3
 72
    10
 73
     6
 74
     0
 42
0.000000001
 43
0.00000001
 40
0.0
 40
0.0
 40
0.0
 40
0.0
 40
0.5
 40
0.5
 40
1.0
 40
1.0
 40
1.0
 40
1.0
 10
131.2168233599314
 20
102.1683904786696
 30
0.0
 10
131.1652064419311
 20
102.0240718502101
 30
0.0
 10
131.0446262178611
 20
101.9109525885384
 30
0.0
 10
130.758058594386
 20
101.8111128383205
 30
0.0
 10
130.5944509695919
 20
101.8236934760201
 30
0.0
 10
130.4602904649144
 20
101.8975234918841
 30
0.0
  0
LWPOLYLINE
  5
133
330
1F
100
AcDbEntity
  8
0
  6
Continuous
 62
     7
370
    25
100
AcDbPolyline
 90
        9
 70
   128
 43
0.0
 10
130.5808225188
 20
102.1165486651
 10
130.557307788
 20
102.0738188869
 10
130.5346969057
 20
102.0327312632
 10
130.5138585631
 20
101.9948648515
 10
130.4955934647
 20
101.9616743776
 10
130.4806038279
 20
101.9344359862
 10
130.4694654427
 20
101.9141957855
 10
130.4626064848
 20
101.9017318955
 10
130.4602905184
 20
101.8975234816
  0
SPLINE
  5
134
330
1F
100
AcDbEntity
  8
0
  6
Continuous
 62
     7
370
    25
100
AcDbSpline
210
0.0
220
0.0
230
1.0
 70
     8
 71
     3
 72
    20
 73
    16
 74
     0
 42
0.000000001
 43
0.00000001
 40
0.0
 40
0.0
 40
0.0
 40
0.0
 40
0.2500000000000003
 40
0.2500000000000003
 40
0.3750000000000002
 40
0.3750000000000002
 40
0.5000000000000002
 40
0.5000000000000002
 40
0.6250000000000002
 40
0.6250000000000002
 40
0.7500000000000001
 40
0.7500000000000001
 40
0.8750000000000001
 40
0.8750000000000001
 40
1.0
 40
1.0
 40
1.0
 40
1.0
 10
131.1374157830168
 20
100.7314423475858
 30
0.0
 10
131.3442709993947
 20
100.9150471846387
 30
0.0
 10
131.5806207260427
 20
101.0554832844633
 30
0.0
 10
131.9675030493025
 20
101.1996878684716
 30
0.0
 10
132.0992118378359
 20
101.2355770563917
 30
0.0
 10
132.3679202203606
 20
101.283906951722
 30
0.0
 10
132.5063019213527
 20
101.296271908305
 30
0.0
 10
132.7804615690891
 20
101.2962621711204
 30
0.0
 10
132.9162312366048
 20
101.2842032408679
 30
0.0
 10
133.1851655581852
 20
101.2361180174599
 30
0.0
 10
133.3194983612635
 20
101.1995094788395
 30
0.0
 10
133.5757879711869
 20
101.104037936731
 30
0.0
 10
133.6986095387399
 20
101.0452503575409
 30
0.0
 10
133.933390853539
 20
100.9051244946131
 30
0.0
 10
134.0457656031706
 20
100.8232357325207
 30
0.0
 10
134.1491830338197
 20
100.7314423475858
 30
0.0
  0
ARC
  5
135
330
1F
100
AcDbEntity
  8
0
  6
Continuous
 62
     7
370
    25
100
AcDbCircle
 10
122.7282214098
 20
112.4097315578
 30
0.0
 40
0.25
100
AcDbArc
 50
90.0
 51
180.0
  0
LINE
  5
136
330
1F
100
AcDbEntity
  8
0
  6
Continuous
 62
     7
370
    25
100
AcDbLine
 10
135.4782216258
 20
111.15973161
 30
0.0
 11
135.7282212011
 21
111.15973161
 31
0.0
  0
LINE
  5
137
330
1F
100
AcDbEntity
  8
0
  6
Continuous
 62
     7
370
    25
100
AcDbLine
 10
135.7282212011
 20
111.15973161
 30
0.0
 11
135.7282212011
 21
110.909731569
 31
0.0
  0
LINE
  5
138
330
1F
100
AcDbEntity
  8
0
  6
Continuous
 62
     7
370
    25
100
AcDbLine
 10
130.4602905184
 20
101.8975234816
 30
0.0
 11
130.420525722
 21
101.9194065353
 31
0.0
  0
ARC
  5
139
330
1F
100
AcDbEntity
  8
0
  6
Continuous
 62
     7
370
    25
100
AcDbCircle
 10
124.4782214098
 20
101.1597315578
 30
0.0
 40
2.0
100
AcDbArc
 50
180.0
 51
270.0
  0
ARC
  5
13A
330
1F
100
AcDbEntity
  8
0
  6
Continuous
 62
     7
370
    25
100
AcDbCircle
 10
135.7282214098
 20
110.9097315578
 30
0.0
 40
0.25
100
AcDbArc
 50
0.0
 51
90.0
  0
LINE
  5
13B
330
1F
100
AcDbEntity
  8
0
  6
Continuous
 62
     7
370
    25
100
AcDbLine
 10
134.2522094965
 20
100.7491778343
 30
0.0
 11
134.8660730764
 21
101.9194065353
 31
0.0
  0
ARC
  5
13C
330
1F
100
AcDbEntity
  8
0
  6
Continuous
 62
     7
370
    25
100
AcDbCircle
 10
134.2574567618
 20
112.8865446059
 30
0.0
 40
0.228689614909265
100
AcDbArc
 50
174.1807852453
 51
262.6552938174
  0
ARC
  5
13D
330
1F
100
AcDbEntity
  8
0
  6
Continuous
 62
     7
370
    25
100
AcDbCircle
 10
136.2050344578
 20
99.3804962058
 30
0.0
 40
0.2286896149092809
100
AcDbArc
 50
84.1807852453
 51
172.6552938174
  0
ARC
  5
13E
330
1F
100
AcDbEntity
  8
0
  6
Continuous
 62
     7
370
    25
100
AcDbCircle
 10
122.6989860577
 20
112.8865446059
 30
0.0
 40
0.2286896149092708
100
AcDbArc
 50
277.3447061826
 51
5.8192147547
  0
ARC
  5
13F
330
1F
100
AcDbEntity
  8
0
  6
Continuous
 62
     7
370
    25
100
AcDbCircle
 10
136.2050344578
 20
110.9389669099
 30
0.0
 40
0.2286896149092809
100
AcDbArc
 50
187.3447061826
 51
275.8192147547
  0
LINE
  5
140
330
1F
100
AcDbEntity
  8
0
  6
Continuous
 62
     7
370
    25
100
AcDbLine
 10
134.5127041459
 20
112.4097313492
 30
0.0
 11
134.4782214619
 21
112.4097313492
 31
0.0
  0
LINE
  5
141
330
1F
100
AcDbEntity
  8
0
  6
Continuous
 62
     7
370
    25
100
AcDbLine
 10
135.7282212011
 20
99.1597315057
 30
0.0
 11
135.7282212011
 21
99.1252488217
 31
0.0
  0
LINE
  5
142
330
1F
100
AcDbEntity
  8
0
  6
Continuous
 62
     7
370
    25
100
AcDbLine
 10
122.4437386736
 20
112.4097313492
 30
0.0
 11
122.4782213576
 21
112.4097313492
 31
0.0
  0
LINE
  5
143
330
1F
100
AcDbEntity
  8
0
  6
Continuous
 62
     7
370
    25
100
AcDbLine
 10
135.7282212011
 20
111.15973161
 30
0.0
 11
135.7282212011
 21
111.194214294
 31
0.0
  0
LWPOLYLINE
  5
144
330
1F
100
AcDbEntity
  8
0
  6
Continuous
 62
     7
370
    25
100
AcDbPolyline
 90
        9
 70
   128
 43
0.0
 10
124.214411062
 20
99.1772068425
 10
124.2106401369
 20
99.1771099849
 10
124.2067304447
 20
99.1758373326
 10
124.2027006119
 20
99.1733949392
 10
124.1985701963
 20
99.1697939804
 10
124.1943578243
 20
99.1650521515
 10
124.1900844507
 20
99.1591913386
 10
124.1857700988
 20
99.1522399469
 10
124.1814347923
 20
99.1442305727
  0
SPLINE
  5
145
330
1F
100
AcDbEntity
  8
0
  6
Continuous
 62
     7
370
    25
100
AcDbSpline
210
0.0
220
0.0
230
1.0
 70
     8
 71
     3
 72
    14
 73
    10
 74
     0
 42
0.000000001
 43
0.00000001
 40
0.0
 40
0.0
 40
0.0
 40
0.0
 40
0.25
 40
0.25
 40
0.5
 40
0.5
 40
0.75
 40
0.75
 40
1.0
 40
1.0
 40
1.0
 40
1.0
 10
124.181435000095
 20
99.14423058431639
 30
0.0
 10
123.9655757279972
 20
99.1706815212328
 30
0.0
 10
123.757744233605
 20
99.23106736708816
 30
0.0
 10
123.3603408426943
 20
99.42334793236876
 30
0.0
 10
123.181858034814
 20
99.54991572427923
 30
0.0
 10
122.8680422219788
 20
99.86382416875084
 30
0.0
 10
122.7411107978872
 20
100.0431064795158
 30
0.0
 10
122.5494439353763
 20
100.4397366387973
 30
0.0
 10
122.4891701854707
 20
100.6470955684173
 30
0.0
 10
122.4627204362327
 20
100.8629451481787
 30
0.0
  0
LWPOLYLINE
  5
146
330
1F
100
AcDbEntity
  8
0
  6
Continuous
 62
     7
370
    25
100
AcDbPolyline
 90
        9
 70
   128
 43
0.0
 10
122.4956966944
 20
100.8959212101
 10
122.4955998368
 20
100.892150285
 10
122.4943271845
 20
100.8882405928
 10
122.4918847911
 20
100.88421076
 10
122.4882838324
 20
100.8800803444
 10
122.4835420035
 20
100.8758679724
 10
122.4776811905
 20
100.8715945988
 10
122.4707297988
 20
100.8672802469
 10
122.4627204247
 20
100.8629449403
  0
LINE
  5
147
330
1F
100
AcDbEntity
  8
0
  6
Continuous
 62
     7
370
    25
100
AcDbLine
 10
124.4782212198
 20
99.1597315057
 30
0.0
 11
124.4782212198
 21
99.1252488217
 31
0.0
  0
LINE
  5
148
330
1F
100
AcDbEntity
  8
0
  6
Continuous
 62
     7
370
    25
100
AcDbLine
 10
122.4437386736
 20
101.1597313678
 30
0.0
 11
122.4782213576
 21
101.1597313678
 31
0.0
  0
SPLINE
  5
149
330
1F
100
AcDbEntity
  8
0
  6
Continuous
 62
     7
370
    25
100
AcDbSpline
210
0.0
220
0.0
230
1.0
 70
    24
 71
     3
 72
    10
 73
     6
 74
     0
 42
0.000000001
 43
0.00000001
 40
0.0
 40
0.0
 40
0.0
 40
0.0
 40
0.5
 40
0.5
 40
1.0
 40
1.0
 40
1.0
 40
1.0
 10
134.846507898448
 20
111.5280180465317
 30
0.0
 10
134.8216165279362
 20
111.5031266760199
 30
0.0
 10
134.8036698307652
 20
111.485179978849
 30
0.0
 10
134.7781528926988
 20
111.4596630407825
 30
0.0
 10
134.7711146285645
 20
111.4526247766486
 30
0.0
 10
134.7711146285638
 20
111.4526247766475
 30
0.0
  0
LINE
  5
14A
330
1F
100
AcDbEntity
  8
0
  6
Continuous
 62
     7
370
    25
100
AcDbLine
 10
134.5127041459
 20
112.1597317739
 30
0.0
 11
134.4782214619
 21
112.1597317739
 31
0.0
  0
LINE
  5
14B
330
1F
100
AcDbEntity
  8
0
  6
Continuous
 62
     7
370
    25
100
AcDbLine
 10
135.4782216258
 20
111.15973161
 30
0.0
 11
135.4782216258
 21
111.194214294
 31
0.0
  0
LINE
  5
14C
330
1F
100
AcDbEntity
  8
0
  6
Continuous
 62
     1
370
    25
100
AcDbLine
 10
157.4378794066
 20
95.3905666007
 30
0.0
 11
157.4378794066
 21
94.9097312747
 31
0.0
  0
LINE
  5
14D
330
1F
100
AcDbEntity
  8
0
  6
Continuous
 62
     1
370
    25
100
AcDbLine
 10
157.4378794066
 20
115.409731841
 30
0.0
 11
157.4378794066
 21
114.9288965149
 31
0.0
  0
LINE
  5
14E
330
1F
100
AcDbEntity
  8
0
  6
Continuous
 62
     1
370
    25
100
AcDbLine
 10
156.571855583
 20
115.4054412379
 30
0.0
 11
156.571855583
 21
115.9097319229
 31
0.0
  0
LINE
  5
14F
330
1F
100
AcDbEntity
  8
0
  6
Continuous
 62
     1
370
    25
100
AcDbLine
 10
156.571855583
 20
94.4097311928
 30
0.0
 11
156.571855583
 21
94.9140218778
 31
0.0
  0
LINE
  5
150
330
1F
100
AcDbEntity
  8
0
  6
Continuous
 62
     1
370
    25
100
AcDbLine
 10
135.4782216258
 20
116.1597314982
 30
0.0
 11
121.4782211937
 21
116.1597314982
 31
0.0
  0
LINE
  5
151
330
1F
100
AcDbEntity
  8
0
  6
Continuous
 62
     1
370
    25
100
AcDbLine
 10
139.4782213501
 20
98.1597313418
 30
0.0
 11
139.4782213501
 21
112.1597317739
 31
0.0
  0
LWPOLYLINE
  5
152
330
1F
100
AcDbEntity
  8
0
  6
Continuous
 62
     1
370
    25
100
AcDbPolyline
 90
        9
 70
   128
 43
0.0
 10
121.4782211937
 20
100.1597316696
 10
121.4827031836
 20
100.1629326253
 10
121.5185218498
 20
100.1885179191
 10
121.589976643
 20
100.2395567244
 10
121.6967006221
 20
100.3157882711
 10
121.8381475665
 20
100.4168218693
 10
122.0135938383
 20
100.542140635
 10
122.2221407115
 20
100.6911024212
 10
122.4627204247
 20
100.8629449403
  0
LWPOLYLINE
  5
153
330
1F
100
AcDbEntity
  8
0
  6
Continuous
 62
     1
370
    25
100
AcDbPolyline
 90
        9
 70
   128
 43
0.0
 10
124.1814347923
 20
99.1442305727
 10
124.0095922731
 20
98.9036508596
 10
123.8606304869
 20
98.6951039864
 10
123.7353117212
 20
98.5196577145
 10
123.6342781231
 20
98.3782107702
 10
123.5580465764
 20
98.2714867911
 10
123.507007771
 20
98.2000319979
 10
123.4814224772
 20
98.1642133317
 10
123.4782215215
 20
98.1597313418
  0
LINE
  5
154
330
1F
100
AcDbEntity
  8
0
  6
Continuous
 62
     7
370
     0
100
AcDbLine
 10
147.9782214098
 20
97.3287315578
 30
0.0
 11
140.5345906557
 21
97.3287315578
 31
0.0
  0
LINE
  5
155
330
1F
100
AcDbEntity
  8
0
  6
Continuous
 62
     7
370
     0
100
AcDbLine
 10
147.9782214098
 20
112.9907315578
 30
0.0
 11
140.5345906557
 21
112.9907315578
 31
0.0
  0
LINE
  5
156
330
1F
100
AcDbEntity
  8
0
  6
Continuous
 62
     7
370
     0
100
AcDbLine
 10
135.9804027734
 20
129.2899279214
 30
0.0
 11
136.3596917064
 21
117.1526820649
 31
0.0
  0
LINE
  5
157
330
1F
100
AcDbEntity
  8
0
  6
Continuous
 62
     7
370
     0
100
AcDbLine
 10
120.9760400461
 20
129.2899279214
 30
0.0
 11
120.5967511131
 21
117.1526820649
 31
0.0
  0
LINE
  5
158
330
1F
100
AcDbEntity
  8
0
  6
Continuous
 62
     7
370
    25
100
AcDbLine
 10
143.5048671447
 20
182.9040162763
 30
0.0
 11
143.3605298407
 21
182.654016701
 31
0.0
  0
LINE
  5
159
330
1F
100
AcDbEntity
  8
0
  6
Continuous
 62
     7
370
    25
100
AcDbLine
 10
143.3605298407
 20
162.1540161348
 30
0.0
 11
143.5048671447
 21
161.9040165595
 31
0.0
  0
LINE
  5
15A
330
1F
100
AcDbEntity
  8
0
  6
Continuous
 62
     7
370
    25
100
AcDbLine
 10
158.1605298452
 20
162.1540161348
 30
0.0
 11
158.3605295054
 21
162.3540167264
 31
0.0
  0
LINE
  5
15B
330
1F
100
AcDbEntity
  8
0
  6
Continuous
 62
     7
370
    25
100
AcDbLine
 10
158.3605295054
 20
182.4540161095
 30
0.0
 11
158.1605298452
 21
182.654016701
 31
0.0
  0
LINE
  5
15C
330
1F
100
AcDbEntity
  8
0
  6
Continuous
 62
     7
370
    25
100
AcDbLine
 10
158.1605298452
 20
182.654016701
 30
0.0
 11
157.3802640669
 21
182.654016701
 31
0.0
  0
LINE
  5
15D
330
1F
100
AcDbEntity
  8
0
  6
Continuous
 62
     7
370
    25
100
AcDbLine
 10
157.3802640669
 20
162.1540161348
 30
0.0
 11
158.1605298452
 21
162.1540161348
 31
0.0
  0
SPLINE
  5
15E
330
1F
100
AcDbEntity
  8
0
  6
Continuous
 62
     7
370
    25
100
AcDbSpline
210
0.0
220
0.0
230
1.0
 70
     8
 71
     3
 72
    13
 73
     9
 74
     0
 42
0.000000001
 43
0.00000001
 40
0.0
 40
0.0
 40
0.0
 40
0.0
 40
0.2071763145071005
 40
0.4042778362162475
 40
0.589502333000438
 40
0.7616705639535205
 40
0.9181603369004685
 40
1.0
 40
1.0
 40
1.0
 40
1.0
 10
157.380631007982
 20
182.6542029655475
 30
0.0
 10
157.3292272372041
 20
182.656373275811
 30
0.0
 10
157.2289194135378
 20
182.6606083561546
 30
0.0
 10
157.0863835038944
 20
182.694697238416
 30
0.0
 10
156.9583466415228
 20
182.7436811135175
 30
0.0
 10
156.8485092169509
 20
182.8041243880376
 30
0.0
 10
156.7668887709434
 20
182.8611606876844
 30
0.0
 10
156.7278654541681
 20
182.8965752533494
 30
0.0
 10
156.7144652835853
 20
182.9087362191576
 30
0.0
  0
SPLINE
  5
15F
330
1F
100
AcDbEntity
  8
0
  6
Continuous
 62
     7
370
    25
100
AcDbSpline
210
0.0
220
0.0
230
1.0
 70
     8
 71
     3
 72
    13
 73
     9
 74
     0
 42
0.000000001
 43
0.00000001
 40
0.0
 40
0.0
 40
0.0
 40
0.0
 40
0.0589610610539274
 40
0.2307097162706869
 40
0.4231621564813219
 40
0.6296509405442132
 40
0.8493718783545915
 40
1.0
 40
1.0
 40
1.0
 40
1.0
 10
156.7143311731346
 20
161.8990693739551
 30
0.0
 10
156.7236699943774
 20
161.9078111225171
 30
0.0
 10
156.7602120233154
 20
161.9420168558331
 30
0.0
 10
156.8443819726695
 20
162.0017708527957
 30
0.0
 10
156.9662882411849
 20
162.0689060142118
 30
0.0
 10
157.1104233448111
 20
162.1208153094765
 30
0.0
 10
157.2510619345994
 20
162.1511192782913
 30
0.0
 10
157.3430712180453
 20
162.1507812843965
 30
0.0
 10
157.380493172241
 20
162.1506438157457
 30
0.0
  0
ARC
  5
160
330
1F
100
AcDbEntity
  8
0
  6
Continuous
 62
     7
370
    25
100
AcDbCircle
 10
141.4782214098
 20
180.4040164179
 30
0.0
 40
1.0
100
AcDbArc
 50
160.6705173466
 51
180.0
  0
ARC
  5
161
330
1F
100
AcDbEntity
  8
0
  6
Continuous
 62
     7
370
    25
100
AcDbCircle
 10
141.4782214098
 20
164.4040164179
 30
0.0
 40
1.0
100
AcDbArc
 50
180.0
 51
199.3294826534
  0
LINE
  5
162
330
1F
100
AcDbEntity
  8
0
  6
Continuous
 62
     7
370
    25
100
AcDbLine
 10
143.3605298407
 20
180.7350162915
 30
0.0
 11
140.5345907442
 21
180.7350162915
 31
0.0
  0
LINE
  5
163
330
1F
100
AcDbEntity
  8
0
  6
Continuous
 62
     7
370
    25
100
AcDbLine
 10
140.5345907442
 20
164.0730165443
 30
0.0
 11
143.3605298407
 21
164.0730165443
 31
0.0
  0
ARC
  5
164
330
1F
100
AcDbEntity
  8
0
  6
Continuous
 62
     7
370
    25
100
AcDbCircle
 10
139.4782214098
 20
180.4040164179
 30
0.0
 40
1.0
100
AcDbArc
 50
270.0
 51
0.0
  0
ARC
  5
165
330
1F
100
AcDbEntity
  8
0
  6
Continuous
 62
     7
370
    25
100
AcDbCircle
 10
139.4782214098
 20
164.4040164179
 30
0.0
 40
1.0
100
AcDbArc
 50
0.0
 51
90.0
  0
LINE
  5
166
330
1F
100
AcDbEntity
  8
0
  6
Continuous
 62
     7
370
    25
100
AcDbLine
 10
136.2282212831
 20
165.4040162018
 30
0.0
 11
139.4782213501
 21
165.4040162018
 31
0.0
  0
LINE
  5
167
330
1F
100
AcDbEntity
  8
0
  6
Continuous
 62
     7
370
    25
100
AcDbLine
 10
139.4782213501
 20
179.404016634
 30
0.0
 11
136.2282212831
 21
179.404016634
 31
0.0
  0
SPLINE
  5
168
330
1F
100
AcDbEntity
  8
0
  6
Continuous
 62
     7
370
    25
100
AcDbSpline
210
0.0
220
0.0
230
1.0
 70
     8
 71
     3
 72
    11
 73
     7
 74
     0
 42
0.000000001
 43
0.00000001
 40
0.0
 40
0.0
 40
0.0
 40
0.0
 40
0.2958382423581058
 40
0.5932610726957092
 40
0.7963744542672688
 40
1.0
 40
1.0
 40
1.0
 40
1.0
 10
156.5718555830247
 20
179.650106517126
 30
0.0
 10
156.6189572983486
 20
179.2574030858911
 30
0.0
 10
156.7134130182588
 20
178.4698927998353
 30
0.0
 10
156.7248292981887
 20
177.4061648306647
 30
0.0
 10
156.6747730008954
 20
176.467429347361
 30
0.0
 10
156.6061901753955
 20
175.927987143643
 30
0.0
 10
156.5718555830247
 20
175.6579264099646
 30
0.0
  0
SPLINE
  5
169
330
1F
100
AcDbEntity
  8
0
  6
Continuous
 62
     7
370
    25
100
AcDbSpline
210
0.0
220
0.0
230
1.0
 70
     8
 71
     3
 72
    10
 73
     6
 74
     0
 42
0.000000001
 43
0.00000001
 40
0.0
 40
0.0
 40
0.0
 40
0.0
 40
0.2491816849879224
 40
0.498379023417252
 40
1.0
 40
1.0
 40
1.0
 40
1.0
 10
156.5718555830247
 20
175.6579264099646
 30
0.0
 10
156.5280678611993
 20
175.3840262876899
 30
0.0
 10
156.4404896668305
 20
174.836208836902
 30
0.0
 10
156.1966198347415
 20
173.7462053623788
 30
0.0
 10
155.9458857842305
 20
172.9415834948947
 30
0.0
 10
155.7783706120975
 20
172.4040164179105
 30
0.0
  0
LINE
  5
16A
330
1F
100
AcDbEntity
  8
0
  6
Continuous
 62
     7
370
    25
100
AcDbLine
 10
155.7783706121
 20
172.4040164179
 30
0.0
 11
144.4426903508
 21
172.4040164179
 31
0.0
  0
SPLINE
  5
16B
330
1F
100
AcDbEntity
  8
0
  6
Continuous
 62
     7
370
    25
100
AcDbSpline
210
0.0
220
0.0
230
1.0
 70
     8
 71
     3
 72
    16
 73
    12
 74
     0
 42
0.000000001
 43
0.00000001
 40
0.0
 40
0.0
 40
0.0
 40
0.0
 40
0.1322997195762599
 40
0.2645619873979363
 40
0.3546999130805529
 40
0.4449069148286636
 40
0.5350279693540648
 40
0.6502124433932203
 40
0.7654149099764205
 40
0.8826960817417334
 40
0.9999999999999999
 40
0.9999999999999999
 40
0.9999999999999999
 40
0.9999999999999999
 10
144.4426903508432
 20
172.4040164179105
 30
0.0
 10
144.2999082899449
 20
172.8576506089746
 30
0.0
 10
144.0143845872719
 20
173.7647905751361
 30
0.0
 10
143.742094648379
 20
175.0043458926149
 30
0.0
 10
143.5817482641166
 20
176.1067682424058
 30
0.0
 10
143.5070277254892
 20
177.0661469968614
 30
0.0
 10
143.497646159054
 20
178.1166902259598
 30
0.0
 10
143.5809152242078
 20
179.2543961202603
 30
0.0
 10
143.7753425725845
 20
180.4789840542277
 30
0.0
 10
144.0605789068864
 20
181.6980677164891
 30
0.0
 10
144.3153116361561
 20
182.5020074384484
 30
0.0
 10
144.4426903508432
 20
182.9040162763494
 30
0.0
  0
LINE
  5
16C
330
1F
100
AcDbEntity
  8
0
  6
Continuous
 62
     7
370
    25
100
AcDbLine
 10
155.7783706121
 20
182.9040162763
 30
0.0
 11
144.4426903508
 21
182.9040162763
 31
0.0
  0
SPLINE
  5
16D
330
1F
100
AcDbEntity
  8
0
  6
Continuous
 62
     7
370
    25
100
AcDbSpline
210
0.0
220
0.0
230
1.0
 70
     8
 71
     3
 72
    10
 73
     6
 74
     0
 42
0.000000001
 43
0.00000001
 40
0.0
 40
0.0
 40
0.0
 40
0.0
 40
0.4984981873458691
 40
0.7492569956265313
 40
0.9999999999999999
 40
0.9999999999999999
 40
0.9999999999999999
 40
0.9999999999999999
 10
155.7783706120975
 20
182.9040162763494
 30
0.0
 10
155.944897733083
 20
182.3698124287924
 30
0.0
 10
156.1951927462389
 20
181.566888807337
 30
0.0
 10
156.4395799976118
 20
180.4769652541204
 30
0.0
 10
156.5277646475461
 20
179.9257203056339
 30
0.0
 10
156.5718555830247
 20
179.650106517126
 30
0.0
  0
SPLINE
  5
16E
330
1F
100
AcDbEntity
  8
0
  6
Continuous
 62
     7
370
    25
100
AcDbSpline
210
0.0
220
0.0
230
1.0
 70
     8
 71
     3
 72
    16
 73
    12
 74
     0
 42
0.000000001
 43
0.00000001
 40
0.0
 40
0.0
 40
0.0
 40
0.0
 40
0.1322996907626897
 40
0.2645619368204545
 40
0.3546999137095673
 40
0.4449068776301038
 40
0.5350279699103498
 40
0.6502124438493435
 40
0.7654148778645278
 40
0.882696097690469
 40
1.0
 40
1.0
 40
1.0
 40
1.0
 10
144.4426903508432
 20
161.9040165594715
 30
0.0
 10
144.2999082933957
 20
162.3576508579432
 30
0.0
 10
144.014384590024
 20
163.2647910630335
 30
0.0
 10
143.7420945480366
 20
164.5043458378617
 30
0.0
 10
143.5817483389852
 20
165.6067678826619
 30
0.0
 10
143.5070276910479
 20
166.5661476985059
 30
0.0
 10
143.4976461701954
 20
167.6166899764852
 30
0.0
 10
143.5809151757361
 20
168.7543962837383
 30
0.0
 10
143.7753426937289
 20
169.9789838736423
 30
0.0
 10
144.0605787861814
 20
171.198067971605
 30
0.0
 10
144.3153116190879
 20
172.0020076909862
 30
0.0
 10
144.4426903508432
 20
172.4040164179105
 30
0.0
  0
SPLINE
  5
16F
330
1F
100
AcDbEntity
  8
0
  6
Continuous
 62
     7
370
    25
100
AcDbSpline
210
0.0
220
0.0
230
1.0
 70
    24
 71
     3
 72
    12
 73
     8
 74
     0
 42
0.000000001
 43
0.00000001
 40
0.0
 40
0.0
 40
0.0
 40
0.0
 40
0.2470044487640865
 40
0.4342448556176266
 40
0.6215046951369091
 40
0.8107430927649504
 40
1.0
 40
1.0
 40
1.0
 40
1.0
 10
143.5080895207651
 20
161.9040165594715
 30
0.0
 10
143.5187764590264
 20
161.9040165594715
 30
0.0
 10
143.5375645739186
 20
161.9040165594715
 30
0.0
 10
143.6874122731549
 20
161.9040165594715
 30
0.0
 10
143.8810791958197
 20
161.9040165594715
 30
0.0
 10
144.1316218850529
 20
161.9040165594715
 30
0.0
 10
144.3389974818075
 20
161.9040165594715
 30
0.0
 10
144.4426903508432
 20
161.9040165594715
 30
0.0
  0
SPLINE
  5
170
330
1F
100
AcDbEntity
  8
0
  6
Continuous
 62
     7
370
    25
100
AcDbSpline
210
0.0
220
0.0
230
1.0
 70
    24
 71
     3
 72
    12
 73
     8
 74
     0
 42
0.000000001
 43
0.00000001
 40
0.0
 40
0.0
 40
0.0
 40
0.0
 40
0.1873893977291682
 40
0.3747609555145786
 40
0.5638872334772891
 40
0.752993280645127
 40
0.9999999999999999
 40
0.9999999999999999
 40
0.9999999999999999
 40
0.9999999999999999
 10
144.4426903508432
 20
182.9040162763494
 30
0.0
 10
144.3399803147797
 20
182.9040162763494
 30
0.0
 10
144.1345700209074
 20
182.9040162763494
 30
0.0
 10
143.8840908404187
 20
182.9040162763494
 30
0.0
 10
143.6887721999433
 20
182.9040162763494
 30
0.0
 10
143.5380054489824
 20
182.9040162763494
 30
0.0
 10
143.5178287601297
 20
182.9040162763494
 30
0.0
 10
143.5064010329373
 20
182.9040162763494
 30
0.0
  0
LINE
  5
171
330
1F
100
AcDbEntity
  8
0
  6
Continuous
 62
     7
370
    25
100
AcDbLine
 10
143.3605298407
 20
162.1540161348
 30
0.0
 11
143.3605298407
 21
182.654016701
 31
0.0
  0
LINE
  5
172
330
1F
100
AcDbEntity
  8
0
  6
Continuous
 62
     7
370
    25
100
AcDbLine
 10
156.571855583
 20
169.1501064259
 30
0.0
 11
156.571855583
 21
175.65792641
 31
0.0
  0
SPLINE
  5
173
330
1F
100
AcDbEntity
  8
0
  6
Continuous
 62
     7
370
    25
100
AcDbSpline
210
0.0
220
0.0
230
1.0
 70
     8
 71
     3
 72
    10
 73
     6
 74
     0
 42
0.000000001
 43
0.00000001
 40
0.0
 40
0.0
 40
0.0
 40
0.0
 40
0.4984983233277318
 40
0.7492570598271863
 40
1.0
 40
1.0
 40
1.0
 40
1.0
 10
155.7783706120975
 20
172.4040164179105
 30
0.0
 10
155.9448977097065
 20
171.8698124816275
 30
0.0
 10
156.1951926408974
 20
171.0668888770394
 30
0.0
 10
156.439580006937
 20
169.976964845107
 30
0.0
 10
156.5277646502103
 20
169.4257201112279
 30
0.0
 10
156.5718555830247
 20
169.1501064258564
 30
0.0
  0
SPLINE
  5
174
330
1F
100
AcDbEntity
  8
0
  6
Continuous
 62
     7
370
    25
100
AcDbSpline
210
0.0
220
0.0
230
1.0
 70
     8
 71
     3
 72
    11
 73
     7
 74
     0
 42
0.000000001
 43
0.00000001
 40
0.0
 40
0.0
 40
0.0
 40
0.0
 40
0.2958382859360417
 40
0.5932610291220336
 40
0.7963744107694746
 40
1.0
 40
1.0
 40
1.0
 40
1.0
 10
156.5718555830247
 20
169.1501064258564
 30
0.0
 10
156.618957298481
 20
168.7574028986754
 30
0.0
 10
156.7134129978053
 20
167.9698925940571
 30
0.0
 10
156.7248292991129
 20
166.9061648798011
 30
0.0
 10
156.6747729905027
 20
165.9674294405342
 30
0.0
 10
156.6061901743648
 20
165.4279871330698
 30
0.0
 10
156.5718555830247
 20
165.157926318695
 30
0.0
  0
SPLINE
  5
175
330
1F
100
AcDbEntity
  8
0
  6
Continuous
 62
     7
370
    25
100
AcDbSpline
210
0.0
220
0.0
230
1.0
 70
     8
 71
     3
 72
    10
 73
     6
 74
     0
 42
0.000000001
 43
0.00000001
 40
0.0
 40
0.0
 40
0.0
 40
0.0
 40
0.249181697418464
 40
0.4983791255472624
 40
0.9999999999999999
 40
0.9999999999999999
 40
0.9999999999999999
 40
0.9999999999999999
 10
156.5718555830247
 20
165.157926318695
 30
0.0
 10
156.5280678539805
 20
164.884026207558
 30
0.0
 10
156.4404896315955
 20
164.3362086941132
 30
0.0
 10
156.1966199459636
 20
163.2462050518965
 30
0.0
 10
155.9458858099932
 20
162.4415833951281
 30
0.0
 10
155.7783706120975
 20
161.9040165594715
 30
0.0
  0
LINE
  5
176
330
1F
100
AcDbEntity
  8
0
  6
Continuous
 62
     7
370
    25
100
AcDbLine
 10
155.7783706121
 20
161.9040165595
 30
0.0
 11
144.4426903508
 21
161.9040165595
 31
0.0
  0
ARC
  5
177
330
1F
100
AcDbEntity
  8
0
  6
Continuous
 62
     7
370
    25
100
AcDbCircle
 10
157.3521767906
 20
177.5696271376
 30
0.0
 40
2.064824655813428
100
AcDbArc
 50
247.7956172438
 51
272.3788020778
  0
LINE
  5
178
330
1F
100
AcDbEntity
  8
0
  6
Continuous
 62
     7
370
    25
100
AcDbLine
 10
157.4378794066
 20
175.506581835
 30
0.0
 11
157.4378794066
 21
169.3014510008
 31
0.0
  0
ARC
  5
179
330
1F
100
AcDbEntity
  8
0
  6
Continuous
 62
     7
370
    25
100
AcDbCircle
 10
157.3521767906
 20
167.2384056982
 30
0.0
 40
2.064824655813455
100
AcDbArc
 50
87.6211979222
 51
112.2043827562
  0
LINE
  5
17A
330
1F
100
AcDbEntity
  8
0
  6
Continuous
 62
     7
370
    25
100
AcDbLine
 10
158.3605295054
 20
182.4540161095
 30
0.0
 11
158.3605295054
 21
162.3540167264
 31
0.0
  0
LINE
  5
17B
330
1F
100
AcDbEntity
  8
0
  6
Continuous
 62
     7
370
    25
100
AcDbLine
 10
158.1605298452
 20
162.1540161348
 30
0.0
 11
158.1605298452
 21
182.654016701
 31
0.0
  0
LINE
  5
17C
330
1F
100
AcDbEntity
  8
0
  6
Continuous
 62
     7
370
    25
100
AcDbLine
 10
157.4378794066
 20
165.4949537977
 30
0.0
 11
157.4378794066
 21
162.3923881478
 31
0.0
  0
SPLINE
  5
17D
330
1F
100
AcDbEntity
  8
0
  6
Continuous
 62
     7
370
    25
100
AcDbSpline
210
0.0
220
0.0
230
1.0
 70
     8
 71
     3
 72
    13
 73
     9
 74
     0
 42
0.000000001
 43
0.00000001
 40
0.0
 40
0.0
 40
0.0
 40
0.0
 40
0.1365245298395308
 40
0.2730741794829983
 40
0.4115382313923687
 40
0.5499846615414782
 40
0.7739370489087758
 40
1.0
 40
1.0
 40
1.0
 40
1.0
 10
157.4378794066436
 20
169.3014510008443
 30
0.0
 10
157.4351504080647
 20
169.1103064565874
 30
0.0
 10
157.4296919087855
 20
168.727982198471
 30
0.0
 10
157.4008504624575
 20
168.1681449125358
 30
0.0
 10
157.3797998234253
 20
167.619494760677
 30
0.0
 10
157.3735505847765
 20
166.9759251199184
 30
0.0
 10
157.4152517290374
 20
166.2515081935215
 30
0.0
 10
157.4303133012752
 20
165.7479258602632
 30
0.0
 10
157.4378794066436
 20
165.4949537976581
 30
0.0
  0
SPLINE
  5
17E
330
1F
100
AcDbEntity
  8
0
  6
Continuous
 62
     7
370
    25
100
AcDbSpline
210
0.0
220
0.0
230
1.0
 70
     8
 71
     3
 72
    13
 73
     9
 74
     0
 42
0.000000001
 43
0.00000001
 40
0.0
 40
0.0
 40
0.0
 40
0.0
 40
0.136524552743634
 40
0.273074181603066
 40
0.4115382135751807
 40
0.5499846723555979
 40
0.7739370488870739
 40
1.0
 40
1.0
 40
1.0
 40
1.0
 10
157.4378794066436
 20
179.3130790381628
 30
0.0
 10
157.4351504089373
 20
179.1618044484132
 30
0.0
 10
157.4296919122767
 20
178.8592274835884
 30
0.0
 10
157.4008504621817
 20
178.3746933426357
 30
0.0
 10
157.3797998211428
 20
177.8683209487964
 30
0.0
 10
157.3735505841167
 20
177.2300057773014
 30
0.0
 10
157.4152517294896
 20
176.4497818761318
 30
0.0
 10
157.4303133013049
 20
175.8219633395937
 30
0.0
 10
157.4378794066436
 20
175.5065818349767
 30
0.0
  0
LINE
  5
17F
330
1F
100
AcDbEntity
  8
0
  6
Continuous
 62
     7
370
    25
100
AcDbLine
 10
157.4378794066
 20
182.4156446881
 30
0.0
 11
157.4378794066
 21
179.3130790382
 31
0.0
  0
ARC
  5
180
330
1F
100
AcDbEntity
  8
0
  6
Continuous
 62
     7
370
    25
100
AcDbCircle
 10
157.3863982341
 20
164.3460609191
 30
0.0
 40
1.150045719768084
100
AcDbArc
 50
87.4343281647
 51
135.0943152446
  0
ARC
  5
181
330
1F
100
AcDbEntity
  8
0
  6
Continuous
 62
     7
370
    25
100
AcDbCircle
 10
157.3863982341
 20
180.4619719167
 30
0.0
 40
1.150045719768106
100
AcDbArc
 50
224.9056847554
 51
272.5656718353
  0
SPLINE
  5
182
330
1F
100
AcDbEntity
  8
0
  6
Continuous
 62
     7
370
    25
100
AcDbSpline
210
0.0
220
0.0
230
1.0
 70
    24
 71
     3
 72
    10
 73
     6
 74
     0
 42
0.000000001
 43
0.00000001
 40
0.0
 40
0.0
 40
0.0
 40
0.0
 40
0.2491816636258213
 40
0.4983790506788694
 40
0.9999999999999999
 40
0.9999999999999999
 40
0.9999999999999999
 40
0.9999999999999999
 10
156.5718555830247
 20
182.9040162763494
 30
0.0
 10
156.5280678556571
 20
182.9040162763494
 30
0.0
 10
156.440489637905
 20
182.9040162763494
 30
0.0
 10
156.1966198865518
 20
182.9040162763494
 30
0.0
 10
155.9458857966664
 20
182.9040162763494
 30
0.0
 10
155.7783706120975
 20
182.9040162763494
 30
0.0
  0
LINE
  5
183
330
1F
100
AcDbEntity
  8
0
  6
Continuous
 62
     7
370
    25
100
AcDbLine
 10
156.571855583
 20
179.6501065171
 30
0.0
 11
156.571855583
 21
182.9040162763
 31
0.0
  0
ARC
  5
184
330
1F
100
AcDbEntity
  8
0
  6
Continuous
 62
     7
370
    25
100
AcDbCircle
 10
157.433541043
 20
183.4199924453
 30
0.0
 40
1.004357127128983
100
AcDbArc
 50
210.9131215875
 51
270.2474923446
  0
LINE
  5
185
330
1F
100
AcDbEntity
  8
0
  6
Continuous
 62
     7
370
    25
100
AcDbLine
 10
156.571855583
 20
161.9040165595
 30
0.0
 11
156.571855583
 21
165.1579263187
 31
0.0
  0
ARC
  5
186
330
1F
100
AcDbEntity
  8
0
  6
Continuous
 62
     7
370
    25
100
AcDbCircle
 10
157.433541043
 20
161.3880403905
 30
0.0
 40
1.004357127128997
100
AcDbArc
 50
89.7525076554
 51
149.0868784125
  0
SPLINE
  5
187
330
1F
100
AcDbEntity
  8
0
  6
Continuous
 62
     7
370
    25
100
AcDbSpline
210
0.0
220
0.0
230
1.0
 70
    24
 71
     3
 72
    10
 73
     6
 74
     0
 42
0.000000001
 43
0.00000001
 40
0.0
 40
0.0
 40
0.0
 40
0.0
 40
0.4984982663075753
 40
0.7492570864262477
 40
0.9999999999999999
 40
0.9999999999999999
 40
0.9999999999999999
 40
0.9999999999999999
 10
155.7783706120975
 20
161.9040165594715
 30
0.0
 10
155.9448977313884
 20
161.9040165594715
 30
0.0
 10
156.195192732683
 20
161.9040165594715
 30
0.0
 10
156.4395799606112
 20
161.9040165594715
 30
0.0
 10
156.527764641229
 20
161.9040165594715
 30
0.0
 10
156.5718555830247
 20
161.9040165594715
 30
0.0
  0
SPLINE
  5
188
330
1F
100
AcDbEntity
  8
0
  6
Continuous
 62
     7
370
    25
100
AcDbSpline
210
0.0
220
0.0
230
1.0
 70
    24
 71
     3
 72
    10
 73
     6
 74
     0
 42
0.000000001
 43
0.00000001
 40
0.0
 40
0.0
 40
0.0
 40
0.0
 40
0.264142560029947
 40
0.650671940062591
 40
1.0
 40
1.0
 40
1.0
 40
1.0
 10
156.7103208981283
 20
182.9040162763494
 30
0.0
 10
156.7117273642107
 20
182.9040162763494
 30
0.0
 10
156.7151919630787
 20
182.9040162763494
 30
0.0
 10
156.6687821622381
 20
182.9040162763494
 30
0.0
 10
156.6030568604799
 20
182.9040162763494
 30
0.0
 10
156.5718555830247
 20
182.9040162763494
 30
0.0
  0
SPLINE
  5
189
330
1F
100
AcDbEntity
  8
0
  6
Continuous
 62
     7
370
    25
100
AcDbSpline
210
0.0
220
0.0
230
1.0
 70
    24
 71
     3
 72
    10
 73
     6
 74
     0
 42
0.000000001
 43
0.00000001
 40
0.0
 40
0.0
 40
0.0
 40
0.0
 40
0.3936970524893972
 40
0.82483492994498
 40
1.0
 40
1.0
 40
1.0
 40
1.0
 10
156.5718555830247
 20
161.9040165594715
 30
0.0
 10
156.6028772856332
 20
161.9040165594715
 30
0.0
 10
156.6678708733068
 20
161.9040165594715
 30
0.0
 10
156.7116670450669
 20
161.9040165594715
 30
0.0
 10
156.7102237778433
 20
161.9040165594715
 30
0.0
 10
156.7098068080671
 20
161.9040165594715
 30
0.0
  0
CIRCLE
  5
18A
330
1F
100
AcDbEntity
  8
0
  6
Continuous
 62
     7
370
    25
100
AcDbCircle
 10
128.4782214098
 20
172.4040164179
 30
0.0
 40
8.19737216980208
  0
CIRCLE
  5
18B
330
1F
100
AcDbEntity
  8
0
  6
Continuous
 62
     7
370
    25
100
AcDbCircle
 10
128.4782214098
 20
172.4040164179
 30
0.0
 40
7.000000000000014
  0
CIRCLE
  5
18C
330
1F
100
AcDbEntity
  8
0
  6
Continuous
 62
     7
370
    25
100
AcDbCircle
 10
128.4782214098
 20
172.4040164179
 30
0.0
 40
5.5
  0
CIRCLE
  5
18D
330
1F
100
AcDbEntity
  8
0
  6
Continuous
 62
     7
370
    25
100
AcDbCircle
 10
128.4782214098
 20
172.4040164179
 30
0.0
 40
5.0
  0
CIRCLE
  5
18E
330
1F
100
AcDbEntity
  8
0
  6
Continuous
 62
     7
370
    25
100
AcDbCircle
 10
128.4782214098
 20
172.4040164179
 30
0.0
 40
8.53398420169853
  0
LINE
  5
18F
330
1F
100
AcDbEntity
  8
0
  6
Continuous
 62
     7
370
    25
100
AcDbLine
 10
140.5345907442
 20
164.0730165443
 30
0.0
 11
140.5345907442
 21
180.7350162915
 31
0.0
  0
LINE
  5
190
330
1F
100
AcDbEntity
  8
0
  6
Continuous
 62
     7
370
    25
100
AcDbLine
 10
140.4782215141
 20
164.4040160379
 30
0.0
 11
140.4782215141
 21
180.4040167979
 31
0.0
  0
LINE
  5
191
330
1F
100
AcDbEntity
  8
0
  6
Continuous
 62
     7
370
    25
100
AcDbLine
 10
122.7282213986
 20
179.404016634
 30
0.0
 11
123.5967374414
 21
179.404016634
 31
0.0
  0
LINE
  5
192
330
1F
100
AcDbEntity
  8
0
  6
Continuous
 62
     7
370
    25
100
AcDbLine
 10
122.7282213986
 20
179.404016634
 30
0.0
 11
122.7282213986
 21
179.154016593
 31
0.0
  0
LINE
  5
193
330
1F
100
AcDbEntity
  8
0
  6
Continuous
 62
     7
370
    25
100
AcDbLine
 10
133.3597053781
 20
179.404016634
 30
0.0
 11
134.2282214209
 21
179.404016634
 31
0.0
  0
LINE
  5
194
330
1F
100
AcDbEntity
  8
0
  6
Continuous
 62
     7
370
    25
100
AcDbLine
 10
134.2282214209
 20
179.404016634
 30
0.0
 11
134.2282214209
 21
179.154016593
 31
0.0
  0
LINE
  5
195
330
1F
100
AcDbEntity
  8
0
  6
Continuous
 62
     7
370
    25
100
AcDbLine
 10
123.5967374414
 20
165.4040162018
 30
0.0
 11
122.7282213986
 21
165.4040162018
 31
0.0
  0
LINE
  5
196
330
1F
100
AcDbEntity
  8
0
  6
Continuous
 62
     7
370
    25
100
AcDbLine
 10
122.7282213986
 20
165.6540162428
 30
0.0
 11
122.7282213986
 21
165.4040162018
 31
0.0
  0
LINE
  5
197
330
1F
100
AcDbEntity
  8
0
  6
Continuous
 62
     7
370
    25
100
AcDbLine
 10
134.2282214209
 20
165.6540162428
 30
0.0
 11
134.2282214209
 21
165.4040162018
 31
0.0
  0
LINE
  5
198
330
1F
100
AcDbEntity
  8
0
  6
Continuous
 62
     7
370
    25
100
AcDbLine
 10
134.2282214209
 20
165.4040162018
 30
0.0
 11
133.3597053781
 21
165.4040162018
 31
0.0
  0
LINE
  5
199
330
1F
100
AcDbEntity
  8
0
  6
Continuous
 62
     7
370
    25
100
AcDbLine
 10
134.4782214619
 20
179.154016593
 30
0.0
 11
134.2282214209
 21
179.154016593
 31
0.0
  0
ARC
  5
19A
330
1F
100
AcDbEntity
  8
0
  6
Continuous
 62
     7
370
    25
100
AcDbCircle
 10
134.2282214098
 20
179.1540164179
 30
0.0
 40
0.2500000000000284
100
AcDbArc
 50
0.0
 51
90.0
  0
LINE
  5
19B
330
1F
100
AcDbEntity
  8
0
  6
Continuous
 62
     7
370
    25
100
AcDbLine
 10
122.4782213576
 20
179.154016593
 30
0.0
 11
122.7282213986
 21
179.154016593
 31
0.0
  0
ARC
  5
19C
330
1F
100
AcDbEntity
  8
0
  6
Continuous
 62
     7
370
    25
100
AcDbCircle
 10
122.7282214098
 20
179.1540164179
 30
0.0
 40
0.2500000000000284
100
AcDbArc
 50
90.0
 51
180.0
  0
LINE
  5
19D
330
1F
100
AcDbEntity
  8
0
  6
Continuous
 62
     7
370
    25
100
AcDbLine
 10
122.4782213576
 20
178.472697319
 30
0.0
 11
122.4782213576
 21
179.154016593
 31
0.0
  0
LINE
  5
19E
330
1F
100
AcDbEntity
  8
0
  6
Continuous
 62
     7
370
    25
100
AcDbLine
 10
134.4782214619
 20
179.154016593
 30
0.0
 11
134.4782214619
 21
178.472697319
 31
0.0
  0
LINE
  5
19F
330
1F
100
AcDbEntity
  8
0
  6
Continuous
 62
     7
370
    25
100
AcDbLine
 10
122.7282213986
 20
165.6540162428
 30
0.0
 11
122.4782213576
 21
165.6540162428
 31
0.0
  0
LINE
  5
1A0
330
1F
100
AcDbEntity
  8
0
  6
Continuous
 62
     7
370
    25
100
AcDbLine
 10
122.4782213576
 20
165.6540162428
 30
0.0
 11
122.4782213576
 21
166.3353355168
 31
0.0
  0
LINE
  5
1A1
330
1F
100
AcDbEntity
  8
0
  6
Continuous
 62
     7
370
    25
100
AcDbLine
 10
134.4782214619
 20
166.3353355168
 30
0.0
 11
134.4782214619
 21
165.6540162428
 31
0.0
  0
LINE
  5
1A2
330
1F
100
AcDbEntity
  8
0
  6
Continuous
 62
     7
370
    25
100
AcDbLine
 10
134.2282214209
 20
165.6540162428
 30
0.0
 11
134.4782214619
 21
165.6540162428
 31
0.0
  0
ARC
  5
1A3
330
1F
100
AcDbEntity
  8
0
  6
Continuous
 62
     7
370
    25
100
AcDbCircle
 10
134.2282214098
 20
165.6540164179
 30
0.0
 40
0.25
100
AcDbArc
 50
270.0
 51
0.0
  0
ARC
  5
1A4
330
1F
100
AcDbEntity
  8
0
  6
Continuous
 62
     7
370
    25
100
AcDbCircle
 10
122.7282214098
 20
165.6540164179
 30
0.0
 40
0.25
100
AcDbArc
 50
180.0
 51
270.0
  0
LINE
  5
1A5
330
1F
100
AcDbEntity
  8
0
  6
Continuous
 62
     7
370
    25
100
AcDbLine
 10
135.4782216258
 20
179.154016593
 30
0.0
 11
134.4782214619
 21
179.154016593
 31
0.0
  0
LINE
  5
1A6
330
1F
100
AcDbEntity
  8
0
  6
Continuous
 62
     7
370
    25
100
AcDbLine
 10
135.4782216258
 20
179.404016634
 30
0.0
 11
135.4782216258
 21
179.154016593
 31
0.0
  0
LINE
  5
1A7
330
1F
100
AcDbEntity
  8
0
  6
Continuous
 62
     7
370
    25
100
AcDbLine
 10
134.2282214209
 20
179.404016634
 30
0.0
 11
135.4782216258
 21
179.404016634
 31
0.0
  0
SPLINE
  5
1A8
330
1F
100
AcDbEntity
  8
0
  6
Continuous
 62
     7
370
    25
100
AcDbSpline
210
0.0
220
0.0
230
1.0
 70
    24
 71
     3
 72
    14
 73
    10
 74
     0
 42
0.000000001
 43
0.00000001
 40
0.0
 40
0.0
 40
0.0
 40
0.0
 40
0.25
 40
0.25
 40
0.5
 40
0.5
 40
0.75
 40
0.75
 40
1.0
 40
1.0
 40
1.0
 40
1.0
 10
136.2282214097507
 20
165.4040164179105
 30
0.0
 10
136.2282214097507
 20
165.4040164179105
 30
0.0
 10
136.2282214097507
 20
165.4139411078359
 30
0.0
 10
136.2282214097507
 20
165.4537358104986
 30
0.0
 10
136.2282214097507
 20
165.4836061557202
 30
0.0
 10
136.2282214097507
 20
165.5635756956522
 30
0.0
 10
136.2282214097507
 20
165.613675576088
 30
0.0
 10
136.2282214097507
 20
165.7345601250759
 30
0.0
 10
136.2282214097507
 20
165.8053458736645
 30
0.0
 10
136.2282214097507
 20
165.8867750386001
 30
0.0
  0
LINE
  5
1A9
330
1F
100
AcDbEntity
  8
0
  6
Continuous
 62
     7
370
    25
100
AcDbLine
 10
136.2282212831
 20
168.1404077015
 30
0.0
 11
136.2282212831
 21
165.8867751746
 31
0.0
  0
LINE
  5
1AA
330
1F
100
AcDbEntity
  8
0
  6
Continuous
 62
     7
370
    25
100
AcDbLine
 10
136.2282212831
 20
178.9212576612
 30
0.0
 11
136.2282212831
 21
176.6676251343
 31
0.0
  0
SPLINE
  5
1AB
330
1F
100
AcDbEntity
  8
0
  6
Continuous
 62
     7
370
    25
100
AcDbSpline
210
0.0
220
0.0
230
1.0
 70
    24
 71
     3
 72
    14
 73
    10
 74
     0
 42
0.000000001
 43
0.00000001
 40
0.0
 40
0.0
 40
0.0
 40
0.0
 40
0.25
 40
0.25
 40
0.5
 40
0.5
 40
0.75
 40
0.75
 40
1.0
 40
1.0
 40
1.0
 40
1.0
 10
136.2282214097507
 20
179.4040164179105
 30
0.0
 10
136.2282214097507
 20
179.4040164179105
 30
0.0
 10
136.2282214097507
 20
179.3940917279851
 30
0.0
 10
136.2282214097507
 20
179.3542970253224
 30
0.0
 10
136.2282214097507
 20
179.3244266801007
 30
0.0
 10
136.2282214097507
 20
179.2444571401688
 30
0.0
 10
136.2282214097507
 20
179.1943572597329
 30
0.0
 10
136.2282214097507
 20
179.0734727107451
 30
0.0
 10
136.2282214097507
 20
179.0026869621564
 30
0.0
 10
136.2282214097507
 20
178.9212577972208
 30
0.0
  0
LINE
  5
1AC
330
1F
100
AcDbEntity
  8
0
  6
Continuous
 62
     7
370
    25
100
AcDbLine
 10
134.4782214619
 20
165.6540162428
 30
0.0
 11
135.4782216258
 21
165.6540162428
 31
0.0
  0
LINE
  5
1AD
330
1F
100
AcDbEntity
  8
0
  6
Continuous
 62
     7
370
    25
100
AcDbLine
 10
135.4782216258
 20
165.6540162428
 30
0.0
 11
135.4782216258
 21
165.4040162018
 31
0.0
  0
LINE
  5
1AE
330
1F
100
AcDbEntity
  8
0
  6
Continuous
 62
     7
370
    25
100
AcDbLine
 10
135.4782216258
 20
165.4040162018
 30
0.0
 11
134.2282214209
 21
165.4040162018
 31
0.0
  0
LWPOLYLINE
  5
1AF
330
1F
100
AcDbEntity
  8
0
  6
Continuous
 62
     7
370
    25
100
AcDbPolyline
 90
        9
 70
   128
 43
0.0
 10
136.2282212831
 20
176.6676251343
 10
136.1794488512
 20
176.6705508842
 10
136.132550706
 20
176.6792159094
 10
136.0893289566
 20
176.6932877279
 10
136.0514446169
 20
176.7122243098
 10
136.0203538097
 20
176.7352992236
 10
135.9972514219
 20
176.7616249188
 10
135.983025004
 20
176.7901899791
 10
135.9782212421
 20
176.8198968409
  0
LWPOLYLINE
  5
1B0
330
1F
100
AcDbEntity
  8
0
  6
Continuous
 62
     7
370
    25
100
AcDbPolyline
 90
        9
 70
   128
 43
0.0
 10
135.9782212421
 20
167.9881359949
 10
135.983025004
 20
168.0178428567
 10
135.9972514219
 20
168.046407917
 10
136.0203538097
 20
168.0727336123
 10
136.0514446169
 20
168.095808526
 10
136.0893289566
 20
168.1147451079
 10
136.132550706
 20
168.1288169264
 10
136.1794488512
 20
168.1374819516
 10
136.2282212831
 20
168.1404077015
  0
LINE
  5
1B1
330
1F
100
AcDbEntity
  8
0
  6
Continuous
 62
     7
370
    25
100
AcDbLine
 10
135.7282212011
 20
179.404016634
 30
0.0
 11
135.7282212011
 21
179.154016593
 31
0.0
  0
LINE
  5
1B2
330
1F
100
AcDbEntity
  8
0
  6
Continuous
 62
     7
370
    25
100
AcDbLine
 10
135.7282212011
 20
179.154016593
 30
0.0
 11
135.4782216258
 21
179.154016593
 31
0.0
  0
LINE
  5
1B3
330
1F
100
AcDbEntity
  8
0
  6
Continuous
 62
     7
370
    25
100
AcDbLine
 10
135.4782216258
 20
179.404016634
 30
0.0
 11
135.7282212011
 21
179.404016634
 31
0.0
  0
LINE
  5
1B4
330
1F
100
AcDbEntity
  8
0
  6
Continuous
 62
     7
370
    25
100
AcDbLine
 10
135.9782212421
 20
179.154016593
 30
0.0
 11
135.7282212011
 21
179.154016593
 31
0.0
  0
ARC
  5
1B5
330
1F
100
AcDbEntity
  8
0
  6
Continuous
 62
     7
370
    25
100
AcDbCircle
 10
135.7282214098
 20
179.1540164179
 30
0.0
 40
0.2500000000000284
100
AcDbArc
 50
0.0
 51
90.0
  0
LINE
  5
1B6
330
1F
100
AcDbEntity
  8
0
  6
Continuous
 62
     7
370
    25
100
AcDbLine
 10
135.9782212421
 20
179.154016593
 30
0.0
 11
135.9782212421
 21
176.8198968409
 31
0.0
  0
LINE
  5
1B7
330
1F
100
AcDbEntity
  8
0
  6
Continuous
 62
     7
370
    25
100
AcDbLine
 10
135.9782212421
 20
167.9881359949
 30
0.0
 11
135.9782212421
 21
165.6540162428
 31
0.0
  0
LINE
  5
1B8
330
1F
100
AcDbEntity
  8
0
  6
Continuous
 62
     7
370
    25
100
AcDbLine
 10
135.7282212011
 20
165.6540162428
 30
0.0
 11
135.9782212421
 21
165.6540162428
 31
0.0
  0
LINE
  5
1B9
330
1F
100
AcDbEntity
  8
0
  6
Continuous
 62
     7
370
    25
100
AcDbLine
 10
135.4782216258
 20
165.6540162428
 30
0.0
 11
135.7282212011
 21
165.6540162428
 31
0.0
  0
LINE
  5
1BA
330
1F
100
AcDbEntity
  8
0
  6
Continuous
 62
     7
370
    25
100
AcDbLine
 10
135.7282212011
 20
165.6540162428
 30
0.0
 11
135.7282212011
 21
165.4040162018
 31
0.0
  0
LINE
  5
1BB
330
1F
100
AcDbEntity
  8
0
  6
Continuous
 62
     7
370
    25
100
AcDbLine
 10
135.7282212011
 20
165.4040162018
 30
0.0
 11
135.4782216258
 21
165.4040162018
 31
0.0
  0
ARC
  5
1BC
330
1F
100
AcDbEntity
  8
0
  6
Continuous
 62
     7
370
    25
100
AcDbCircle
 10
135.7282214098
 20
165.6540164179
 30
0.0
 40
0.25
100
AcDbArc
 50
270.0
 51
0.0
  0
SPLINE
  5
1BD
330
1F
100
AcDbEntity
  8
0
  6
Continuous
 62
     7
370
    25
100
AcDbSpline
210
0.0
220
0.0
230
1.0
 70
     8
 71
     3
 72
     8
 73
     4
 74
     0
 42
0.000000001
 43
0.00000001
 40
0.0
 40
0.0
 40
0.0
 40
0.0
 40
1.0
 40
1.0
 40
1.0
 40
1.0
 10
136.2282214097507
 20
178.9212577972208
 30
0.0
 10
136.1627687293145
 20
178.9228276999176
 30
0.0
 10
136.0977191643063
 20
178.9494830343216
 30
0.0
 10
136.051438703824
 20
178.994184597943
 30
0.0
  0
SPLINE
  5
1BE
330
1F
100
AcDbEntity
  8
0
  6
Continuous
 62
     7
370
    25
100
AcDbSpline
210
0.0
220
0.0
230
1.0
 70
     8
 71
     3
 72
    14
 73
    10
 74
     0
 42
0.000000001
 43
0.00000001
 40
0.0
 40
0.0
 40
0.0
 40
0.0
 40
0.245589323567575
 40
0.455618196314265
 40
0.6303106213393797
 40
0.77011643036692
 40
0.8759901151610914
 40
0.9502659312389357
 40
1.0
 40
1.0
 40
1.0
 40
1.0
 10
136.051438703824
 20
178.994184597943
 30
0.0
 10
136.0404736645087
 20
179.0060755384822
 30
0.0
 10
136.0201312841365
 20
179.0281356541348
 30
0.0
 10
135.99997927166
 20
179.063699352455
 30
0.0
 10
135.9878597121892
 20
179.0944916610582
 30
0.0
 10
135.9816538889568
 20
179.119731243631
 30
0.0
 10
135.9790341899829
 20
179.1377135365659
 30
0.0
 10
135.9782539956379
 20
179.1506356999818
 30
0.0
 10
135.978230737435
 20
179.1530486900878
 30
0.0
 10
135.9782214097507
 20
179.1540164179105
 30
0.0
  0
SPLINE
  5
1BF
330
1F
100
AcDbEntity
  8
0
  6
Continuous
 62
     7
370
    25
100
AcDbSpline
210
0.0
220
0.0
230
1.0
 70
     8
 71
     3
 72
    15
 73
    11
 74
     0
 42
0.000000001
 43
0.00000001
 40
0.0
 40
0.0
 40
0.0
 40
0.0
 40
0.0425877399909041
 40
0.1028282325346875
 40
0.1864706729280299
 40
0.2956205441869006
 40
0.4311891005861807
 40
0.5936297641565581
 40
0.7831876993469636
 40
1.0
 40
1.0
 40
1.0
 40
1.0
 10
135.9782214097507
 20
165.6540164179105
 30
0.0
 10
135.9782272028528
 20
165.6547319195073
 30
0.0
 10
135.9782411903162
 20
165.6564595003696
 30
0.0
 10
135.978732891148
 20
165.6663336794645
 30
0.0
 10
135.9803602451065
 20
165.6802273592868
 30
0.0
 10
135.9841853934906
 20
165.6997246171085
 30
0.0
 10
135.9915577035314
 20
165.7239294699577
 30
0.0
 10
136.0041756925083
 20
165.7522981266219
 30
0.0
 10
136.0234198947124
 20
165.7838372973655
 30
0.0
 10
136.0416906410827
 20
165.8034070899378
 30
0.0
 10
136.051438703824
 20
165.8138482378779
 30
0.0
  0
SPLINE
  5
1C0
330
1F
100
AcDbEntity
  8
0
  6
Continuous
 62
     7
370
    25
100
AcDbSpline
210
0.0
220
0.0
230
1.0
 70
     8
 71
     3
 72
     8
 73
     4
 74
     0
 42
0.000000001
 43
0.00000001
 40
0.0
 40
0.0
 40
0.0
 40
0.0
 40
1.0
 40
1.0
 40
1.0
 40
1.0
 10
136.051438703824
 20
165.8138482378779
 30
0.0
 10
136.0977191643063
 20
165.8585498014994
 30
0.0
 10
136.1627687293145
 20
165.8852051359033
 30
0.0
 10
136.2282214097507
 20
165.8867750386001
 30
0.0
  0
SPLINE
  5
1C1
330
1F
100
AcDbEntity
  8
0
  6
Continuous
 62
     7
370
    25
100
AcDbSpline
210
0.0
220
0.0
230
1.0
 70
     8
 71
     3
 72
    16
 73
    12
 74
     0
 42
0.000000001
 43
0.00000001
 40
0.0
 40
0.0
 40
0.0
 40
0.0
 40
0.25
 40
0.25
 40
0.5
 40
0.5
 40
0.625
 40
0.625
 40
0.75
 40
0.75
 40
1.0
 40
1.0
 40
1.0
 40
1.0
 10
131.6404990699191
 20
176.2769997641179
 30
0.0
 10
131.2703686196286
 20
176.2357220912689
 30
0.0
 10
130.8986612946633
 20
176.1852648415922
 30
0.0
 10
130.1432984284319
 20
176.0785503367998
 30
0.0
 10
129.757605412705
 20
176.0213223952809
 30
0.0
 10
129.1680406280015
 20
175.9611239949809
 30
0.0
 10
128.9693575910546
 20
175.9456798754366
 30
0.0
 10
128.5658803075041
 20
175.9303076744373
 30
0.0
 10
128.3594323182969
 20
175.9307639349295
 30
0.0
 10
127.7545960111925
 20
175.9561798457213
 30
0.0
 10
127.3638817066415
 20
176.0035196781733
 30
0.0
 10
126.9782214097507
 20
176.0558756814464
 30
0.0
  0
SPLINE
  5
1C2
330
1F
100
AcDbEntity
  8
0
  6
Continuous
 62
     7
370
    25
100
AcDbSpline
210
0.0
220
0.0
230
1.0
 70
     8
 71
     3
 72
    16
 73
    12
 74
     0
 42
0.000000001
 43
0.00000001
 40
0.0
 40
0.0
 40
0.0
 40
0.0
 40
0.2499999999999999
 40
0.2499999999999999
 40
0.4999999999999999
 40
0.4999999999999999
 40
0.6249999999999999
 40
0.6249999999999999
 40
0.7499999999999998
 40
0.7499999999999998
 40
1.0
 40
1.0
 40
1.0
 40
1.0
 10
126.9782214097507
 20
168.7521571543747
 30
0.0
 10
127.3617763292969
 20
168.8042273383814
 30
0.0
 10
127.7526417349561
 20
168.8519397585079
 30
0.0
 10
128.5695967906778
 20
168.885929992904
 30
0.0
 10
128.9695177249485
 20
168.8671451365746
 30
0.0
 10
129.5605111395549
 20
168.8068520721398
 30
0.0
 10
129.7567426322785
 20
168.7820479526824
 30
0.0
 10
130.1425401869657
 20
168.7300021565401
 30
0.0
 10
130.3327424697846
 20
168.7027181217115
 30
0.0
 10
130.8988281208637
 20
168.6227454594185
 30
0.0
 10
131.2704162393948
 20
168.5723054339024
 30
0.0
 10
131.6404990699191
 20
168.5310330717031
 30
0.0
  0
LINE
  5
1C3
330
1F
100
AcDbEntity
  8
0
  6
Continuous
 62
     7
370
    25
100
AcDbLine
 10
126.9782213967
 20
168.7521571792
 30
0.0
 11
126.9782213967
 21
176.0558756567
 31
0.0
  0
SPLINE
  5
1C4
330
1F
100
AcDbEntity
  8
0
  6
Continuous
 62
     7
370
    25
100
AcDbSpline
210
0.0
220
0.0
230
1.0
 70
    11
 71
     3
 72
    62
 73
    58
 74
     0
 42
0.000000001
 43
0.00000001
 40
0.0
 40
0.0
 40
0.0
 40
0.0
 40
0.0000024013284194
 40
0.0000024013284194
 40
0.0000024013284194
 40
0.0000048026978684
 40
0.0000048026978684
 40
0.0000048026978684
 40
0.0000072062406814
 40
0.0000072062406814
 40
0.0000072062406814
 40
0.0000096132436059
 40
0.0000096132436059
 40
0.0000096132436059
 40
0.0000120234788493
 40
0.0000120234788493
 40
0.0000120234788493
 40
0.0000144353099143
 40
0.0000144353099143
 40
0.0000144353099143
 40
0.0000168464025177
 40
0.0000168464025177
 40
0.0000168464025177
 40
0.0000192547387027
 40
0.0000192547387027
 40
0.0000192547387027
 40
0.0000216595037013
 40
0.0000216595037013
 40
0.0000216595037013
 40
0.0000240614530891
 40
0.0000240614530891
 40
0.0000240614530891
 40
0.0000264625834291
 40
0.0000264625834291
 40
0.0000264625834291
 40
0.000028865248033
 40
0.000028865248033
 40
0.000028865248033
 40
0.000031271119877
 40
0.000031271119877
 40
0.000031271119877
 40
0.0000336804649593
 40
0.0000336804649593
 40
0.0000336804649593
 40
0.0000360920343576
 40
0.0000360920343576
 40
0.0000360920343576
 40
0.0000385036089496
 40
0.0000385036089496
 40
0.0000385036089496
 40
0.0000409129620263
 40
0.0000409129620263
 40
0.0000409129620263
 40
0.0000433188334323
 40
0.0000433188334323
 40
0.0000433188334323
 40
0.0000448099169403
 40
0.0000448099169403
 40
0.0000448099169403
 40
0.0000448099169403
 10
128.4781803868792
 20
172.39684428105
 30
0.0
 10
128.4773799572445
 20
172.3968488730152
 30
0.0
 10
128.4765692892234
 20
172.3969917490856
 30
0.0
 10
128.4758154954138
 20
172.3972610135881
 30
0.0
 10
128.4750616757569
 20
172.3975302873236
 30
0.0
 10
128.4743439660598
 20
172.3979333606885
 30
0.0
 10
128.4737216088811
 20
172.3984367727221
 30
0.0
 10
128.473098687355
 20
172.3989406412448
 30
0.0
 10
128.4725541343549
 20
172.399558886961
 30
0.0
 10
128.4721327714668
 20
172.4002403325659
 30
0.0
 10
128.4717108085965
 20
172.400922748487
 30
0.0
 10
128.4714007605573
 20
172.4016873268548
 30
0.0
 10
128.4712281105535
 20
172.4024708678255
 30
0.0
 10
128.4710552332166
 20
172.4032554405061
 30
0.0
 10
128.471015351679
 20
172.4040806477513
 30
0.0
 10
128.4711117458158
 20
172.4048782373059
 30
0.0
 10
128.4712082013391
 20
172.4056763347874
 30
0.0
 10
128.4714437785167
 20
172.4064688024567
 30
0.0
 10
128.4717990573946
 20
172.4071899403625
 30
0.0
 10
128.4721542227186
 20
172.407910847779
 30
0.0
 10
128.4726388403734
 20
172.4085803800347
 30
0.0
 10
128.4732128357902
 20
172.4091428557937
 30
0.0
 10
128.4737861775002
 20
172.4097046909652
 30
0.0
 10
128.4744645503035
 20
172.4101752300806
 30
0.0
 10
128.4751917167341
 20
172.4105152428332
 30
0.0
 10
128.4759178197128
 20
172.4108547583308
 30
0.0
 10
128.4767126345685
 20
172.4110735008666
 30
0.0
 10
128.4775102194314
 20
172.411153218991
 30
0.0
 10
128.4783068923685
 20
172.4112328459689
 30
0.0
 10
128.4791283095981
 20
172.4111759672066
 30
0.0
 10
128.4799064106666
 20
172.4109873223986
 30
0.0
 10
128.4806842638389
 20
172.4107987376912
 30
0.0
 10
128.4814402647071
 20
172.4104732878415
 30
0.0
 10
128.4821119480461
 20
172.4100380167532
 30
0.0
 10
128.4827840655683
 20
172.4096024643012
 30
0.0
 10
128.4833902687613
 20
172.4090449725442
 30
0.0
 10
128.4838806223935
 20
172.4084117260179
 30
0.0
 10
128.4843716253494
 20
172.4077776409497
 30
0.0
 10
128.4847599980852
 20
172.4070501538254
 30
0.0
 10
128.4850138121006
 20
172.4062894130545
 30
0.0
 10
128.4852679864472
 20
172.4055275922859
 30
0.0
 10
128.4853942252631
 20
172.4047114373552
 30
0.0
 10
128.4853821508387
 20
172.4039084243558
 30
0.0
 10
128.4853700655912
 20
172.4031046915681
 30
0.0
 10
128.4852190780564
 20
172.402291953929
 30
0.0
 10
128.4849416240406
 20
172.4015375326288
 30
0.0
 10
128.4846641744441
 20
172.4007831233449
 30
0.0
 10
128.4842525849535
 20
172.4000661979701
 30
0.0
 10
128.4837408581423
 20
172.3994463213421
 30
0.0
 10
128.4832296034414
 20
172.3988270166016
 30
0.0
 10
128.4826042536036
 20
172.3982874765641
 30
0.0
 10
128.481916617449
 20
172.3978726557059
 30
0.0
 10
128.4812299639345
 20
172.3974584276315
 30
0.0
 10
128.4804622238401
 20
172.3971571262357
 30
0.0
 10
128.4796770916534
 20
172.3969938910716
 30
0.0
 10
128.4791862010904
 20
172.3968918310581
 30
0.0
 10
128.4786817665257
 20
172.3968414046973
 30
0.0
 10
128.4781803868792
 20
172.39684428105
 30
0.0
  0
SPLINE
  5
1C5
330
1F
100
AcDbEntity
  8
0
  6
Continuous
 62
     7
370
    25
100
AcDbSpline
210
0.0
220
0.0
230
1.0
 70
     8
 71
     3
 72
    12
 73
     8
 74
     0
 42
0.000000001
 43
0.00000001
 40
0.0
 40
0.0
 40
0.0
 40
0.0
 40
0.25
 40
0.25
 40
0.5
 40
0.5
 40
1.0
 40
1.0
 40
1.0
 40
1.0
 10
135.979941167405
 20
179.4029068786284
 30
0.0
 10
135.9901832658541
 20
179.4029154860136
 30
0.0
 10
136.0048659803175
 20
179.3943243508288
 30
0.0
 10
136.0366883709753
 20
179.3580147513185
 30
0.0
 10
136.0538280471698
 20
179.3302962869931
 30
0.0
 10
136.0992961129033
 20
179.2155581343049
 30
0.0
 10
136.0924632618392
 20
179.113947291674
 30
0.0
 10
136.051438703824
 20
178.994184597943
 30
0.0
  0
SPLINE
  5
1C6
330
1F
100
AcDbEntity
  8
0
  6
Continuous
 62
     7
370
    25
100
AcDbSpline
210
0.0
220
0.0
230
1.0
 70
     8
 71
     3
 72
    12
 73
     8
 74
     0
 42
0.000000001
 43
0.00000001
 40
0.0
 40
0.0
 40
0.0
 40
0.0
 40
0.25
 40
0.25
 40
0.5
 40
0.5
 40
1.0
 40
1.0
 40
1.0
 40
1.0
 10
135.979941167405
 20
179.4029068786284
 30
0.0
 10
135.9696990689559
 20
179.4028982712432
 30
0.0
 10
135.9621598574026
 20
179.3942884609131
 30
0.0
 10
135.9478303417782
 20
179.3728073506428
 30
0.0
 10
135.9410400377072
 20
179.3599360507027
 30
0.0
 10
135.914807187254
 20
179.3343412908875
 30
0.0
 10
135.9051244705657
 20
179.3306667476888
 30
0.0
 10
135.9049981050458
 20
179.3307931132086
 30
0.0
  0
SPLINE
  5
1C7
330
1F
100
AcDbEntity
  8
0
  6
Continuous
 62
     7
370
    25
100
AcDbSpline
210
0.0
220
0.0
230
1.0
 70
     8
 71
     3
 72
    10
 73
     6
 74
     0
 42
0.000000001
 43
0.00000001
 40
0.0
 40
0.0
 40
0.0
 40
0.0
 40
0.5
 40
0.5
 40
1.0
 40
1.0
 40
1.0
 40
1.0
 10
135.979941167405
 20
179.4029068786284
 30
0.0
 10
135.9389727736087
 20
179.4028724490876
 30
0.0
 10
135.8950082638642
 20
179.4031806594246
 30
0.0
 10
135.8039616241204
 20
179.408135392805
 30
0.0
 10
135.7710131835395
 20
179.4040164179105
 30
0.0
 10
135.7282214097507
 20
179.4040164179105
 30
0.0
  0
SPLINE
  5
1C8
330
1F
100
AcDbEntity
  8
0
  6
Continuous
 62
     7
370
    25
100
AcDbSpline
210
0.0
220
0.0
230
1.0
 70
     8
 71
     3
 72
    14
 73
    10
 74
     0
 42
0.000000001
 43
0.00000001
 40
0.0
 40
0.0
 40
0.0
 40
0.0
 40
0.25
 40
0.25
 40
0.5
 40
0.5
 40
0.75
 40
0.75
 40
1.0
 40
1.0
 40
1.0
 40
1.0
 10
135.979941167405
 20
165.4051259571925
 30
0.0
 10
135.9901832658541
 20
165.4051173498073
 30
0.0
 10
136.0048659803175
 20
165.4137084849922
 30
0.0
 10
136.0366883709753
 20
165.4500180845024
 30
0.0
 10
136.0538280471698
 20
165.4777365488279
 30
0.0
 10
136.0841400909922
 20
165.55422865062
 30
0.0
 10
136.0900098891817
 20
165.5987543867258
 30
0.0
 10
136.0839153351014
 20
165.698623506922
 30
0.0
 10
136.0719509828316
 20
165.7539668910125
 30
0.0
 10
136.051438703824
 20
165.8138482378779
 30
0.0
  0
SPLINE
  5
1C9
330
1F
100
AcDbEntity
  8
0
  6
Continuous
 62
     7
370
    25
100
AcDbSpline
210
0.0
220
0.0
230
1.0
 70
     8
 71
     3
 72
    12
 73
     8
 74
     0
 42
0.000000001
 43
0.00000001
 40
0.0
 40
0.0
 40
0.0
 40
0.0
 40
0.25
 40
0.25
 40
0.5
 40
0.5
 40
1.0
 40
1.0
 40
1.0
 40
1.0
 10
135.979941167405
 20
165.4051259571925
 30
0.0
 10
135.9696990689559
 20
165.4051345645777
 30
0.0
 10
135.9621598574026
 20
165.4137443749079
 30
0.0
 10
135.9478303417783
 20
165.4352254851781
 30
0.0
 10
135.9410400377072
 20
165.4480967851182
 30
0.0
 10
135.914807187254
 20
165.4736915449335
 30
0.0
 10
135.9051244705657
 20
165.4773660881322
 30
0.0
 10
135.9049981050458
 20
165.4772397226123
 30
0.0
  0
SPLINE
  5
1CA
330
1F
100
AcDbEntity
  8
0
  6
Continuous
 62
     7
370
    25
100
AcDbSpline
210
0.0
220
0.0
230
1.0
 70
     8
 71
     3
 72
    10
 73
     6
 74
     0
 42
0.000000001
 43
0.00000001
 40
0.0
 40
0.0
 40
0.0
 40
0.0
 40
0.5
 40
0.5
 40
1.0
 40
1.0
 40
1.0
 40
1.0
 10
135.979941167405
 20
165.4051259571925
 30
0.0
 10
135.9389727736087
 20
165.4051603867333
 30
0.0
 10
135.8950082638642
 20
165.4048521763964
 30
0.0
 10
135.8039616241204
 20
165.399897443016
 30
0.0
 10
135.7710131835395
 20
165.4040164179105
 30
0.0
 10
135.7282214097507
 20
165.4040164179105
 30
0.0
  0
SPLINE
  5
1CB
330
1F
100
AcDbEntity
  8
0
  6
Continuous
 62
     7
370
    25
100
AcDbSpline
210
0.0
220
0.0
230
1.0
 70
     8
 71
     3
 72
    10
 73
     6
 74
     0
 42
0.000000001
 43
0.00000001
 40
0.0
 40
0.0
 40
0.0
 40
0.0
 40
0.5
 40
0.5
 40
1.0
 40
1.0
 40
1.0
 40
1.0
 10
135.979941167405
 20
179.4029068786284
 30
0.0
 10
136.0209095612013
 20
179.4029413081692
 30
0.0
 10
136.0643650082732
 20
179.4033229856034
 30
0.0
 10
136.1534508534904
 20
179.3996309714772
 30
0.0
 10
136.1858380821057
 20
179.4040164179105
 30
0.0
 10
136.2282214097507
 20
179.4040164179105
 30
0.0
  0
SPLINE
  5
1CC
330
1F
100
AcDbEntity
  8
0
  6
Continuous
 62
     7
370
    25
100
AcDbSpline
210
0.0
220
0.0
230
1.0
 70
     8
 71
     3
 72
    10
 73
     6
 74
     0
 42
0.000000001
 43
0.00000001
 40
0.0
 40
0.0
 40
0.0
 40
0.0
 40
0.5
 40
0.5
 40
1.0
 40
1.0
 40
1.0
 40
1.0
 10
135.979941167405
 20
165.4051259571925
 30
0.0
 10
136.0209095612013
 20
165.4050915276517
 30
0.0
 10
136.0643650082732
 20
165.4047098502176
 30
0.0
 10
136.1534508534904
 20
165.4084018643437
 30
0.0
 10
136.1858380821057
 20
165.4040164179105
 30
0.0
 10
136.2282214097507
 20
165.4040164179105
 30
0.0
  0
SPLINE
  5
1CD
330
1F
100
AcDbEntity
  8
0
  6
Continuous
 62
     7
370
    25
100
AcDbSpline
210
0.0
220
0.0
230
1.0
 70
     8
 71
     3
 72
    18
 73
    14
 74
     0
 42
0.000000001
 43
0.00000001
 40
0.0
 40
0.0
 40
0.0
 40
0.0
 40
0.2500000000000001
 40
0.2500000000000001
 40
0.3750000000000001
 40
0.3750000000000001
 40
0.5000000000000001
 40
0.5000000000000001
 40
0.6250000000000001
 40
0.6250000000000001
 40
0.7500000000000002
 40
0.7500000000000002
 40
1.0
 40
1.0
 40
1.0
 40
1.0
 10
126.9782214097507
 20
176.0558756814463
 30
0.0
 10
126.7364810130683
 20
175.5023670815374
 30
0.0
 10
126.5234488121705
 20
174.931571938213
 30
0.0
 10
126.2949097145404
 20
174.0205360279956
 30
0.0
 10
126.2341570064983
 20
173.7040604289018
 30
0.0
 10
126.1546445957612
 20
173.0639881369195
 30
0.0
 10
126.1351340413736
 20
172.7408580012297
 30
0.0
 10
126.1343324474143
 20
172.0874342308887
 30
0.0
 10
126.1536605543497
 20
171.7565240908048
 30
0.0
 10
126.2319531126079
 20
171.1173364554792
 30
0.0
 10
126.2911124413938
 20
170.8049212869609
 30
0.0
 10
126.5204957392962
 20
169.8838120075001
 30
0.0
 10
126.7355270541851
 20
169.307850016629
 30
0.0
 10
126.9782214097507
 20
168.7521571543747
 30
0.0
  0
SPLINE
  5
1CE
330
1F
100
AcDbEntity
  8
0
  6
Continuous
 62
     1
370
    25
100
AcDbSpline
210
0.0
220
0.0
230
1.0
 70
     8
 71
     3
 72
    11
 73
     7
 74
     0
 42
0.000000001
 43
0.00000001
 40
0.0
 40
0.0
 40
0.0
 40
0.0
 40
0.2730152346530072
 40
0.5460807207365529
 40
0.8229744174574171
 40
1.0
 40
1.0
 40
1.0
 40
1.0
 10
157.4378794066436
 20
162.3923881477612
 30
0.0
 10
157.4351046955273
 20
162.3524451016636
 30
0.0
 10
157.4295547625788
 20
162.2725516575152
 30
0.0
 10
157.4014023716833
 20
162.1983531906045
 30
0.0
 10
157.3805600496532
 20
162.1574372134091
 30
0.0
 10
157.3803471114208
 20
162.1580265924553
 30
0.0
 10
157.3802640668876
 20
162.1582564464706
 30
0.0
  0
SPLINE
  5
1CF
330
1F
100
AcDbEntity
  8
0
  6
Continuous
 62
     1
370
    25
100
AcDbSpline
210
0.0
220
0.0
230
1.0
 70
     8
 71
     3
 72
    10
 73
     6
 74
     0
 42
0.000000001
 43
0.00000001
 40
0.0
 40
0.0
 40
0.0
 40
0.0
 40
0.0998576114444744
 40
0.5478179866828925
 40
1.0
 40
1.0
 40
1.0
 40
1.0
 10
157.3802640668876
 20
182.6497763893503
 30
0.0
 10
157.3795589321146
 20
182.6507999757447
 30
0.0
 10
157.3756905688911
 20
182.6564153617894
 30
0.0
 10
157.4167959209919
 20
182.5997826337765
 30
0.0
 10
157.4308296388686
 20
182.4772156150555
 30
0.0
 10
157.4378794066436
 20
182.4156446880597
 30
0.0
  0
LINE
  5
1D0
330
1F
100
AcDbEntity
  8
0
  6
Continuous
 62
     1
370
    25
100
AcDbLine
 10
139.4782213501
 20
165.4040162018
 30
0.0
 11
139.4782213501
 21
179.404016634
 31
0.0
  0
LINE
  5
1D1
330
1F
100
AcDbEntity
  8
0
  6
Continuous
 62
     1
370
    25
100
AcDbLine
 10
123.2564987622
 20
179.154016593
 30
0.0
 11
122.7282213986
 21
179.154016593
 31
0.0
  0
LINE
  5
1D2
330
1F
100
AcDbEntity
  8
0
  6
Continuous
 62
     1
370
    25
100
AcDbLine
 10
134.2282214209
 20
179.154016593
 30
0.0
 11
133.6999440573
 21
179.154016593
 31
0.0
  0
LINE
  5
1D3
330
1F
100
AcDbEntity
  8
0
  6
Continuous
 62
     1
370
    25
100
AcDbLine
 10
134.2282214209
 20
178.7100760764
 30
0.0
 11
134.2282214209
 21
179.154016593
 31
0.0
  0
LINE
  5
1D4
330
1F
100
AcDbEntity
  8
0
  6
Continuous
 62
     1
370
    25
100
AcDbLine
 10
122.7282213986
 20
179.154016593
 30
0.0
 11
122.7282213986
 21
178.7100760764
 31
0.0
  0
LINE
  5
1D5
330
1F
100
AcDbEntity
  8
0
  6
Continuous
 62
     1
370
    25
100
AcDbLine
 10
134.2282214209
 20
165.6540162428
 30
0.0
 11
134.2282214209
 21
166.0979567594
 31
0.0
  0
LINE
  5
1D6
330
1F
100
AcDbEntity
  8
0
  6
Continuous
 62
     1
370
    25
100
AcDbLine
 10
133.6999440573
 20
165.6540162428
 30
0.0
 11
134.2282214209
 21
165.6540162428
 31
0.0
  0
LINE
  5
1D7
330
1F
100
AcDbEntity
  8
0
  6
Continuous
 62
     1
370
    25
100
AcDbLine
 10
122.7282213986
 20
166.0979567594
 30
0.0
 11
122.7282213986
 21
165.6540162428
 31
0.0
  0
LINE
  5
1D8
330
1F
100
AcDbEntity
  8
0
  6
Continuous
 62
     1
370
    25
100
AcDbLine
 10
122.7282213986
 20
165.6540162428
 30
0.0
 11
123.2564987622
 21
165.6540162428
 31
0.0
  0
LINE
  5
1D9
330
1F
100
AcDbEntity
  8
0
  6
Continuous
 62
     1
370
    25
100
AcDbLine
 10
135.4782216258
 20
177.2855003863
 30
0.0
 11
135.4782216258
 21
179.154016593
 31
0.0
  0
SPLINE
  5
1DA
330
1F
100
AcDbEntity
  8
0
  6
Continuous
 62
     1
370
    25
100
AcDbSpline
210
0.0
220
0.0
230
1.0
 70
     8
 71
     3
 72
     9
 73
     5
 74
     0
 42
0.000000001
 43
0.00000001
 40
0.0
 40
0.0
 40
0.0
 40
0.0
 40
0.3018151881708377
 40
1.0
 40
1.0
 40
1.0
 40
1.0
 10
136.0994757160373
 20
168.5762911136198
 30
0.0
 10
136.125614230792
 20
168.5345299225794
 30
0.0
 10
136.2122186025372
 20
168.3961631581579
 30
0.0
 10
136.2216420059513
 20
168.2455579620131
 30
0.0
 10
136.2282212830908
 20
168.1404077014822
 30
0.0
  0
SPLINE
  5
1DB
330
1F
100
AcDbEntity
  8
0
  6
Continuous
 62
     1
370
    25
100
AcDbSpline
210
0.0
220
0.0
230
1.0
 70
     8
 71
     3
 72
    10
 73
     6
 74
     0
 42
0.000000001
 43
0.00000001
 40
0.0
 40
0.0
 40
0.0
 40
0.0
 40
0.3881722197527789
 40
0.7762357247530773
 40
1.0
 40
1.0
 40
1.0
 40
1.0
 10
136.2282212830908
 20
176.6676251343387
 30
0.0
 10
136.2240081155506
 20
176.6079693591804
 30
0.0
 10
136.2155829604451
 20
176.488674516558
 30
0.0
 10
136.1704513028792
 20
176.3325879923322
 30
0.0
 10
136.114089415318
 20
176.2452685949305
 30
0.0
 10
136.0934761360116
 20
176.2133332001913
 30
0.0
  0
LINE
  5
1DC
330
1F
100
AcDbEntity
  8
0
  6
Continuous
 62
     1
370
    25
100
AcDbLine
 10
135.4782216258
 20
165.6540162428
 30
0.0
 11
135.4782216258
 21
167.5225324496
 31
0.0
  0
LINE
  5
1DD
330
1F
100
AcDbEntity
  8
0
  6
Continuous
 62
     1
370
    25
100
AcDbLine
 10
135.9782212421
 20
176.8198968409
 30
0.0
 11
135.9452617362
 21
176.5019796356
 31
0.0
  0
SPLINE
  5
1DE
330
1F
100
AcDbEntity
  8
0
  6
Continuous
 62
     1
370
    25
100
AcDbSpline
210
0.0
220
0.0
230
1.0
 70
     8
 71
     3
 72
     9
 73
     5
 74
     0
 42
0.000000001
 43
0.00000001
 40
0.0
 40
0.0
 40
0.0
 40
0.0
 40
0.0159533249854694
 40
1.0
 40
1.0
 40
1.0
 40
1.0
 10
135.9481497675009
 20
168.3137771240372
 30
0.0
 10
135.9486160294312
 20
168.3120763116049
 30
0.0
 10
135.9778426596632
 20
168.2054645279285
 30
0.0
 10
135.978033472941
 20
168.0959265136297
 30
0.0
 10
135.9782212421126
 20
167.9881359948713
 30
0.0
  0
LINE
  5
1DF
330
1F
100
AcDbEntity
  8
0
  6
Continuous
 62
     1
370
    25
100
AcDbLine
 10
135.7282212011
 20
176.9058369598
 30
0.0
 11
135.7282212011
 21
179.154016593
 31
0.0
  0
LINE
  5
1E0
330
1F
100
AcDbEntity
  8
0
  6
Continuous
 62
     1
370
    25
100
AcDbLine
 10
135.7282212011
 20
165.6540162428
 30
0.0
 11
135.7282212011
 21
167.902195876
 31
0.0
  0
LINE
  5
1E1
330
1F
100
AcDbEntity
  8
0
  6
Continuous
 62
     7
370
     0
100
AcDbLine
 10
147.9782214098
 20
164.5730164179
 30
0.0
 11
140.4638374608
 21
164.5730164179
 31
0.0
  0
LINE
  5
1E2
330
1F
100
AcDbEntity
  8
0
  6
Continuous
 62
     7
370
     0
100
AcDbLine
 10
147.9782214098
 20
180.2350164179
 30
0.0
 11
140.4638374608
 21
180.2350164179
 31
0.0
  0
ARC
  5
1E3
330
1F
100
AcDbEntity
  8
0
  6
Continuous
 62
     7
370
     0
100
AcDbCircle
 10
128.4782214098
 20
172.4040164179
 30
0.0
 40
7.475000000000005
100
AcDbArc
 50
255.0
 51
195.0
  0
LINE
  5
1E4
330
1F
100
AcDbEntity
  8
0
  6
Continuous
 62
     7
370
    25
100
AcDbLine
 10
210.1362486018
 20
117.3142371459
 30
0.0
 11
209.799636027
 21
128.085821843
 31
0.0
  0
LINE
  5
1E5
330
1F
100
AcDbEntity
  8
0
  6
Continuous
 62
     7
370
    25
100
AcDbLine
 10
193.4048923312
 20
128.085821843
 30
0.0
 11
193.0682797564
 21
117.3142371459
 31
0.0
  0
ARC
  5
1E6
330
1F
100
AcDbEntity
  8
0
  6
Continuous
 62
     7
370
    25
100
AcDbCircle
 10
193.6022641791
 20
118.1597315578
 30
0.0
 40
1.000000000000002
100
AcDbArc
 50
237.7249513296
 51
270.0
  0
ARC
  5
1E7
330
1F
100
AcDbEntity
  8
0
  6
Continuous
 62
     7
370
    25
100
AcDbCircle
 10
209.6022641791
 20
118.1597315578
 30
0.0
 40
1.000000000000002
100
AcDbArc
 50
270.0
 51
302.2750486704
  0
LINE
  5
1E8
330
1F
100
AcDbEntity
  8
0
  6
Continuous
 62
     7
370
    25
100
AcDbLine
 10
209.799636027
 20
128.085821843
 30
0.0
 11
208.6022643952
 21
130.1597319304
 31
0.0
  0
LINE
  5
1E9
330
1F
100
AcDbEntity
  8
0
  6
Continuous
 62
     7
370
    25
100
AcDbLine
 10
194.602263963
 20
130.1597319304
 30
0.0
 11
193.4048923312
 21
128.085821843
 31
0.0
  0
ARC
  5
1EA
330
1F
100
AcDbEntity
  8
0
  6
Continuous
 62
     7
370
    25
100
AcDbCircle
 10
193.6022641791
 20
116.1597315578
 30
0.0
 40
1.0
100
AcDbArc
 50
0.0
 51
90.0
  0
ARC
  5
1EB
330
1F
100
AcDbEntity
  8
0
  6
Continuous
 62
     7
370
    25
100
AcDbCircle
 10
209.6022641791
 20
116.1597315578
 30
0.0
 40
1.0
100
AcDbArc
 50
90.0
 51
180.0
  0
LINE
  5
1EC
330
1F
100
AcDbEntity
  8
0
  6
Continuous
 62
     7
370
    25
100
AcDbLine
 10
208.6022643952
 20
113.2426354794
 30
0.0
 11
208.6022643952
 21
116.1597314982
 31
0.0
  0
LINE
  5
1ED
330
1F
100
AcDbEntity
  8
0
  6
Continuous
 62
     7
370
    25
100
AcDbLine
 10
194.602263963
 20
116.1597314982
 30
0.0
 11
194.602263963
 21
113.2426354794
 31
0.0
  0
CIRCLE
  5
1EE
330
1F
100
AcDbEntity
  8
0
  6
Continuous
 62
     7
370
    25
100
AcDbCircle
 10
201.6022641791
 20
105.1597315578
 30
0.0
 40
10.05000000000001
  0
CIRCLE
  5
1EF
330
1F
100
AcDbEntity
  8
0
  6
Continuous
 62
     7
370
    25
100
AcDbCircle
 10
201.6022641791
 20
105.1597315578
 30
0.0
 40
5.175000000000011
  0
CIRCLE
  5
1F0
330
1F
100
AcDbEntity
  8
0
  6
Continuous
 62
     7
370
    25
100
AcDbCircle
 10
201.6022641791
 20
105.1597315578
 30
0.0
 40
5.074999999999989
  0
CIRCLE
  5
1F1
330
1F
100
AcDbEntity
  8
0
  6
Continuous
 62
     7
370
    25
100
AcDbCircle
 10
201.6022641791
 20
105.1597315578
 30
0.0
 40
10.25000000000003
  0
LWPOLYLINE
  5
1F2
330
1F
100
AcDbEntity
  8
0
  6
Continuous
 62
     7
370
    25
100
AcDbPolyline
 90
        9
 70
   128
 43
0.0
 10
212.1022640375
 20
107.4646175599
 10
211.9960317967
 20
107.4412984068
 10
211.8999742551
 20
107.4202123324
 10
211.8157333342
 20
107.401720457
 10
211.7447507216
 20
107.3861389647
 10
211.6882427244
 20
107.3737344465
 10
211.6471741928
 20
107.3647194768
 10
211.6222482754
 20
107.3592479567
 10
211.6138924493
 20
107.3574137169
  0
SPLINE
  5
1F3
330
1F
100
AcDbEntity
  8
0
  6
Continuous
 62
     7
370
    25
100
AcDbSpline
210
0.0
220
0.0
230
1.0
 70
    24
 71
     3
 72
    12
 73
     8
 74
     0
 42
0.000000001
 43
0.00000001
 40
0.0
 40
0.0
 40
0.0
 40
0.0
 40
0.202689728801328
 40
0.4053720385819694
 40
0.610148930977682
 40
0.8149289383937824
 40
1.0
 40
1.0
 40
1.0
 40
1.0
 10
212.1022640375434
 20
102.8548455557409
 30
0.0
 10
212.1022640375434
 20
103.1652633779146
 30
0.0
 10
212.1022640375434
 20
103.7860876600867
 30
0.0
 10
212.1022640375434
 20
104.7255392931814
 30
0.0
 10
212.1022640375434
 20
105.6689076973729
 30
0.0
 10
212.1022640375434
 20
106.5842791485156
 30
0.0
 10
212.1022640375434
 20
107.1812310703616
 30
0.0
 10
212.1022640375434
 20
107.464617559928
 30
0.0
  0
LWPOLYLINE
  5
1F4
330
1F
100
AcDbEntity
  8
0
  6
Continuous
 62
     7
370
    25
100
AcDbPolyline
 90
        9
 70
   128
 43
0.0
 10
211.6138924493
 20
102.9620493988
 10
211.6222482754
 20
102.960215159
 10
211.6471741928
 20
102.9547436389
 10
211.6882427244
 20
102.9457286692
 10
211.7447507216
 20
102.933324151
 10
211.8157333342
 20
102.9177426586
 10
211.8999742551
 20
102.8992507833
 10
211.9960317967
 20
102.8781647089
 10
212.1022640375
 20
102.8548455557
  0
LWPOLYLINE
  5
1F5
330
1F
100
AcDbEntity
  8
0
  6
Continuous
 62
     7
370
    25
100
AcDbPolyline
 90
        9
 70
   128
 43
0.0
 10
198.499698762
 20
95.3905666007
 10
198.4971092196
 20
95.3824128716
 10
198.4893848302
 20
95.3580904512
 10
198.4766578415
 20
95.3180165722
 10
198.4591461832
 20
95.2628766878
 10
198.4371490425
 20
95.1936132966
 10
198.4110431394
 20
95.1114129035
 10
198.3812750431
 20
95.0176808743
 10
198.3483541871
 20
94.9140218778
  0
SPLINE
  5
1F6
330
1F
100
AcDbEntity
  8
0
  6
Continuous
 62
     7
370
    25
100
AcDbSpline
210
0.0
220
0.0
230
1.0
 70
     8
 71
     3
 72
    11
 73
     7
 74
     0
 42
0.000000001
 43
0.00000001
 40
0.0
 40
0.0
 40
0.0
 40
0.0
 40
0.2958382423581058
 40
0.5932610726957092
 40
0.7963744542672688
 40
1.0
 40
1.0
 40
1.0
 40
1.0
 10
194.3561740798889
 20
97.21890741424588
 30
0.0
 10
194.7488775111238
 20
96.99217998120342
 30
0.0
 10
195.5363877971796
 20
96.53751070293784
 30
0.0
 10
196.6001157663502
 20
95.92336743575444
 30
0.0
 10
197.5388512496539
 20
95.38138864822332
 30
0.0
 10
198.0782934533719
 20
95.06994152564057
 30
0.0
 10
198.3483541870503
 20
94.91402187781361
 30
0.0
  0
LWPOLYLINE
  5
1F7
330
1F
100
AcDbEntity
  8
0
  6
Continuous
 62
     7
370
    25
100
AcDbPolyline
 90
        9
 70
   128
 43
0.0
 10
194.6932015589
 20
97.5882485269
 10
194.6874352751
 20
97.5819290376
 10
194.6702337472
 20
97.563078603
 10
194.6418922042
 20
97.5320199265
 10
194.6028953997
 20
97.4892838618
 10
194.5539106263
 20
97.4356024286
 10
194.4957756085
 20
97.3718939109
 10
194.4294854647
 20
97.2992479561
 10
194.3561740799
 20
97.2189074142
  0
SPLINE
  5
1F8
330
1F
100
AcDbEntity
  8
0
  6
Continuous
 62
     7
370
    25
100
AcDbSpline
210
0.0
220
0.0
230
1.0
 70
     8
 71
     3
 72
    11
 73
     7
 74
     0
 42
0.000000001
 43
0.00000001
 40
0.0
 40
0.0
 40
0.0
 40
0.0
 40
0.2958382423581058
 40
0.5932610726957092
 40
0.7963744542672688
 40
1.0
 40
1.0
 40
1.0
 40
1.0
 10
208.8483542783199
 20
113.100555701423
 30
0.0
 10
208.455650847085
 20
113.3272831344654
 30
0.0
 10
207.6681405610292
 20
113.781952412731
 30
0.0
 10
206.6044125918586
 20
114.3960956799144
 30
0.0
 10
205.6656771085549
 20
114.9380744674455
 30
0.0
 10
205.1262349048369
 20
115.2495215900283
 30
0.0
 10
204.8561741711585
 20
115.4054412378552
 30
0.0
  0
LWPOLYLINE
  5
1F9
330
1F
100
AcDbEntity
  8
0
  6
Continuous
 62
     7
370
    25
100
AcDbPolyline
 90
        9
 70
   128
 43
0.0
 10
208.8483542783
 20
113.1005557014
 10
208.7750428936
 20
113.0202151595
 10
208.7087527497
 20
112.9475692047
 10
208.6506177319
 20
112.883860687
 10
208.6016329585
 20
112.8301792538
 10
208.562636154
 20
112.7874431892
 10
208.534294611
 20
112.7563845127
 10
208.5170930831
 20
112.7375340781
 10
208.5113267994
 20
112.7312145887
  0
LWPOLYLINE
  5
1FA
330
1F
100
AcDbEntity
  8
0
  6
Continuous
 62
     7
370
    25
100
AcDbPolyline
 90
        9
 70
   128
 43
0.0
 10
204.8561741712
 20
115.4054412379
 10
204.8232533151
 20
115.3017822413
 10
204.7934852188
 20
115.2080502121
 10
204.7673793158
 20
115.1258498191
 10
204.745382175
 20
115.0565864279
 10
204.7278705167
 20
115.0014465435
 10
204.715143528
 20
114.9613726644
 10
204.7074191386
 20
114.9370502441
 10
204.7048295962
 20
114.9288965149
  0
LWPOLYLINE
  5
1FB
330
1F
100
AcDbEntity
  8
0
  6
Continuous
 62
     7
370
    25
100
AcDbPolyline
 90
        9
 70
   128
 43
0.0
 10
191.590635909
 20
102.9620493988
 10
191.5822800828
 20
102.960215159
 10
191.5573541654
 20
102.9547436389
 10
191.5162856339
 20
102.9457286692
 10
191.4597776366
 20
102.933324151
 10
191.388795024
 20
102.9177426586
 10
191.3045541031
 20
102.8992507833
 10
191.2084965615
 20
102.8781647089
 10
191.1022643207
 20
102.8548455557
  0
SPLINE
  5
1FC
330
1F
100
AcDbEntity
  8
0
  6
Continuous
 62
     7
370
    25
100
AcDbSpline
210
0.0
220
0.0
230
1.0
 70
    24
 71
     3
 72
    12
 73
     8
 74
     0
 42
0.000000001
 43
0.00000001
 40
0.0
 40
0.0
 40
0.0
 40
0.0
 40
0.1850710496583546
 40
0.3877424667381881
 40
0.590410823521426
 40
0.795201581384874
 40
1.0
 40
1.0
 40
1.0
 40
1.0
 10
191.1022643206654
 20
107.464617559928
 30
0.0
 10
191.1022643206654
 20
107.1812312460315
 30
0.0
 10
191.1022643206654
 20
106.5875084104346
 30
0.0
 10
191.1022643206654
 20
105.6786519026352
 30
0.0
 10
191.1022643206654
 20
104.7385439373443
 30
0.0
 10
191.1022643206654
 20
103.7957941152758
 30
0.0
 10
191.1022643206654
 20
103.1684989864576
 30
0.0
 10
191.1022643206654
 20
102.8548455557409
 30
0.0
  0
LWPOLYLINE
  5
1FD
330
1F
100
AcDbEntity
  8
0
  6
Continuous
 62
     7
370
    25
100
AcDbPolyline
 90
        9
 70
   128
 43
0.0
 10
191.1022643207
 20
107.4646175599
 10
191.2084965615
 20
107.4412984068
 10
191.3045541031
 20
107.4202123324
 10
191.388795024
 20
107.401720457
 10
191.4597776366
 20
107.3861389647
 10
191.5162856339
 20
107.3737344465
 10
191.5573541654
 20
107.3647194768
 10
191.5822800828
 20
107.3592479567
 10
191.590635909
 20
107.3574137169
  0
LWPOLYLINE
  5
1FE
330
1F
100
AcDbEntity
  8
0
  6
Continuous
 62
     7
370
    25
100
AcDbPolyline
 90
        9
 70
   128
 43
0.0
 10
208.5113267994
 20
97.5882485269
 10
208.5170930831
 20
97.5819290376
 10
208.534294611
 20
97.563078603
 10
208.562636154
 20
97.5320199265
 10
208.6016329585
 20
97.4892838618
 10
208.6506177319
 20
97.4356024286
 10
208.7087527497
 20
97.3718939109
 10
208.7750428936
 20
97.2992479561
 10
208.8483542783
 20
97.2189074142
  0
SPLINE
  5
1FF
330
1F
100
AcDbEntity
  8
0
  6
Continuous
 62
     7
370
    25
100
AcDbSpline
210
0.0
220
0.0
230
1.0
 70
     8
 71
     3
 72
    11
 73
     7
 74
     0
 42
0.000000001
 43
0.00000001
 40
0.0
 40
0.0
 40
0.0
 40
0.0
 40
0.2958382859360417
 40
0.5932610291220336
 40
0.7963744107694746
 40
1.0
 40
1.0
 40
1.0
 40
1.0
 10
204.8561741711585
 20
94.91402187781361
 30
0.0
 10
205.2488776983395
 20
95.14074927903052
 30
0.0
 10
206.0363880029578
 20
95.59541839310587
 30
0.0
 10
207.1001157172138
 20
96.20956196517506
 30
0.0
 10
208.0388511564807
 20
96.7515406925295
 30
0.0
 10
208.578293463945
 20
97.06298777159932
 30
0.0
 10
208.8483542783199
 20
97.21890741424588
 30
0.0
  0
LWPOLYLINE
  5
200
330
1F
100
AcDbEntity
  8
0
  6
Continuous
 62
     7
370
    25
100
AcDbPolyline
 90
        9
 70
   128
 43
0.0
 10
204.7048295962
 20
95.3905666007
 10
204.7074191386
 20
95.3824128716
 10
204.715143528
 20
95.3580904512
 10
204.7278705167
 20
95.3180165722
 10
204.745382175
 20
95.2628766878
 10
204.7673793158
 20
95.1936132966
 10
204.7934852188
 20
95.1114129035
 10
204.8232533151
 20
95.0176808743
 10
204.8561741712
 20
94.9140218778
  0
SPLINE
  5
201
330
1F
100
AcDbEntity
  8
0
  6
Continuous
 62
     7
370
    25
100
AcDbSpline
210
0.0
220
0.0
230
1.0
 70
     8
 71
     3
 72
    11
 73
     7
 74
     0
 42
0.000000001
 43
0.00000001
 40
0.0
 40
0.0
 40
0.0
 40
0.0
 40
0.2958382859360417
 40
0.5932610291220336
 40
0.7963744107694746
 40
1.0
 40
1.0
 40
1.0
 40
1.0
 10
198.3483541870503
 20
115.4054412378552
 30
0.0
 10
197.9556506598693
 20
115.1787138366383
 30
0.0
 10
197.168140355251
 20
114.724044722563
 30
0.0
 10
196.1044126409951
 20
114.1099011504938
 30
0.0
 10
195.1656772017282
 20
113.5679224231394
 30
0.0
 10
194.6262348942638
 20
113.2564753440695
 30
0.0
 10
194.3561740798889
 20
113.100555701423
 30
0.0
  0
LWPOLYLINE
  5
202
330
1F
100
AcDbEntity
  8
0
  6
Continuous
 62
     7
370
    25
100
AcDbPolyline
 90
        9
 70
   128
 43
0.0
 10
198.3483541871
 20
115.4054412379
 10
198.3812750431
 20
115.3017822413
 10
198.4110431394
 20
115.2080502121
 10
198.4371490425
 20
115.1258498191
 10
198.4591461832
 20
115.0565864279
 10
198.4766578415
 20
115.0014465435
 10
198.4893848302
 20
114.9613726644
 10
198.4971092196
 20
114.9370502441
 10
198.499698762
 20
114.9288965149
  0
LWPOLYLINE
  5
203
330
1F
100
AcDbEntity
  8
0
  6
Continuous
 62
     7
370
    25
100
AcDbPolyline
 90
        9
 70
   128
 43
0.0
 10
194.3561740799
 20
113.1005557014
 10
194.4294854647
 20
113.0202151595
 10
194.4957756085
 20
112.9475692047
 10
194.5539106263
 20
112.883860687
 10
194.6028953997
 20
112.8301792538
 10
194.6418922042
 20
112.7874431892
 10
194.6702337472
 20
112.7563845127
 10
194.6874352751
 20
112.7375340781
 10
194.6932015589
 20
112.7312145887
  0
ARC
  5
204
330
1F
100
AcDbEntity
  8
0
  6
Continuous
 62
     7
370
    25
100
AcDbCircle
 10
201.6022641791
 20
105.1597315578
 30
0.0
 40
10.75
100
AcDbArc
 50
132.3807989171
 51
167.6192010829
  0
ARC
  5
205
330
1F
100
AcDbEntity
  8
0
  6
Continuous
 62
     7
370
    25
100
AcDbCircle
 10
201.6022641791
 20
105.1597315578
 30
0.0
 40
10.75000000000003
100
AcDbArc
 50
312.3807989171
 51
347.6192010829
  0
ARC
  5
206
330
1F
100
AcDbEntity
  8
0
  6
Continuous
 62
     7
370
    25
100
AcDbCircle
 10
201.6022641791
 20
105.1597315578
 30
0.0
 40
10.75000000000002
100
AcDbArc
 50
12.3807989171
 51
47.6192010829
  0
ARC
  5
207
330
1F
100
AcDbEntity
  8
0
  6
Continuous
 62
     7
370
    25
100
AcDbCircle
 10
201.6022641791
 20
105.1597315578
 30
0.0
 40
10.74999999999998
100
AcDbArc
 50
192.3807989171
 51
227.6192010829
  0
ARC
  5
208
330
1F
100
AcDbEntity
  8
0
  6
Continuous
 62
     7
370
    25
100
AcDbCircle
 10
201.6022641791
 20
105.1597315578
 30
0.0
 40
10.74999999999999
100
AcDbArc
 50
252.3807989171
 51
287.6192010829
  0
ARC
  5
209
330
1F
100
AcDbEntity
  8
0
  6
Continuous
 62
     7
370
    25
100
AcDbCircle
 10
201.6022641791
 20
105.1597315578
 30
0.0
 40
10.75000000000002
100
AcDbArc
 50
72.3807989171
 51
107.6192010829
  0
SPLINE
  5
20A
330
1F
100
AcDbEntity
  8
0
  6
Continuous
 62
     7
370
    25
100
AcDbSpline
210
0.0
220
0.0
230
1.0
 70
     8
 71
     3
 72
    10
 73
     6
 74
     0
 42
0.000000001
 43
0.00000001
 40
0.0
 40
0.0
 40
0.0
 40
0.0
 40
0.249181697418464
 40
0.4983791255472624
 40
0.9999999999999999
 40
0.9999999999999999
 40
0.9999999999999999
 40
0.9999999999999999
 10
194.3561740798889
 20
113.100555701423
 30
0.0
 10
194.0822739687519
 20
112.9424191941056
 30
0.0
 10
193.5344564553072
 20
112.6261361963958
 30
0.0
 10
192.4444528130905
 20
111.9968229453824
 30
0.0
 10
191.639831156322
 20
111.5322740801752
 30
0.0
 10
191.1022643206654
 20
111.2219094990375
 30
0.0
  0
SPLINE
  5
20B
330
1F
100
AcDbEntity
  8
0
  6
Continuous
 62
     7
370
    25
100
AcDbSpline
210
0.0
220
0.0
230
1.0
 70
    24
 71
     3
 72
    10
 73
     6
 74
     0
 42
0.000000001
 43
0.00000001
 40
0.0
 40
0.0
 40
0.0
 40
0.0
 40
0.4984982663075753
 40
0.7492570864262477
 40
0.9999999999999999
 40
0.9999999999999999
 40
0.9999999999999999
 40
0.9999999999999999
 10
191.1022643206654
 20
111.2219094990375
 30
0.0
 10
191.1022643206654
 20
110.6050637807158
 30
0.0
 10
191.1022643206654
 20
109.6779271045792
 30
0.0
 10
191.1022643206654
 20
108.4193918348994
 30
0.0
 10
191.1022643206654
 20
107.7828689218774
 30
0.0
 10
191.1022643206654
 20
107.464617559928
 30
0.0
  0
SPLINE
  5
20C
330
1F
100
AcDbEntity
  8
0
  6
Continuous
 62
     7
370
    25
100
AcDbSpline
210
0.0
220
0.0
230
1.0
 70
     8
 71
     3
 72
    10
 73
     6
 74
     0
 42
0.000000001
 43
0.00000001
 40
0.0
 40
0.0
 40
0.0
 40
0.0
 40
0.4984981873458691
 40
0.7492569956265313
 40
0.9999999999999999
 40
0.9999999999999999
 40
0.9999999999999999
 40
0.9999999999999999
 10
212.1022640375434
 20
111.2219094990375
 30
0.0
 10
211.5680601899863
 20
111.5303324126316
 30
0.0
 10
210.7651365685309
 20
111.9939008497653
 30
0.0
 10
209.6752130153143
 20
112.6231682015012
 30
0.0
 10
209.1239680668278
 20
112.9414298779262
 30
0.0
 10
208.8483542783199
 20
113.100555701423
 30
0.0
  0
SPLINE
  5
20D
330
1F
100
AcDbEntity
  8
0
  6
Continuous
 62
     7
370
    25
100
AcDbSpline
210
0.0
220
0.0
230
1.0
 70
    24
 71
     3
 72
    10
 73
     6
 74
     0
 42
0.000000001
 43
0.00000001
 40
0.0
 40
0.0
 40
0.0
 40
0.0
 40
0.2491816636258213
 40
0.4983790506788694
 40
0.9999999999999999
 40
0.9999999999999999
 40
0.9999999999999999
 40
0.9999999999999999
 10
212.1022640375434
 20
107.464617559928
 30
0.0
 10
212.1022640375434
 20
107.7808902508439
 30
0.0
 10
212.1022640375434
 20
108.4134555895642
 30
0.0
 10
212.1022640375434
 20
109.6720831518546
 30
0.0
 10
212.1022640375434
 20
110.6011805164544
 30
0.0
 10
212.1022640375434
 20
111.2219094990375
 30
0.0
  0
SPLINE
  5
20E
330
1F
100
AcDbEntity
  8
0
  6
Continuous
 62
     7
370
    25
100
AcDbSpline
210
0.0
220
0.0
230
1.0
 70
     8
 71
     3
 72
    10
 73
     6
 74
     0
 42
0.000000001
 43
0.00000001
 40
0.0
 40
0.0
 40
0.0
 40
0.0
 40
0.2491816849879224
 40
0.498379023417252
 40
1.0
 40
1.0
 40
1.0
 40
1.0
 10
204.8561741711585
 20
115.4054412378552
 30
0.0
 10
204.5822740488838
 20
115.5635777287568
 30
0.0
 10
204.0344565980959
 20
115.8798606445978
 30
0.0
 10
202.9444531235727
 20
116.5091742572347
 30
0.0
 10
202.1398312560886
 20
116.973722929773
 30
0.0
 10
201.6022641791044
 20
117.2840874402407
 30
0.0
  0
SPLINE
  5
20F
330
1F
100
AcDbEntity
  8
0
  6
Continuous
 62
     7
370
    25
100
AcDbSpline
210
0.0
220
0.0
230
1.0
 70
     8
 71
     3
 72
    10
 73
     6
 74
     0
 42
0.000000001
 43
0.00000001
 40
0.0
 40
0.0
 40
0.0
 40
0.0
 40
0.4984983233277318
 40
0.7492570598271863
 40
1.0
 40
1.0
 40
1.0
 40
1.0
 10
201.6022641791044
 20
117.2840874402407
 30
0.0
 10
201.0680602428215
 20
116.9756642453917
 30
0.0
 10
200.2651366382333
 20
116.5120954722564
 30
0.0
 10
199.1752126063009
 20
115.8828288699698
 30
0.0
 10
198.6239678724218
 20
115.5645671070181
 30
0.0
 10
198.3483541870503
 20
115.4054412378552
 30
0.0
  0
SPLINE
  5
210
330
1F
100
AcDbEntity
  8
0
  6
Continuous
 62
     7
370
    25
100
AcDbSpline
210
0.0
220
0.0
230
1.0
 70
    24
 71
     3
 72
    10
 73
     6
 74
     0
 42
0.000000001
 43
0.00000001
 40
0.0
 40
0.0
 40
0.0
 40
0.0
 40
0.3472039872221982
 40
0.6731184654535631
 40
1.0
 40
1.0
 40
1.0
 40
1.0
 10
212.1022640375434
 20
99.0975536166313
 30
0.0
 10
212.1022640375434
 20
99.52654109056289
 30
0.0
 10
212.1022640375434
 20
100.3582118108845
 30
0.0
 10
212.1022640375434
 20
101.6119646477508
 30
0.0
 10
212.1022640375434
 20
102.4401429634727
 30
0.0
 10
212.1022640375434
 20
102.8548455557409
 30
0.0
  0
SPLINE
  5
211
330
1F
100
AcDbEntity
  8
0
  6
Continuous
 62
     7
370
    25
100
AcDbSpline
210
0.0
220
0.0
230
1.0
 70
     8
 71
     3
 72
    10
 73
     6
 74
     0
 42
0.000000001
 43
0.00000001
 40
0.0
 40
0.0
 40
0.0
 40
0.0
 40
0.249181697418464
 40
0.4983791255472624
 40
0.9999999999999999
 40
0.9999999999999999
 40
0.9999999999999999
 40
0.9999999999999999
 10
208.8483542783199
 20
97.21890741424588
 30
0.0
 10
209.1222543894569
 20
97.37704392156324
 30
0.0
 10
209.6700719029017
 20
97.69332691927303
 30
0.0
 10
210.7600755451184
 20
98.32264017028648
 30
0.0
 10
211.5646972018868
 20
98.78718903549363
 30
0.0
 10
212.1022640375434
 20
99.0975536166313
 30
0.0
  0
SPLINE
  5
212
330
1F
100
AcDbEntity
  8
0
  6
Continuous
 62
     7
370
    25
100
AcDbSpline
210
0.0
220
0.0
230
1.0
 70
     8
 71
     3
 72
    10
 73
     6
 74
     0
 42
0.000000001
 43
0.00000001
 40
0.0
 40
0.0
 40
0.0
 40
0.0
 40
0.4984981873458691
 40
0.7492569956265313
 40
0.9999999999999999
 40
0.9999999999999999
 40
0.9999999999999999
 40
0.9999999999999999
 10
191.1022643206654
 20
99.0975536166313
 30
0.0
 10
191.6364681682225
 20
98.78913070303722
 30
0.0
 10
192.439391789678
 20
98.32556226590354
 30
0.0
 10
193.5293153428945
 20
97.69629491416765
 30
0.0
 10
194.0805602913809
 20
97.37803323774268
 30
0.0
 10
194.3561740798889
 20
97.21890741424588
 30
0.0
  0
SPLINE
  5
213
330
1F
100
AcDbEntity
  8
0
  6
Continuous
 62
     7
370
    25
100
AcDbSpline
210
0.0
220
0.0
230
1.0
 70
    24
 71
     3
 72
    10
 73
     6
 74
     0
 42
0.000000001
 43
0.00000001
 40
0.0
 40
0.0
 40
0.0
 40
0.0
 40
0.3258685062369207
 40
0.6527960398165602
 40
1.0
 40
1.0
 40
1.0
 40
1.0
 10
191.1022643206654
 20
102.8548455557409
 30
0.0
 10
191.1022643206654
 20
102.4414259006132
 30
0.0
 10
191.1022643206654
 20
101.6132430339526
 30
0.0
 10
191.1022643206654
 20
100.3594637419459
 30
0.0
 10
191.1022643206654
 20
99.52654116544477
 30
0.0
 10
191.1022643206654
 20
99.0975536166313
 30
0.0
  0
SPLINE
  5
214
330
1F
100
AcDbEntity
  8
0
  6
Continuous
 62
     7
370
    25
100
AcDbSpline
210
0.0
220
0.0
230
1.0
 70
     8
 71
     3
 72
    10
 73
     6
 74
     0
 42
0.000000001
 43
0.00000001
 40
0.0
 40
0.0
 40
0.0
 40
0.0
 40
0.2491816849879178
 40
0.4983790234172428
 40
0.9999999999999999
 40
0.9999999999999999
 40
0.9999999999999999
 40
0.9999999999999999
 10
198.3483541870503
 20
94.91402187781361
 30
0.0
 10
198.622254309325
 20
94.75588538691206
 30
0.0
 10
199.1700717601129
 20
94.43960247107107
 30
0.0
 10
200.2600752346361
 20
93.81028885843415
 30
0.0
 10
201.0646971021203
 20
93.34574018589586
 30
0.0
 10
201.6022641791045
 20
93.03537567542818
 30
0.0
  0
SPLINE
  5
215
330
1F
100
AcDbEntity
  8
0
  6
Continuous
 62
     7
370
    25
100
AcDbSpline
210
0.0
220
0.0
230
1.0
 70
     8
 71
     3
 72
    10
 73
     6
 74
     0
 42
0.000000001
 43
0.00000001
 40
0.0
 40
0.0
 40
0.0
 40
0.0
 40
0.4984983233277226
 40
0.7492570598271817
 40
1.0
 40
1.0
 40
1.0
 40
1.0
 10
201.6022641791045
 20
93.03537567542818
 30
0.0
 10
202.1364681153874
 20
93.34379887027714
 30
0.0
 10
202.9393917199755
 20
93.80736764341242
 30
0.0
 10
204.0293157519079
 20
94.4366342456991
 30
0.0
 10
204.580560485787
 20
94.75489600865077
 30
0.0
 10
204.8561741711585
 20
94.91402187781361
 30
0.0
  0
CIRCLE
  5
216
330
1F
100
AcDbEntity
  8
0
  6
Continuous
 62
     7
370
    25
100
AcDbCircle
 10
201.6022641791
 20
105.1597315578
 30
0.0
 40
5.050000000000035
  0
CIRCLE
  5
217
330
1F
100
AcDbEntity
  8
0
  6
Continuous
 62
     7
370
    25
100
AcDbCircle
 10
201.6022641791
 20
105.1597315578
 30
0.0
 40
4.0
  0
LINE
  5
218
330
1F
100
AcDbEntity
  8
0
  6
Continuous
 62
     7
370
    25
100
AcDbLine
 10
201.6022641791
 20
117.3142371459
 30
0.0
 11
210.1362486018
 21
117.3142371459
 31
0.0
  0
LINE
  5
219
330
1F
100
AcDbEntity
  8
0
  6
Continuous
 62
     7
370
    25
100
AcDbLine
 10
193.0682797564
 20
117.3142371459
 30
0.0
 11
201.6022641791
 21
117.3142371459
 31
0.0
  0
LINE
  5
21A
330
1F
100
AcDbEntity
  8
0
  6
Continuous
 62
     7
370
    25
100
AcDbLine
 10
209.799636027
 20
128.085821843
 30
0.0
 11
193.4048923312
 21
128.085821843
 31
0.0
  0
LINE
  5
21B
330
1F
100
AcDbEntity
  8
0
  6
Continuous
 62
     7
370
    25
100
AcDbLine
 10
201.8183333011
 20
117.1597316621
 30
0.0
 11
209.6022645591
 21
117.1597316621
 31
0.0
  0
LINE
  5
21C
330
1F
100
AcDbEntity
  8
0
  6
Continuous
 62
     7
370
    25
100
AcDbLine
 10
193.6022637991
 20
117.1597316621
 30
0.0
 11
201.3863495548
 21
117.1597316621
 31
0.0
  0
LINE
  5
21D
330
1F
100
AcDbEntity
  8
0
  6
Continuous
 62
     7
370
    25
100
AcDbLine
 10
208.6022643952
 20
130.1597319304
 30
0.0
 11
194.602263963
 21
130.1597319304
 31
0.0
  0
LINE
  5
21E
330
1F
100
AcDbEntity
  8
0
  6
Continuous
 62
     7
370
    25
100
AcDbLine
 10
205.4752475696
 20
104.1597315103
 30
0.0
 11
197.7292807886
 21
104.1597315103
 31
0.0
  0
SPLINE
  5
21F
330
1F
100
AcDbEntity
  8
0
  6
Continuous
 62
     7
370
    25
100
AcDbSpline
210
0.0
220
0.0
230
1.0
 70
     8
 71
     3
 72
    18
 73
    14
 74
     0
 42
0.000000001
 43
0.00000001
 40
0.0
 40
0.0
 40
0.0
 40
0.0
 40
0.2500000000000001
 40
0.2500000000000001
 40
0.3750000000000001
 40
0.3750000000000001
 40
0.5000000000000001
 40
0.5000000000000001
 40
0.6250000000000001
 40
0.6250000000000001
 40
0.7500000000000002
 40
0.7500000000000002
 40
1.0
 40
1.0
 40
1.0
 40
1.0
 10
205.2541234426402
 20
103.5275784034619
 30
0.0
 10
204.7006148427314
 20
103.2751258821375
 30
0.0
 10
204.1298196994069
 20
103.0465150357738
 30
0.0
 10
203.2187837891895
 20
102.7793020980046
 30
0.0
 10
202.9023081900957
 20
102.7025688370646
 30
0.0
 10
202.2622358981134
 20
102.5948136751111
 30
0.0
 10
201.9391057624237
 20
102.5641590782301
 30
0.0
 10
201.2856819920826
 20
102.5629436554587
 30
0.0
 10
200.9547718519987
 20
102.5933556126422
 30
0.0
 10
200.3155842166731
 20
102.6997016562628
 30
0.0
 10
200.0031690481549
 20
102.7747056410047
 30
0.0
 10
199.082059768694
 20
103.043364915615
 30
0.0
 10
198.5060977778229
 20
103.2741296509381
 30
0.0
 10
197.9504049155687
 20
103.5275784034619
 30
0.0
  0
LINE
  5
220
330
1F
100
AcDbEntity
  8
0
  6
Continuous
 62
     1
370
    25
100
AcDbLine
 10
199.6529091729
 20
116.1597314982
 30
0.0
 11
194.602263963
 21
116.1597314982
 31
0.0
  0
LINE
  5
221
330
1F
100
AcDbEntity
  8
0
  6
Continuous
 62
     1
370
    25
100
AcDbLine
 10
208.6022643952
 20
116.1597314982
 30
0.0
 11
203.5513702894
 21
116.1597314982
 31
0.0
  0
LINE
  5
222
330
1F
100
AcDbEntity
  8
0
  6
Continuous
 62
     7
370
     0
100
AcDbLine
 10
209.1044455427
 20
129.2899279214
 30
0.0
 11
209.4837344758
 21
117.1526820649
 31
0.0
  0
LINE
  5
223
330
1F
100
AcDbEntity
  8
0
  6
Continuous
 62
     7
370
     0
100
AcDbLine
 10
194.1000828155
 20
129.2899279214
 30
0.0
 11
193.7207938824
 21
117.1526820649
 31
0.0
  0
ENDSEC
  0
SECTION
  2
OBJECTS
  0
DICTIONARY
  5
C
330
0
100
AcDbDictionary
281
     1
  3
ACAD_GROUP
350
D
  3
ACAD_LAYOUT
350
1A
  3
ACAD_MLINESTYLE
350
17
  3
ACAD_PLOTSETTINGS
350
19
  3
ACAD_PLOTSTYLENAME
350
E
  3
ACAD_SCALELIST
350
47
  0
DICTIONARY
  5
D
102
{ACAD_REACTORS
330
C
102
}
330
C
100
AcDbDictionary
281
     1
  0
DICTIONARY
  5
1A
102
{ACAD_REACTORS
330
C
102
}
330
C
100
AcDbDictionary
281
     1
  3
Layout1
350
1E
  3
Layout2
350
26
  3
Model
350
22
  0
DICTIONARY
  5
17
102
{ACAD_REACTORS
330
C
102
}
330
C
100
AcDbDictionary
281
     1
  3
Standard
350
18
  0
DICTIONARY
  5
19
102
{ACAD_REACTORS
330
C
102
}
330
C
100
AcDbDictionary
281
     1
  0
ACDBDICTIONARYWDFLT
  5
E
102
{ACAD_REACTORS
330
C
102
}
330
C
100
AcDbDictionary
281
     1
  3
Normal
350
F
100
AcDbDictionaryWithDefault
340
F
  0
DICTIONARY
  5
47
102
{ACAD_REACTORS
330
C
102
}
330
C
100
AcDbDictionary
281
     1
  3
A0
350
48
  3
A1
350
49
  3
A2
350
4A
  3
A3
350
4B
  3
A4
350
4C
  3
A5
350
4D
  3
A6
350
4E
  3
A7
350
4F
  3
A8
350
50
  3
A9
350
51
  3
B0
350
52
  3
B1
350
53
  3
B2
350
54
  3
B3
350
55
  3
B4
350
56
  3
B5
350
57
  3
B6
350
58
  3
B7
350
59
  3
B8
350
5A
  3
B9
350
5B
  3
C0
350
5C
  3
C1
350
5D
  3
C2
350
5E
  3
C3
350
5F
  3
C4
350
60
  3
C5
350
61
  3
C6
350
62
  3
C7
350
63
  3
C8
350
64
  3
C9
350
65
  3
D0
350
66
  3
D1
350
67
  3
D2
350
68
  0
LAYOUT
  5
1E
102
{ACAD_REACTORS
330
1A
102
}
330
1A
100
AcDbPlotSettings
  1

  2
none_device
  4

  6

 40
0.0
 41
0.0
 42
0.0
 43
0.0
 44
0.0
 45
0.0
 46
0.0
 47
0.0
 48
0.0
 49
0.0
140
0.0
141
0.0
142
1.0
143
1.0
 70
   688
 72
     1
 73
     0
 74
     5
  7

 75
    16
147
1.0
148
0.0
149
0.0
100
AcDbLayout
  1
Layout1
 70
     1
 71
     1
 10
0.0
 20
0.0
 11
420.0
 21
297.0
 12
0.0
 22
0.0
 32
0.0
 14
1.0000000000E+20
 24
1.0000000000E+20
 34
1.0000000000E+20
 15
-1.0000000000E+20
 25
-1.0000000000E+20
 35
-1.0000000000E+20
146
0.0
 13
0.0
 23
0.0
 33
0.0
 16
1.0
 26
0.0
 36
0.0
 17
0.0
 27
1.0
 37
0.0
 76
     0
330
1B
  0
LAYOUT
  5
26
102
{ACAD_REACTORS
330
1A
102
}
330
1A
100
AcDbPlotSettings
  1

  2
none_device
  4

  6

 40
0.0
 41
0.0
 42
0.0
 43
0.0
 44
0.0
 45
0.0
 46
0.0
 47
0.0
 48
0.0
 49
0.0
140
0.0
141
0.0
142
1.0
143
1.0
 70
   688
 72
     1
 73
     0
 74
     5
  7

 75
    16
147
1.0
148
0.0
149
0.0
100
AcDbLayout
  1
Layout2
 70
     1
 71
     2
 10
0.0
 20
0.0
 11
0.0
 21
0.0
 12
0.0
 22
0.0
 32
0.0
 14
0.0
 24
0.0
 34
0.0
 15
0.0
 25
0.0
 35
0.0
146
0.0
 13
0.0
 23
0.0
 33
0.0
 16
1.0
 26
0.0
 36
0.0
 17
0.0
 27
1.0
 37
0.0
 76
     0
330
23
  0
LAYOUT
  5
22
102
{ACAD_REACTORS
330
1A
102
}
330
1A
100
AcDbPlotSettings
  1

  2
none_device
  4
Letter_(8.50_x_11.00_Inches)
  6

 40
6.35
 41
6.35
 42
6.35000508
 43
6.35000508
 44
215.9
 45
279.4
 46
0.0
 47
0.0
 48
0.0
 49
0.0
140
0.0
141
0.0
142
1.0
143
1.0
 70
  1712
 72
     1
 73
     0
 74
     0
  7

 75
     0
147
1.0
148
0.0
149
0.0
100
AcDbLayout
  1
Model
 70
     1
 71
     0
 10
0.0
 20
0.0
 11
431.8
 21
279.4
 12
0.0
 22
0.0
 32
0.0
 14
0.0
 24
0.0
 34
0.0
 15
431.8
 25
279.4
 35
0.0
146
0.0
 13
0.0
 23
0.0
 33
0.0
 16
1.0
 26
0.0
 36
0.0
 17
0.0
 27
1.0
 37
0.0
 76
     0
330
1F
331
29
  0
MLINESTYLE
  5
18
102
{ACAD_REACTORS
330
17
102
}
330
17
100
AcDbMlineStyle
  2
Standard
 70
     0
  3

 62
   256
 51
90.0
 52
90.0
 71
     2
 49
0.5
 62
   256
  6
BYLAYER
 49
-0.5
 62
   256
  6
BYLAYER
  0
ACDBPLACEHOLDER
  5
F
102
{ACAD_REACTORS
330
E
102
}
330
E
  0
SCALE
  5
48
102
{ACAD_REACTORS
330
47
102
}
330
47
100
AcDbScale
 70
     0
300
1:1
140
1.0
141
1.0
290
     1
  0
SCALE
  5
49
102
{ACAD_REACTORS
330
47
102
}
330
47
100
AcDbScale
 70
     0
300
1:2
140
1.0
141
2.0
290
     0
  0
SCALE
  5
4A
102
{ACAD_REACTORS
330
47
102
}
330
47
100
AcDbScale
 70
     0
300
1:4
140
1.0
141
4.0
290
     0
  0
SCALE
  5
4B
102
{ACAD_REACTORS
330
47
102
}
330
47
100
AcDbScale
 70
     0
300
1:5
140
1.0
141
5.0
290
     0
  0
SCALE
  5
4C
102
{ACAD_REACTORS
330
47
102
}
330
47
100
AcDbScale
 70
     0
300
1:8
140
1.0
141
8.0
290
     0
  0
SCALE
  5
4D
102
{ACAD_REACTORS
330
47
102
}
330
47
100
AcDbScale
 70
     0
300
1:10
140
1.0
141
10.0
290
     0
  0
SCALE
  5
4E
102
{ACAD_REACTORS
330
47
102
}
330
47
100
AcDbScale
 70
     0
300
1:16
140
1.0
141
16.0
290
     0
  0
SCALE
  5
4F
102
{ACAD_REACTORS
330
47
102
}
330
47
100
AcDbScale
 70
     0
300
1:20
140
1.0
141
20.0
290
     0
  0
SCALE
  5
50
102
{ACAD_REACTORS
330
47
102
}
330
47
100
AcDbScale
 70
     0
300
1:30
140
1.0
141
30.0
290
     0
  0
SCALE
  5
51
102
{ACAD_REACTORS
330
47
102
}
330
47
100
AcDbScale
 70
     0
300
1:40
140
1.0
141
40.0
290
     0
  0
SCALE
  5
52
102
{ACAD_REACTORS
330
47
102
}
330
47
100
AcDbScale
 70
     0
300
1:50
140
1.0
141
50.0
290
     0
  0
SCALE
  5
53
102
{ACAD_REACTORS
330
47
102
}
330
47
100
AcDbScale
 70
     0
300
1:100
140
1.0
141
100.0
290
     0
  0
SCALE
  5
54
102
{ACAD_REACTORS
330
47
102
}
330
47
100
AcDbScale
 70
     0
300
2:1
140
2.0
141
1.0
290
     0
  0
SCALE
  5
55
102
{ACAD_REACTORS
330
47
102
}
330
47
100
AcDbScale
 70
     0
300
4:1
140
4.0
141
1.0
290
     0
  0
SCALE
  5
56
102
{ACAD_REACTORS
330
47
102
}
330
47
100
AcDbScale
 70
     0
300
8:1
140
8.0
141
1.0
290
     0
  0
SCALE
  5
57
102
{ACAD_REACTORS
330
47
102
}
330
47
100
AcDbScale
 70
     0
300
10:1
140
10.0
141
1.0
290
     0
  0
SCALE
  5
58
102
{ACAD_REACTORS
330
47
102
}
330
47
100
AcDbScale
 70
     0
300
100:1
140
100.0
141
1.0
290
     0
  0
SCALE
  5
59
102
{ACAD_REACTORS
330
47
102
}
330
47
100
AcDbScale
 70
     0
300
1/128" = 1'-0"
140
0.0078125
141
12.0
290
     0
  0
SCALE
  5
5A
102
{ACAD_REACTORS
330
47
102
}
330
47
100
AcDbScale
 70
     0
300
1/64" = 1'-0"
140
0.015625
141
12.0
290
     0
  0
SCALE
  5
5B
102
{ACAD_REACTORS
330
47
102
}
330
47
100
AcDbScale
 70
     0
300
1/32" = 1'-0"
140
0.03125
141
12.0
290
     0
  0
SCALE
  5
5C
102
{ACAD_REACTORS
330
47
102
}
330
47
100
AcDbScale
 70
     0
300
1/16" = 1'-0"
140
0.0625
141
12.0
290
     0
  0
SCALE
  5
5D
102
{ACAD_REACTORS
330
47
102
}
330
47
100
AcDbScale
 70
     0
300
3/32" = 1'-0"
140
0.09375
141
12.0
290
     0
  0
SCALE
  5
5E
102
{ACAD_REACTORS
330
47
102
}
330
47
100
AcDbScale
 70
     0
300
1/8" = 1'-0"
140
0.125
141
12.0
290
     0
  0
SCALE
  5
5F
102
{ACAD_REACTORS
330
47
102
}
330
47
100
AcDbScale
 70
     0
300
3/16" = 1'-0"
140
0.1875
141
12.0
290
     0
  0
SCALE
  5
60
102
{ACAD_REACTORS
330
47
102
}
330
47
100
AcDbScale
 70
     0
300
1/4" = 1'-0"
140
0.25
141
12.0
290
     0
  0
SCALE
  5
61
102
{ACAD_REACTORS
330
47
102
}
330
47
100
AcDbScale
 70
     0
300
3/8" = 1'-0"
140
0.375
141
12.0
290
     0
  0
SCALE
  5
62
102
{ACAD_REACTORS
330
47
102
}
330
47
100
AcDbScale
 70
     0
300
1/2" = 1'-0"
140
0.5
141
12.0
290
     0
  0
SCALE
  5
63
102
{ACAD_REACTORS
330
47
102
}
330
47
100
AcDbScale
 70
     0
300
3/4" = 1'-0"
140
0.75
141
12.0
290
     0
  0
SCALE
  5
64
102
{ACAD_REACTORS
330
47
102
}
330
47
100
AcDbScale
 70
     0
300
1" = 1'-0"
140
1.0
141
12.0
290
     0
  0
SCALE
  5
65
102
{ACAD_REACTORS
330
47
102
}
330
47
100
AcDbScale
 70
     0
300
1-1/2" = 1'-0"
140
1.5
141
12.0
290
     0
  0
SCALE
  5
66
102
{ACAD_REACTORS
330
47
102
}
330
47
100
AcDbScale
 70
     0
300
3" = 1'-0"
140
3.0
141
12.0
290
     0
  0
SCALE
  5
67
102
{ACAD_REACTORS
330
47
102
}
330
47
100
AcDbScale
 70
     0
300
6" = 1'-0"
140
6.0
141
12.0
290
     0
  0
SCALE
  5
68
102
{ACAD_REACTORS
330
47
102
}
330
47
100
AcDbScale
 70
     0
300
1'-0" = 1'-0"
140
12.0
141
12.0
290
     0
  0
ENDSEC
  0
EOF
