  0
SECTION
  2
HEADER
  9
$ACADVER
  1
AC1015
  9
$ACADMAINTVER
 70
     6
  9
$DWGCODEPAGE
  3
DOS932
  9
$INSBASE
 10
0.0
 20
0.0
 30
0.0
  9
$EXTMIN
 10
0.0
 20
0.0
 30
0.0
  9
$EXTMAX
 10
279.4
 20
215.9
 30
0.0
  9
$LIMMIN
 10
0.0
 20
0.0
  9
$LIMMAX
 10
279.4
 20
215.9
  9
$ORTHOMODE
 70
     0
  9
$REGENMODE
 70
     1
  9
$FILLMODE
 70
     1
  9
$QTEXTMODE
 70
     0
  9
$MIRRTEXT
 70
     1
  9
$LTSCALE
 40
1.0
  9
$ATTMODE
 70
     1
  9
$TEXTSIZE
 40
3.5
  9
$TRACEWID
 40
1.0
  9
$TEXTSTYLE
  7
Standard
  9
$CLAYER
  8
0
  9
$CELTYPE
  6
ByLayer
  9
$CECOLOR
 62
   256
  9
$CELTSCALE
 40
1.0
  9
$DISPSILH
 70
     0
  9
$DIMSCALE
 40
1.0
  9
$DIMASZ
 40
3.302
  9
$DIMEXO
 40
1.0
  9
$DIMDLI
 40
3.75
  9
$DIMRND
 40
0.0
  9
$DIMDLE
 40
0.0
  9
$DIMEXE
 40
1.0
  9
$DIMTP
 40
0.0
  9
$DIMTM
 40
0.0
  9
$DIMTXT
 40
3.5
  9
$DIMCEN
 40
2.5
  9
$DIMTSZ
 40
0.0
  9
$DIMTOL
 70
     0
  9
$DIMLIM
 70
     0
  9
$DIMTIH
 70
     1
  9
$DIMTOH
 70
     1
  9
$DIMSE1
 70
     0
  9
$DIMSE2
 70
     0
  9
$DIMTAD
 70
     1
  9
$DIMZIN
 70
     1
  9
$DIMBLK
  1

  9
$DIMASO
 70
     1
  9
$DIMSHO
 70
     1
  9
$DIMPOST
  1

  9
$DIMAPOST
  1

  9
$DIMALT
 70
     0
  9
$DIMALTD
 70
     3
  9
$DIMALTF
 40
0.0393700787
  9
$DIMLFAC
 40
0.5
  9
$DIMTOFL
 70
     1
  9
$DIMTVP
 40
0.0
  9
$DIMTIX
 70
     0
  9
$DIMSOXD
 70
     0
  9
$DIMSAH
 70
     0
  9
$DIMBLK1
  1

  9
$DIMBLK2
  1

  9
$DIMSTYLE
  2
ISO-25
  9
$DIMCLRD
 70
     0
  9
$DIMCLRE
 70
     0
  9
$DIMCLRT
 70
     0
  9
$DIMTFAC
 40
1.0
  9
$DIMGAP
 40
1.524
  9
$DIMJUST
 70
     0
  9
$DIMSD1
 70
     0
  9
$DIMSD2
 70
     0
  9
$DIMTOLJ
 70
     0
  9
$DIMTZIN
 70
     1
  9
$DIMALTZ
 70
     0
  9
$DIMALTTZ
 70
     0
  9
$DIMUPT
 70
     0
  9
$DIMDEC
 70
     2
  9
$DIMTDEC
 70
     2
  9
$DIMALTU
 70
     2
  9
$DIMALTTD
 70
     3
  9
$DIMTXSTY
  7
Standard
  9
$DIMAUNIT
 70
     0
  9
$DIMADEC
 70
     2
  9
$DIMALTRND
 40
0.0
  9
$DIMAZIN
 70
     0
  9
$DIMDSEP
 70
    44
  9
$DIMATFIT
 70
     3
  9
$DIMFRAC
 70
     0
  9
$DIMLDRBLK
  1

  9
$DIMLUNIT
 70
     2
  9
$DIMLWD
 70
    -2
  9
$DIMLWE
 70
    -2
  9
$DIMTMOVE
 70
     0
  9
$LUNITS
 70
     2
  9
$LUPREC
 70
     2
  9
$SKETCHINC
 40
1.0
  9
$FILLETRAD
 40
10.0
  9
$AUNITS
 70
     0
  9
$AUPREC
 70
     2
  9
$MENU
  1
.
  9
$ELEVATION
 40
0.0
  9
$PELEVATION
 40
0.0
  9
$THICKNESS
 40
0.0
  9
$LIMCHECK
 70
     0
  9
$CHAMFERA
 40
0.0
  9
$CHAMFERB
 40
0.0
  9
$CHAMFERC
 40
0.0
  9
$CHAMFERD
 40
0.0
  9
$SKPOLY
 70
     0
  9
$TDCREATE
 40
2458998.460996655
  9
$TDUCREATE
 40
2458998.085996655
  9
$TDUPDATE
 40
2458998.460997141
  9
$TDUUPDATE
 40
2458998.085997141
  9
$TDINDWG
 40
0.0000000116
  9
$TDUSRTIMER
 40
0.0000000116
  9
$USRTIMER
 70
     1
  9
$ANGBASE
 50
0.0
  9
$ANGDIR
 70
     0
  9
$PDMODE
 70
     0
  9
$PDSIZE
 40
-1.0
  9
$PLINEWID
 40
0.0
  9
$SPLFRAME
 70
     0
  9
$SPLINETYPE
 70
     6
  9
$SPLINESEGS
 70
     8
  9
$HANDSEED
  5
103
  9
$SURFTAB1
 70
     6
  9
$SURFTAB2
 70
     6
  9
$SURFTYPE
 70
     6
  9
$SURFU
 70
     6
  9
$SURFV
 70
     6
  9
$UCSBASE
  2

  9
$UCSNAME
  2

  9
$UCSORG
 10
0.0
 20
0.0
 30
0.0
  9
$UCSXDIR
 10
1.0
 20
0.0
 30
0.0
  9
$UCSYDIR
 10
0.0
 20
1.0
 30
0.0
  9
$UCSORTHOREF
  2

  9
$UCSORTHOVIEW
 70
     0
  9
$UCSORGTOP
 10
0.0
 20
0.0
 30
0.0
  9
$UCSORGBOTTOM
 10
0.0
 20
0.0
 30
0.0
  9
$UCSORGLEFT
 10
0.0
 20
0.0
 30
0.0
  9
$UCSORGRIGHT
 10
0.0
 20
0.0
 30
0.0
  9
$UCSORGFRONT
 10
0.0
 20
0.0
 30
0.0
  9
$UCSORGBACK
 10
0.0
 20
0.0
 30
0.0
  9
$PUCSBASE
  2

  9
$PUCSNAME
  2

  9
$PUCSORG
 10
0.0
 20
0.0
 30
0.0
  9
$PUCSXDIR
 10
1.0
 20
0.0
 30
0.0
  9
$PUCSYDIR
 10
0.0
 20
1.0
 30
0.0
  9
$PUCSORTHOREF
  2

  9
$PUCSORTHOVIEW
 70
     0
  9
$PUCSORGTOP
 10
0.0
 20
0.0
 30
0.0
  9
$PUCSORGBOTTOM
 10
0.0
 20
0.0
 30
0.0
  9
$PUCSORGLEFT
 10
0.0
 20
0.0
 30
0.0
  9
$PUCSORGRIGHT
 10
0.0
 20
0.0
 30
0.0
  9
$PUCSORGFRONT
 10
0.0
 20
0.0
 30
0.0
  9
$PUCSORGBACK
 10
0.0
 20
0.0
 30
0.0
  9
$USERI1
 70
     0
  9
$USERI2
 70
     0
  9
$USERI3
 70
     0
  9
$USERI4
 70
     0
  9
$USERI5
 70
     0
  9
$USERR1
 40
0.0
  9
$USERR2
 40
0.0
  9
$USERR3
 40
0.0
  9
$USERR4
 40
0.0
  9
$USERR5
 40
0.0
  9
$WORLDVIEW
 70
     1
  9
$SHADEDGE
 70
     3
  9
$SHADEDIF
 70
    70
  9
$TILEMODE
 70
     1
  9
$MAXACTVP
 70
    64
  9
$PINSBASE
 10
0.0
 20
0.0
 30
0.0
  9
$PLIMCHECK
 70
     0
  9
$PEXTMIN
 10
1.0000000000E+20
 20
1.0000000000E+20
 30
1.0000000000E+20
  9
$PEXTMAX
 10
-1.0000000000E+20
 20
-1.0000000000E+20
 30
-1.0000000000E+20
  9
$PLIMMIN
 10
0.0
 20
0.0
  9
$PLIMMAX
 10
420.0
 20
297.0
  9
$UNITMODE
 70
     0
  9
$VISRETAIN
 70
     1
  9
$PLINEGEN
 70
     0
  9
$PSLTSCALE
 70
     1
  9
$TREEDEPTH
 70
  3020
  9
$CMLSTYLE
  2
Standard
  9
$CMLJUST
 70
     0
  9
$CMLSCALE
 40
20.0
  9
$PROXYGRAPHICS
 70
     1
  9
$MEASUREMENT
 70
     1
  9
$CELWEIGHT
370
    -1
  9
$ENDCAPS
280
     0
  9
$JOINSTYLE
280
     0
  9
$LWDISPLAY
290
     1
  9
$INSUNITS
 70
     4
  9
$HYPERLINKBASE
  1

  9
$STYLESHEET
  1

  9
$XEDIT
290
     1
  9
$CEPSNTYPE
380
     0
  9
$PSTYLEMODE
290
     1
  9
$FINGERPRINTGUID
  2
{4A0C7E06-F841-401F-AED4-703070D65A08}
  9
$VERSIONGUID
  2
{FAEB1C32-E019-11D5-929B-00C0DF256EC4}
  9
$EXTNAMES
290
     1
  9
$PSVPSCALE
 40
0.0
  9
$OLESTARTUP
290
     0
  0
ENDSEC
  0
SECTION
  2
CLASSES
  0
CLASS
  1
ACDBDICTIONARYWDFLT
  2
AcDbDictionaryWithDefault
  3
ObjectDBX Classes
 90
        0
280
     0
281
     0
  0
CLASS
  1
VISUALSTYLE
  2
AcDbVisualStyle
  3
ObjectDBX Classes
 90
     4095
280
     0
281
     0
  0
CLASS
  1
MATERIAL
  2
AcDbMaterial
  3
ObjectDBX Classes
 90
     1153
280
     0
281
     0
  0
CLASS
  1
SCALE
  2
AcDbScale
  3
ObjectDBX Classes
 90
     1153
280
     0
281
     0
  0
CLASS
  1
TABLESTYLE
  2
AcDbTableStyle
  3
ObjectDBX Classes
 90
     4095
280
     0
281
     0
  0
CLASS
  1
MLEADERSTYLE
  2
AcDbMLeaderStyle
  3
ACDB_MLEADERSTYLE_CLASS
 90
     4095
280
     0
281
     0
  0
CLASS
  1
SUN
  2
AcDbSun
  3
SCENEOE
 90
     1153
280
     0
281
     0
  0
CLASS
  1
ACDBPLACEHOLDER
  2
AcDbPlaceHolder
  3
ObjectDBX Classes
 90
        0
280
     0
281
     0
  0
CLASS
  1
LAYOUT
  2
AcDbLayout
  3
ObjectDBX Classes
 90
        0
280
     0
281
     0
  0
ENDSEC
  0
SECTION
  2
TABLES
  0
TABLE
  2
VPORT
  5
8
330
0
100
AcDbSymbolTable
 70
     1
  0
VPORT
  5
29
330
8
100
AcDbSymbolTableRecord
100
AcDbViewportTableRecord
  2
*Active
 70
     0
 10
0.0
 20
0.0
 11
1.0
 21
1.0
 12
139.7
 22
107.95
 13
0.0
 23
0.0
 14
10.0
 24
10.0
 15
10.0
 25
10.0
 16
0.0
 26
0.0
 36
1.0
 17
0.0
 27
0.0
 37
0.0
 40
215.9
 41
1.2941176471
 42
50.0
 43
0.0
 44
0.0
 50
0.0
 51
0.0
 71
     0
 72
  2000
 73
     1
 74
     3
 75
     0
 76
     0
 77
     0
 78
     0
281
     0
 65
     1
110
0.0
120
0.0
130
0.0
111
1.0
121
0.0
131
0.0
112
0.0
122
1.0
132
0.0
 79
     0
146
0.0
  0
ENDTAB
  0
TABLE
  2
LTYPE
  5
5
330
0
100
AcDbSymbolTable
 70
     6
  0
LTYPE
  5
14
330
5
100
AcDbSymbolTableRecord
100
AcDbLinetypeTableRecord
  2
ByBlock
 70
     0
  3

 72
    65
 73
     0
 40
0.0
  0
LTYPE
  5
15
330
5
100
AcDbSymbolTableRecord
100
AcDbLinetypeTableRecord
  2
ByLayer
 70
     0
  3

 72
    65
 73
     0
 40
0.0
  0
LTYPE
  5
16
330
5
100
AcDbSymbolTableRecord
100
AcDbLinetypeTableRecord
  2
Continuous
 70
     0
  3
Solid line
 72
    65
 73
     0
 40
0.0
  0
LTYPE
  5
6E
330
5
100
AcDbSymbolTableRecord
100
AcDbLinetypeTableRecord
  2
HIDDEN
 70
     0
  3
Hidden __ __ __ __ __ __ __ __ __ __ __ __ __ __
 72
    65
 73
     2
 40
1.905
 49
1.27
 74
     0
 49
-0.635
 74
     0
  0
LTYPE
  5
6F
330
5
100
AcDbSymbolTableRecord
100
AcDbLinetypeTableRecord
  2
PHANTOM
 70
     0
  3
Phantom ______  __  __  ______  __  __  ______
 72
    65
 73
     6
 40
12.7
 49
6.35
 74
     0
 49
-1.27
 74
     0
 49
1.27
 74
     0
 49
-1.27
 74
     0
 49
1.27
 74
     0
 49
-1.27
 74
     0
  0
LTYPE
  5
70
330
5
100
AcDbSymbolTableRecord
100
AcDbLinetypeTableRecord
  2
CENTER
 70
     0
  3
Center ____ _ ____ _ ____ _ ____ _ ____ _ ____
 72
    65
 73
     4
 40
10.16
 49
6.35
 74
     0
 49
-1.27
 74
     0
 49
1.27
 74
     0
 49
-1.27
 74
     0
  0
LTYPE
  5
71
330
5
100
AcDbSymbolTableRecord
100
AcDbLinetypeTableRecord
  2
CENTERX2
 70
     0
  3
Center (2x) ________  __  ________  __  _____
 72
    65
 73
     4
 40
20.32
 49
12.7
 74
     0
 49
-2.54
 74
     0
 49
2.54
 74
     0
 49
-2.54
 74
     0
  0
LTYPE
  5
72
330
5
100
AcDbSymbolTableRecord
100
AcDbLinetypeTableRecord
  2
DOT2
 70
     0
  3
Dot (.5x) ........................................
 72
    65
 73
     2
 40
0.635
 49
0.0
 74
     0
 49
-0.635
 74
     0
  0
ENDTAB
  0
TABLE
  2
LAYER
  5
2
330
0
100
AcDbSymbolTable
 70
     2
  0
LAYER
  5
10
330
2
100
AcDbSymbolTableRecord
100
AcDbLayerTableRecord
  2
0
 70
     0
 62
     7
  6
Continuous
370
    -3
390
F
  0
LAYER
  5
73
330
2
100
AcDbSymbolTableRecord
100
AcDbLayerTableRecord
  2
FORMAT
 70
     0
 62
     7
  6
Continuous
370
    -3
390
F
  0
ENDTAB
  0
TABLE
  2
STYLE
  5
3
330
0
100
AcDbSymbolTable
 70
     2
  0
STYLE
  5
11
330
3
100
AcDbSymbolTableRecord
100
AcDbTextStyleTableRecord
  2
Standard
 70
     0
 40
0.0
 41
1.0
 50
0.0
 71
     0
 42
3.5
  3
txt
  4
bigfont
  0
STYLE
  5
74
330
3
100
AcDbSymbolTableRecord
100
AcDbTextStyleTableRecord
  2
SLDTEXTSTYLE0
 70
     0
 40
0.0
 41
0.75
 50
0.0
 71
     0
 42
3.5
  3
TXT
  4
bigfont
  0
ENDTAB
  0
TABLE
  2
VIEW
  5
6
330
0
100
AcDbSymbolTable
 70
     0
  0
ENDTAB
  0
TABLE
  2
UCS
  5
7
330
0
100
AcDbSymbolTable
 70
     0
  0
ENDTAB
  0
TABLE
  2
APPID
  5
9
330
0
100
AcDbSymbolTable
 70
     1
  0
APPID
  5
12
330
9
100
AcDbSymbolTableRecord
100
AcDbRegAppTableRecord
  2
ACAD
 70
     0
  0
ENDTAB
  0
TABLE
  2
DIMSTYLE
  5
A
330
0
100
AcDbSymbolTable
 70
     1
100
AcDbDimStyleTable
  0
DIMSTYLE
105
27
330
A
100
AcDbSymbolTableRecord
100
AcDbDimStyleTableRecord
  2
ISO-25
 70
     0
 41
2.5
 42
0.625
 43
3.75
 44
1.25
 73
     0
 74
     0
 77
     1
 78
     8
140
2.5
141
2.5
143
0.0393700787
147
0.625
171
     3
172
     1
178
     0
271
     2
272
     2
274
     3
278
    44
283
     0
284
     8
340
11
  0
ENDTAB
  0
TABLE
  2
BLOCK_RECORD
  5
1
330
0
100
AcDbSymbolTable
 70
     2
  0
BLOCK_RECORD
  5
1F
330
1
100
AcDbSymbolTableRecord
100
AcDbBlockTableRecord
  2
*Model_Space
340
22
  0
BLOCK_RECORD
  5
1B
330
1
100
AcDbSymbolTableRecord
100
AcDbBlockTableRecord
  2
*Paper_Space
340
1E
  0
BLOCK_RECORD
  5
23
330
1
100
AcDbSymbolTableRecord
100
AcDbBlockTableRecord
  2
*Paper_Space0
340
26
  0
BLOCK_RECORD
  5
F7
330
1
100
AcDbSymbolTableRecord
100
AcDbBlockTableRecord
  2
SW_CENTERMARKSYMBOL_0
340
0
102
{BLKREFS
331
102
102
}
  0
ENDTAB
  0
ENDSEC
  0
SECTION
  2
BLOCKS
  0
BLOCK
  5
20
330
1F
100
AcDbEntity
  8
0
100
AcDbBlockBegin
  2
*Model_Space
 70
     0
 10
0.0
 20
0.0
 30
0.0
  3
*Model_Space
  1

  0
ENDBLK
  5
21
330
1F
100
AcDbEntity
  8
0
100
AcDbBlockEnd
  0
BLOCK
  5
1C
330
1B
100
AcDbEntity
 67
     1
  8
0
100
AcDbBlockBegin
  2
*Paper_Space
 70
     0
 10
0.0
 20
0.0
 30
0.0
  3
*Paper_Space
  1

  0
ENDBLK
  5
1D
330
1B
100
AcDbEntity
 67
     1
  8
0
100
AcDbBlockEnd
  0
BLOCK
  5
24
330
23
100
AcDbEntity
  8
0
100
AcDbBlockBegin
  2
*Paper_Space0
 70
     0
 10
0.0
 20
0.0
 30
0.0
  3
*Paper_Space0
  1

  0
ENDBLK
  5
25
330
23
100
AcDbEntity
  8
0
100
AcDbBlockEnd
  0
BLOCK
  5
F8
330
F7
100
AcDbEntity
  8
0
100
AcDbBlockBegin
  2
SW_CENTERMARKSYMBOL_0
 70
     0
 10
0.0
 20
0.0
 30
0.0
  3
SW_CENTERMARKSYMBOL_0
  1

  0
LINE
  5
FA
330
F7
100
AcDbEntity
  8
FORMAT
 62
     0
100
AcDbLine
 10
0.0
 20
0.0
 30
0.0
 11
0.0
 21
5.0
 31
0.0
  0
LINE
  5
FB
330
F7
100
AcDbEntity
  8
FORMAT
 62
     0
100
AcDbLine
 10
0.0
 20
0.0
 30
0.0
 11
-5.0
 21
0.0
 31
0.0
  0
LINE
  5
FC
330
F7
100
AcDbEntity
  8
FORMAT
 62
     0
100
AcDbLine
 10
0.0
 20
0.0
 30
0.0
 11
0.0
 21
-5.0
 31
0.0
  0
LINE
  5
FD
330
F7
100
AcDbEntity
  8
FORMAT
 62
     0
100
AcDbLine
 10
0.0
 20
0.0
 30
0.0
 11
5.0
 21
0.0
 31
0.0
  0
LINE
  5
FE
330
F7
100
AcDbEntity
  8
FORMAT
 62
     0
100
AcDbLine
 10
0.0
 20
10.0
 30
0.0
 11
0.0
 21
13.0
 31
0.0
  0
LINE
  5
FF
330
F7
100
AcDbEntity
  8
FORMAT
 62
     0
100
AcDbLine
 10
-10.0
 20
0.0
 30
0.0
 11
-13.0
 21
0.0
 31
0.0
  0
LINE
  5
100
330
F7
100
AcDbEntity
  8
FORMAT
 62
     0
100
AcDbLine
 10
0.0
 20
-10.0
 30
0.0
 11
0.0
 21
-13.0
 31
0.0
  0
LINE
  5
101
330
F7
100
AcDbEntity
  8
FORMAT
 62
     0
100
AcDbLine
 10
10.0
 20
0.0
 30
0.0
 11
13.0
 21
0.0
 31
0.0
  0
ENDBLK
  5
F9
330
F7
100
AcDbEntity
  8
0
100
AcDbBlockEnd
  0
ENDSEC
  0
SECTION
  2
ENTITIES
  0
MTEXT
  5
75
330
1F
100
AcDbEntity
  8
FORMAT
100
AcDbMText
 10
118.3274914005
 20
106.9041469523
 30
0.0
 40
5.2916666667
 41
0.0
 71
     1
 72
     1
  1
5R-NT1088
  7
SLDTEXTSTYLE0
 73
     1
 44
1.0
  0
LINE
  5
76
330
1F
100
AcDbEntity
  8
0
  6
Continuous
 62
     7
370
    25
100
AcDbLine
 10
92.0954819119
 20
17.2153976186
 30
0.0
 11
95.5102309582
 21
23.1299164619
 31
0.0
  0
LINE
  5
77
330
1F
100
AcDbEntity
  8
0
  6
Continuous
 62
     7
370
    25
100
AcDbLine
 10
95.5102309582
 20
92.1299164619
 30
0.0
 11
92.0954819119
 21
98.0444353052
 31
0.0
  0
LINE
  5
78
330
1F
100
AcDbEntity
  8
0
  6
Continuous
 62
     7
370
    25
100
AcDbLine
 10
76.9249800045
 20
98.0444353052
 30
0.0
 11
73.5102309582
 21
92.1299164619
 31
0.0
  0
LINE
  5
79
330
1F
100
AcDbEntity
  8
0
  6
Continuous
 62
     7
370
    25
100
AcDbLine
 10
73.5102309582
 20
23.1299164619
 30
0.0
 11
76.9249800045
 21
17.2153976186
 31
0.0
  0
LINE
  5
7A
330
1F
100
AcDbEntity
  8
0
  6
Continuous
 62
     7
370
    25
100
AcDbLine
 10
95.5102309582
 20
23.7177914619
 30
0.0
 11
130.9187216639
 21
24.8243067965
 31
0.0
  0
LINE
  5
7B
330
1F
100
AcDbEntity
  8
0
  6
Continuous
 62
     7
370
    25
100
AcDbLine
 10
130.9187216639
 20
90.4355261274
 30
0.0
 11
95.5102309582
 21
91.5420414619
 31
0.0
  0
LINE
  5
7C
330
1F
100
AcDbEntity
  8
0
  6
Continuous
 62
     7
370
    25
100
AcDbLine
 10
73.5102309582
 20
91.5420414619
 30
0.0
 11
38.1017402526
 21
90.4355261274
 31
0.0
  0
LINE
  5
7D
330
1F
100
AcDbEntity
  8
0
  6
Continuous
 62
     7
370
    25
100
AcDbLine
 10
38.1017402526
 20
24.8243067965
 30
0.0
 11
73.5102309582
 21
23.7177914619
 31
0.0
  0
LINE
  5
7E
330
1F
100
AcDbEntity
  8
0
  6
Continuous
 62
     7
370
    25
100
AcDbLine
 10
130.9187216639
 20
24.8243067965
 30
0.0
 11
137.5102309582
 21
28.6299164619
 31
0.0
  0
LINE
  5
7F
330
1F
100
AcDbEntity
  8
0
  6
Continuous
 62
     7
370
    25
100
AcDbLine
 10
137.5102309582
 20
86.6299164619
 30
0.0
 11
130.9187216639
 21
90.4355261274
 31
0.0
  0
LINE
  5
80
330
1F
100
AcDbEntity
  8
0
  6
Continuous
 62
     7
370
    25
100
AcDbLine
 10
38.1017402526
 20
90.4355261274
 30
0.0
 11
31.5102309582
 21
86.6299164619
 31
0.0
  0
LINE
  5
81
330
1F
100
AcDbEntity
  8
0
  6
Continuous
 62
     7
370
    25
100
AcDbLine
 10
31.5102309582
 20
28.6299164619
 30
0.0
 11
38.1017402526
 21
24.8243067965
 31
0.0
  0
LINE
  5
82
330
1F
100
AcDbEntity
  8
0
  6
Continuous
 62
     7
370
    25
100
AcDbLine
 10
84.5102309582
 20
97.6602388798
 30
0.0
 11
84.3102309582
 21
98.0444353052
 31
0.0
  0
LINE
  5
83
330
1F
100
AcDbEntity
  8
0
  6
Continuous
 62
     7
370
    25
100
AcDbLine
 10
84.7102309582
 20
98.0444353052
 30
0.0
 11
84.5102309582
 21
97.6602388798
 31
0.0
  0
LINE
  5
84
330
1F
100
AcDbEntity
  8
0
  6
Continuous
 62
     7
370
    25
100
AcDbLine
 10
84.3102309582
 20
17.2153976186
 30
0.0
 11
84.5102309582
 21
17.599594044
 31
0.0
  0
LINE
  5
85
330
1F
100
AcDbEntity
  8
0
  6
Continuous
 62
     7
370
    25
100
AcDbLine
 10
84.5102309582
 20
17.599594044
 30
0.0
 11
84.7102309582
 21
17.2153976186
 31
0.0
  0
LINE
  5
86
330
1F
100
AcDbEntity
  8
0
  6
Continuous
 62
     7
370
    25
100
AcDbLine
 10
76.9249800045
 20
77.8371758836
 30
0.0
 11
84.3102309582
 21
77.8371758836
 31
0.0
  0
SPLINE
  5
87
330
1F
100
AcDbEntity
  8
0
  6
Continuous
 62
     7
370
    25
100
AcDbSpline
210
0.0
220
0.0
230
1.0
 70
     8
 71
     3
 72
    18
 73
    14
 74
     0
 42
0.000000001
 43
0.00000001
 40
0.0
 40
0.0
 40
0.0
 40
0.0
 40
0.2500000000000003
 40
0.2500000000000003
 40
0.5000000000000007
 40
0.5000000000000007
 40
0.5625000000000008
 40
0.5625000000000008
 40
0.6250000000000007
 40
0.6250000000000007
 40
0.7500000000000004
 40
0.7500000000000004
 40
1.0
 40
1.0
 40
1.0
 40
1.0
 10
76.9249800045218
 20
77.83717588355326
 30
0.0
 10
75.97250710473503
 20
79.4869073388164
 30
0.0
 10
75.18749715663948
 20
81.14866629876552
 30
0.0
 10
74.10000369699158
 20
84.50684017640255
 30
0.0
 10
73.8011073514625
 20
86.20351273111237
 30
0.0
 10
73.79837115567129
 20
88.35099102907328
 30
0.0
 10
73.81622050181738
 20
88.78266359140937
 30
0.0
 10
73.8881387746096
 20
89.64209295764515
 30
0.0
 10
73.94212453016155
 20
90.07031465409325
 30
0.0
 10
74.15582118634067
 20
91.35069462384895
 30
0.0
 10
74.36739244010394
 20
92.19855775921339
 30
0.0
 10
75.18436658373184
 20
94.72705213728686
 30
0.0
 10
75.97131967981319
 20
96.39264716963187
 30
0.0
 10
76.92498000452201
 20
98.04443530519019
 30
0.0
  0
LINE
  5
88
330
1F
100
AcDbEntity
  8
0
  6
Continuous
 62
     7
370
    25
100
AcDbLine
 10
76.9249800045
 20
98.0444353052
 30
0.0
 11
84.3102309582
 21
98.0444353052
 31
0.0
  0
SPLINE
  5
89
330
1F
100
AcDbEntity
  8
0
  6
Continuous
 62
     7
370
    25
100
AcDbSpline
210
0.0
220
0.0
230
1.0
 70
     8
 71
     3
 72
     8
 73
     4
 74
     0
 42
0.000000001
 43
0.00000001
 40
0.0
 40
0.0
 40
0.0
 40
0.0
 40
1.0
 40
1.0
 40
1.0
 40
1.0
 10
84.31023095823099
 20
98.0444353051902
 30
0.0
 10
84.37780787894853
 20
97.91462124829609
 30
0.0
 10
84.44448542296458
 20
97.78465866551797
 30
0.0
 10
84.51023095823096
 20
97.65454216789729
 30
0.0
  0
SPLINE
  5
8A
330
1F
100
AcDbEntity
  8
0
  6
Continuous
 62
     7
370
    25
100
AcDbSpline
210
0.0
220
0.0
230
1.0
 70
     8
 71
     3
 72
     8
 73
     4
 74
     0
 42
0.000000001
 43
0.00000001
 40
0.0
 40
0.0
 40
0.0
 40
0.0
 40
1.0
 40
1.0
 40
1.0
 40
1.0
 10
84.51023095823093
 20
97.65454216789729
 30
0.0
 10
84.57597680907085
 20
97.78465929006721
 30
0.0
 10
84.64265435804413
 20
97.91462186402977
 30
0.0
 10
84.71023095823097
 20
98.04443530519019
 30
0.0
  0
LINE
  5
8B
330
1F
100
AcDbEntity
  8
0
  6
Continuous
 62
     7
370
    25
100
AcDbLine
 10
84.7102309582
 20
98.0444353052
 30
0.0
 11
92.0954819119
 21
98.0444353052
 31
0.0
  0
SPLINE
  5
8C
330
1F
100
AcDbEntity
  8
0
  6
Continuous
 62
     7
370
    25
100
AcDbSpline
210
0.0
220
0.0
230
1.0
 70
     8
 71
     3
 72
    18
 73
    14
 74
     0
 42
0.000000001
 43
0.00000001
 40
0.0
 40
0.0
 40
0.0
 40
0.0
 40
0.2500000000000003
 40
0.2500000000000003
 40
0.5000000000000007
 40
0.5000000000000007
 40
0.5625000000000008
 40
0.5625000000000008
 40
0.6250000000000007
 40
0.6250000000000007
 40
0.7500000000000004
 40
0.7500000000000004
 40
1.0
 40
1.0
 40
1.0
 40
1.0
 10
92.09548191194014
 20
77.83717588355326
 30
0.0
 10
93.04795481172691
 20
79.4869073388164
 30
0.0
 10
93.83296475982246
 20
81.14866629876552
 30
0.0
 10
94.92045821947038
 20
84.50684017640255
 30
0.0
 10
95.21935456499945
 20
86.20351273111237
 30
0.0
 10
95.22209076079065
 20
88.35099102907328
 30
0.0
 10
95.20424141464457
 20
88.78266359140937
 30
0.0
 10
95.13232314185234
 20
89.64209295764515
 30
0.0
 10
95.07833738630039
 20
90.07031465409325
 30
0.0
 10
94.86464073012127
 20
91.35069462384895
 30
0.0
 10
94.653069476358
 20
92.19855775921339
 30
0.0
 10
93.8360953327301
 20
94.72705213728686
 30
0.0
 10
93.04914223664876
 20
96.39264716963187
 30
0.0
 10
92.09548191193993
 20
98.04443530519019
 30
0.0
  0
LINE
  5
8D
330
1F
100
AcDbEntity
  8
0
  6
Continuous
 62
     7
370
    25
100
AcDbLine
 10
84.7102309582
 20
77.8371758836
 30
0.0
 11
92.0954819119
 21
77.8371758836
 31
0.0
  0
SPLINE
  5
8E
330
1F
100
AcDbEntity
  8
0
  6
Continuous
 62
     7
370
    25
100
AcDbSpline
210
0.0
220
0.0
230
1.0
 70
     8
 71
     3
 72
     8
 73
     4
 74
     0
 42
0.000000001
 43
0.00000001
 40
0.0
 40
0.0
 40
0.0
 40
0.0
 40
1.0
 40
1.0
 40
1.0
 40
1.0
 10
84.71023095823092
 20
77.8371758835533
 30
0.0
 10
84.6426540375134
 20
77.9669899404474
 30
0.0
 10
84.57597649349734
 20
78.0969525232255
 30
0.0
 10
84.51023095823096
 20
78.22706902084617
 30
0.0
  0
SPLINE
  5
8F
330
1F
100
AcDbEntity
  8
0
  6
Continuous
 62
     7
370
    25
100
AcDbSpline
210
0.0
220
0.0
230
1.0
 70
     8
 71
     3
 72
     8
 73
     4
 74
     0
 42
0.000000001
 43
0.00000001
 40
0.0
 40
0.0
 40
0.0
 40
0.0
 40
1.0
 40
1.0
 40
1.0
 40
1.0
 10
84.510230958231
 20
78.22706902084617
 30
0.0
 10
84.44448510739109
 20
78.09695189867624
 30
0.0
 10
84.37780755841783
 20
77.9669893247137
 30
0.0
 10
84.31023095823097
 20
77.8371758835533
 30
0.0
  0
LINE
  5
90
330
1F
100
AcDbEntity
  8
0
  6
Continuous
 62
     7
370
    25
100
AcDbLine
 10
76.9249800045
 20
17.2153976186
 30
0.0
 11
84.3102309582
 21
17.2153976186
 31
0.0
  0
SPLINE
  5
91
330
1F
100
AcDbEntity
  8
0
  6
Continuous
 62
     7
370
    25
100
AcDbSpline
210
0.0
220
0.0
230
1.0
 70
     8
 71
     3
 72
    18
 73
    14
 74
     0
 42
0.000000001
 43
0.00000001
 40
0.0
 40
0.0
 40
0.0
 40
0.0
 40
0.2499999999999996
 40
0.2499999999999996
 40
0.4999999999999991
 40
0.4999999999999991
 40
0.5624999999999991
 40
0.5624999999999991
 40
0.6249999999999991
 40
0.6249999999999991
 40
0.7499999999999994
 40
0.7499999999999994
 40
1.0
 40
1.0
 40
1.0
 40
1.0
 10
76.92498000452181
 20
17.21539761864252
 30
0.0
 10
75.97250710473504
 20
18.86512907390565
 30
0.0
 10
75.18749715663948
 20
20.52688803385478
 30
0.0
 10
74.10000369699159
 20
23.8850619114918
 30
0.0
 10
73.8011073514625
 20
25.58173446620163
 30
0.0
 10
73.7983711556713
 20
27.72921276416254
 30
0.0
 10
73.81622050181738
 20
28.16088532649863
 30
0.0
 10
73.88813877460962
 20
29.02031469273441
 30
0.0
 10
73.94212453016155
 20
29.44853638918251
 30
0.0
 10
74.15582118634067
 20
30.7289163589382
 30
0.0
 10
74.36739244010394
 20
31.57677949430265
 30
0.0
 10
75.18436658373184
 20
34.10527387237614
 30
0.0
 10
75.97131967981319
 20
35.77086890472114
 30
0.0
 10
76.92498000452201
 20
37.42265704027946
 30
0.0
  0
LINE
  5
92
330
1F
100
AcDbEntity
  8
0
  6
Continuous
 62
     7
370
    25
100
AcDbLine
 10
76.9249800045
 20
37.4226570403
 30
0.0
 11
84.3102309582
 21
37.4226570403
 31
0.0
  0
SPLINE
  5
93
330
1F
100
AcDbEntity
  8
0
  6
Continuous
 62
     7
370
    25
100
AcDbSpline
210
0.0
220
0.0
230
1.0
 70
     8
 71
     3
 72
     8
 73
     4
 74
     0
 42
0.000000001
 43
0.00000001
 40
0.0
 40
0.0
 40
0.0
 40
0.0
 40
1.0
 40
1.0
 40
1.0
 40
1.0
 10
84.310230958231
 20
37.42265704027945
 30
0.0
 10
84.37780787894854
 20
37.29284298338533
 30
0.0
 10
84.44448542296458
 20
37.16288040060724
 30
0.0
 10
84.51023095823096
 20
37.03276390298657
 30
0.0
  0
SPLINE
  5
94
330
1F
100
AcDbEntity
  8
0
  6
Continuous
 62
     7
370
    25
100
AcDbSpline
210
0.0
220
0.0
230
1.0
 70
     8
 71
     3
 72
     8
 73
     4
 74
     0
 42
0.000000001
 43
0.00000001
 40
0.0
 40
0.0
 40
0.0
 40
0.0
 40
1.0
 40
1.0
 40
1.0
 40
1.0
 10
84.51023095823093
 20
37.03276390298657
 30
0.0
 10
84.57597680907085
 20
37.16288102515648
 30
0.0
 10
84.64265435804413
 20
37.29284359911904
 30
0.0
 10
84.71023095823097
 20
37.42265704027945
 30
0.0
  0
LINE
  5
95
330
1F
100
AcDbEntity
  8
0
  6
Continuous
 62
     7
370
    25
100
AcDbLine
 10
84.7102309582
 20
37.4226570403
 30
0.0
 11
92.0954819119
 21
37.4226570403
 31
0.0
  0
SPLINE
  5
96
330
1F
100
AcDbEntity
  8
0
  6
Continuous
 62
     7
370
    25
100
AcDbSpline
210
0.0
220
0.0
230
1.0
 70
     8
 71
     3
 72
    18
 73
    14
 74
     0
 42
0.000000001
 43
0.00000001
 40
0.0
 40
0.0
 40
0.0
 40
0.0
 40
0.2499999999999996
 40
0.2499999999999996
 40
0.4999999999999991
 40
0.4999999999999991
 40
0.5624999999999991
 40
0.5624999999999991
 40
0.6249999999999991
 40
0.6249999999999991
 40
0.7499999999999994
 40
0.7499999999999994
 40
1.0
 40
1.0
 40
1.0
 40
1.0
 10
92.09548191194013
 20
17.21539761864252
 30
0.0
 10
93.0479548117269
 20
18.86512907390565
 30
0.0
 10
93.83296475982246
 20
20.52688803385478
 30
0.0
 10
94.92045821947036
 20
23.8850619114918
 30
0.0
 10
95.21935456499945
 20
25.58173446620163
 30
0.0
 10
95.22209076079064
 20
27.72921276416254
 30
0.0
 10
95.20424141464457
 20
28.16088532649863
 30
0.0
 10
95.13232314185232
 20
29.02031469273441
 30
0.0
 10
95.07833738630039
 20
29.44853638918251
 30
0.0
 10
94.86464073012127
 20
30.7289163589382
 30
0.0
 10
94.653069476358
 20
31.57677949430265
 30
0.0
 10
93.8360953327301
 20
34.10527387237614
 30
0.0
 10
93.04914223664876
 20
35.77086890472114
 30
0.0
 10
92.09548191193993
 20
37.42265704027946
 30
0.0
  0
LINE
  5
97
330
1F
100
AcDbEntity
  8
0
  6
Continuous
 62
     7
370
    25
100
AcDbLine
 10
84.7102309582
 20
17.2153976186
 30
0.0
 11
92.0954819119
 21
17.2153976186
 31
0.0
  0
SPLINE
  5
98
330
1F
100
AcDbEntity
  8
0
  6
Continuous
 62
     7
370
    25
100
AcDbSpline
210
0.0
220
0.0
230
1.0
 70
     8
 71
     3
 72
     8
 73
     4
 74
     0
 42
0.000000001
 43
0.00000001
 40
0.0
 40
0.0
 40
0.0
 40
0.0
 40
1.0
 40
1.0
 40
1.0
 40
1.0
 10
84.71023095823094
 20
17.21539761864254
 30
0.0
 10
84.64265403751341
 20
17.34521167553666
 30
0.0
 10
84.57597649349735
 20
17.47517425831476
 30
0.0
 10
84.51023095823098
 20
17.60529075593544
 30
0.0
  0
SPLINE
  5
99
330
1F
100
AcDbEntity
  8
0
  6
Continuous
 62
     7
370
    25
100
AcDbSpline
210
0.0
220
0.0
230
1.0
 70
     8
 71
     3
 72
     8
 73
     4
 74
     0
 42
0.000000001
 43
0.00000001
 40
0.0
 40
0.0
 40
0.0
 40
0.0
 40
1.0
 40
1.0
 40
1.0
 40
1.0
 10
84.510230958231
 20
17.60529075593543
 30
0.0
 10
84.44448510739109
 20
17.47517363376551
 30
0.0
 10
84.37780755841781
 20
17.34521105980294
 30
0.0
 10
84.31023095823096
 20
17.21539761864253
 30
0.0
  0
SPLINE
  5
9A
330
1F
100
AcDbEntity
  8
0
  6
Continuous
 62
     7
370
    25
100
AcDbSpline
210
0.0
220
0.0
230
1.0
 70
     8
 71
     3
 72
    18
 73
    14
 74
     0
 42
0.000000001
 43
0.00000001
 40
0.0
 40
0.0
 40
0.0
 40
0.0
 40
0.1250000000000001
 40
0.1250000000000001
 40
0.2500000000000002
 40
0.2500000000000002
 40
0.5000000000000002
 40
0.5000000000000002
 40
0.6250000000000002
 40
0.6250000000000002
 40
0.7500000000000001
 40
0.7500000000000001
 40
1.0
 40
1.0
 40
1.0
 40
1.0
 10
76.92498000452221
 20
37.42265704027945
 30
0.0
 10
76.45044634297219
 20
39.0664898636921
 30
0.0
 10
76.01480280710581
 20
40.72543440241466
 30
0.0
 10
75.24182894404981
 20
44.08152549629998
 30
0.0
 10
74.90798308913978
 20
45.76469046615643
 30
0.0
 10
74.09193439128306
 20
50.82658182788266
 30
0.0
 10
73.79856060451885
 20
54.22018207440358
 30
0.0
 10
73.79907930292381
 20
59.34398904349236
 30
0.0
 10
73.87181631644913
 20
61.05742681911101
 30
0.0
 10
74.16055244576712
 20
64.49516511127396
 30
0.0
 10
74.37499507687859
 20
66.20097603991707
 30
0.0
 10
75.19672793777467
 20
71.26149771056329
 30
0.0
 10
75.98203740119722
 20
74.57072688839293
 30
0.0
 10
76.92498000452221
 20
77.8371758835533
 30
0.0
  0
SPLINE
  5
9B
330
1F
100
AcDbEntity
  8
0
  6
Continuous
 62
     7
370
    25
100
AcDbSpline
210
0.0
220
0.0
230
1.0
 70
     8
 71
     3
 72
     8
 73
     4
 74
     0
 42
0.000000001
 43
0.00000001
 40
0.0
 40
0.0
 40
0.0
 40
0.0
 40
1.0
 40
1.0
 40
1.0
 40
1.0
 10
84.31023095823096
 20
77.83717588355333
 30
0.0
 10
84.3778126729371
 20
77.57752935143225
 30
0.0
 10
84.44449014209357
 20
77.31760392502305
 30
0.0
 10
84.51023095823095
 20
77.05738960896758
 30
0.0
  0
SPLINE
  5
9C
330
1F
100
AcDbEntity
  8
0
  6
Continuous
 62
     7
370
    25
100
AcDbSpline
210
0.0
220
0.0
230
1.0
 70
     8
 71
     3
 72
     8
 73
     4
 74
     0
 42
0.000000001
 43
0.00000001
 40
0.0
 40
0.0
 40
0.0
 40
0.0
 40
1.0
 40
1.0
 40
1.0
 40
1.0
 10
84.51023095823098
 20
77.05738960896754
 30
0.0
 10
84.57597714827092
 20
77.31762519592385
 30
0.0
 10
84.64265470256561
 20
77.5775503248717
 30
0.0
 10
84.71023095823097
 20
77.83717588355333
 30
0.0
  0
SPLINE
  5
9D
330
1F
100
AcDbEntity
  8
0
  6
Continuous
 62
     7
370
    25
100
AcDbSpline
210
0.0
220
0.0
230
1.0
 70
     8
 71
     3
 72
    18
 73
    14
 74
     0
 42
0.000000001
 43
0.00000001
 40
0.0
 40
0.0
 40
0.0
 40
0.0
 40
0.1250000000000001
 40
0.1250000000000001
 40
0.2500000000000002
 40
0.2500000000000002
 40
0.5000000000000002
 40
0.5000000000000002
 40
0.6250000000000002
 40
0.6250000000000002
 40
0.7500000000000001
 40
0.7500000000000001
 40
1.0
 40
1.0
 40
1.0
 40
1.0
 10
92.09548191193974
 20
37.42265704027945
 30
0.0
 10
92.57001557348975
 20
39.0664898636921
 30
0.0
 10
93.00565910935615
 20
40.72543440241466
 30
0.0
 10
93.77863297241213
 20
44.08152549629998
 30
0.0
 10
94.11247882732216
 20
45.76469046615643
 30
0.0
 10
94.92852752517888
 20
50.82658182788266
 30
0.0
 10
95.2219013119431
 20
54.22018207440358
 30
0.0
 10
95.22138261353813
 20
59.34398904349236
 30
0.0
 10
95.14864560001283
 20
61.05742681911101
 30
0.0
 10
94.85990947069482
 20
64.49516511127396
 30
0.0
 10
94.64546683958336
 20
66.20097603991707
 30
0.0
 10
93.82373397868727
 20
71.26149771056329
 30
0.0
 10
93.03842451526472
 20
74.57072688839293
 30
0.0
 10
92.09548191193974
 20
77.8371758835533
 30
0.0
  0
SPLINE
  5
9E
330
1F
100
AcDbEntity
  8
0
  6
Continuous
 62
     7
370
    25
100
AcDbSpline
210
0.0
220
0.0
230
1.0
 70
     8
 71
     3
 72
     8
 73
     4
 74
     0
 42
0.000000001
 43
0.00000001
 40
0.0
 40
0.0
 40
0.0
 40
0.0
 40
1.0
 40
1.0
 40
1.0
 40
1.0
 10
84.71023095823097
 20
37.42265704027945
 30
0.0
 10
84.64264924352483
 20
37.68230357240053
 30
0.0
 10
84.57597177436834
 20
37.94222899880973
 30
0.0
 10
84.51023095823096
 20
38.20244331486521
 30
0.0
  0
SPLINE
  5
9F
330
1F
100
AcDbEntity
  8
0
  6
Continuous
 62
     7
370
    25
100
AcDbSpline
210
0.0
220
0.0
230
1.0
 70
     8
 71
     3
 72
     8
 73
     4
 74
     0
 42
0.000000001
 43
0.00000001
 40
0.0
 40
0.0
 40
0.0
 40
0.0
 40
1.0
 40
1.0
 40
1.0
 40
1.0
 10
84.51023095823098
 20
38.20244331486521
 30
0.0
 10
84.44448476819102
 20
37.94220772790891
 30
0.0
 10
84.37780721389635
 20
37.68228259896105
 30
0.0
 10
84.31023095823096
 20
37.42265704027942
 30
0.0
  0
LINE
  5
A0
330
1F
100
AcDbEntity
  8
0
  6
Continuous
 62
     7
370
    25
100
AcDbLine
 10
84.5102309582
 20
78.2270690208
 30
0.0
 11
84.5102309582
 21
77.057389609
 31
0.0
  0
LINE
  5
A1
330
1F
100
AcDbEntity
  8
0
  6
Continuous
 62
     7
370
    25
100
AcDbLine
 10
84.5102309582
 20
38.2024433149
 30
0.0
 11
84.5102309582
 21
37.032763903
 31
0.0
  0
LINE
  5
A2
330
1F
100
AcDbEntity
  8
0
  6
Continuous
 62
     7
370
    25
100
AcDbLine
 10
95.5102309582
 20
57.6299164619
 30
0.0
 11
95.5102309582
 21
92.1299164619
 31
0.0
  0
LINE
  5
A3
330
1F
100
AcDbEntity
  8
0
  6
Continuous
 62
     7
370
    25
100
AcDbLine
 10
95.5102309582
 20
23.1299164619
 30
0.0
 11
95.5102309582
 21
57.6299164619
 31
0.0
  0
LINE
  5
A4
330
1F
100
AcDbEntity
  8
0
  6
Continuous
 62
     7
370
    25
100
AcDbLine
 10
73.5102309582
 20
57.6299164619
 30
0.0
 11
73.5102309582
 21
92.1299164619
 31
0.0
  0
LINE
  5
A5
330
1F
100
AcDbEntity
  8
0
  6
Continuous
 62
     7
370
    25
100
AcDbLine
 10
73.5102309582
 20
23.1299164619
 30
0.0
 11
73.5102309582
 21
57.6299164619
 31
0.0
  0
LINE
  5
A6
330
1F
100
AcDbEntity
  8
0
  6
Continuous
 62
     7
370
    25
100
AcDbLine
 10
130.9187216639
 20
24.8243067965
 30
0.0
 11
130.9187216639
 21
90.4355261274
 31
0.0
  0
LINE
  5
A7
330
1F
100
AcDbEntity
  8
0
  6
Continuous
 62
     7
370
    25
100
AcDbLine
 10
38.1017402526
 20
24.8243067965
 30
0.0
 11
38.1017402526
 21
90.4355261274
 31
0.0
  0
LINE
  5
A8
330
1F
100
AcDbEntity
  8
0
  6
Continuous
 62
     7
370
    25
100
AcDbLine
 10
137.5102309582
 20
57.6299164619
 30
0.0
 11
137.5102309582
 21
86.6299164619
 31
0.0
  0
LINE
  5
A9
330
1F
100
AcDbEntity
  8
0
  6
Continuous
 62
     7
370
    25
100
AcDbLine
 10
137.5102309582
 20
28.6299164619
 30
0.0
 11
137.5102309582
 21
57.6299164619
 31
0.0
  0
LINE
  5
AA
330
1F
100
AcDbEntity
  8
0
  6
Continuous
 62
     7
370
    25
100
AcDbLine
 10
31.5102309582
 20
57.6299164619
 30
0.0
 11
31.5102309582
 21
86.6299164619
 31
0.0
  0
LINE
  5
AB
330
1F
100
AcDbEntity
  8
0
  6
Continuous
 62
     7
370
    25
100
AcDbLine
 10
31.5102309582
 20
28.6299164619
 30
0.0
 11
31.5102309582
 21
57.6299164619
 31
0.0
  0
LINE
  5
AC
330
1F
100
AcDbEntity
  8
0
  6
Continuous
 62
     7
370
    25
100
AcDbLine
 10
84.5102309582
 20
97.6602388798
 30
0.0
 11
84.5102309582
 21
97.6545421679
 31
0.0
  0
LINE
  5
AD
330
1F
100
AcDbEntity
  8
0
  6
Continuous
 62
     7
370
    25
100
AcDbLine
 10
84.5102309582
 20
17.6052907559
 30
0.0
 11
84.5102309582
 21
17.599594044
 31
0.0
  0
LINE
  5
AE
330
1F
100
AcDbEntity
  8
0
  6
Continuous
 62
     7
370
    18
100
AcDbLine
 10
33.8742656838
 20
87.9947925471
 30
0.0
 11
71.5102309582
 21
89.1709164619
 31
0.0
  0
LINE
  5
AF
330
1F
100
AcDbEntity
  8
0
  6
Continuous
 62
     7
370
    18
100
AcDbLine
 10
33.8742656838
 20
27.2650403767
 30
0.0
 11
71.5102309582
 21
26.0889164619
 31
0.0
  0
LINE
  5
B0
330
1F
100
AcDbEntity
  8
0
  6
Continuous
 62
     7
370
    18
100
AcDbLine
 10
71.5102309582
 20
23.7802914619
 30
0.0
 11
71.5102309582
 21
91.4795414619
 31
0.0
  0
LINE
  5
B1
330
1F
100
AcDbEntity
  8
0
  6
Continuous
 62
     7
370
    18
100
AcDbLine
 10
135.1461962327
 20
27.2650403767
 30
0.0
 11
97.5102309582
 21
26.0889164619
 31
0.0
  0
LINE
  5
B2
330
1F
100
AcDbEntity
  8
0
  6
Continuous
 62
     7
370
    18
100
AcDbLine
 10
135.1461962327
 20
87.9947925471
 30
0.0
 11
97.5102309582
 21
89.1709164619
 31
0.0
  0
LINE
  5
B3
330
1F
100
AcDbEntity
  8
0
  6
Continuous
 62
     7
370
    18
100
AcDbLine
 10
97.5102309582
 20
91.4795414619
 30
0.0
 11
97.5102309582
 21
23.7802914619
 31
0.0
  0
LINE
  5
B4
330
1F
100
AcDbEntity
  8
0
  6
Continuous
 62
     7
370
    25
100
AcDbLine
 10
73.7989060928
 20
181.3664078624
 30
0.0
 11
73.5102309582
 21
180.8664078624
 31
0.0
  0
LINE
  5
B5
330
1F
100
AcDbEntity
  8
0
  6
Continuous
 62
     7
370
    25
100
AcDbLine
 10
73.5102309582
 20
111.8664078624
 30
0.0
 11
73.7989060928
 21
111.3664078624
 31
0.0
  0
LINE
  5
B6
330
1F
100
AcDbEntity
  8
0
  6
Continuous
 62
     7
370
    25
100
AcDbLine
 10
95.2215558236
 20
111.3664078624
 30
0.0
 11
95.5102309582
 21
111.8664078624
 31
0.0
  0
LINE
  5
B7
330
1F
100
AcDbEntity
  8
0
  6
Continuous
 62
     7
370
    25
100
AcDbLine
 10
95.5102309582
 20
180.8664078624
 30
0.0
 11
95.2215558236
 21
181.3664078624
 31
0.0
  0
LINE
  5
B8
330
1F
100
AcDbEntity
  8
0
  6
Continuous
 62
     7
370
    25
100
AcDbLine
 10
73.5102309582
 20
180.2785328624
 30
0.0
 11
38.1017402526
 21
179.1720175279
 31
0.0
  0
LINE
  5
B9
330
1F
100
AcDbEntity
  8
0
  6
Continuous
 62
     7
370
    25
100
AcDbLine
 10
38.1017402526
 20
113.560798197
 30
0.0
 11
73.5102309582
 21
112.4542828624
 31
0.0
  0
LINE
  5
BA
330
1F
100
AcDbEntity
  8
0
  6
Continuous
 62
     7
370
    25
100
AcDbLine
 10
95.5102309582
 20
112.4542828624
 30
0.0
 11
130.9187216639
 21
113.560798197
 31
0.0
  0
LINE
  5
BB
330
1F
100
AcDbEntity
  8
0
  6
Continuous
 62
     7
370
    25
100
AcDbLine
 10
130.9187216639
 20
179.1720175279
 30
0.0
 11
95.5102309582
 21
180.2785328624
 31
0.0
  0
LINE
  5
BC
330
1F
100
AcDbEntity
  8
0
  6
Continuous
 62
     7
370
    25
100
AcDbLine
 10
38.1017402526
 20
179.1720175279
 30
0.0
 11
31.5102309582
 21
175.3664078624
 31
0.0
  0
LINE
  5
BD
330
1F
100
AcDbEntity
  8
0
  6
Continuous
 62
     7
370
    25
100
AcDbLine
 10
31.5102309582
 20
117.3664078624
 30
0.0
 11
38.1017402526
 21
113.560798197
 31
0.0
  0
LINE
  5
BE
330
1F
100
AcDbEntity
  8
0
  6
Continuous
 62
     7
370
    25
100
AcDbLine
 10
130.9187216639
 20
113.560798197
 30
0.0
 11
137.5102309582
 21
117.3664078624
 31
0.0
  0
LINE
  5
BF
330
1F
100
AcDbEntity
  8
0
  6
Continuous
 62
     7
370
    25
100
AcDbLine
 10
137.5102309582
 20
175.3664078624
 30
0.0
 11
130.9187216639
 21
179.1720175279
 31
0.0
  0
LINE
  5
C0
330
1F
100
AcDbEntity
  8
0
  6
Continuous
 62
     7
370
    25
100
AcDbLine
 10
76.9249800045
 20
146.3664078624
 30
0.0
 11
84.3102309582
 21
146.3664078624
 31
0.0
  0
SPLINE
  5
C1
330
1F
100
AcDbEntity
  8
0
  6
Continuous
 62
     7
370
    25
100
AcDbSpline
210
0.0
220
0.0
230
1.0
 70
     8
 71
     3
 72
    18
 73
    14
 74
     0
 42
0.000000001
 43
0.00000001
 40
0.0
 40
0.0
 40
0.0
 40
0.0
 40
0.2499999999999999
 40
0.2499999999999999
 40
0.4999999999999998
 40
0.4999999999999998
 40
0.5624999999999999
 40
0.5624999999999999
 40
0.6249999999999999
 40
0.6249999999999999
 40
0.75
 40
0.75
 40
1.0
 40
1.0
 40
1.0
 40
1.0
 10
76.9249800045218
 20
146.3664078624077
 30
0.0
 10
75.97250710473503
 20
149.223826561768
 30
0.0
 10
75.18749715663948
 20
152.1020775103327
 30
0.0
 10
74.10000369699159
 20
157.9186052870506
 30
0.0
 10
73.8011073514625
 20
160.8573283556157
 30
0.0
 10
73.7983711556713
 20
164.5768698758356
 30
0.0
 10
73.81622050181737
 20
165.3245486860351
 30
0.0
 10
73.8881387746096
 20
166.8131240138722
 30
0.0
 10
73.94212453016154
 20
167.5548257490237
 30
0.0
 10
74.15582118634067
 20
169.772508909634
 30
0.0
 10
74.36739244010393
 20
171.2410509379499
 30
0.0
 10
75.18436658373184
 20
175.6205316674254
 30
0.0
 10
75.97131967981319
 20
178.5054268882813
 30
0.0
 10
76.924980004522
 20
181.3664078624078
 30
0.0
  0
LINE
  5
C2
330
1F
100
AcDbEntity
  8
0
  6
Continuous
 62
     7
370
    25
100
AcDbLine
 10
76.9249800045
 20
181.3664078624
 30
0.0
 11
84.3102309582
 21
181.3664078624
 31
0.0
  0
SPLINE
  5
C3
330
1F
100
AcDbEntity
  8
0
  6
Continuous
 62
     7
370
    25
100
AcDbSpline
210
0.0
220
0.0
230
1.0
 70
     8
 71
     3
 72
     8
 73
     4
 74
     0
 42
0.000000001
 43
0.00000001
 40
0.0
 40
0.0
 40
0.0
 40
0.0
 40
1.0
 40
1.0
 40
1.0
 40
1.0
 10
84.310230958231
 20
181.3664078624078
 30
0.0
 10
84.37780787894854
 20
181.1415633203305
 30
0.0
 10
84.44448542296459
 20
180.916461523876
 30
0.0
 10
84.51023095823098
 20
180.6910931390941
 30
0.0
  0
SPLINE
  5
C4
330
1F
100
AcDbEntity
  8
0
  6
Continuous
 62
     7
370
    25
100
AcDbSpline
210
0.0
220
0.0
230
1.0
 70
     8
 71
     3
 72
     8
 73
     4
 74
     0
 42
0.000000001
 43
0.00000001
 40
0.0
 40
0.0
 40
0.0
 40
0.0
 40
1.0
 40
1.0
 40
1.0
 40
1.0
 10
84.51023095823092
 20
180.6910931390941
 30
0.0
 10
84.57597680907085
 20
180.916462605627
 30
0.0
 10
84.64265435804413
 20
181.1415643868126
 30
0.0
 10
84.71023095823097
 20
181.3664078624078
 30
0.0
  0
LINE
  5
C5
330
1F
100
AcDbEntity
  8
0
  6
Continuous
 62
     7
370
    25
100
AcDbLine
 10
84.7102309582
 20
181.3664078624
 30
0.0
 11
92.0954819119
 21
181.3664078624
 31
0.0
  0
SPLINE
  5
C6
330
1F
100
AcDbEntity
  8
0
  6
Continuous
 62
     7
370
    25
100
AcDbSpline
210
0.0
220
0.0
230
1.0
 70
     8
 71
     3
 72
    18
 73
    14
 74
     0
 42
0.000000001
 43
0.00000001
 40
0.0
 40
0.0
 40
0.0
 40
0.0
 40
0.2499999999999999
 40
0.2499999999999999
 40
0.4999999999999998
 40
0.4999999999999998
 40
0.5624999999999999
 40
0.5624999999999999
 40
0.6249999999999999
 40
0.6249999999999999
 40
0.75
 40
0.75
 40
1.0
 40
1.0
 40
1.0
 40
1.0
 10
92.09548191194014
 20
146.3664078624077
 30
0.0
 10
93.04795481172691
 20
149.223826561768
 30
0.0
 10
93.83296475982246
 20
152.1020775103327
 30
0.0
 10
94.92045821947036
 20
157.9186052870506
 30
0.0
 10
95.21935456499945
 20
160.8573283556157
 30
0.0
 10
95.22209076079064
 20
164.5768698758356
 30
0.0
 10
95.20424141464457
 20
165.3245486860351
 30
0.0
 10
95.13232314185234
 20
166.8131240138722
 30
0.0
 10
95.0783373863004
 20
167.5548257490237
 30
0.0
 10
94.86464073012127
 20
169.772508909634
 30
0.0
 10
94.65306947635801
 20
171.2410509379499
 30
0.0
 10
93.8360953327301
 20
175.6205316674254
 30
0.0
 10
93.04914223664876
 20
178.5054268882813
 30
0.0
 10
92.09548191193994
 20
181.3664078624078
 30
0.0
  0
LINE
  5
C7
330
1F
100
AcDbEntity
  8
0
  6
Continuous
 62
     7
370
    25
100
AcDbLine
 10
84.7102309582
 20
146.3664078624
 30
0.0
 11
92.0954819119
 21
146.3664078624
 31
0.0
  0
SPLINE
  5
C8
330
1F
100
AcDbEntity
  8
0
  6
Continuous
 62
     7
370
    25
100
AcDbSpline
210
0.0
220
0.0
230
1.0
 70
     8
 71
     3
 72
     8
 73
     4
 74
     0
 42
0.000000001
 43
0.00000001
 40
0.0
 40
0.0
 40
0.0
 40
0.0
 40
1.0
 40
1.0
 40
1.0
 40
1.0
 10
84.71023095823094
 20
146.3664078624078
 30
0.0
 10
84.64265403751341
 20
146.591252404485
 30
0.0
 10
84.57597649349735
 20
146.8163542009396
 30
0.0
 10
84.51023095823096
 20
147.0417225857215
 30
0.0
  0
SPLINE
  5
C9
330
1F
100
AcDbEntity
  8
0
  6
Continuous
 62
     7
370
    25
100
AcDbSpline
210
0.0
220
0.0
230
1.0
 70
     8
 71
     3
 72
     8
 73
     4
 74
     0
 42
0.000000001
 43
0.00000001
 40
0.0
 40
0.0
 40
0.0
 40
0.0
 40
1.0
 40
1.0
 40
1.0
 40
1.0
 10
84.510230958231
 20
147.0417225857215
 30
0.0
 10
84.44448510739109
 20
146.8163531191886
 30
0.0
 10
84.37780755841783
 20
146.591251338003
 30
0.0
 10
84.31023095823097
 20
146.3664078624078
 30
0.0
  0
SPLINE
  5
CA
330
1F
100
AcDbEntity
  8
0
  6
Continuous
 62
     7
370
    25
100
AcDbSpline
210
0.0
220
0.0
230
1.0
 70
    24
 71
     3
 72
    14
 73
    10
 74
     0
 42
0.000000001
 43
0.00000001
 40
0.0
 40
0.0
 40
0.0
 40
0.0
 40
0.0101713635435689
 40
0.1386374316199489
 40
0.2671053802632579
 40
0.44914705121758
 40
0.6317369884492647
 40
0.8156965982319276
 40
1.0
 40
1.0
 40
1.0
 40
1.0
 10
73.80305344488103
 20
111.3664078624078
 30
0.0
 10
73.80169133674386
 20
111.3664078624078
 30
0.0
 10
73.78312556894706
 20
111.3664078624078
 30
0.0
 10
73.85437516900328
 20
111.3664078624078
 30
0.0
 10
74.04826804058537
 20
111.3664078624078
 30
0.0
 10
74.45029015953462
 20
111.3664078624078
 30
0.0
 10
75.09562398975652
 20
111.3664078624078
 30
0.0
 10
75.91457696653387
 20
111.3664078624078
 30
0.0
 10
76.5879694433128
 20
111.3664078624078
 30
0.0
 10
76.92498000452221
 20
111.3664078624078
 30
0.0
  0
SPLINE
  5
CB
330
1F
100
AcDbEntity
  8
0
  6
Continuous
 62
     7
370
    25
100
AcDbSpline
210
0.0
220
0.0
230
1.0
 70
    24
 71
     3
 72
    14
 73
    10
 74
     0
 42
0.000000001
 43
0.00000001
 40
0.0
 40
0.0
 40
0.0
 40
0.0
 40
0.1822815351766984
 40
0.3648645210180269
 40
0.5486154746315074
 40
0.7328922899653902
 40
0.8572393557958734
 40
0.9815847239050625
 40
1.0
 40
1.0
 40
1.0
 40
1.0
 10
76.92498000452221
 20
181.3664078624078
 30
0.0
 10
76.5915320466436
 20
181.3664078624078
 30
0.0
 10
75.92408468661407
 20
181.3664078624078
 30
0.0
 10
75.10602309105178
 20
181.3664078624078
 30
0.0
 10
74.45520333080228
 20
181.3664078624078
 30
0.0
 10
74.05299478886461
 20
181.3664078624078
 30
0.0
 10
73.85837638921453
 20
181.3664078624078
 30
0.0
 10
73.78654617756136
 20
181.3664078624078
 30
0.0
 10
73.80354964771757
 20
181.3664078624078
 30
0.0
 10
73.80574299448512
 20
181.3664078624078
 30
0.0
  0
SPLINE
  5
CC
330
1F
100
AcDbEntity
  8
0
  6
Continuous
 62
     7
370
    25
100
AcDbSpline
210
0.0
220
0.0
230
1.0
 70
     8
 71
     3
 72
    18
 73
    14
 74
     0
 42
0.000000001
 43
0.00000001
 40
0.0
 40
0.0
 40
0.0
 40
0.0
 40
0.2500000000000003
 40
0.2500000000000003
 40
0.5000000000000007
 40
0.5000000000000007
 40
0.5625000000000008
 40
0.5625000000000008
 40
0.6250000000000007
 40
0.6250000000000007
 40
0.7500000000000004
 40
0.7500000000000004
 40
1.0
 40
1.0
 40
1.0
 40
1.0
 10
76.9249800045218
 20
111.3664078624077
 30
0.0
 10
75.97250710473503
 20
114.2238265617681
 30
0.0
 10
75.18749715663948
 20
117.1020775103327
 30
0.0
 10
74.10000369699158
 20
122.9186052870507
 30
0.0
 10
73.8011073514625
 20
125.8573283556157
 30
0.0
 10
73.79837115567129
 20
129.5768698758356
 30
0.0
 10
73.81622050181738
 20
130.3245486860351
 30
0.0
 10
73.8881387746096
 20
131.8131240138723
 30
0.0
 10
73.94212453016155
 20
132.5548257490237
 30
0.0
 10
74.15582118634067
 20
134.772508909634
 30
0.0
 10
74.36739244010394
 20
136.2410509379499
 30
0.0
 10
75.18436658373184
 20
140.6205316674254
 30
0.0
 10
75.97131967981319
 20
143.5054268882814
 30
0.0
 10
76.92498000452201
 20
146.3664078624078
 30
0.0
  0
LINE
  5
CD
330
1F
100
AcDbEntity
  8
0
  6
Continuous
 62
     7
370
    25
100
AcDbLine
 10
73.5102309582
 20
111.8664078624
 30
0.0
 11
73.5102309582
 21
180.8664078624
 31
0.0
  0
SPLINE
  5
CE
330
1F
100
AcDbEntity
  8
0
  6
Continuous
 62
     7
370
    25
100
AcDbSpline
210
0.0
220
0.0
230
1.0
 70
    24
 71
     3
 72
    14
 73
    10
 74
     0
 42
0.000000001
 43
0.00000001
 40
0.0
 40
0.0
 40
0.0
 40
0.0
 40
0.1822815351766984
 40
0.3648645210180269
 40
0.5486154746315074
 40
0.7328922899653902
 40
0.8572393557958734
 40
0.9815847239050625
 40
1.0
 40
1.0
 40
1.0
 40
1.0
 10
92.09548191193974
 20
181.3664078624078
 30
0.0
 10
92.42892986981835
 20
181.3664078624078
 30
0.0
 10
93.09637722984789
 20
181.3664078624078
 30
0.0
 10
93.91443882541016
 20
181.3664078624078
 30
0.0
 10
94.56525858565968
 20
181.3664078624078
 30
0.0
 10
94.96746712759733
 20
181.3664078624078
 30
0.0
 10
95.16208552724741
 20
181.3664078624078
 30
0.0
 10
95.23391573890058
 20
181.3664078624078
 30
0.0
 10
95.21691226874438
 20
181.3664078624078
 30
0.0
 10
95.21471892197683
 20
181.3664078624078
 30
0.0
  0
SPLINE
  5
CF
330
1F
100
AcDbEntity
  8
0
  6
Continuous
 62
     7
370
    25
100
AcDbSpline
210
0.0
220
0.0
230
1.0
 70
    24
 71
     3
 72
    14
 73
    10
 74
     0
 42
0.000000001
 43
0.00000001
 40
0.0
 40
0.0
 40
0.0
 40
0.0
 40
0.0101713635435689
 40
0.1386374316199489
 40
0.2671053802632579
 40
0.44914705121758
 40
0.6317369884492647
 40
0.8156965982319276
 40
1.0
 40
1.0
 40
1.0
 40
1.0
 10
95.21740847158091
 20
111.3664078624078
 30
0.0
 10
95.21877057971808
 20
111.3664078624078
 30
0.0
 10
95.23733634751488
 20
111.3664078624078
 30
0.0
 10
95.16608674745868
 20
111.3664078624078
 30
0.0
 10
94.97219387587657
 20
111.3664078624078
 30
0.0
 10
94.57017175692732
 20
111.3664078624078
 30
0.0
 10
93.92483792670544
 20
111.3664078624078
 30
0.0
 10
93.10588494992807
 20
111.3664078624078
 30
0.0
 10
92.43249247314915
 20
111.3664078624078
 30
0.0
 10
92.09548191193974
 20
111.3664078624078
 30
0.0
  0
SPLINE
  5
D0
330
1F
100
AcDbEntity
  8
0
  6
Continuous
 62
     7
370
    25
100
AcDbSpline
210
0.0
220
0.0
230
1.0
 70
     8
 71
     3
 72
    18
 73
    14
 74
     0
 42
0.000000001
 43
0.00000001
 40
0.0
 40
0.0
 40
0.0
 40
0.0
 40
0.2500000000000003
 40
0.2500000000000003
 40
0.5000000000000007
 40
0.5000000000000007
 40
0.5625000000000008
 40
0.5625000000000008
 40
0.6250000000000007
 40
0.6250000000000007
 40
0.7500000000000004
 40
0.7500000000000004
 40
1.0
 40
1.0
 40
1.0
 40
1.0
 10
92.09548191194014
 20
111.3664078624077
 30
0.0
 10
93.04795481172691
 20
114.2238265617681
 30
0.0
 10
93.83296475982246
 20
117.1020775103327
 30
0.0
 10
94.92045821947038
 20
122.9186052870507
 30
0.0
 10
95.21935456499945
 20
125.8573283556157
 30
0.0
 10
95.22209076079065
 20
129.5768698758356
 30
0.0
 10
95.20424141464457
 20
130.3245486860351
 30
0.0
 10
95.13232314185234
 20
131.8131240138723
 30
0.0
 10
95.07833738630039
 20
132.5548257490237
 30
0.0
 10
94.86464073012127
 20
134.772508909634
 30
0.0
 10
94.653069476358
 20
136.2410509379499
 30
0.0
 10
93.8360953327301
 20
140.6205316674254
 30
0.0
 10
93.04914223664876
 20
143.5054268882814
 30
0.0
 10
92.09548191193993
 20
146.3664078624078
 30
0.0
  0
LINE
  5
D1
330
1F
100
AcDbEntity
  8
0
  6
Continuous
 62
     7
370
    25
100
AcDbLine
 10
95.5102309582
 20
111.8664078624
 30
0.0
 11
95.5102309582
 21
180.8664078624
 31
0.0
  0
LINE
  5
D2
330
1F
100
AcDbEntity
  8
0
  6
Continuous
 62
     7
370
    25
100
AcDbLine
 10
84.5102309582
 20
147.0417225857
 30
0.0
 11
84.5102309582
 21
145.6910931391
 31
0.0
  0
SPLINE
  5
D3
330
1F
100
AcDbEntity
  8
0
  6
Continuous
 62
     7
370
    25
100
AcDbSpline
210
0.0
220
0.0
230
1.0
 70
     8
 71
     3
 72
     8
 73
     4
 74
     0
 42
0.000000001
 43
0.00000001
 40
0.0
 40
0.0
 40
0.0
 40
0.0
 40
1.0
 40
1.0
 40
1.0
 40
1.0
 10
84.31023095823099
 20
146.3664078624078
 30
0.0
 10
84.37780787894853
 20
146.1415633203305
 30
0.0
 10
84.44448542296458
 20
145.916461523876
 30
0.0
 10
84.51023095823096
 20
145.6910931390941
 30
0.0
  0
LINE
  5
D4
330
1F
100
AcDbEntity
  8
0
  6
Continuous
 62
     7
370
    25
100
AcDbLine
 10
76.9249800045
 20
111.3664078624
 30
0.0
 11
84.3102309582
 21
111.3664078624
 31
0.0
  0
SPLINE
  5
D5
330
1F
100
AcDbEntity
  8
0
  6
Continuous
 62
     7
370
    25
100
AcDbSpline
210
0.0
220
0.0
230
1.0
 70
     8
 71
     3
 72
     8
 73
     4
 74
     0
 42
0.000000001
 43
0.00000001
 40
0.0
 40
0.0
 40
0.0
 40
0.0
 40
1.0
 40
1.0
 40
1.0
 40
1.0
 10
84.51023095823093
 20
145.6910931390941
 30
0.0
 10
84.57597680907085
 20
145.916462605627
 30
0.0
 10
84.64265435804413
 20
146.1415643868126
 30
0.0
 10
84.71023095823097
 20
146.3664078624078
 30
0.0
  0
LINE
  5
D6
330
1F
100
AcDbEntity
  8
0
  6
Continuous
 62
     7
370
    25
100
AcDbLine
 10
84.7102309582
 20
111.3664078624
 30
0.0
 11
92.0954819119
 21
111.3664078624
 31
0.0
  0
SPLINE
  5
D7
330
1F
100
AcDbEntity
  8
0
  6
Continuous
 62
     7
370
    25
100
AcDbSpline
210
0.0
220
0.0
230
1.0
 70
     8
 71
     3
 72
     8
 73
     4
 74
     0
 42
0.000000001
 43
0.00000001
 40
0.0
 40
0.0
 40
0.0
 40
0.0
 40
1.0
 40
1.0
 40
1.0
 40
1.0
 10
84.71023095823092
 20
111.3664078624078
 30
0.0
 10
84.6426540375134
 20
111.591252404485
 30
0.0
 10
84.57597649349734
 20
111.8163542009396
 30
0.0
 10
84.51023095823096
 20
112.0417225857215
 30
0.0
  0
SPLINE
  5
D8
330
1F
100
AcDbEntity
  8
0
  6
Continuous
 62
     7
370
    25
100
AcDbSpline
210
0.0
220
0.0
230
1.0
 70
     8
 71
     3
 72
     8
 73
     4
 74
     0
 42
0.000000001
 43
0.00000001
 40
0.0
 40
0.0
 40
0.0
 40
0.0
 40
1.0
 40
1.0
 40
1.0
 40
1.0
 10
84.510230958231
 20
112.0417225857215
 30
0.0
 10
84.44448510739109
 20
111.8163531191885
 30
0.0
 10
84.37780755841783
 20
111.591251338003
 30
0.0
 10
84.31023095823097
 20
111.3664078624078
 30
0.0
  0
LINE
  5
D9
330
1F
100
AcDbEntity
  8
0
  6
Continuous
 62
     7
370
    25
100
AcDbLine
 10
38.1017402526
 20
146.3664078624
 30
0.0
 11
38.1017402526
 21
179.1720175279
 31
0.0
  0
LINE
  5
DA
330
1F
100
AcDbEntity
  8
0
  6
Continuous
 62
     7
370
    25
100
AcDbLine
 10
38.1017402526
 20
113.560798197
 30
0.0
 11
38.1017402526
 21
146.3664078624
 31
0.0
  0
LINE
  5
DB
330
1F
100
AcDbEntity
  8
0
  6
Continuous
 62
     7
370
    25
100
AcDbLine
 10
130.9187216639
 20
146.3664078624
 30
0.0
 11
130.9187216639
 21
179.1720175279
 31
0.0
  0
LINE
  5
DC
330
1F
100
AcDbEntity
  8
0
  6
Continuous
 62
     7
370
    25
100
AcDbLine
 10
130.9187216639
 20
113.560798197
 30
0.0
 11
130.9187216639
 21
146.3664078624
 31
0.0
  0
LINE
  5
DD
330
1F
100
AcDbEntity
  8
0
  6
Continuous
 62
     7
370
    25
100
AcDbLine
 10
31.5102309582
 20
117.3664078624
 30
0.0
 11
31.5102309582
 21
175.3664078624
 31
0.0
  0
LINE
  5
DE
330
1F
100
AcDbEntity
  8
0
  6
Continuous
 62
     7
370
    25
100
AcDbLine
 10
137.5102309582
 20
117.3664078624
 30
0.0
 11
137.5102309582
 21
175.3664078624
 31
0.0
  0
SPLINE
  5
DF
330
1F
100
AcDbEntity
  8
0
  6
Continuous
 62
     7
370
    25
100
AcDbSpline
210
0.0
220
0.0
230
1.0
 70
    24
 71
     3
 72
     8
 73
     4
 74
     0
 42
0.000000001
 43
0.00000001
 40
0.0
 40
0.0
 40
0.0
 40
0.0
 40
1.0
 40
1.0
 40
1.0
 40
1.0
 10
84.51023095823098
 20
181.3664078624078
 30
0.0
 10
84.44448476819102
 20
181.3664078624078
 30
0.0
 10
84.37780721389635
 20
181.3664078624078
 30
0.0
 10
84.31023095823096
 20
181.3664078624078
 30
0.0
  0
LINE
  5
E0
330
1F
100
AcDbEntity
  8
0
  6
Continuous
 62
     7
370
    25
100
AcDbLine
 10
84.5102309582
 20
181.3664078624
 30
0.0
 11
84.5102309582
 21
180.6910931391
 31
0.0
  0
SPLINE
  5
E1
330
1F
100
AcDbEntity
  8
0
  6
Continuous
 62
     7
370
    25
100
AcDbSpline
210
0.0
220
0.0
230
1.0
 70
    24
 71
     3
 72
     8
 73
     4
 74
     0
 42
0.000000001
 43
0.00000001
 40
0.0
 40
0.0
 40
0.0
 40
0.0
 40
1.0
 40
1.0
 40
1.0
 40
1.0
 10
84.71023095823097
 20
181.3664078624078
 30
0.0
 10
84.64264924352484
 20
181.3664078624078
 30
0.0
 10
84.57597177436836
 20
181.3664078624078
 30
0.0
 10
84.51023095823098
 20
181.3664078624078
 30
0.0
  0
LINE
  5
E2
330
1F
100
AcDbEntity
  8
0
  6
Continuous
 62
     7
370
    25
100
AcDbLine
 10
84.5102309582
 20
112.0417225857
 30
0.0
 11
84.5102309582
 21
111.3664078624
 31
0.0
  0
SPLINE
  5
E3
330
1F
100
AcDbEntity
  8
0
  6
Continuous
 62
     7
370
    25
100
AcDbSpline
210
0.0
220
0.0
230
1.0
 70
    24
 71
     3
 72
     8
 73
     4
 74
     0
 42
0.000000001
 43
0.00000001
 40
0.0
 40
0.0
 40
0.0
 40
0.0
 40
1.0
 40
1.0
 40
1.0
 40
1.0
 10
84.31023095823096
 20
111.3664078624078
 30
0.0
 10
84.3778126729371
 20
111.3664078624078
 30
0.0
 10
84.44449014209357
 20
111.3664078624078
 30
0.0
 10
84.51023095823095
 20
111.3664078624078
 30
0.0
  0
SPLINE
  5
E4
330
1F
100
AcDbEntity
  8
0
  6
Continuous
 62
     7
370
    25
100
AcDbSpline
210
0.0
220
0.0
230
1.0
 70
    24
 71
     3
 72
     8
 73
     4
 74
     0
 42
0.000000001
 43
0.00000001
 40
0.0
 40
0.0
 40
0.0
 40
0.0
 40
1.0
 40
1.0
 40
1.0
 40
1.0
 10
84.51023095823098
 20
111.3664078624078
 30
0.0
 10
84.57597714827092
 20
111.3664078624078
 30
0.0
 10
84.64265470256561
 20
111.3664078624078
 30
0.0
 10
84.71023095823097
 20
111.3664078624078
 30
0.0
  0
LINE
  5
E5
330
1F
100
AcDbEntity
  8
0
  6
Continuous
 62
     7
370
    18
100
AcDbLine
 10
33.8742656838
 20
176.7312839476
 30
0.0
 11
71.5102309582
 21
177.9074078624
 31
0.0
  0
LINE
  5
E6
330
1F
100
AcDbEntity
  8
0
  6
Continuous
 62
     7
370
    18
100
AcDbLine
 10
33.8742656838
 20
116.0015317772
 30
0.0
 11
71.5102309582
 21
114.8254078624
 31
0.0
  0
LINE
  5
E7
330
1F
100
AcDbEntity
  8
0
  6
Continuous
 62
     7
370
    18
100
AcDbLine
 10
71.5102309582
 20
112.5167828624
 30
0.0
 11
71.5102309582
 21
180.2160328624
 31
0.0
  0
LINE
  5
E8
330
1F
100
AcDbEntity
  8
0
  6
Continuous
 62
     7
370
    18
100
AcDbLine
 10
135.1461962327
 20
116.0015317772
 30
0.0
 11
97.5102309582
 21
114.8254078624
 31
0.0
  0
LINE
  5
E9
330
1F
100
AcDbEntity
  8
0
  6
Continuous
 62
     7
370
    18
100
AcDbLine
 10
135.1461962327
 20
176.7312839476
 30
0.0
 11
97.5102309582
 21
177.9074078624
 31
0.0
  0
LINE
  5
EA
330
1F
100
AcDbEntity
  8
0
  6
Continuous
 62
     7
370
    18
100
AcDbLine
 10
97.5102309582
 20
180.2160328624
 30
0.0
 11
97.5102309582
 21
112.5167828624
 31
0.0
  0
CIRCLE
  5
EB
330
1F
100
AcDbEntity
  8
0
  6
Continuous
 62
     7
370
    25
100
AcDbCircle
 10
188.9379312039
 20
57.6299164619
 30
0.0
 40
32.80560966544783
  0
CIRCLE
  5
EC
330
1F
100
AcDbEntity
  8
0
  6
Continuous
 62
     7
370
    25
100
AcDbCircle
 10
188.9379312039
 20
57.6299164619
 30
0.0
 40
29.0
  0
CIRCLE
  5
ED
330
1F
100
AcDbEntity
  8
0
  6
Continuous
 62
     7
370
    25
100
AcDbCircle
 10
188.9379312039
 20
57.6299164619
 30
0.0
 40
25.00000000000002
  0
CIRCLE
  5
EE
330
1F
100
AcDbEntity
  8
0
  6
Continuous
 62
     7
370
    25
100
AcDbCircle
 10
188.9379312039
 20
57.6299164619
 30
0.0
 40
24.0
  0
CIRCLE
  5
EF
330
1F
100
AcDbEntity
  8
0
  6
Continuous
 62
     7
370
    25
100
AcDbCircle
 10
188.9379312039
 20
57.6299164619
 30
0.0
 40
33.91212500000002
  0
SPLINE
  5
F0
330
1F
100
AcDbEntity
  8
0
  6
Continuous
 62
     7
370
    25
100
AcDbSpline
210
0.0
220
0.0
230
1.0
 70
    24
 71
     3
 72
    18
 73
    14
 74
     0
 42
0.000000001
 43
0.00000001
 40
0.0
 40
0.0
 40
0.0
 40
0.0
 40
0.2499999999999999
 40
0.2499999999999999
 40
0.4999999999999998
 40
0.4999999999999998
 40
0.5624999999999999
 40
0.5624999999999999
 40
0.6249999999999999
 40
0.6249999999999999
 40
0.75
 40
0.75
 40
1.0
 40
1.0
 40
1.0
 40
1.0
 10
188.937931203931
 20
98.04443530519022
 30
0.0
 10
191.7953499032913
 20
96.39470384992707
 30
0.0
 10
194.673600851856
 20
94.73294488997794
 30
0.0
 10
200.4901286285739
 20
91.37477101234093
 30
0.0
 10
203.428851697139
 20
89.67809845763111
 30
0.0
 10
207.1483932173588
 20
87.53062015967019
 30
0.0
 10
207.8960720275583
 20
87.0989475973341
 30
0.0
 10
209.3846473553954
 20
86.23951823109832
 30
0.0
 10
210.1263490905469
 20
85.81129653465022
 30
0.0
 10
212.3440322511573
 20
84.53091656489453
 30
0.0
 10
213.8125742794732
 20
83.68305342953008
 30
0.0
 10
218.1920550089487
 20
81.1545590514566
 30
0.0
 10
221.0769502298046
 20
79.48896401911158
 30
0.0
 10
223.937931203931
 20
77.83717588355327
 30
0.0
  0
SPLINE
  5
F1
330
1F
100
AcDbEntity
  8
0
  6
Continuous
 62
     7
370
    25
100
AcDbSpline
210
0.0
220
0.0
230
1.0
 70
    24
 71
     3
 72
    18
 73
    14
 74
     0
 42
0.000000001
 43
0.00000001
 40
0.0
 40
0.0
 40
0.0
 40
0.0
 40
0.1250000000000001
 40
0.1250000000000001
 40
0.2500000000000002
 40
0.2500000000000002
 40
0.5000000000000002
 40
0.5000000000000002
 40
0.6250000000000002
 40
0.6250000000000002
 40
0.7500000000000001
 40
0.7500000000000001
 40
1.0
 40
1.0
 40
1.0
 40
1.0
 10
223.937931203931
 20
37.42265704027947
 30
0.0
 10
223.937931203931
 20
39.06648986369213
 30
0.0
 10
223.937931203931
 20
40.72543440241468
 30
0.0
 10
223.937931203931
 20
44.0815254963
 30
0.0
 10
223.937931203931
 20
45.76469046615644
 30
0.0
 10
223.937931203931
 20
50.82658182788268
 30
0.0
 10
223.937931203931
 20
54.2201820744036
 30
0.0
 10
223.937931203931
 20
59.34398904349237
 30
0.0
 10
223.937931203931
 20
61.05742681911102
 30
0.0
 10
223.937931203931
 20
64.49516511127396
 30
0.0
 10
223.937931203931
 20
66.20097603991707
 30
0.0
 10
223.937931203931
 20
71.2614977105633
 30
0.0
 10
223.937931203931
 20
74.57072688839294
 30
0.0
 10
223.937931203931
 20
77.83717588355331
 30
0.0
  0
SPLINE
  5
F2
330
1F
100
AcDbEntity
  8
0
  6
Continuous
 62
     7
370
    25
100
AcDbSpline
210
0.0
220
0.0
230
1.0
 70
    24
 71
     3
 72
    18
 73
    14
 74
     0
 42
0.000000001
 43
0.00000001
 40
0.0
 40
0.0
 40
0.0
 40
0.0
 40
0.2499999999999997
 40
0.2499999999999997
 40
0.4999999999999994
 40
0.4999999999999994
 40
0.5624999999999994
 40
0.5624999999999994
 40
0.6249999999999997
 40
0.6249999999999997
 40
0.7499999999999997
 40
0.7499999999999997
 40
1.0
 40
1.0
 40
1.0
 40
1.0
 10
223.9379312039311
 20
37.4226570402795
 30
0.0
 10
221.0805125045707
 20
35.77292558501634
 30
0.0
 10
218.2022615560061
 20
34.11116662506723
 30
0.0
 10
212.3857337792882
 20
30.75299274743021
 30
0.0
 10
209.447010710723
 20
29.05632019272038
 30
0.0
 10
205.7274691905032
 20
26.90884189475945
 30
0.0
 10
204.9797903803037
 20
26.47716933242336
 30
0.0
 10
203.4912150524666
 20
25.6177399661876
 30
0.0
 10
202.7495133173151
 20
25.18951826973949
 30
0.0
 10
200.5318301567048
 20
23.90913829998381
 30
0.0
 10
199.0632881283889
 20
23.06127516461935
 30
0.0
 10
194.6838073989134
 20
20.53278078654587
 30
0.0
 10
191.7989121780574
 20
18.86718575420084
 30
0.0
 10
188.937931203931
 20
17.21539761864253
 30
0.0
  0
SPLINE
  5
F3
330
1F
100
AcDbEntity
  8
0
  6
Continuous
 62
     7
370
    25
100
AcDbSpline
210
0.0
220
0.0
230
1.0
 70
    24
 71
     3
 72
    18
 73
    14
 74
     0
 42
0.000000001
 43
0.00000001
 40
0.0
 40
0.0
 40
0.0
 40
0.0
 40
0.2499999999999996
 40
0.2499999999999996
 40
0.4999999999999991
 40
0.4999999999999991
 40
0.5624999999999991
 40
0.5624999999999991
 40
0.6249999999999991
 40
0.6249999999999991
 40
0.7499999999999994
 40
0.7499999999999994
 40
1.0
 40
1.0
 40
1.0
 40
1.0
 10
188.9379312039311
 20
17.21539761864252
 30
0.0
 10
186.0805125045707
 20
18.86512907390565
 30
0.0
 10
183.2022615560061
 20
20.52688803385478
 30
0.0
 10
177.3857337792882
 20
23.8850619114918
 30
0.0
 10
174.447010710723
 20
25.58173446620163
 30
0.0
 10
170.7274691905032
 20
27.72921276416254
 30
0.0
 10
169.9797903803037
 20
28.16088532649863
 30
0.0
 10
168.4912150524666
 20
29.02031469273441
 30
0.0
 10
167.7495133173151
 20
29.44853638918251
 30
0.0
 10
165.5318301567048
 20
30.7289163589382
 30
0.0
 10
164.0632881283889
 20
31.57677949430265
 30
0.0
 10
159.6838073989134
 20
34.10527387237614
 30
0.0
 10
156.7989121780574
 20
35.77086890472114
 30
0.0
 10
153.937931203931
 20
37.42265704027946
 30
0.0
  0
SPLINE
  5
F4
330
1F
100
AcDbEntity
  8
0
  6
Continuous
 62
     7
370
    25
100
AcDbSpline
210
0.0
220
0.0
230
1.0
 70
    24
 71
     3
 72
    18
 73
    14
 74
     0
 42
0.000000001
 43
0.00000001
 40
0.0
 40
0.0
 40
0.0
 40
0.0
 40
0.1250000000000001
 40
0.1250000000000001
 40
0.2500000000000002
 40
0.2500000000000002
 40
0.5000000000000002
 40
0.5000000000000002
 40
0.6250000000000002
 40
0.6250000000000002
 40
0.7500000000000001
 40
0.7500000000000001
 40
1.0
 40
1.0
 40
1.0
 40
1.0
 10
153.937931203931
 20
37.42265704027945
 30
0.0
 10
153.937931203931
 20
39.0664898636921
 30
0.0
 10
153.937931203931
 20
40.72543440241466
 30
0.0
 10
153.937931203931
 20
44.08152549629998
 30
0.0
 10
153.937931203931
 20
45.76469046615643
 30
0.0
 10
153.937931203931
 20
50.82658182788266
 30
0.0
 10
153.937931203931
 20
54.22018207440358
 30
0.0
 10
153.937931203931
 20
59.34398904349236
 30
0.0
 10
153.937931203931
 20
61.05742681911101
 30
0.0
 10
153.937931203931
 20
64.49516511127396
 30
0.0
 10
153.937931203931
 20
66.20097603991707
 30
0.0
 10
153.937931203931
 20
71.26149771056329
 30
0.0
 10
153.937931203931
 20
74.57072688839293
 30
0.0
 10
153.937931203931
 20
77.8371758835533
 30
0.0
  0
SPLINE
  5
F5
330
1F
100
AcDbEntity
  8
0
  6
Continuous
 62
     7
370
    25
100
AcDbSpline
210
0.0
220
0.0
230
1.0
 70
    24
 71
     3
 72
    18
 73
    14
 74
     0
 42
0.000000001
 43
0.00000001
 40
0.0
 40
0.0
 40
0.0
 40
0.0
 40
0.2500000000000003
 40
0.2500000000000003
 40
0.5000000000000007
 40
0.5000000000000007
 40
0.5625000000000008
 40
0.5625000000000008
 40
0.6250000000000007
 40
0.6250000000000007
 40
0.7500000000000004
 40
0.7500000000000004
 40
1.0
 40
1.0
 40
1.0
 40
1.0
 10
153.937931203931
 20
77.83717588355326
 30
0.0
 10
156.7953499032913
 20
79.4869073388164
 30
0.0
 10
159.673600851856
 20
81.14866629876552
 30
0.0
 10
165.4901286285739
 20
84.50684017640255
 30
0.0
 10
168.428851697139
 20
86.20351273111237
 30
0.0
 10
172.1483932173588
 20
88.35099102907328
 30
0.0
 10
172.8960720275584
 20
88.78266359140937
 30
0.0
 10
174.3846473553955
 20
89.64209295764515
 30
0.0
 10
175.1263490905469
 20
90.07031465409325
 30
0.0
 10
177.3440322511573
 20
91.35069462384895
 30
0.0
 10
178.8125742794732
 20
92.19855775921339
 30
0.0
 10
183.1920550089487
 20
94.72705213728686
 30
0.0
 10
186.0769502298046
 20
96.39264716963187
 30
0.0
 10
188.937931203931
 20
98.04443530519019
 30
0.0
  0
CIRCLE
  5
F6
330
1F
100
AcDbEntity
  8
0
  6
Continuous
 62
     7
370
    25
100
AcDbCircle
 10
188.9379312039
 20
57.6299164619
 30
0.0
 40
34.5
  0
INSERT
  5
102
330
1F
100
AcDbEntity
  8
FORMAT
100
AcDbBlockReference
  2
SW_CENTERMARKSYMBOL_0
 10
188.9379312039
 20
57.6299164619
 30
0.0
  0
ENDSEC
  0
SECTION
  2
OBJECTS
  0
DICTIONARY
  5
C
330
0
100
AcDbDictionary
281
     1
  3
ACAD_GROUP
350
D
  3
ACAD_LAYOUT
350
1A
  3
ACAD_MLINESTYLE
350
17
  3
ACAD_PLOTSETTINGS
350
19
  3
ACAD_PLOTSTYLENAME
350
E
  3
ACAD_SCALELIST
350
47
  0
DICTIONARY
  5
D
102
{ACAD_REACTORS
330
C
102
}
330
C
100
AcDbDictionary
281
     1
  0
DICTIONARY
  5
1A
102
{ACAD_REACTORS
330
C
102
}
330
C
100
AcDbDictionary
281
     1
  3
Layout1
350
1E
  3
Layout2
350
26
  3
Model
350
22
  0
DICTIONARY
  5
17
102
{ACAD_REACTORS
330
C
102
}
330
C
100
AcDbDictionary
281
     1
  3
Standard
350
18
  0
DICTIONARY
  5
19
102
{ACAD_REACTORS
330
C
102
}
330
C
100
AcDbDictionary
281
     1
  0
ACDBDICTIONARYWDFLT
  5
E
102
{ACAD_REACTORS
330
C
102
}
330
C
100
AcDbDictionary
281
     1
  3
Normal
350
F
100
AcDbDictionaryWithDefault
340
F
  0
DICTIONARY
  5
47
102
{ACAD_REACTORS
330
C
102
}
330
C
100
AcDbDictionary
281
     1
  3
A0
350
48
  3
A1
350
49
  3
A2
350
4A
  3
A3
350
4B
  3
A4
350
4C
  3
A5
350
4D
  3
A6
350
4E
  3
A7
350
4F
  3
A8
350
50
  3
A9
350
51
  3
B0
350
52
  3
B1
350
53
  3
B2
350
54
  3
B3
350
55
  3
B4
350
56
  3
B5
350
57
  3
B6
350
58
  3
B7
350
59
  3
B8
350
5A
  3
B9
350
5B
  3
C0
350
5C
  3
C1
350
5D
  3
C2
350
5E
  3
C3
350
5F
  3
C4
350
60
  3
C5
350
61
  3
C6
350
62
  3
C7
350
63
  3
C8
350
64
  3
C9
350
65
  3
D0
350
66
  3
D1
350
67
  3
D2
350
68
  0
LAYOUT
  5
1E
102
{ACAD_REACTORS
330
1A
102
}
330
1A
100
AcDbPlotSettings
  1

  2
none_device
  4

  6

 40
0.0
 41
0.0
 42
0.0
 43
0.0
 44
0.0
 45
0.0
 46
0.0
 47
0.0
 48
0.0
 49
0.0
140
0.0
141
0.0
142
1.0
143
1.0
 70
   688
 72
     1
 73
     0
 74
     5
  7

 75
    16
147
1.0
148
0.0
149
0.0
100
AcDbLayout
  1
Layout1
 70
     1
 71
     1
 10
0.0
 20
0.0
 11
420.0
 21
297.0
 12
0.0
 22
0.0
 32
0.0
 14
1.0000000000E+20
 24
1.0000000000E+20
 34
1.0000000000E+20
 15
-1.0000000000E+20
 25
-1.0000000000E+20
 35
-1.0000000000E+20
146
0.0
 13
0.0
 23
0.0
 33
0.0
 16
1.0
 26
0.0
 36
0.0
 17
0.0
 27
1.0
 37
0.0
 76
     0
330
1B
  0
LAYOUT
  5
26
102
{ACAD_REACTORS
330
1A
102
}
330
1A
100
AcDbPlotSettings
  1

  2
none_device
  4

  6

 40
0.0
 41
0.0
 42
0.0
 43
0.0
 44
0.0
 45
0.0
 46
0.0
 47
0.0
 48
0.0
 49
0.0
140
0.0
141
0.0
142
1.0
143
1.0
 70
   688
 72
     1
 73
     0
 74
     5
  7

 75
    16
147
1.0
148
0.0
149
0.0
100
AcDbLayout
  1
Layout2
 70
     1
 71
     2
 10
0.0
 20
0.0
 11
0.0
 21
0.0
 12
0.0
 22
0.0
 32
0.0
 14
0.0
 24
0.0
 34
0.0
 15
0.0
 25
0.0
 35
0.0
146
0.0
 13
0.0
 23
0.0
 33
0.0
 16
1.0
 26
0.0
 36
0.0
 17
0.0
 27
1.0
 37
0.0
 76
     0
330
23
  0
LAYOUT
  5
22
102
{ACAD_REACTORS
330
1A
102
}
330
1A
100
AcDbPlotSettings
  1

  2
none_device
  4
Letter_(8.50_x_11.00_Inches)
  6

 40
6.35
 41
6.35
 42
6.35000508
 43
6.35000508
 44
215.9
 45
279.4
 46
0.0
 47
0.0
 48
0.0
 49
0.0
140
0.0
141
0.0
142
1.0
143
1.0
 70
  1712
 72
     1
 73
     0
 74
     0
  7

 75
     0
147
1.0
148
0.0
149
0.0
100
AcDbLayout
  1
Model
 70
     1
 71
     0
 10
0.0
 20
0.0
 11
279.4
 21
215.9
 12
0.0
 22
0.0
 32
0.0
 14
0.0
 24
0.0
 34
0.0
 15
279.4
 25
215.9
 35
0.0
146
0.0
 13
0.0
 23
0.0
 33
0.0
 16
1.0
 26
0.0
 36
0.0
 17
0.0
 27
1.0
 37
0.0
 76
     0
330
1F
331
29
  0
MLINESTYLE
  5
18
102
{ACAD_REACTORS
330
17
102
}
330
17
100
AcDbMlineStyle
  2
Standard
 70
     0
  3

 62
   256
 51
90.0
 52
90.0
 71
     2
 49
0.5
 62
   256
  6
BYLAYER
 49
-0.5
 62
   256
  6
BYLAYER
  0
ACDBPLACEHOLDER
  5
F
102
{ACAD_REACTORS
330
E
102
}
330
E
  0
SCALE
  5
48
102
{ACAD_REACTORS
330
47
102
}
330
47
100
AcDbScale
 70
     0
300
1:1
140
1.0
141
1.0
290
     1
  0
SCALE
  5
49
102
{ACAD_REACTORS
330
47
102
}
330
47
100
AcDbScale
 70
     0
300
1:2
140
1.0
141
2.0
290
     0
  0
SCALE
  5
4A
102
{ACAD_REACTORS
330
47
102
}
330
47
100
AcDbScale
 70
     0
300
1:4
140
1.0
141
4.0
290
     0
  0
SCALE
  5
4B
102
{ACAD_REACTORS
330
47
102
}
330
47
100
AcDbScale
 70
     0
300
1:5
140
1.0
141
5.0
290
     0
  0
SCALE
  5
4C
102
{ACAD_REACTORS
330
47
102
}
330
47
100
AcDbScale
 70
     0
300
1:8
140
1.0
141
8.0
290
     0
  0
SCALE
  5
4D
102
{ACAD_REACTORS
330
47
102
}
330
47
100
AcDbScale
 70
     0
300
1:10
140
1.0
141
10.0
290
     0
  0
SCALE
  5
4E
102
{ACAD_REACTORS
330
47
102
}
330
47
100
AcDbScale
 70
     0
300
1:16
140
1.0
141
16.0
290
     0
  0
SCALE
  5
4F
102
{ACAD_REACTORS
330
47
102
}
330
47
100
AcDbScale
 70
     0
300
1:20
140
1.0
141
20.0
290
     0
  0
SCALE
  5
50
102
{ACAD_REACTORS
330
47
102
}
330
47
100
AcDbScale
 70
     0
300
1:30
140
1.0
141
30.0
290
     0
  0
SCALE
  5
51
102
{ACAD_REACTORS
330
47
102
}
330
47
100
AcDbScale
 70
     0
300
1:40
140
1.0
141
40.0
290
     0
  0
SCALE
  5
52
102
{ACAD_REACTORS
330
47
102
}
330
47
100
AcDbScale
 70
     0
300
1:50
140
1.0
141
50.0
290
     0
  0
SCALE
  5
53
102
{ACAD_REACTORS
330
47
102
}
330
47
100
AcDbScale
 70
     0
300
1:100
140
1.0
141
100.0
290
     0
  0
SCALE
  5
54
102
{ACAD_REACTORS
330
47
102
}
330
47
100
AcDbScale
 70
     0
300
2:1
140
2.0
141
1.0
290
     0
  0
SCALE
  5
55
102
{ACAD_REACTORS
330
47
102
}
330
47
100
AcDbScale
 70
     0
300
4:1
140
4.0
141
1.0
290
     0
  0
SCALE
  5
56
102
{ACAD_REACTORS
330
47
102
}
330
47
100
AcDbScale
 70
     0
300
8:1
140
8.0
141
1.0
290
     0
  0
SCALE
  5
57
102
{ACAD_REACTORS
330
47
102
}
330
47
100
AcDbScale
 70
     0
300
10:1
140
10.0
141
1.0
290
     0
  0
SCALE
  5
58
102
{ACAD_REACTORS
330
47
102
}
330
47
100
AcDbScale
 70
     0
300
100:1
140
100.0
141
1.0
290
     0
  0
SCALE
  5
59
102
{ACAD_REACTORS
330
47
102
}
330
47
100
AcDbScale
 70
     0
300
1/128" = 1'-0"
140
0.0078125
141
12.0
290
     0
  0
SCALE
  5
5A
102
{ACAD_REACTORS
330
47
102
}
330
47
100
AcDbScale
 70
     0
300
1/64" = 1'-0"
140
0.015625
141
12.0
290
     0
  0
SCALE
  5
5B
102
{ACAD_REACTORS
330
47
102
}
330
47
100
AcDbScale
 70
     0
300
1/32" = 1'-0"
140
0.03125
141
12.0
290
     0
  0
SCALE
  5
5C
102
{ACAD_REACTORS
330
47
102
}
330
47
100
AcDbScale
 70
     0
300
1/16" = 1'-0"
140
0.0625
141
12.0
290
     0
  0
SCALE
  5
5D
102
{ACAD_REACTORS
330
47
102
}
330
47
100
AcDbScale
 70
     0
300
3/32" = 1'-0"
140
0.09375
141
12.0
290
     0
  0
SCALE
  5
5E
102
{ACAD_REACTORS
330
47
102
}
330
47
100
AcDbScale
 70
     0
300
1/8" = 1'-0"
140
0.125
141
12.0
290
     0
  0
SCALE
  5
5F
102
{ACAD_REACTORS
330
47
102
}
330
47
100
AcDbScale
 70
     0
300
3/16" = 1'-0"
140
0.1875
141
12.0
290
     0
  0
SCALE
  5
60
102
{ACAD_REACTORS
330
47
102
}
330
47
100
AcDbScale
 70
     0
300
1/4" = 1'-0"
140
0.25
141
12.0
290
     0
  0
SCALE
  5
61
102
{ACAD_REACTORS
330
47
102
}
330
47
100
AcDbScale
 70
     0
300
3/8" = 1'-0"
140
0.375
141
12.0
290
     0
  0
SCALE
  5
62
102
{ACAD_REACTORS
330
47
102
}
330
47
100
AcDbScale
 70
     0
300
1/2" = 1'-0"
140
0.5
141
12.0
290
     0
  0
SCALE
  5
63
102
{ACAD_REACTORS
330
47
102
}
330
47
100
AcDbScale
 70
     0
300
3/4" = 1'-0"
140
0.75
141
12.0
290
     0
  0
SCALE
  5
64
102
{ACAD_REACTORS
330
47
102
}
330
47
100
AcDbScale
 70
     0
300
1" = 1'-0"
140
1.0
141
12.0
290
     0
  0
SCALE
  5
65
102
{ACAD_REACTORS
330
47
102
}
330
47
100
AcDbScale
 70
     0
300
1-1/2" = 1'-0"
140
1.5
141
12.0
290
     0
  0
SCALE
  5
66
102
{ACAD_REACTORS
330
47
102
}
330
47
100
AcDbScale
 70
     0
300
3" = 1'-0"
140
3.0
141
12.0
290
     0
  0
SCALE
  5
67
102
{ACAD_REACTORS
330
47
102
}
330
47
100
AcDbScale
 70
     0
300
6" = 1'-0"
140
6.0
141
12.0
290
     0
  0
SCALE
  5
68
102
{ACAD_REACTORS
330
47
102
}
330
47
100
AcDbScale
 70
     0
300
1'-0" = 1'-0"
140
12.0
141
12.0
290
     0
  0
ENDSEC
  0
EOF
