  0
SECTION
  2
HEADER
  9
$ACADVER
  1
AC1015
  9
$ACADMAINTVER
 70
     6
  9
$DWGCODEPAGE
  3
DOS932
  9
$INSBASE
 10
0.0
 20
0.0
 30
0.0
  9
$EXTMIN
 10
0.0
 20
0.0
 30
0.0
  9
$EXTMAX
 10
215.9
 20
139.7
 30
0.0
  9
$LIMMIN
 10
0.0
 20
0.0
  9
$LIMMAX
 10
215.9
 20
139.7
  9
$ORTHOMODE
 70
     0
  9
$REGENMODE
 70
     1
  9
$FILLMODE
 70
     1
  9
$QTEXTMODE
 70
     0
  9
$MIRRTEXT
 70
     1
  9
$LTSCALE
 40
0.5
  9
$ATTMODE
 70
     1
  9
$TEXTSIZE
 40
1.75
  9
$TRACEWID
 40
1.0
  9
$TEXTSTYLE
  7
Standard
  9
$CLAYER
  8
0
  9
$CELTYPE
  6
ByLayer
  9
$CECOLOR
 62
   256
  9
$CELTSCALE
 40
1.0
  9
$DISPSILH
 70
     0
  9
$DIMSCALE
 40
1.0
  9
$DIMASZ
 40
1.651
  9
$DIMEXO
 40
0.5
  9
$DIMDLI
 40
3.75
  9
$DIMRND
 40
0.0
  9
$DIMDLE
 40
0.0
  9
$DIMEXE
 40
0.5
  9
$DIMTP
 40
0.0
  9
$DIMTM
 40
0.0
  9
$DIMTXT
 40
1.75
  9
$DIMCEN
 40
2.5
  9
$DIMTSZ
 40
0.0
  9
$DIMTOL
 70
     0
  9
$DIMLIM
 70
     0
  9
$DIMTIH
 70
     1
  9
$DIMTOH
 70
     1
  9
$DIMSE1
 70
     0
  9
$DIMSE2
 70
     0
  9
$DIMTAD
 70
     1
  9
$DIMZIN
 70
     1
  9
$DIMBLK
  1

  9
$DIMASO
 70
     1
  9
$DIMSHO
 70
     1
  9
$DIMPOST
  1

  9
$DIMAPOST
  1

  9
$DIMALT
 70
     0
  9
$DIMALTD
 70
     3
  9
$DIMALTF
 40
0.0393700787
  9
$DIMLFAC
 40
1.0
  9
$DIMTOFL
 70
     1
  9
$DIMTVP
 40
0.0
  9
$DIMTIX
 70
     0
  9
$DIMSOXD
 70
     0
  9
$DIMSAH
 70
     0
  9
$DIMBLK1
  1

  9
$DIMBLK2
  1

  9
$DIMSTYLE
  2
ISO-25
  9
$DIMCLRD
 70
     0
  9
$DIMCLRE
 70
     0
  9
$DIMCLRT
 70
     0
  9
$DIMTFAC
 40
1.0
  9
$DIMGAP
 40
0.762
  9
$DIMJUST
 70
     0
  9
$DIMSD1
 70
     0
  9
$DIMSD2
 70
     0
  9
$DIMTOLJ
 70
     0
  9
$DIMTZIN
 70
     1
  9
$DIMALTZ
 70
     0
  9
$DIMALTTZ
 70
     0
  9
$DIMUPT
 70
     0
  9
$DIMDEC
 70
     2
  9
$DIMTDEC
 70
     2
  9
$DIMALTU
 70
     2
  9
$DIMALTTD
 70
     3
  9
$DIMTXSTY
  7
Standard
  9
$DIMAUNIT
 70
     0
  9
$DIMADEC
 70
     2
  9
$DIMALTRND
 40
0.0
  9
$DIMAZIN
 70
     0
  9
$DIMDSEP
 70
    44
  9
$DIMATFIT
 70
     3
  9
$DIMFRAC
 70
     0
  9
$DIMLDRBLK
  1

  9
$DIMLUNIT
 70
     2
  9
$DIMLWD
 70
    -2
  9
$DIMLWE
 70
    -2
  9
$DIMTMOVE
 70
     0
  9
$LUNITS
 70
     2
  9
$LUPREC
 70
     2
  9
$SKETCHINC
 40
1.0
  9
$FILLETRAD
 40
10.0
  9
$AUNITS
 70
     0
  9
$AUPREC
 70
     2
  9
$MENU
  1
.
  9
$ELEVATION
 40
0.0
  9
$PELEVATION
 40
0.0
  9
$THICKNESS
 40
0.0
  9
$LIMCHECK
 70
     0
  9
$CHAMFERA
 40
0.0
  9
$CHAMFERB
 40
0.0
  9
$CHAMFERC
 40
0.0
  9
$CHAMFERD
 40
0.0
  9
$SKPOLY
 70
     0
  9
$TDCREATE
 40
2459227.760634826
  9
$TDUCREATE
 40
2459227.385634826
  9
$TDUPDATE
 40
2459227.760635185
  9
$TDUUPDATE
 40
2459227.385635185
  9
$TDINDWG
 40
0.0000000116
  9
$TDUSRTIMER
 40
0.0000000116
  9
$USRTIMER
 70
     1
  9
$ANGBASE
 50
0.0
  9
$ANGDIR
 70
     0
  9
$PDMODE
 70
     0
  9
$PDSIZE
 40
-1.0
  9
$PLINEWID
 40
0.0
  9
$SPLFRAME
 70
     0
  9
$SPLINETYPE
 70
     6
  9
$SPLINESEGS
 70
     8
  9
$HANDSEED
  5
10B
  9
$SURFTAB1
 70
     6
  9
$SURFTAB2
 70
     6
  9
$SURFTYPE
 70
     6
  9
$SURFU
 70
     6
  9
$SURFV
 70
     6
  9
$UCSBASE
  2

  9
$UCSNAME
  2

  9
$UCSORG
 10
0.0
 20
0.0
 30
0.0
  9
$UCSXDIR
 10
1.0
 20
0.0
 30
0.0
  9
$UCSYDIR
 10
0.0
 20
1.0
 30
0.0
  9
$UCSORTHOREF
  2

  9
$UCSORTHOVIEW
 70
     0
  9
$UCSORGTOP
 10
0.0
 20
0.0
 30
0.0
  9
$UCSORGBOTTOM
 10
0.0
 20
0.0
 30
0.0
  9
$UCSORGLEFT
 10
0.0
 20
0.0
 30
0.0
  9
$UCSORGRIGHT
 10
0.0
 20
0.0
 30
0.0
  9
$UCSORGFRONT
 10
0.0
 20
0.0
 30
0.0
  9
$UCSORGBACK
 10
0.0
 20
0.0
 30
0.0
  9
$PUCSBASE
  2

  9
$PUCSNAME
  2

  9
$PUCSORG
 10
0.0
 20
0.0
 30
0.0
  9
$PUCSXDIR
 10
1.0
 20
0.0
 30
0.0
  9
$PUCSYDIR
 10
0.0
 20
1.0
 30
0.0
  9
$PUCSORTHOREF
  2

  9
$PUCSORTHOVIEW
 70
     0
  9
$PUCSORGTOP
 10
0.0
 20
0.0
 30
0.0
  9
$PUCSORGBOTTOM
 10
0.0
 20
0.0
 30
0.0
  9
$PUCSORGLEFT
 10
0.0
 20
0.0
 30
0.0
  9
$PUCSORGRIGHT
 10
0.0
 20
0.0
 30
0.0
  9
$PUCSORGFRONT
 10
0.0
 20
0.0
 30
0.0
  9
$PUCSORGBACK
 10
0.0
 20
0.0
 30
0.0
  9
$USERI1
 70
     0
  9
$USERI2
 70
     0
  9
$USERI3
 70
     0
  9
$USERI4
 70
     0
  9
$USERI5
 70
     0
  9
$USERR1
 40
0.0
  9
$USERR2
 40
0.0
  9
$USERR3
 40
0.0
  9
$USERR4
 40
0.0
  9
$USERR5
 40
0.0
  9
$WORLDVIEW
 70
     1
  9
$SHADEDGE
 70
     3
  9
$SHADEDIF
 70
    70
  9
$TILEMODE
 70
     1
  9
$MAXACTVP
 70
    64
  9
$PINSBASE
 10
0.0
 20
0.0
 30
0.0
  9
$PLIMCHECK
 70
     0
  9
$PEXTMIN
 10
1.0000000000E+20
 20
1.0000000000E+20
 30
1.0000000000E+20
  9
$PEXTMAX
 10
-1.0000000000E+20
 20
-1.0000000000E+20
 30
-1.0000000000E+20
  9
$PLIMMIN
 10
0.0
 20
0.0
  9
$PLIMMAX
 10
420.0
 20
297.0
  9
$UNITMODE
 70
     0
  9
$VISRETAIN
 70
     1
  9
$PLINEGEN
 70
     0
  9
$PSLTSCALE
 70
     1
  9
$TREEDEPTH
 70
  3020
  9
$CMLSTYLE
  2
Standard
  9
$CMLJUST
 70
     0
  9
$CMLSCALE
 40
20.0
  9
$PROXYGRAPHICS
 70
     1
  9
$MEASUREMENT
 70
     1
  9
$CELWEIGHT
370
    -1
  9
$ENDCAPS
280
     0
  9
$JOINSTYLE
280
     0
  9
$LWDISPLAY
290
     1
  9
$INSUNITS
 70
     4
  9
$HYPERLINKBASE
  1

  9
$STYLESHEET
  1

  9
$XEDIT
290
     1
  9
$CEPSNTYPE
380
     0
  9
$PSTYLEMODE
290
     1
  9
$FINGERPRINTGUID
  2
{A5684A76-D562-4B84-8582-481D93E6B71C}
  9
$VERSIONGUID
  2
{FAEB1C32-E019-11D5-929B-00C0DF256EC4}
  9
$EXTNAMES
290
     1
  9
$PSVPSCALE
 40
0.0
  9
$OLESTARTUP
290
     0
  0
ENDSEC
  0
SECTION
  2
CLASSES
  0
CLASS
  1
ACDBDICTIONARYWDFLT
  2
AcDbDictionaryWithDefault
  3
ObjectDBX Classes
 90
        0
280
     0
281
     0
  0
CLASS
  1
VISUALSTYLE
  2
AcDbVisualStyle
  3
ObjectDBX Classes
 90
     4095
280
     0
281
     0
  0
CLASS
  1
MATERIAL
  2
AcDbMaterial
  3
ObjectDBX Classes
 90
     1153
280
     0
281
     0
  0
CLASS
  1
SCALE
  2
AcDbScale
  3
ObjectDBX Classes
 90
     1153
280
     0
281
     0
  0
CLASS
  1
TABLESTYLE
  2
AcDbTableStyle
  3
ObjectDBX Classes
 90
     4095
280
     0
281
     0
  0
CLASS
  1
MLEADERSTYLE
  2
AcDbMLeaderStyle
  3
ACDB_MLEADERSTYLE_CLASS
 90
     4095
280
     0
281
     0
  0
CLASS
  1
SUN
  2
AcDbSun
  3
SCENEOE
 90
     1153
280
     0
281
     0
  0
CLASS
  1
ACDBPLACEHOLDER
  2
AcDbPlaceHolder
  3
ObjectDBX Classes
 90
        0
280
     0
281
     0
  0
CLASS
  1
LAYOUT
  2
AcDbLayout
  3
ObjectDBX Classes
 90
        0
280
     0
281
     0
  0
ENDSEC
  0
SECTION
  2
TABLES
  0
TABLE
  2
VPORT
  5
8
330
0
100
AcDbSymbolTable
 70
     1
  0
VPORT
  5
29
330
8
100
AcDbSymbolTableRecord
100
AcDbViewportTableRecord
  2
*Active
 70
     0
 10
0.0
 20
0.0
 11
1.0
 21
1.0
 12
107.95
 22
69.85
 13
0.0
 23
0.0
 14
10.0
 24
10.0
 15
10.0
 25
10.0
 16
0.0
 26
0.0
 36
1.0
 17
0.0
 27
0.0
 37
0.0
 40
139.7
 41
1.5454545455
 42
50.0
 43
0.0
 44
0.0
 50
0.0
 51
0.0
 71
     0
 72
  2000
 73
     1
 74
     3
 75
     0
 76
     0
 77
     0
 78
     0
281
     0
 65
     1
110
0.0
120
0.0
130
0.0
111
1.0
121
0.0
131
0.0
112
0.0
122
1.0
132
0.0
 79
     0
146
0.0
  0
ENDTAB
  0
TABLE
  2
LTYPE
  5
5
330
0
100
AcDbSymbolTable
 70
     6
  0
LTYPE
  5
14
330
5
100
AcDbSymbolTableRecord
100
AcDbLinetypeTableRecord
  2
ByBlock
 70
     0
  3

 72
    65
 73
     0
 40
0.0
  0
LTYPE
  5
15
330
5
100
AcDbSymbolTableRecord
100
AcDbLinetypeTableRecord
  2
ByLayer
 70
     0
  3

 72
    65
 73
     0
 40
0.0
  0
LTYPE
  5
16
330
5
100
AcDbSymbolTableRecord
100
AcDbLinetypeTableRecord
  2
Continuous
 70
     0
  3
Solid line
 72
    65
 73
     0
 40
0.0
  0
LTYPE
  5
6E
330
5
100
AcDbSymbolTableRecord
100
AcDbLinetypeTableRecord
  2
HIDDEN
 70
     0
  3
Hidden __ __ __ __ __ __ __ __ __ __ __ __ __ __
 72
    65
 73
     2
 40
1.905
 49
1.27
 74
     0
 49
-0.635
 74
     0
  0
LTYPE
  5
6F
330
5
100
AcDbSymbolTableRecord
100
AcDbLinetypeTableRecord
  2
PHANTOM
 70
     0
  3
Phantom ______  __  __  ______  __  __  ______
 72
    65
 73
     6
 40
12.7
 49
6.35
 74
     0
 49
-1.27
 74
     0
 49
1.27
 74
     0
 49
-1.27
 74
     0
 49
1.27
 74
     0
 49
-1.27
 74
     0
  0
LTYPE
  5
70
330
5
100
AcDbSymbolTableRecord
100
AcDbLinetypeTableRecord
  2
CENTER
 70
     0
  3
Center ____ _ ____ _ ____ _ ____ _ ____ _ ____
 72
    65
 73
     4
 40
10.16
 49
6.35
 74
     0
 49
-1.27
 74
     0
 49
1.27
 74
     0
 49
-1.27
 74
     0
  0
LTYPE
  5
71
330
5
100
AcDbSymbolTableRecord
100
AcDbLinetypeTableRecord
  2
CENTERX2
 70
     0
  3
Center (2x) ________  __  ________  __  _____
 72
    65
 73
     4
 40
20.32
 49
12.7
 74
     0
 49
-2.54
 74
     0
 49
2.54
 74
     0
 49
-2.54
 74
     0
  0
LTYPE
  5
72
330
5
100
AcDbSymbolTableRecord
100
AcDbLinetypeTableRecord
  2
DOT2
 70
     0
  3
Dot (.5x) ........................................
 72
    65
 73
     2
 40
0.635
 49
0.0
 74
     0
 49
-0.635
 74
     0
  0
ENDTAB
  0
TABLE
  2
LAYER
  5
2
330
0
100
AcDbSymbolTable
 70
     1
  0
LAYER
  5
10
330
2
100
AcDbSymbolTableRecord
100
AcDbLayerTableRecord
  2
0
 70
     0
 62
     7
  6
Continuous
370
    -3
390
F
  0
ENDTAB
  0
TABLE
  2
STYLE
  5
3
330
0
100
AcDbSymbolTable
 70
     2
  0
STYLE
  5
11
330
3
100
AcDbSymbolTableRecord
100
AcDbTextStyleTableRecord
  2
Standard
 70
     0
 40
0.0
 41
1.0
 50
0.0
 71
     0
 42
1.75
  3
txt
  4
bigfont
  0
STYLE
  5
73
330
3
100
AcDbSymbolTableRecord
100
AcDbTextStyleTableRecord
  2
SLDTEXTSTYLE0
 70
     0
 40
0.0
 41
0.7
 50
0.0
 71
     0
 42
1.75
  3
TXT
  4
bigfont
  0
ENDTAB
  0
TABLE
  2
VIEW
  5
6
330
0
100
AcDbSymbolTable
 70
     0
  0
ENDTAB
  0
TABLE
  2
UCS
  5
7
330
0
100
AcDbSymbolTable
 70
     0
  0
ENDTAB
  0
TABLE
  2
APPID
  5
9
330
0
100
AcDbSymbolTable
 70
     1
  0
APPID
  5
12
330
9
100
AcDbSymbolTableRecord
100
AcDbRegAppTableRecord
  2
ACAD
 70
     0
  0
ENDTAB
  0
TABLE
  2
DIMSTYLE
  5
A
330
0
100
AcDbSymbolTable
 70
     1
100
AcDbDimStyleTable
  0
DIMSTYLE
105
27
330
A
100
AcDbSymbolTableRecord
100
AcDbDimStyleTableRecord
  2
ISO-25
 70
     0
 41
2.5
 42
0.625
 43
3.75
 44
1.25
 73
     0
 74
     0
 77
     1
 78
     8
140
2.5
141
2.5
143
0.0393700787
147
0.625
171
     3
172
     1
178
     0
271
     2
272
     2
274
     3
278
    44
283
     0
284
     8
340
11
  0
ENDTAB
  0
TABLE
  2
BLOCK_RECORD
  5
1
330
0
100
AcDbSymbolTable
 70
     2
  0
BLOCK_RECORD
  5
1F
330
1
100
AcDbSymbolTableRecord
100
AcDbBlockTableRecord
  2
*Model_Space
340
22
  0
BLOCK_RECORD
  5
1B
330
1
100
AcDbSymbolTableRecord
100
AcDbBlockTableRecord
  2
*Paper_Space
340
1E
  0
BLOCK_RECORD
  5
23
330
1
100
AcDbSymbolTableRecord
100
AcDbBlockTableRecord
  2
*Paper_Space0
340
26
  0
BLOCK_RECORD
  5
C7
330
1
100
AcDbSymbolTableRecord
100
AcDbBlockTableRecord
  2
SW_CENTERMARKSYMBOL_0
340
0
102
{BLKREFS
331
D2
102
}
  0
ENDTAB
  0
ENDSEC
  0
SECTION
  2
BLOCKS
  0
BLOCK
  5
20
330
1F
100
AcDbEntity
  8
0
100
AcDbBlockBegin
  2
*Model_Space
 70
     0
 10
0.0
 20
0.0
 30
0.0
  3
*Model_Space
  1

  0
ENDBLK
  5
21
330
1F
100
AcDbEntity
  8
0
100
AcDbBlockEnd
  0
BLOCK
  5
1C
330
1B
100
AcDbEntity
 67
     1
  8
0
100
AcDbBlockBegin
  2
*Paper_Space
 70
     0
 10
0.0
 20
0.0
 30
0.0
  3
*Paper_Space
  1

  0
ENDBLK
  5
1D
330
1B
100
AcDbEntity
 67
     1
  8
0
100
AcDbBlockEnd
  0
BLOCK
  5
24
330
23
100
AcDbEntity
  8
0
100
AcDbBlockBegin
  2
*Paper_Space0
 70
     0
 10
0.0
 20
0.0
 30
0.0
  3
*Paper_Space0
  1

  0
ENDBLK
  5
25
330
23
100
AcDbEntity
  8
0
100
AcDbBlockEnd
  0
BLOCK
  5
C8
330
C7
100
AcDbEntity
  8
0
100
AcDbBlockBegin
  2
SW_CENTERMARKSYMBOL_0
 70
     0
 10
0.0
 20
0.0
 30
0.0
  3
SW_CENTERMARKSYMBOL_0
  1

  0
LINE
  5
CA
330
C7
100
AcDbEntity
  8
0
  6
Continuous
 62
     0
370
    18
100
AcDbLine
 10
0.0
 20
0.0
 30
0.0
 11
0.0
 21
2.5
 31
0.0
  0
LINE
  5
CB
330
C7
100
AcDbEntity
  8
0
  6
Continuous
 62
     0
370
    18
100
AcDbLine
 10
0.0
 20
0.0
 30
0.0
 11
-2.5
 21
0.0
 31
0.0
  0
LINE
  5
CC
330
C7
100
AcDbEntity
  8
0
  6
Continuous
 62
     0
370
    18
100
AcDbLine
 10
0.0
 20
0.0
 30
0.0
 11
0.0
 21
-2.5
 31
0.0
  0
LINE
  5
CD
330
C7
100
AcDbEntity
  8
0
  6
Continuous
 62
     0
370
    18
100
AcDbLine
 10
0.0
 20
0.0
 30
0.0
 11
2.5
 21
0.0
 31
0.0
  0
LINE
  5
CE
330
C7
100
AcDbEntity
  8
0
  6
Continuous
 62
     0
370
    18
100
AcDbLine
 10
0.0
 20
5.0
 30
0.0
 11
0.0
 21
16.6779034733
 31
0.0
  0
LINE
  5
CF
330
C7
100
AcDbEntity
  8
0
  6
Continuous
 62
     0
370
    18
100
AcDbLine
 10
-5.0
 20
0.0
 30
0.0
 11
-14.3757228271
 21
0.0
 31
0.0
  0
LINE
  5
D0
330
C7
100
AcDbEntity
  8
0
  6
Continuous
 62
     0
370
    18
100
AcDbLine
 10
0.0
 20
-5.0
 30
0.0
 11
0.0
 21
-16.7801485978
 31
0.0
  0
LINE
  5
D1
330
C7
100
AcDbEntity
  8
0
  6
Continuous
 62
     0
370
    18
100
AcDbLine
 10
5.0
 20
0.0
 30
0.0
 11
14.2387359598
 21
0.0
 31
0.0
  0
ENDBLK
  5
C9
330
C7
100
AcDbEntity
  8
0
100
AcDbBlockEnd
  0
ENDSEC
  0
SECTION
  2
ENTITIES
  0
MTEXT
  5
74
330
1F
100
AcDbEntity
  8
0
  6
Continuous
 62
     7
370
     0
100
AcDbMText
 10
86.4147877261
 20
65.3280845412
 30
0.0
 40
2.9104166667
 41
0.0
 71
     1
 72
     1
  1
5R-NS1044
  7
SLDTEXTSTYLE0
 73
     1
 44
1.0
  0
LINE
  5
75
330
1F
100
AcDbEntity
  8
0
  6
Continuous
 62
     7
370
    25
100
AcDbLine
 10
40.2473987114
 20
51.9968838775
 30
0.0
 11
38.9419479769
 21
49.7357768786
 31
0.0
  0
LINE
  5
76
330
1F
100
AcDbEntity
  8
0
  6
Continuous
 62
     7
370
    25
100
AcDbLine
 10
38.9419479769
 20
24.2357768786
 30
0.0
 11
40.2473987114
 21
21.9746698797
 31
0.0
  0
LINE
  5
77
330
1F
100
AcDbEntity
  8
0
  6
Continuous
 62
     7
370
    25
100
AcDbLine
 10
77.6364972424
 20
21.9746698797
 30
0.0
 11
78.9419479769
 21
24.2357768786
 31
0.0
  0
LINE
  5
78
330
1F
100
AcDbEntity
  8
0
  6
Continuous
 62
     7
370
    25
100
AcDbLine
 10
78.9419479769
 20
49.7357768786
 30
0.0
 11
77.6364972424
 21
51.9968838775
 31
0.0
  0
LINE
  5
79
330
1F
100
AcDbEntity
  8
0
  6
Continuous
 62
     7
370
    25
100
AcDbLine
 10
58.3652723247
 20
21.9746698797
 30
0.0
 11
58.9419479769
 21
23.9857768786
 31
0.0
  0
LINE
  5
7A
330
1F
100
AcDbEntity
  8
0
  6
Continuous
 62
     7
370
    25
100
AcDbLine
 10
58.9419479769
 20
23.9857768786
 30
0.0
 11
59.5186236291
 21
21.9746698797
 31
0.0
  0
LINE
  5
7B
330
1F
100
AcDbEntity
  8
0
  6
Continuous
 62
     7
370
    25
100
AcDbLine
 10
58.9419479769
 20
49.9857768786
 30
0.0
 11
58.3652723247
 21
51.9968838775
 31
0.0
  0
LINE
  5
7C
330
1F
100
AcDbEntity
  8
0
  6
Continuous
 62
     7
370
    25
100
AcDbLine
 10
59.5186236291
 20
51.9968838775
 30
0.0
 11
58.9419479769
 21
49.9857768786
 31
0.0
  0
LINE
  5
7D
330
1F
100
AcDbEntity
  8
0
  6
Continuous
 62
     7
370
    25
100
AcDbLine
 10
74.3079733807
 20
21.9746698797
 30
0.0
 11
74.4419479769
 21
22.4746698797
 31
0.0
  0
LINE
  5
7E
330
1F
100
AcDbEntity
  8
0
  6
Continuous
 62
     7
370
    25
100
AcDbLine
 10
74.4419479769
 20
22.4746698797
 30
0.0
 11
74.5759225731
 21
21.9746698797
 31
0.0
  0
LINE
  5
7F
330
1F
100
AcDbEntity
  8
0
  6
Continuous
 62
     7
370
    25
100
AcDbLine
 10
74.4419479769
 20
51.4968838775
 30
0.0
 11
74.3079733807
 21
51.9968838775
 31
0.0
  0
LINE
  5
80
330
1F
100
AcDbEntity
  8
0
  6
Continuous
 62
     7
370
    25
100
AcDbLine
 10
74.5759225731
 20
51.9968838775
 30
0.0
 11
74.4419479769
 21
51.4968838775
 31
0.0
  0
SPLINE
  5
81
330
1F
100
AcDbEntity
  8
0
  6
Continuous
 62
     7
370
    25
100
AcDbSpline
210
0.0
220
0.0
230
1.0
 70
     8
 71
     3
 72
     8
 73
     4
 74
     0
 42
0.000000001
 43
0.00000001
 40
0.0
 40
0.0
 40
0.0
 40
0.0
 40
1.0
 40
1.0
 40
1.0
 40
1.0
 10
74.44194797687861
 20
30.53812410148511
 30
0.0
 10
74.4839827392494
 20
30.18505879273664
 30
0.0
 10
74.52873441293025
 20
29.83244060164269
 30
0.0
 10
74.57592257309418
 20
29.48022337914772
 30
0.0
  0
SPLINE
  5
82
330
1F
100
AcDbEntity
  8
0
  6
Continuous
 62
     7
370
    25
100
AcDbSpline
210
0.0
220
0.0
230
1.0
 70
     8
 71
     3
 72
     8
 73
     4
 74
     0
 42
0.000000001
 43
0.00000001
 40
0.0
 40
0.0
 40
0.0
 40
0.0
 40
1.0
 40
1.0
 40
1.0
 40
1.0
 10
74.57592257309418
 20
29.48022337914772
 30
0.0
 10
74.52871244328064
 20
29.30403277605172
 30
0.0
 10
74.48396246505307
 20
29.1277205271664
 30
0.0
 10
74.44194797687861
 20
28.95127301797901
 30
0.0
  0
LINE
  5
83
330
1F
100
AcDbEntity
  8
0
  6
Continuous
 62
     7
370
    25
100
AcDbLine
 10
74.4419479769
 20
28.951273018
 30
0.0
 11
74.4419479769
 21
30.5381241015
 31
0.0
  0
LINE
  5
84
330
1F
100
AcDbEntity
  8
0
  6
Continuous
 62
     7
370
    25
100
AcDbLine
 10
59.5186236291
 20
29.4802233791
 30
0.0
 11
74.3079733807
 21
29.4802233791
 31
0.0
  0
SPLINE
  5
85
330
1F
100
AcDbEntity
  8
0
  6
Continuous
 62
     7
370
    25
100
AcDbSpline
210
0.0
220
0.0
230
1.0
 70
     8
 71
     3
 72
    10
 73
     6
 74
     0
 42
0.000000001
 43
0.00000001
 40
0.0
 40
0.0
 40
0.0
 40
0.0
 40
0.4999999999999999
 40
0.4999999999999999
 40
1.0
 40
1.0
 40
1.0
 40
1.0
 10
59.51862362908911
 20
29.48022337914772
 30
0.0
 10
59.33986197933969
 20
30.7270552978296
 30
0.0
 10
59.19358039113539
 20
31.9824635195192
 30
0.0
 10
58.99451952489267
 20
34.48632322938185
 30
0.0
 10
58.94194797687862
 20
35.73684066941851
 30
0.0
 10
58.94194797687862
 20
36.98577687861287
 30
0.0
  0
SPLINE
  5
86
330
1F
100
AcDbEntity
  8
0
  6
Continuous
 62
     7
370
    25
100
AcDbSpline
210
0.0
220
0.0
230
1.0
 70
     8
 71
     3
 72
    10
 73
     6
 74
     0
 42
0.000000001
 43
0.00000001
 40
0.0
 40
0.0
 40
0.0
 40
0.0
 40
0.5
 40
0.5
 40
1.0
 40
1.0
 40
1.0
 40
1.0
 10
58.94194797687862
 20
36.98577687861287
 30
0.0
 10
58.94194797687862
 20
38.23959330732297
 30
0.0
 10
58.99490941410041
 20
39.49181677822317
 30
0.0
 10
59.19406207634513
 20
41.99345958315754
 30
0.0
 10
59.33963245848562
 20
43.24289759071286
 30
0.0
 10
59.51862362908911
 20
44.49133037807803
 30
0.0
  0
LINE
  5
87
330
1F
100
AcDbEntity
  8
0
  6
Continuous
 62
     7
370
    25
100
AcDbLine
 10
59.5186236291
 20
44.4913303781
 30
0.0
 11
74.3079733807
 21
44.4913303781
 31
0.0
  0
SPLINE
  5
88
330
1F
100
AcDbEntity
  8
0
  6
Continuous
 62
     7
370
    25
100
AcDbSpline
210
0.0
220
0.0
230
1.0
 70
     8
 71
     3
 72
     8
 73
     4
 74
     0
 42
0.000000001
 43
0.00000001
 40
0.0
 40
0.0
 40
0.0
 40
0.0
 40
1.0
 40
1.0
 40
1.0
 40
1.0
 10
74.44194797687861
 20
43.43342965574064
 30
0.0
 10
74.39991321450782
 20
43.7864949644891
 30
0.0
 10
74.35516154082698
 20
44.13911315558306
 30
0.0
 10
74.30797338066306
 20
44.49133037807803
 30
0.0
  0
SPLINE
  5
89
330
1F
100
AcDbEntity
  8
0
  6
Continuous
 62
     7
370
    25
100
AcDbSpline
210
0.0
220
0.0
230
1.0
 70
     8
 71
     3
 72
     8
 73
     4
 74
     0
 42
0.000000001
 43
0.00000001
 40
0.0
 40
0.0
 40
0.0
 40
0.0
 40
1.0
 40
1.0
 40
1.0
 40
1.0
 10
74.57592257309418
 20
44.49133037807803
 30
0.0
 10
74.5287090452155
 20
44.13892380838251
 30
0.0
 10
74.48395933265525
 20
43.78629836396318
 30
0.0
 10
74.44194797687861
 20
43.43342965574064
 30
0.0
  0
LINE
  5
8A
330
1F
100
AcDbEntity
  8
0
  6
Continuous
 62
     7
370
    25
100
AcDbLine
 10
74.5759225731
 20
44.4913303781
 30
0.0
 11
77.6364972424
 21
44.4913303781
 31
0.0
  0
SPLINE
  5
8B
330
1F
100
AcDbEntity
  8
0
  6
Continuous
 62
     7
370
    25
100
AcDbSpline
210
0.0
220
0.0
230
1.0
 70
     8
 71
     3
 72
    16
 73
    12
 74
     0
 42
0.000000001
 43
0.00000001
 40
0.0
 40
0.0
 40
0.0
 40
0.0
 40
0.2499999999999999
 40
0.2499999999999999
 40
0.4999999999999998
 40
0.4999999999999998
 40
0.6249999999999998
 40
0.6249999999999998
 40
0.7499999999999998
 40
0.7499999999999998
 40
1.0
 40
1.0
 40
1.0
 40
1.0
 10
77.63649724237972
 20
29.4802233791477
 30
0.0
 10
77.98923973777808
 20
30.70215922718492
 30
0.0
 10
78.28472432429082
 20
31.95254905072392
 30
0.0
 10
78.68868042723956
 20
34.45826064158544
 30
0.0
 10
78.79775585656564
 20
35.71879577171785
 30
0.0
 10
78.79753746398838
 20
37.62314078870338
 30
0.0
 10
78.7704547380291
 20
38.26042004189122
 30
0.0
 10
78.66301043524945
 20
39.53831054887505
 30
0.0
 10
78.58347657939862
 20
40.17039808889999
 30
0.0
 10
78.27837371592013
 20
42.04899249053807
 30
0.0
 10
77.98676862052822
 20
43.27795473129711
 30
0.0
 10
77.63649724237968
 20
44.49133037807803
 30
0.0
  0
LINE
  5
8C
330
1F
100
AcDbEntity
  8
0
  6
Continuous
 62
     7
370
    25
100
AcDbLine
 10
74.5759225731
 20
29.4802233791
 30
0.0
 11
77.6364972424
 21
29.4802233791
 31
0.0
  0
SPLINE
  5
8D
330
1F
100
AcDbEntity
  8
0
  6
Continuous
 62
     7
370
    25
100
AcDbSpline
210
0.0
220
0.0
230
1.0
 70
     8
 71
     3
 72
     8
 73
     4
 74
     0
 42
0.000000001
 43
0.00000001
 40
0.0
 40
0.0
 40
0.0
 40
0.0
 40
1.0
 40
1.0
 40
1.0
 40
1.0
 10
74.30797338066306
 20
29.48022337914772
 30
0.0
 10
74.35518690854173
 20
29.83262994884323
 30
0.0
 10
74.39993662110197
 20
30.18525539326256
 30
0.0
 10
74.44194797687861
 20
30.53812410148511
 30
0.0
  0
LINE
  5
8E
330
1F
100
AcDbEntity
  8
0
  6
Continuous
 62
     7
370
    25
100
AcDbLine
 10
59.5186236291
 20
21.9746698797
 30
0.0
 11
74.3079733807
 21
21.9746698797
 31
0.0
  0
SPLINE
  5
8F
330
1F
100
AcDbEntity
  8
0
  6
Continuous
 62
     7
370
    25
100
AcDbSpline
210
0.0
220
0.0
230
1.0
 70
     8
 71
     3
 72
    10
 73
     6
 74
     0
 42
0.000000001
 43
0.00000001
 40
0.0
 40
0.0
 40
0.0
 40
0.0
 40
0.5
 40
0.5
 40
1.0
 40
1.0
 40
1.0
 40
1.0
 10
59.51862362908896
 20
21.97466987968246
 30
0.0
 10
59.3392750596275
 20
22.60013267130456
 30
0.0
 10
59.19364542893351
 20
23.22559546292666
 30
0.0
 10
58.99467605558755
 20
24.47652104617088
 30
0.0
 10
58.94194797687862
 20
25.10198383779298
 30
0.0
 10
58.94194797687862
 20
25.72744662941509
 30
0.0
  0
SPLINE
  5
90
330
1F
100
AcDbEntity
  8
0
  6
Continuous
 62
     7
370
    25
100
AcDbSpline
210
0.0
220
0.0
230
1.0
 70
     8
 71
     3
 72
    10
 73
     6
 74
     0
 42
0.000000001
 43
0.00000001
 40
0.0
 40
0.0
 40
0.0
 40
0.0
 40
0.5
 40
0.5
 40
1.0
 40
1.0
 40
1.0
 40
1.0
 10
58.94194797687862
 20
25.72744662941509
 30
0.0
 10
58.94194797687862
 20
26.35290942103719
 30
0.0
 10
58.99467605558755
 20
26.97837221265929
 30
0.0
 10
59.19364542893351
 20
28.22929779590351
 30
0.0
 10
59.3392750596275
 20
28.85476058752561
 30
0.0
 10
59.51862362908896
 20
29.48022337914772
 30
0.0
  0
SPLINE
  5
91
330
1F
100
AcDbEntity
  8
0
  6
Continuous
 62
     7
370
    25
100
AcDbSpline
210
0.0
220
0.0
230
1.0
 70
     8
 71
     3
 72
     8
 73
     4
 74
     0
 42
0.000000001
 43
0.00000001
 40
0.0
 40
0.0
 40
0.0
 40
0.0
 40
1.0
 40
1.0
 40
1.0
 40
1.0
 10
74.44194797687861
 20
28.95127301797901
 30
0.0
 10
74.39991211427315
 20
29.12781029298957
 30
0.0
 10
74.35516034977472
 20
29.30411921296776
 30
0.0
 10
74.30797338066306
 20
29.48022337914771
 30
0.0
  0
SPLINE
  5
92
330
1F
100
AcDbEntity
  8
0
  6
Continuous
 62
     7
370
    25
100
AcDbSpline
210
0.0
220
0.0
230
1.0
 70
     8
 71
     3
 72
    16
 73
    12
 74
     0
 42
0.000000001
 43
0.00000001
 40
0.0
 40
0.0
 40
0.0
 40
0.0
 40
0.25
 40
0.25
 40
0.5
 40
0.5
 40
0.625
 40
0.625
 40
0.75
 40
0.75
 40
1.0
 40
1.0
 40
1.0
 40
1.0
 10
77.63649724237995
 20
29.48022337914773
 30
0.0
 10
77.9902728441652
 20
28.86746606237737
 30
0.0
 10
78.2818479778528
 20
28.25024132755214
 30
0.0
 10
78.68577417096833
 20
27.00291946498078
 30
0.0
 10
78.79679285300905
 20
26.37272664202564
 30
0.0
 10
78.7980123347963
 20
25.41556446861837
 30
0.0
 10
78.77087260775382
 20
25.09500881632541
 30
0.0
 10
78.66504184726314
 20
24.46091598438323
 30
0.0
 10
78.58645823079128
 20
24.14599544452999
 30
0.0
 10
78.28301069551587
 20
23.20684055098197
 30
0.0
 10
77.9907138706428
 20
22.58819107671968
 30
0.0
 10
77.6364972423798
 20
21.97466987968244
 30
0.0
  0
LINE
  5
93
330
1F
100
AcDbEntity
  8
0
  6
Continuous
 62
     7
370
    25
100
AcDbLine
 10
74.5759225731
 20
21.9746698797
 30
0.0
 11
77.6364972424
 21
21.9746698797
 31
0.0
  0
SPLINE
  5
94
330
1F
100
AcDbEntity
  8
0
  6
Continuous
 62
     7
370
    25
100
AcDbSpline
210
0.0
220
0.0
230
1.0
 70
     8
 71
     3
 72
     8
 73
     4
 74
     0
 42
0.000000001
 43
0.00000001
 40
0.0
 40
0.0
 40
0.0
 40
0.0
 40
1.0
 40
1.0
 40
1.0
 40
1.0
 10
74.44194797687861
 20
22.50362024085116
 30
0.0
 10
74.4839838394841
 20
22.32708296584061
 30
0.0
 10
74.5287356039825
 20
22.15077404586241
 30
0.0
 10
74.57592257309418
 20
21.97466987968246
 30
0.0
  0
SPLINE
  5
95
330
1F
100
AcDbEntity
  8
0
  6
Continuous
 62
     7
370
    25
100
AcDbSpline
210
0.0
220
0.0
230
1.0
 70
     8
 71
     3
 72
     8
 73
     4
 74
     0
 42
0.000000001
 43
0.00000001
 40
0.0
 40
0.0
 40
0.0
 40
0.0
 40
1.0
 40
1.0
 40
1.0
 40
1.0
 10
74.30797338066306
 20
21.97466987968246
 30
0.0
 10
74.35518351047658
 20
22.15086048277846
 30
0.0
 10
74.39993348870418
 20
22.32717273166377
 30
0.0
 10
74.44194797687861
 20
22.50362024085115
 30
0.0
  0
SPLINE
  5
96
330
1F
100
AcDbEntity
  8
0
  6
Continuous
 62
     7
370
    25
100
AcDbSpline
210
0.0
220
0.0
230
1.0
 70
     8
 71
     3
 72
    10
 73
     6
 74
     0
 42
0.000000001
 43
0.00000001
 40
0.0
 40
0.0
 40
0.0
 40
0.0
 40
0.5
 40
0.5
 40
1.0
 40
1.0
 40
1.0
 40
1.0
 10
58.36527232466828
 20
44.49133037807803
 30
0.0
 10
58.54462089412973
 20
45.11679316970011
 30
0.0
 10
58.6902505248237
 20
45.7422559613222
 30
0.0
 10
58.88921989816967
 20
46.99318154456636
 30
0.0
 10
58.9419479768786
 20
47.61864433618844
 30
0.0
 10
58.9419479768786
 20
48.24410712781052
 30
0.0
  0
LINE
  5
97
330
1F
100
AcDbEntity
  8
0
  6
Continuous
 62
     7
370
    25
100
AcDbLine
 10
58.9419479769
 20
36.9857768786
 30
0.0
 11
58.9419479769
 21
48.2441071278
 31
0.0
  0
SPLINE
  5
98
330
1F
100
AcDbEntity
  8
0
  6
Continuous
 62
     7
370
    25
100
AcDbSpline
210
0.0
220
0.0
230
1.0
 70
     8
 71
     3
 72
    10
 73
     6
 74
     0
 42
0.000000001
 43
0.00000001
 40
0.0
 40
0.0
 40
0.0
 40
0.0
 40
0.5
 40
0.5
 40
1.0
 40
1.0
 40
1.0
 40
1.0
 10
58.94194797687862
 20
36.98577687861287
 30
0.0
 10
58.94194797687862
 20
38.23959330732297
 30
0.0
 10
58.88898653965683
 20
39.49181677822317
 30
0.0
 10
58.68983387741211
 20
41.99345958315754
 30
0.0
 10
58.5442634952716
 20
43.24289759071286
 30
0.0
 10
58.36527232466811
 20
44.49133037807803
 30
0.0
  0
LINE
  5
99
330
1F
100
AcDbEntity
  8
0
  6
Continuous
 62
     7
370
    25
100
AcDbLine
 10
58.9419479769
 20
25.7274466294
 30
0.0
 11
58.9419479769
 21
36.9857768786
 31
0.0
  0
SPLINE
  5
9A
330
1F
100
AcDbEntity
  8
0
  6
Continuous
 62
     7
370
    25
100
AcDbSpline
210
0.0
220
0.0
230
1.0
 70
     8
 71
     3
 72
    10
 73
     6
 74
     0
 42
0.000000001
 43
0.00000001
 40
0.0
 40
0.0
 40
0.0
 40
0.0
 40
0.5
 40
0.5
 40
1.0
 40
1.0
 40
1.0
 40
1.0
 10
58.94194797687862
 20
25.72744662941509
 30
0.0
 10
58.94194797687862
 20
26.35290942103719
 30
0.0
 10
58.88921989816969
 20
26.97837221265929
 30
0.0
 10
58.69025052482371
 20
28.22929779590351
 30
0.0
 10
58.54462089412973
 20
28.85476058752561
 30
0.0
 10
58.36527232466828
 20
29.48022337914772
 30
0.0
  0
SPLINE
  5
9B
330
1F
100
AcDbEntity
  8
0
  6
Continuous
 62
     7
370
    25
100
AcDbSpline
210
0.0
220
0.0
230
1.0
 70
     8
 71
     3
 72
    10
 73
     6
 74
     0
 42
0.000000001
 43
0.00000001
 40
0.0
 40
0.0
 40
0.0
 40
0.0
 40
0.4999999999999999
 40
0.4999999999999999
 40
1.0
 40
1.0
 40
1.0
 40
1.0
 10
58.36527232466811
 20
29.48022337914772
 30
0.0
 10
58.54403397441754
 20
30.7270552978296
 30
0.0
 10
58.69031556262184
 20
31.9824635195192
 30
0.0
 10
58.88937642886456
 20
34.48632322938185
 30
0.0
 10
58.94194797687862
 20
35.73684066941851
 30
0.0
 10
58.94194797687862
 20
36.98577687861287
 30
0.0
  0
LINE
  5
9C
330
1F
100
AcDbEntity
  8
0
  6
Continuous
 62
     7
370
    25
100
AcDbLine
 10
74.4419479769
 20
43.4334296557
 30
0.0
 11
74.4419479769
 21
45.0202807392
 31
0.0
  0
SPLINE
  5
9D
330
1F
100
AcDbEntity
  8
0
  6
Continuous
 62
     7
370
    25
100
AcDbSpline
210
0.0
220
0.0
230
1.0
 70
     8
 71
     3
 72
     8
 73
     4
 74
     0
 42
0.000000001
 43
0.00000001
 40
0.0
 40
0.0
 40
0.0
 40
0.0
 40
1.0
 40
1.0
 40
1.0
 40
1.0
 10
74.44194797687861
 20
45.02028073924673
 30
0.0
 10
74.4839838394841
 20
44.84374346423618
 30
0.0
 10
74.5287356039825
 20
44.66743454425798
 30
0.0
 10
74.57592257309418
 20
44.49133037807803
 30
0.0
  0
SPLINE
  5
9E
330
1F
100
AcDbEntity
  8
0
  6
Continuous
 62
     7
370
    25
100
AcDbSpline
210
0.0
220
0.0
230
1.0
 70
     8
 71
     3
 72
    16
 73
    12
 74
     0
 42
0.000000001
 43
0.00000001
 40
0.0
 40
0.0
 40
0.0
 40
0.0
 40
0.25
 40
0.25
 40
0.5
 40
0.5
 40
0.625
 40
0.625
 40
0.75
 40
0.75
 40
1.0
 40
1.0
 40
1.0
 40
1.0
 10
40.24739871137751
 20
29.4802233791477
 30
0.0
 10
39.89473325148772
 20
30.70189236835523
 30
0.0
 10
39.59919598622214
 20
31.95239146744376
 30
0.0
 10
39.19518431209434
 20
34.45846076261068
 30
0.0
 10
39.08614601615841
 20
35.7189691583494
 30
0.0
 10
39.08635551264925
 20
37.62289713047362
 30
0.0
 10
39.11340069585638
 20
38.25970836171462
 30
0.0
 10
39.22080791008261
 20
39.53761701578716
 30
0.0
 10
39.30036909108304
 20
40.17005318077225
 30
0.0
 10
39.60550918240868
 20
42.04898268822303
 30
0.0
 10
39.89714049205167
 20
43.27800031479595
 30
0.0
 10
40.24739871137756
 20
44.49133037807803
 30
0.0
  0
SPLINE
  5
9F
330
1F
100
AcDbEntity
  8
0
  6
Continuous
 62
     7
370
    25
100
AcDbSpline
210
0.0
220
0.0
230
1.0
 70
     8
 71
     3
 72
    16
 73
    12
 74
     0
 42
0.000000001
 43
0.00000001
 40
0.0
 40
0.0
 40
0.0
 40
0.0
 40
0.2500000000000001
 40
0.2500000000000001
 40
0.5000000000000001
 40
0.5000000000000001
 40
0.6250000000000003
 40
0.6250000000000003
 40
0.7500000000000004
 40
0.7500000000000004
 40
1.0
 40
1.0
 40
1.0
 40
1.0
 10
40.24739871137728
 20
21.97466987968243
 30
0.0
 10
39.89362310959201
 20
22.58742719645279
 30
0.0
 10
39.60204797590443
 20
23.20465193127803
 30
0.0
 10
39.1981217827889
 20
24.45197379384938
 30
0.0
 10
39.08710310074817
 20
25.08216661680453
 30
0.0
 10
39.08588361896093
 20
26.0393287902118
 30
0.0
 10
39.11302334600342
 20
26.35988444250475
 30
0.0
 10
39.2188541064941
 20
26.99397727444693
 30
0.0
 10
39.29743772296593
 20
27.30889781430018
 30
0.0
 10
39.60088525824136
 20
28.2480527078482
 30
0.0
 10
39.89318208311443
 20
28.86670218211049
 30
0.0
 10
40.24739871137742
 20
29.48022337914773
 30
0.0
  0
SPLINE
  5
A0
330
1F
100
AcDbEntity
  8
0
  6
Continuous
 62
     7
370
    25
100
AcDbSpline
210
0.0
220
0.0
230
1.0
 70
     8
 71
     3
 72
    16
 73
    12
 74
     0
 42
0.000000001
 43
0.00000001
 40
0.0
 40
0.0
 40
0.0
 40
0.0
 40
0.2500000000000001
 40
0.2500000000000001
 40
0.5000000000000001
 40
0.5000000000000001
 40
0.6250000000000001
 40
0.6250000000000001
 40
0.7500000000000002
 40
0.7500000000000002
 40
1.0
 40
1.0
 40
1.0
 40
1.0
 10
40.24739871137728
 20
44.49133037807801
 30
0.0
 10
39.89362310959202
 20
45.10408769484835
 30
0.0
 10
39.60204797590445
 20
45.72131242967356
 30
0.0
 10
39.19812178278893
 20
46.96863429224488
 30
0.0
 10
39.08710310074821
 20
47.59882711519999
 30
0.0
 10
39.08588361896096
 20
48.55598928860723
 30
0.0
 10
39.11302334600344
 20
48.87654494090017
 30
0.0
 10
39.21885410649411
 20
49.51063777284233
 30
0.0
 10
39.29743772296595
 20
49.82555831269556
 30
0.0
 10
39.60088525824138
 20
50.76471320624356
 30
0.0
 10
39.89318208311443
 20
51.38336268050583
 30
0.0
 10
40.24739871137742
 20
51.99688387754303
 30
0.0
  0
LINE
  5
A1
330
1F
100
AcDbEntity
  8
0
  6
Continuous
 62
     7
370
    25
100
AcDbLine
 10
38.9419479769
 20
36.9857768786
 30
0.0
 11
38.9419479769
 21
49.7357768786
 31
0.0
  0
LINE
  5
A2
330
1F
100
AcDbEntity
  8
0
  6
Continuous
 62
     7
370
    25
100
AcDbLine
 10
38.9419479769
 20
24.2357768786
 30
0.0
 11
38.9419479769
 21
36.9857768786
 31
0.0
  0
SPLINE
  5
A3
330
1F
100
AcDbEntity
  8
0
  6
Continuous
 62
     7
370
    25
100
AcDbSpline
210
0.0
220
0.0
230
1.0
 70
     8
 71
     3
 72
    10
 73
     6
 74
     0
 42
0.000000001
 43
0.00000001
 40
0.0
 40
0.0
 40
0.0
 40
0.0
 40
0.5
 40
0.5
 40
1.0
 40
1.0
 40
1.0
 40
1.0
 10
59.51862362908896
 20
44.49133037807803
 30
0.0
 10
59.3392750596275
 20
45.11679316970011
 30
0.0
 10
59.19364542893352
 20
45.7422559613222
 30
0.0
 10
58.99467605558756
 20
46.99318154456636
 30
0.0
 10
58.94194797687863
 20
47.61864433618844
 30
0.0
 10
58.94194797687863
 20
48.24410712781052
 30
0.0
  0
LINE
  5
A4
330
1F
100
AcDbEntity
  8
0
  6
Continuous
 62
     7
370
    25
100
AcDbLine
 10
40.2473987114
 20
29.4802233791
 30
0.0
 11
58.3652723247
 21
29.4802233791
 31
0.0
  0
SPLINE
  5
A5
330
1F
100
AcDbEntity
  8
0
  6
Continuous
 62
     7
370
    25
100
AcDbSpline
210
0.0
220
0.0
230
1.0
 70
     8
 71
     3
 72
    10
 73
     6
 74
     0
 42
0.000000001
 43
0.00000001
 40
0.0
 40
0.0
 40
0.0
 40
0.0
 40
0.5
 40
0.5
 40
1.0
 40
1.0
 40
1.0
 40
1.0
 10
58.36527232466828
 20
21.97466987968246
 30
0.0
 10
58.54462089412973
 20
22.60013267130456
 30
0.0
 10
58.69025052482371
 20
23.22559546292666
 30
0.0
 10
58.88921989816969
 20
24.47652104617088
 30
0.0
 10
58.94194797687862
 20
25.10198383779298
 30
0.0
 10
58.94194797687862
 20
25.72744662941509
 30
0.0
  0
LINE
  5
A6
330
1F
100
AcDbEntity
  8
0
  6
Continuous
 62
     7
370
    25
100
AcDbLine
 10
40.2473987114
 20
21.9746698797
 30
0.0
 11
58.3652723247
 21
21.9746698797
 31
0.0
  0
LINE
  5
A7
330
1F
100
AcDbEntity
  8
0
  6
Continuous
 62
     7
370
    25
100
AcDbLine
 10
40.2473987114
 20
44.4913303781
 30
0.0
 11
58.3652723247
 21
44.4913303781
 31
0.0
  0
SPLINE
  5
A8
330
1F
100
AcDbEntity
  8
0
  6
Continuous
 62
     7
370
    25
100
AcDbSpline
210
0.0
220
0.0
230
1.0
 70
     8
 71
     3
 72
     8
 73
     4
 74
     0
 42
0.000000001
 43
0.00000001
 40
0.0
 40
0.0
 40
0.0
 40
0.0
 40
1.0
 40
1.0
 40
1.0
 40
1.0
 10
74.30797338066306
 20
44.49133037807803
 30
0.0
 10
74.35518351047658
 20
44.66752098117403
 30
0.0
 10
74.39993348870418
 20
44.84383323005934
 30
0.0
 10
74.44194797687861
 20
45.02028073924673
 30
0.0
  0
SPLINE
  5
A9
330
1F
100
AcDbEntity
  8
0
  6
Continuous
 62
     7
370
    25
100
AcDbSpline
210
0.0
220
0.0
230
1.0
 70
     8
 71
     3
 72
    16
 73
    12
 74
     0
 42
0.000000001
 43
0.00000001
 40
0.0
 40
0.0
 40
0.0
 40
0.0
 40
0.2500000000000001
 40
0.2500000000000001
 40
0.5
 40
0.5
 40
0.625
 40
0.625
 40
0.75
 40
0.75
 40
1.0
 40
1.0
 40
1.0
 40
1.0
 10
77.63649724237995
 20
51.99688387754304
 30
0.0
 10
77.9902728441652
 20
51.38412656077271
 30
0.0
 10
78.28184797785279
 20
50.76690182594749
 30
0.0
 10
78.68577417096829
 20
49.51957996337617
 30
0.0
 10
78.79679285300902
 20
48.88938714042106
 30
0.0
 10
78.79801233479627
 20
47.93222496701382
 30
0.0
 10
78.77087260775379
 20
47.61166931472088
 30
0.0
 10
78.66504184726311
 20
46.97757648277873
 30
0.0
 10
78.58645823079127
 20
46.66265594292548
 30
0.0
 10
78.28301069551584
 20
45.7235010493775
 30
0.0
 10
77.99071387064278
 20
45.10485157511523
 30
0.0
 10
77.6364972423798
 20
44.49133037807802
 30
0.0
  0
LINE
  5
AA
330
1F
100
AcDbEntity
  8
0
  6
Continuous
 62
     7
370
    25
100
AcDbLine
 10
78.9419479769
 20
49.7357768786
 30
0.0
 11
78.9419479769
 21
24.2357768786
 31
0.0
  0
SPLINE
  5
AB
330
1F
100
AcDbEntity
  8
0
  6
Continuous
 62
     7
370
    25
100
AcDbSpline
210
0.0
220
0.0
230
1.0
 70
     8
 71
     3
 72
    10
 73
     6
 74
     0
 42
0.000000001
 43
0.00000001
 40
0.0
 40
0.0
 40
0.0
 40
0.0
 40
0.5
 40
0.5
 40
1.0
 40
1.0
 40
1.0
 40
1.0
 10
58.94194797687863
 20
48.24410712781052
 30
0.0
 10
58.94194797687863
 20
48.8695699194326
 30
0.0
 10
58.99467605558756
 20
49.49503271105469
 30
0.0
 10
59.19364542893352
 20
50.74595829429885
 30
0.0
 10
59.3392750596275
 20
51.37142108592094
 30
0.0
 10
59.51862362908896
 20
51.99688387754302
 30
0.0
  0
LINE
  5
AC
330
1F
100
AcDbEntity
  8
0
  6
Continuous
 62
     7
370
    25
100
AcDbLine
 10
59.5186236291
 20
51.9968838775
 30
0.0
 11
74.3079733807
 21
51.9968838775
 31
0.0
  0
SPLINE
  5
AD
330
1F
100
AcDbEntity
  8
0
  6
Continuous
 62
     7
370
    25
100
AcDbSpline
210
0.0
220
0.0
230
1.0
 70
     8
 71
     3
 72
     8
 73
     4
 74
     0
 42
0.000000001
 43
0.00000001
 40
0.0
 40
0.0
 40
0.0
 40
0.0
 40
1.0
 40
1.0
 40
1.0
 40
1.0
 10
74.44194797687861
 20
51.46793351637432
 30
0.0
 10
74.39991211427315
 20
51.64447079138487
 30
0.0
 10
74.35516034977472
 20
51.82077971136307
 30
0.0
 10
74.30797338066306
 20
51.99688387754302
 30
0.0
  0
SPLINE
  5
AE
330
1F
100
AcDbEntity
  8
0
  6
Continuous
 62
     7
370
    25
100
AcDbSpline
210
0.0
220
0.0
230
1.0
 70
     8
 71
     3
 72
     8
 73
     4
 74
     0
 42
0.000000001
 43
0.00000001
 40
0.0
 40
0.0
 40
0.0
 40
0.0
 40
1.0
 40
1.0
 40
1.0
 40
1.0
 10
74.57592257309418
 20
51.99688387754302
 30
0.0
 10
74.52871244328064
 20
51.82069327444702
 30
0.0
 10
74.48396246505305
 20
51.64438102556171
 30
0.0
 10
74.44194797687861
 20
51.46793351637432
 30
0.0
  0
LINE
  5
AF
330
1F
100
AcDbEntity
  8
0
  6
Continuous
 62
     7
370
    25
100
AcDbLine
 10
74.5759225731
 20
51.9968838775
 30
0.0
 11
77.6364972424
 21
51.9968838775
 31
0.0
  0
LINE
  5
B0
330
1F
100
AcDbEntity
  8
0
  6
Continuous
 62
     7
370
    25
100
AcDbLine
 10
40.2473987114
 20
51.9968838775
 30
0.0
 11
58.3652723247
 21
51.9968838775
 31
0.0
  0
SPLINE
  5
B1
330
1F
100
AcDbEntity
  8
0
  6
Continuous
 62
     7
370
    25
100
AcDbSpline
210
0.0
220
0.0
230
1.0
 70
     8
 71
     3
 72
    10
 73
     6
 74
     0
 42
0.000000001
 43
0.00000001
 40
0.0
 40
0.0
 40
0.0
 40
0.0
 40
0.5
 40
0.5
 40
1.0
 40
1.0
 40
1.0
 40
1.0
 10
58.9419479768786
 20
48.24410712781052
 30
0.0
 10
58.9419479768786
 20
48.8695699194326
 30
0.0
 10
58.88921989816967
 20
49.49503271105469
 30
0.0
 10
58.6902505248237
 20
50.74595829429885
 30
0.0
 10
58.54462089412973
 20
51.37142108592094
 30
0.0
 10
58.36527232466828
 20
51.99688387754302
 30
0.0
  0
LINE
  5
B2
330
1F
100
AcDbEntity
  8
0
  6
Continuous
 62
     7
370
    25
100
AcDbLine
 10
58.9419479769
 20
23.9857768786
 30
0.0
 11
58.9419479769
 21
25.7274466294
 31
0.0
  0
LINE
  5
B3
330
1F
100
AcDbEntity
  8
0
  6
Continuous
 62
     7
370
    25
100
AcDbLine
 10
58.9419479769
 20
48.2441071278
 30
0.0
 11
58.9419479769
 21
49.9857768786
 31
0.0
  0
LINE
  5
B4
330
1F
100
AcDbEntity
  8
0
  6
Continuous
 62
     7
370
    25
100
AcDbLine
 10
74.4419479769
 20
22.4746698797
 30
0.0
 11
74.4419479769
 21
22.5036202409
 31
0.0
  0
LINE
  5
B5
330
1F
100
AcDbEntity
  8
0
  6
Continuous
 62
     7
370
    25
100
AcDbLine
 10
74.4419479769
 20
51.4679335164
 30
0.0
 11
74.4419479769
 21
51.4968838775
 31
0.0
  0
LINE
  5
B6
330
1F
100
AcDbEntity
  8
0
  6
CENTERX2
 62
     7
370
    18
100
AcDbLine
 10
76.6364972424
 20
36.9857768786
 30
0.0
 11
79.9419479769
 21
36.9857768786
 31
0.0
  0
LINE
  5
B7
330
1F
100
AcDbEntity
  8
0
  6
CENTERX2
 62
     7
370
    18
100
AcDbLine
 10
73.5759225731
 20
36.9857768786
 30
0.0
 11
77.6364972424
 21
36.9857768786
 31
0.0
  0
LINE
  5
B8
330
1F
100
AcDbEntity
  8
0
  6
CENTERX2
 62
     7
370
    18
100
AcDbLine
 10
58.5186236291
 20
36.9857768786
 30
0.0
 11
75.3079733807
 21
36.9857768786
 31
0.0
  0
LINE
  5
B9
330
1F
100
AcDbEntity
  8
0
  6
CENTERX2
 62
     7
370
    18
100
AcDbLine
 10
39.2473987114
 20
36.9857768786
 30
0.0
 11
59.3652723247
 21
36.9857768786
 31
0.0
  0
LINE
  5
BA
330
1F
100
AcDbEntity
  8
0
  6
CENTERX2
 62
     7
370
    18
100
AcDbLine
 10
41.2473987114
 20
36.9857768786
 30
0.0
 11
37.9419479769
 21
36.9857768786
 31
0.0
  0
CIRCLE
  5
BB
330
1F
100
AcDbEntity
  8
0
  6
Continuous
 62
     7
370
    25
100
AcDbCircle
 10
115.7748150289
 20
36.9857768786
 30
0.0
 40
12.75000000000001
  0
CIRCLE
  5
BC
330
1F
100
AcDbEntity
  8
0
  6
Continuous
 62
     7
370
    25
100
AcDbCircle
 10
115.7748150289
 20
36.9857768786
 30
0.0
 40
10.75
  0
SPLINE
  5
BD
330
1F
100
AcDbEntity
  8
0
  6
Continuous
 62
     7
370
    25
100
AcDbSpline
210
0.0
220
0.0
230
1.0
 70
    24
 71
     3
 72
    16
 73
    12
 74
     0
 42
0.000000001
 43
0.00000001
 40
0.0
 40
0.0
 40
0.0
 40
0.0
 40
0.2500000000000001
 40
0.2500000000000001
 40
0.5
 40
0.5
 40
0.625
 40
0.625
 40
0.75
 40
0.75
 40
1.0
 40
1.0
 40
1.0
 40
1.0
 10
115.7748150289018
 20
51.99688387754304
 30
0.0
 10
114.713488223546
 20
51.38412656077271
 30
0.0
 10
113.6444236231404
 20
50.76690182594749
 30
0.0
 10
111.4839987837754
 20
49.51957996337617
 30
0.0
 10
110.3924727958519
 20
48.88938714042106
 30
0.0
 10
108.7346192804275
 20
47.93222496701382
 30
0.0
 10
108.1794006040027
 20
47.61166931472088
 30
0.0
 10
107.0811196023637
 20
46.97757648277873
 30
0.0
 10
106.5356612269908
 20
46.66265594292548
 30
0.0
 10
104.9089972351888
 20
45.7235010493775
 30
0.0
 10
103.8374649136907
 20
45.10485157511523
 30
0.0
 10
102.7748150289018
 20
44.49133037807802
 30
0.0
  0
SPLINE
  5
BE
330
1F
100
AcDbEntity
  8
0
  6
Continuous
 62
     7
370
    25
100
AcDbSpline
210
0.0
220
0.0
230
1.0
 70
    24
 71
     3
 72
    16
 73
    12
 74
     0
 42
0.000000001
 43
0.00000001
 40
0.0
 40
0.0
 40
0.0
 40
0.0
 40
0.2499999999999998
 40
0.2499999999999998
 40
0.4999999999999997
 40
0.4999999999999997
 40
0.6249999999999997
 40
0.6249999999999997
 40
0.7499999999999997
 40
0.7499999999999997
 40
1.0
 40
1.0
 40
1.0
 40
1.0
 10
128.7748150289018
 20
44.49133037807783
 30
0.0
 10
127.713488223546
 20
45.10408769484818
 30
0.0
 10
126.6444236231405
 20
45.72131242967341
 30
0.0
 10
124.4839987837754
 20
46.96863429224476
 30
0.0
 10
123.3924727958519
 20
47.59882711519989
 30
0.0
 10
121.7346192804275
 20
48.55598928860714
 30
0.0
 10
121.1794006040027
 20
48.8765449409001
 30
0.0
 10
120.0811196023636
 20
49.51063777284227
 30
0.0
 10
119.5356612269908
 20
49.82555831269551
 30
0.0
 10
117.9089972351887
 20
50.76471320624353
 30
0.0
 10
116.8374649136907
 20
51.3833626805058
 30
0.0
 10
115.7748150289017
 20
51.99688387754303
 30
0.0
  0
SPLINE
  5
BF
330
1F
100
AcDbEntity
  8
0
  6
Continuous
 62
     7
370
    25
100
AcDbSpline
210
0.0
220
0.0
230
1.0
 70
    24
 71
     3
 72
    16
 73
    12
 74
     0
 42
0.000000001
 43
0.00000001
 40
0.0
 40
0.0
 40
0.0
 40
0.0
 40
0.2500000000000001
 40
0.2500000000000001
 40
0.5
 40
0.5
 40
0.625
 40
0.625
 40
0.75
 40
0.75
 40
1.0
 40
1.0
 40
1.0
 40
1.0
 10
128.7748150289017
 20
29.48022337914752
 30
0.0
 10
128.7748150289017
 20
30.70215922718461
 30
0.0
 10
128.7748150289017
 20
31.95254905072355
 30
0.0
 10
128.7748150289017
 20
34.45826064158626
 30
0.0
 10
128.7748150289017
 20
35.7187957717196
 30
0.0
 10
128.7748150289017
 20
37.62314078870713
 30
0.0
 10
128.7748150289017
 20
38.26042004189771
 30
0.0
 10
128.7748150289017
 20
39.53831054887919
 30
0.0
 10
128.7748150289017
 20
40.17039808890319
 30
0.0
 10
128.7748150289018
 20
42.04899249053901
 30
0.0
 10
128.7748150289018
 20
43.27795473129726
 30
0.0
 10
128.7748150289018
 20
44.49133037807785
 30
0.0
  0
SPLINE
  5
C0
330
1F
100
AcDbEntity
  8
0
  6
Continuous
 62
     7
370
    25
100
AcDbSpline
210
0.0
220
0.0
230
1.0
 70
    24
 71
     3
 72
    16
 73
    12
 74
     0
 42
0.000000001
 43
0.00000001
 40
0.0
 40
0.0
 40
0.0
 40
0.0
 40
0.2499999999999999
 40
0.2499999999999999
 40
0.4999999999999999
 40
0.4999999999999999
 40
0.6249999999999999
 40
0.6249999999999999
 40
0.75
 40
0.75
 40
1.0
 40
1.0
 40
1.0
 40
1.0
 10
115.7748150289016
 20
21.97466987968243
 30
0.0
 10
116.8361418342574
 20
22.58742719645277
 30
0.0
 10
117.9052064346629
 20
23.204651931278
 30
0.0
 10
120.065631274028
 20
24.45197379384933
 30
0.0
 10
121.1571572619515
 20
25.08216661680446
 30
0.0
 10
122.8150107773759
 20
26.0393287902117
 30
0.0
 10
123.3702294538007
 20
26.35988444250465
 30
0.0
 10
124.4685104554398
 20
26.99397727444682
 30
0.0
 10
125.0139688308126
 20
27.30889781430005
 30
0.0
 10
126.6406328226147
 20
28.24805270784805
 30
0.0
 10
127.7121651441128
 20
28.86670218211033
 30
0.0
 10
128.7748150289017
 20
29.48022337914755
 30
0.0
  0
SPLINE
  5
C1
330
1F
100
AcDbEntity
  8
0
  6
Continuous
 62
     7
370
    25
100
AcDbSpline
210
0.0
220
0.0
230
1.0
 70
    24
 71
     3
 72
    16
 73
    12
 74
     0
 42
0.000000001
 43
0.00000001
 40
0.0
 40
0.0
 40
0.0
 40
0.0
 40
0.25
 40
0.25
 40
0.5
 40
0.5
 40
0.625
 40
0.625
 40
0.75
 40
0.75
 40
1.0
 40
1.0
 40
1.0
 40
1.0
 10
102.7748150289016
 20
29.48022337914773
 30
0.0
 10
103.8361418342574
 20
28.86746606237737
 30
0.0
 10
104.9052064346629
 20
28.25024132755214
 30
0.0
 10
107.065631274028
 20
27.00291946498078
 30
0.0
 10
108.1571572619515
 20
26.37272664202564
 30
0.0
 10
109.8150107773759
 20
25.41556446861837
 30
0.0
 10
110.3702294538007
 20
25.09500881632541
 30
0.0
 10
111.4685104554397
 20
24.46091598438323
 30
0.0
 10
112.0139688308126
 20
24.14599544452999
 30
0.0
 10
113.6406328226147
 20
23.20684055098197
 30
0.0
 10
114.7121651441127
 20
22.58819107671968
 30
0.0
 10
115.7748150289016
 20
21.97466987968244
 30
0.0
  0
SPLINE
  5
C2
330
1F
100
AcDbEntity
  8
0
  6
Continuous
 62
     7
370
    25
100
AcDbSpline
210
0.0
220
0.0
230
1.0
 70
    24
 71
     3
 72
    16
 73
    12
 74
     0
 42
0.000000001
 43
0.00000001
 40
0.0
 40
0.0
 40
0.0
 40
0.0
 40
0.2499999999999999
 40
0.2499999999999999
 40
0.4999999999999998
 40
0.4999999999999998
 40
0.6249999999999998
 40
0.6249999999999998
 40
0.7499999999999998
 40
0.7499999999999998
 40
1.0
 40
1.0
 40
1.0
 40
1.0
 10
102.7748150289017
 20
29.4802233791477
 30
0.0
 10
102.7748150289017
 20
30.70215922718492
 30
0.0
 10
102.7748150289017
 20
31.95254905072392
 30
0.0
 10
102.7748150289017
 20
34.45826064158544
 30
0.0
 10
102.7748150289017
 20
35.71879577171785
 30
0.0
 10
102.7748150289017
 20
37.62314078870338
 30
0.0
 10
102.7748150289017
 20
38.26042004189122
 30
0.0
 10
102.7748150289018
 20
39.53831054887505
 30
0.0
 10
102.7748150289018
 20
40.17039808889999
 30
0.0
 10
102.7748150289018
 20
42.04899249053807
 30
0.0
 10
102.7748150289018
 20
43.27795473129711
 30
0.0
 10
102.7748150289018
 20
44.49133037807803
 30
0.0
  0
CIRCLE
  5
C3
330
1F
100
AcDbEntity
  8
0
  6
Continuous
 62
     7
370
    25
100
AcDbCircle
 10
115.7748150289
 20
36.9857768786
 30
0.0
 40
9.831213860099353
  0
CIRCLE
  5
C4
330
1F
100
AcDbEntity
  8
0
  6
Continuous
 62
     7
370
    25
100
AcDbCircle
 10
115.7748150289
 20
36.9857768786
 30
0.0
 40
9.42825049455297
  0
CIRCLE
  5
C5
330
1F
100
AcDbEntity
  8
0
  6
Continuous
 62
     7
370
    25
100
AcDbCircle
 10
115.7748150289
 20
36.9857768786
 30
0.0
 40
9.3155
  0
CIRCLE
  5
C6
330
1F
100
AcDbEntity
  8
0
  6
Continuous
 62
     7
370
    25
100
AcDbCircle
 10
115.7748150289
 20
36.9857768786
 30
0.0
 40
9.0
  0
INSERT
  5
D2
330
1F
100
AcDbEntity
  8
0
  6
Continuous
 62
     7
370
    18
100
AcDbBlockReference
  2
SW_CENTERMARKSYMBOL_0
 10
115.7748150289
 20
36.9857768786
 30
0.0
  0
ARC
  5
D3
330
1F
100
AcDbEntity
  8
0
  6
Continuous
 62
     7
370
    18
100
AcDbCircle
 10
115.7748150289
 20
36.9857768786
 30
0.0
 40
10.46189150000002
100
AcDbArc
 50
75.0
 51
345.0
  0
LINE
  5
D4
330
1F
100
AcDbEntity
  8
0
  6
Continuous
 62
     7
370
    25
100
AcDbLine
 10
39.0862855442
 20
97.5935988439
 30
0.0
 11
38.9419479769
 21
97.3435988439
 31
0.0
  0
LINE
  5
D5
330
1F
100
AcDbEntity
  8
0
  6
Continuous
 62
     7
370
    25
100
AcDbLine
 10
38.9419479769
 20
71.8435988439
 30
0.0
 11
39.0862855442
 21
71.5935988439
 31
0.0
  0
LINE
  5
D6
330
1F
100
AcDbEntity
  8
0
  6
Continuous
 62
     7
370
    25
100
AcDbLine
 10
78.7976104096
 20
71.5935988439
 30
0.0
 11
78.9419479769
 21
71.8435988439
 31
0.0
  0
LINE
  5
D7
330
1F
100
AcDbEntity
  8
0
  6
Continuous
 62
     7
370
    25
100
AcDbLine
 10
78.9419479769
 20
97.3435988439
 30
0.0
 11
78.7976104096
 21
97.5935988439
 31
0.0
  0
SPLINE
  5
D8
330
1F
100
AcDbEntity
  8
0
  6
Continuous
 62
     7
370
    25
100
AcDbSpline
210
0.0
220
0.0
230
1.0
 70
    24
 71
     3
 72
    13
 73
     9
 74
     0
 42
0.000000001
 43
0.00000001
 40
0.0
 40
0.0
 40
0.0
 40
0.0
 40
0.1252036999651041
 40
0.2540949284782538
 40
0.4393134366517393
 40
0.6251156369794773
 40
0.8123753353402074
 40
1.0
 40
1.0
 40
1.0
 40
1.0
 10
39.08688088528715
 20
71.59359884393064
 30
0.0
 10
39.09056620616089
 20
71.59359884393064
 30
0.0
 10
39.09804538883753
 20
71.59359884393064
 30
0.0
 10
39.17198790665557
 20
71.59359884393065
 30
0.0
 10
39.31635353158902
 20
71.59359884393066
 30
0.0
 10
39.55785301762382
 20
71.59359884393068
 30
0.0
 10
39.86555915509736
 20
71.59359884393069
 30
0.0
 10
40.12003627775341
 20
71.5935988439307
 30
0.0
 10
40.24739871137756
 20
71.5935988439307
 30
0.0
  0
SPLINE
  5
D9
330
1F
100
AcDbEntity
  8
0
  6
Continuous
 62
     7
370
    25
100
AcDbSpline
210
0.0
220
0.0
230
1.0
 70
    24
 71
     3
 72
    14
 73
    10
 74
     0
 42
0.000000001
 43
0.00000001
 40
0.0
 40
0.0
 40
0.0
 40
0.0
 40
0.1854810364716702
 40
0.3712811452223568
 40
0.5583220729659072
 40
0.7459235242184372
 40
0.8706838442516368
 40
0.9954425954052913
 40
1.0
 40
1.0
 40
1.0
 40
1.0
 10
40.24739871137755
 20
97.59359884393066
 30
0.0
 10
40.12145585082245
 20
97.59359884393066
 30
0.0
 10
39.86935347750721
 20
97.59359884393066
 30
0.0
 10
39.56174696038256
 20
97.59359884393065
 30
0.0
 10
39.31891405789734
 20
97.59359884393066
 30
0.0
 10
39.17154832852219
 20
97.59359884393064
 30
0.0
 10
39.10414493895238
 20
97.59359884393066
 30
0.0
 10
39.08006001632876
 20
97.59359884393061
 30
0.0
 10
39.08676126426845
 20
97.59359884393064
 30
0.0
 10
39.0869974319613
 20
97.59359884393064
 30
0.0
  0
SPLINE
  5
DA
330
1F
100
AcDbEntity
  8
0
  6
Continuous
 62
     7
370
    25
100
AcDbSpline
210
0.0
220
0.0
230
1.0
 70
     8
 71
     3
 72
    16
 73
    12
 74
     0
 42
0.000000001
 43
0.00000001
 40
0.0
 40
0.0
 40
0.0
 40
0.0
 40
0.2499999999999997
 40
0.2499999999999997
 40
0.4999999999999993
 40
0.4999999999999993
 40
0.6249999999999993
 40
0.6249999999999993
 40
0.7499999999999997
 40
0.7499999999999997
 40
1.0
 40
1.0
 40
1.0
 40
1.0
 10
40.24739871137728
 20
84.59359884393061
 30
0.0
 10
39.89362310959202
 20
85.65492564928643
 30
0.0
 10
39.60204797590443
 20
86.72399024969195
 30
0.0
 10
39.1981217827889
 20
88.88441508905694
 30
0.0
 10
39.08710310074817
 20
89.9759410769805
 30
0.0
 10
39.08588361896093
 20
91.63379459240493
 30
0.0
 10
39.11302334600342
 20
92.1890132688297
 30
0.0
 10
39.21885410649409
 20
93.28729427046876
 30
0.0
 10
39.29743772296594
 20
93.8327526458416
 30
0.0
 10
39.60088525824136
 20
95.4594166376437
 30
0.0
 10
39.89318208311443
 20
96.53094895914174
 30
0.0
 10
40.24739871137742
 20
97.59359884393068
 30
0.0
  0
SPLINE
  5
DB
330
1F
100
AcDbEntity
  8
0
  6
Continuous
 62
     7
370
    25
100
AcDbSpline
210
0.0
220
0.0
230
1.0
 70
     8
 71
     3
 72
    16
 73
    12
 74
     0
 42
0.000000001
 43
0.00000001
 40
0.0
 40
0.0
 40
0.0
 40
0.0
 40
0.2500000000000001
 40
0.2500000000000001
 40
0.5000000000000001
 40
0.5000000000000001
 40
0.6250000000000001
 40
0.6250000000000001
 40
0.7500000000000002
 40
0.7500000000000002
 40
1.0
 40
1.0
 40
1.0
 40
1.0
 10
40.24739871137728
 20
71.59359884393068
 30
0.0
 10
39.89362310959202
 20
72.6549256492865
 30
0.0
 10
39.60204797590445
 20
73.72399024969201
 30
0.0
 10
39.19812178278893
 20
75.884415089057
 30
0.0
 10
39.08710310074821
 20
76.97594107698053
 30
0.0
 10
39.08588361896096
 20
78.63379459240494
 30
0.0
 10
39.11302334600344
 20
79.18901326882971
 30
0.0
 10
39.21885410649411
 20
80.28729427046876
 30
0.0
 10
39.29743772296595
 20
80.8327526458416
 30
0.0
 10
39.60088525824138
 20
82.45941663764368
 30
0.0
 10
39.89318208311443
 20
83.53094895914172
 30
0.0
 10
40.24739871137742
 20
84.59359884393065
 30
0.0
  0
LINE
  5
DC
330
1F
100
AcDbEntity
  8
0
  6
Continuous
 62
     7
370
    25
100
AcDbLine
 10
38.9419479769
 20
71.8435988439
 30
0.0
 11
38.9419479769
 21
97.3435988439
 31
0.0
  0
LINE
  5
DD
330
1F
100
AcDbEntity
  8
0
  6
Continuous
 62
     7
370
    25
100
AcDbLine
 10
40.2473987114
 20
97.5935988439
 30
0.0
 11
58.3652723247
 21
97.5935988439
 31
0.0
  0
SPLINE
  5
DE
330
1F
100
AcDbEntity
  8
0
  6
Continuous
 62
     7
370
    25
100
AcDbSpline
210
0.0
220
0.0
230
1.0
 70
     8
 71
     3
 72
    10
 73
     6
 74
     0
 42
0.000000001
 43
0.00000001
 40
0.0
 40
0.0
 40
0.0
 40
0.0
 40
0.5
 40
0.5
 40
1.0
 40
1.0
 40
1.0
 40
1.0
 10
58.94194797687862
 20
91.09359884393066
 30
0.0
 10
58.94194797687862
 20
92.17693217726398
 30
0.0
 10
58.88921989816969
 20
93.26026551059732
 30
0.0
 10
58.69025052482371
 20
95.426932177264
 30
0.0
 10
58.54462089412973
 20
96.51026551059732
 30
0.0
 10
58.36527232466828
 20
97.59359884393066
 30
0.0
  0
SPLINE
  5
DF
330
1F
100
AcDbEntity
  8
0
  6
Continuous
 62
     7
370
    25
100
AcDbSpline
210
0.0
220
0.0
230
1.0
 70
     8
 71
     3
 72
    10
 73
     6
 74
     0
 42
0.000000001
 43
0.00000001
 40
0.0
 40
0.0
 40
0.0
 40
0.0
 40
0.5
 40
0.5
 40
1.0
 40
1.0
 40
1.0
 40
1.0
 10
58.36527232466828
 20
84.59359884393064
 30
0.0
 10
58.54462089412973
 20
85.67693217726398
 30
0.0
 10
58.69025052482371
 20
86.76026551059732
 30
0.0
 10
58.88921989816969
 20
88.92693217726398
 30
0.0
 10
58.94194797687862
 20
90.01026551059732
 30
0.0
 10
58.94194797687862
 20
91.09359884393066
 30
0.0
  0
LINE
  5
E0
330
1F
100
AcDbEntity
  8
0
  6
Continuous
 62
     7
370
    25
100
AcDbLine
 10
40.2473987114
 20
84.5935988439
 30
0.0
 11
58.3652723247
 21
84.5935988439
 31
0.0
  0
LINE
  5
E1
330
1F
100
AcDbEntity
  8
0
  6
Continuous
 62
     7
370
    25
100
AcDbLine
 10
59.5186236291
 20
84.5935988439
 30
0.0
 11
74.3079733807
 21
84.5935988439
 31
0.0
  0
SPLINE
  5
E2
330
1F
100
AcDbEntity
  8
0
  6
Continuous
 62
     7
370
    25
100
AcDbSpline
210
0.0
220
0.0
230
1.0
 70
     8
 71
     3
 72
    10
 73
     6
 74
     0
 42
0.000000001
 43
0.00000001
 40
0.0
 40
0.0
 40
0.0
 40
0.0
 40
0.5
 40
0.5
 40
1.0
 40
1.0
 40
1.0
 40
1.0
 10
59.51862362908896
 20
84.59359884393064
 30
0.0
 10
59.3392750596275
 20
85.67693217726398
 30
0.0
 10
59.19364542893351
 20
86.76026551059732
 30
0.0
 10
58.99467605558755
 20
88.92693217726398
 30
0.0
 10
58.94194797687862
 20
90.01026551059732
 30
0.0
 10
58.94194797687862
 20
91.09359884393066
 30
0.0
  0
SPLINE
  5
E3
330
1F
100
AcDbEntity
  8
0
  6
Continuous
 62
     7
370
    25
100
AcDbSpline
210
0.0
220
0.0
230
1.0
 70
     8
 71
     3
 72
    10
 73
     6
 74
     0
 42
0.000000001
 43
0.00000001
 40
0.0
 40
0.0
 40
0.0
 40
0.0
 40
0.5
 40
0.5
 40
1.0
 40
1.0
 40
1.0
 40
1.0
 10
58.94194797687862
 20
91.09359884393066
 30
0.0
 10
58.94194797687862
 20
92.17693217726398
 30
0.0
 10
58.99467605558755
 20
93.26026551059732
 30
0.0
 10
59.19364542893351
 20
95.426932177264
 30
0.0
 10
59.3392750596275
 20
96.51026551059732
 30
0.0
 10
59.51862362908896
 20
97.59359884393066
 30
0.0
  0
LINE
  5
E4
330
1F
100
AcDbEntity
  8
0
  6
Continuous
 62
     7
370
    25
100
AcDbLine
 10
59.5186236291
 20
97.5935988439
 30
0.0
 11
74.3079733807
 21
97.5935988439
 31
0.0
  0
SPLINE
  5
E5
330
1F
100
AcDbEntity
  8
0
  6
Continuous
 62
     7
370
    25
100
AcDbSpline
210
0.0
220
0.0
230
1.0
 70
     8
 71
     3
 72
     8
 73
     4
 74
     0
 42
0.000000001
 43
0.00000001
 40
0.0
 40
0.0
 40
0.0
 40
0.0
 40
1.0
 40
1.0
 40
1.0
 40
1.0
 10
74.44194797687861
 20
96.67742994370458
 30
0.0
 10
74.39991211427315
 20
96.98320147345261
 30
0.0
 10
74.35516034977472
 20
97.28857748068243
 30
0.0
 10
74.30797338066306
 20
97.59359884393066
 30
0.0
  0
SPLINE
  5
E6
330
1F
100
AcDbEntity
  8
0
  6
Continuous
 62
     7
370
    25
100
AcDbSpline
210
0.0
220
0.0
230
1.0
 70
     8
 71
     3
 72
     8
 73
     4
 74
     0
 42
0.000000001
 43
0.00000001
 40
0.0
 40
0.0
 40
0.0
 40
0.0
 40
1.0
 40
1.0
 40
1.0
 40
1.0
 10
74.57592257309418
 20
97.59359884393066
 30
0.0
 10
74.52871244328065
 20
97.2884277675522
 30
0.0
 10
74.48396246505305
 20
96.9830459944861
 30
0.0
 10
74.44194797687861
 20
96.67742994370458
 30
0.0
  0
LINE
  5
E7
330
1F
100
AcDbEntity
  8
0
  6
Continuous
 62
     7
370
    25
100
AcDbLine
 10
74.5759225731
 20
97.5935988439
 30
0.0
 11
77.6364972424
 21
97.5935988439
 31
0.0
  0
SPLINE
  5
E8
330
1F
100
AcDbEntity
  8
0
  6
Continuous
 62
     7
370
    25
100
AcDbSpline
210
0.0
220
0.0
230
1.0
 70
     8
 71
     3
 72
    16
 73
    12
 74
     0
 42
0.000000001
 43
0.00000001
 40
0.0
 40
0.0
 40
0.0
 40
0.0
 40
0.2499999999999998
 40
0.2499999999999998
 40
0.4999999999999997
 40
0.4999999999999997
 40
0.6249999999999997
 40
0.6249999999999997
 40
0.7499999999999997
 40
0.7499999999999997
 40
1.0
 40
1.0
 40
1.0
 40
1.0
 10
77.63649724237995
 20
97.5935988439307
 30
0.0
 10
77.9902728441652
 20
96.53227203857489
 30
0.0
 10
78.2818479778528
 20
95.46320743816936
 30
0.0
 10
78.68577417096833
 20
93.30278259880434
 30
0.0
 10
78.79679285300905
 20
92.2112566108808
 30
0.0
 10
78.7980123347963
 20
90.55340309545639
 30
0.0
 10
78.77087260775382
 20
89.99818441903162
 30
0.0
 10
78.66504184726314
 20
88.89990341739254
 30
0.0
 10
78.58645823079128
 20
88.35444504201969
 30
0.0
 10
78.28301069551586
 20
86.72778105021762
 30
0.0
 10
77.9907138706428
 20
85.65624872871956
 30
0.0
 10
77.6364972423798
 20
84.59359884393061
 30
0.0
  0
LINE
  5
E9
330
1F
100
AcDbEntity
  8
0
  6
Continuous
 62
     7
370
    25
100
AcDbLine
 10
74.5759225731
 20
84.5935988439
 30
0.0
 11
77.6364972424
 21
84.5935988439
 31
0.0
  0
SPLINE
  5
EA
330
1F
100
AcDbEntity
  8
0
  6
Continuous
 62
     7
370
    25
100
AcDbSpline
210
0.0
220
0.0
230
1.0
 70
     8
 71
     3
 72
     8
 73
     4
 74
     0
 42
0.000000001
 43
0.00000001
 40
0.0
 40
0.0
 40
0.0
 40
0.0
 40
1.0
 40
1.0
 40
1.0
 40
1.0
 10
74.44194797687861
 20
85.50976774415673
 30
0.0
 10
74.4839838394841
 20
85.2039962144087
 30
0.0
 10
74.5287356039825
 20
84.89862020717887
 30
0.0
 10
74.57592257309418
 20
84.59359884393064
 30
0.0
  0
SPLINE
  5
EB
330
1F
100
AcDbEntity
  8
0
  6
Continuous
 62
     7
370
    25
100
AcDbSpline
210
0.0
220
0.0
230
1.0
 70
     8
 71
     3
 72
     8
 73
     4
 74
     0
 42
0.000000001
 43
0.00000001
 40
0.0
 40
0.0
 40
0.0
 40
0.0
 40
1.0
 40
1.0
 40
1.0
 40
1.0
 10
74.30797338066306
 20
84.59359884393064
 30
0.0
 10
74.35518351047658
 20
84.89876992030912
 30
0.0
 10
74.39993348870418
 20
85.2041516933752
 30
0.0
 10
74.44194797687861
 20
85.50976774415673
 30
0.0
  0
SPLINE
  5
EC
330
1F
100
AcDbEntity
  8
0
  6
Continuous
 62
     7
370
    25
100
AcDbSpline
210
0.0
220
0.0
230
1.0
 70
     8
 71
     3
 72
    16
 73
    12
 74
     0
 42
0.000000001
 43
0.00000001
 40
0.0
 40
0.0
 40
0.0
 40
0.0
 40
0.2500000000000001
 40
0.2500000000000001
 40
0.5
 40
0.5
 40
0.625
 40
0.625
 40
0.75
 40
0.75
 40
1.0
 40
1.0
 40
1.0
 40
1.0
 10
77.63649724237995
 20
84.59359884393066
 30
0.0
 10
77.9902728441652
 20
83.53227203857486
 30
0.0
 10
78.28184797785279
 20
82.46320743816935
 30
0.0
 10
78.68577417096829
 20
80.30278259880436
 30
0.0
 10
78.79679285300902
 20
79.21125661088082
 30
0.0
 10
78.79801233479627
 20
77.55340309545642
 30
0.0
 10
78.77087260775379
 20
76.99818441903165
 30
0.0
 10
78.66504184726311
 20
75.89990341739258
 30
0.0
 10
78.58645823079127
 20
75.35444504201975
 30
0.0
 10
78.28301069551584
 20
73.72778105021769
 30
0.0
 10
77.99071387064278
 20
72.65624872871965
 30
0.0
 10
77.6364972423798
 20
71.59359884393069
 30
0.0
  0
SPLINE
  5
ED
330
1F
100
AcDbEntity
  8
0
  6
Continuous
 62
     7
370
    25
100
AcDbSpline
210
0.0
220
0.0
230
1.0
 70
    24
 71
     3
 72
    13
 73
     9
 74
     0
 42
0.000000001
 43
0.00000001
 40
0.0
 40
0.0
 40
0.0
 40
0.0
 40
0.118505756768838
 40
0.24761228008054
 40
0.4344124669495278
 40
0.6218145579963491
 40
0.8107193500360096
 40
1.0
 40
1.0
 40
1.0
 40
1.0
 10
78.79598928628761
 20
97.59359884393064
 30
0.0
 10
78.79312527149024
 20
97.59359884393064
 30
0.0
 10
78.78714104546194
 20
97.59359884393065
 30
0.0
 10
78.71605766542139
 20
97.59359884393065
 30
0.0
 10
78.57311739206379
 20
97.59359884393065
 30
0.0
 10
78.33109625487283
 20
97.59359884393065
 30
0.0
 10
78.02157514540089
 20
97.59359884393066
 30
0.0
 10
77.76494156143652
 20
97.59359884393066
 30
0.0
 10
77.63649724237968
 20
97.59359884393066
 30
0.0
  0
SPLINE
  5
EE
330
1F
100
AcDbEntity
  8
0
  6
Continuous
 62
     7
370
    25
100
AcDbSpline
210
0.0
220
0.0
230
1.0
 70
    24
 71
     3
 72
    13
 73
     9
 74
     0
 42
0.000000001
 43
0.00000001
 40
0.0
 40
0.0
 40
0.0
 40
0.0
 40
0.1870667511962777
 40
0.3744615965131854
 40
0.5631346725808318
 40
0.7523861085419724
 40
0.8773520520063711
 40
0.9999999999999999
 40
0.9999999999999999
 40
0.9999999999999999
 40
0.9999999999999999
 10
77.63649724237968
 20
71.5935988439307
 30
0.0
 10
77.76349311079667
 20
71.5935988439307
 30
0.0
 10
78.01770758415387
 20
71.5935988439307
 30
0.0
 10
78.32693961013976
 20
71.59359884393068
 30
0.0
 10
78.57111187263256
 20
71.59359884393066
 30
0.0
 10
78.71462301932179
 20
71.59359884393065
 30
0.0
 10
78.78631979450847
 20
71.59359884393065
 30
0.0
 10
78.79362534175
 20
71.59359884393064
 30
0.0
 10
78.7972439205497
 20
71.59359884393064
 30
0.0
  0
LINE
  5
EF
330
1F
100
AcDbEntity
  8
0
  6
Continuous
 62
     7
370
    25
100
AcDbLine
 10
78.9419479769
 20
97.3435988439
 30
0.0
 11
78.9419479769
 21
71.8435988439
 31
0.0
  0
LINE
  5
F0
330
1F
100
AcDbEntity
  8
0
  6
Continuous
 62
     7
370
    25
100
AcDbLine
 10
58.9419479769
 20
78.0935988439
 30
0.0
 11
58.9419479769
 21
91.0935988439
 31
0.0
  0
SPLINE
  5
F1
330
1F
100
AcDbEntity
  8
0
  6
Continuous
 62
     7
370
    25
100
AcDbSpline
210
0.0
220
0.0
230
1.0
 70
     8
 71
     3
 72
    10
 73
     6
 74
     0
 42
0.000000001
 43
0.00000001
 40
0.0
 40
0.0
 40
0.0
 40
0.0
 40
0.5
 40
0.5
 40
1.0
 40
1.0
 40
1.0
 40
1.0
 10
58.94194797687863
 20
78.09359884393068
 30
0.0
 10
58.94194797687863
 20
79.176932177264
 30
0.0
 10
58.99467605558756
 20
80.26026551059732
 30
0.0
 10
59.19364542893352
 20
82.42693217726399
 30
0.0
 10
59.3392750596275
 20
83.51026551059732
 30
0.0
 10
59.51862362908896
 20
84.59359884393064
 30
0.0
  0
SPLINE
  5
F2
330
1F
100
AcDbEntity
  8
0
  6
Continuous
 62
     7
370
    25
100
AcDbSpline
210
0.0
220
0.0
230
1.0
 70
     8
 71
     3
 72
    10
 73
     6
 74
     0
 42
0.000000001
 43
0.00000001
 40
0.0
 40
0.0
 40
0.0
 40
0.0
 40
0.5
 40
0.5
 40
1.0
 40
1.0
 40
1.0
 40
1.0
 10
58.9419479768786
 20
78.09359884393068
 30
0.0
 10
58.9419479768786
 20
79.176932177264
 30
0.0
 10
58.88921989816967
 20
80.26026551059732
 30
0.0
 10
58.6902505248237
 20
82.42693217726399
 30
0.0
 10
58.54462089412973
 20
83.51026551059732
 30
0.0
 10
58.36527232466828
 20
84.59359884393064
 30
0.0
  0
SPLINE
  5
F3
330
1F
100
AcDbEntity
  8
0
  6
Continuous
 62
     7
370
    25
100
AcDbSpline
210
0.0
220
0.0
230
1.0
 70
     8
 71
     3
 72
     8
 73
     4
 74
     0
 42
0.000000001
 43
0.00000001
 40
0.0
 40
0.0
 40
0.0
 40
0.0
 40
1.0
 40
1.0
 40
1.0
 40
1.0
 10
74.57592257309418
 20
84.59359884393064
 30
0.0
 10
74.52871244328064
 20
84.28842776755216
 30
0.0
 10
74.48396246505305
 20
83.98304599448606
 30
0.0
 10
74.44194797687861
 20
83.67742994370454
 30
0.0
  0
LINE
  5
F4
330
1F
100
AcDbEntity
  8
0
  6
Continuous
 62
     7
370
    25
100
AcDbLine
 10
74.4419479769
 20
83.6774299437
 30
0.0
 11
74.4419479769
 21
85.5097677442
 31
0.0
  0
SPLINE
  5
F5
330
1F
100
AcDbEntity
  8
0
  6
Continuous
 62
     7
370
    25
100
AcDbSpline
210
0.0
220
0.0
230
1.0
 70
     8
 71
     3
 72
     8
 73
     4
 74
     0
 42
0.000000001
 43
0.00000001
 40
0.0
 40
0.0
 40
0.0
 40
0.0
 40
1.0
 40
1.0
 40
1.0
 40
1.0
 10
74.44194797687861
 20
83.67742994370452
 30
0.0
 10
74.39991211427315
 20
83.98320147345257
 30
0.0
 10
74.35516034977472
 20
84.2885774806824
 30
0.0
 10
74.30797338066306
 20
84.59359884393064
 30
0.0
  0
SPLINE
  5
F6
330
1F
100
AcDbEntity
  8
0
  6
Continuous
 62
     7
370
    25
100
AcDbSpline
210
0.0
220
0.0
230
1.0
 70
     8
 71
     3
 72
    10
 73
     6
 74
     0
 42
0.000000001
 43
0.00000001
 40
0.0
 40
0.0
 40
0.0
 40
0.0
 40
0.5
 40
0.5
 40
1.0
 40
1.0
 40
1.0
 40
1.0
 10
58.36527232466828
 20
71.5935988439307
 30
0.0
 10
58.54462089412973
 20
72.67693217726404
 30
0.0
 10
58.6902505248237
 20
73.76026551059738
 30
0.0
 10
58.88921989816967
 20
75.92693217726402
 30
0.0
 10
58.9419479768786
 20
77.01026551059735
 30
0.0
 10
58.9419479768786
 20
78.09359884393068
 30
0.0
  0
LINE
  5
F7
330
1F
100
AcDbEntity
  8
0
  6
Continuous
 62
     7
370
    25
100
AcDbLine
 10
40.2473987114
 20
71.5935988439
 30
0.0
 11
58.3652723247
 21
71.5935988439
 31
0.0
  0
LINE
  5
F8
330
1F
100
AcDbEntity
  8
0
  6
Continuous
 62
     7
370
    25
100
AcDbLine
 10
59.5186236291
 20
71.5935988439
 30
0.0
 11
74.3079733807
 21
71.5935988439
 31
0.0
  0
SPLINE
  5
F9
330
1F
100
AcDbEntity
  8
0
  6
Continuous
 62
     7
370
    25
100
AcDbSpline
210
0.0
220
0.0
230
1.0
 70
     8
 71
     3
 72
    10
 73
     6
 74
     0
 42
0.000000001
 43
0.00000001
 40
0.0
 40
0.0
 40
0.0
 40
0.0
 40
0.5
 40
0.5
 40
1.0
 40
1.0
 40
1.0
 40
1.0
 10
59.51862362908896
 20
71.5935988439307
 30
0.0
 10
59.3392750596275
 20
72.67693217726404
 30
0.0
 10
59.19364542893352
 20
73.76026551059738
 30
0.0
 10
58.99467605558756
 20
75.92693217726402
 30
0.0
 10
58.94194797687863
 20
77.01026551059735
 30
0.0
 10
58.94194797687863
 20
78.09359884393068
 30
0.0
  0
LINE
  5
FA
330
1F
100
AcDbEntity
  8
0
  6
Continuous
 62
     7
370
    25
100
AcDbLine
 10
74.5759225731
 20
71.5935988439
 30
0.0
 11
77.6364972424
 21
71.5935988439
 31
0.0
  0
SPLINE
  5
FB
330
1F
100
AcDbEntity
  8
0
  6
Continuous
 62
     7
370
    25
100
AcDbSpline
210
0.0
220
0.0
230
1.0
 70
     8
 71
     3
 72
     8
 73
     4
 74
     0
 42
0.000000001
 43
0.00000001
 40
0.0
 40
0.0
 40
0.0
 40
0.0
 40
1.0
 40
1.0
 40
1.0
 40
1.0
 10
74.44194797687861
 20
72.50976774415682
 30
0.0
 10
74.4839838394841
 20
72.20399621440879
 30
0.0
 10
74.5287356039825
 20
71.89862020717895
 30
0.0
 10
74.57592257309418
 20
71.5935988439307
 30
0.0
  0
SPLINE
  5
FC
330
1F
100
AcDbEntity
  8
0
  6
Continuous
 62
     7
370
    25
100
AcDbSpline
210
0.0
220
0.0
230
1.0
 70
     8
 71
     3
 72
     8
 73
     4
 74
     0
 42
0.000000001
 43
0.00000001
 40
0.0
 40
0.0
 40
0.0
 40
0.0
 40
1.0
 40
1.0
 40
1.0
 40
1.0
 10
74.30797338066306
 20
71.5935988439307
 30
0.0
 10
74.35518351047658
 20
71.89876992030919
 30
0.0
 10
74.39993348870418
 20
72.20415169337528
 30
0.0
 10
74.44194797687861
 20
72.50976774415682
 30
0.0
  0
SPLINE
  5
FD
330
1F
100
AcDbEntity
  8
0
  6
Continuous
 62
     7
370
    25
100
AcDbSpline
210
0.0
220
0.0
230
1.0
 70
    24
 71
     3
 72
    10
 73
     6
 74
     0
 42
0.000000001
 43
0.00000001
 40
0.0
 40
0.0
 40
0.0
 40
0.0
 40
0.5
 40
0.5
 40
1.0
 40
1.0
 40
1.0
 40
1.0
 10
58.94194797687862
 20
71.59359884393064
 30
0.0
 10
58.94194797687862
 20
71.59359884393065
 30
0.0
 10
58.99490941410041
 20
71.59359884393066
 30
0.0
 10
59.19406207634513
 20
71.59359884393068
 30
0.0
 10
59.33963245848562
 20
71.59359884393069
 30
0.0
 10
59.51862362908911
 20
71.5935988439307
 30
0.0
  0
LINE
  5
FE
330
1F
100
AcDbEntity
  8
0
  6
Continuous
 62
     7
370
    25
100
AcDbLine
 10
58.9419479769
 20
71.5935988439
 30
0.0
 11
58.9419479769
 21
78.0935988439
 31
0.0
  0
SPLINE
  5
FF
330
1F
100
AcDbEntity
  8
0
  6
Continuous
 62
     7
370
    25
100
AcDbSpline
210
0.0
220
0.0
230
1.0
 70
    24
 71
     3
 72
    10
 73
     6
 74
     0
 42
0.000000001
 43
0.00000001
 40
0.0
 40
0.0
 40
0.0
 40
0.0
 40
0.5
 40
0.5
 40
1.0
 40
1.0
 40
1.0
 40
1.0
 10
58.94194797687862
 20
71.59359884393064
 30
0.0
 10
58.94194797687862
 20
71.59359884393065
 30
0.0
 10
58.88898653965683
 20
71.59359884393066
 30
0.0
 10
58.68983387741211
 20
71.59359884393068
 30
0.0
 10
58.5442634952716
 20
71.59359884393069
 30
0.0
 10
58.36527232466811
 20
71.5935988439307
 30
0.0
  0
SPLINE
  5
100
330
1F
100
AcDbEntity
  8
0
  6
Continuous
 62
     7
370
    25
100
AcDbSpline
210
0.0
220
0.0
230
1.0
 70
    24
 71
     3
 72
    10
 73
     6
 74
     0
 42
0.000000001
 43
0.00000001
 40
0.0
 40
0.0
 40
0.0
 40
0.0
 40
0.4999999999999999
 40
0.4999999999999999
 40
1.0
 40
1.0
 40
1.0
 40
1.0
 10
58.94194797687862
 20
97.59359884393064
 30
0.0
 10
58.94194797687862
 20
97.59359884393065
 30
0.0
 10
58.88898653965681
 20
97.59359884393065
 30
0.0
 10
58.68983387741207
 20
97.59359884393065
 30
0.0
 10
58.54426349527157
 20
97.59359884393066
 30
0.0
 10
58.36527232466812
 20
97.59359884393066
 30
0.0
  0
LINE
  5
101
330
1F
100
AcDbEntity
  8
0
  6
Continuous
 62
     7
370
    25
100
AcDbLine
 10
58.9419479769
 20
91.0935988439
 30
0.0
 11
58.9419479769
 21
97.5935988439
 31
0.0
  0
SPLINE
  5
102
330
1F
100
AcDbEntity
  8
0
  6
Continuous
 62
     7
370
    25
100
AcDbSpline
210
0.0
220
0.0
230
1.0
 70
    24
 71
     3
 72
    10
 73
     6
 74
     0
 42
0.000000001
 43
0.00000001
 40
0.0
 40
0.0
 40
0.0
 40
0.0
 40
0.4999999999999999
 40
0.4999999999999999
 40
1.0
 40
1.0
 40
1.0
 40
1.0
 10
58.94194797687862
 20
97.59359884393064
 30
0.0
 10
58.94194797687862
 20
97.59359884393065
 30
0.0
 10
58.99490941410043
 20
97.59359884393065
 30
0.0
 10
59.19406207634515
 20
97.59359884393065
 30
0.0
 10
59.33963245848566
 20
97.59359884393066
 30
0.0
 10
59.51862362908911
 20
97.59359884393066
 30
0.0
  0
SPLINE
  5
103
330
1F
100
AcDbEntity
  8
0
  6
Continuous
 62
     7
370
    25
100
AcDbSpline
210
0.0
220
0.0
230
1.0
 70
    24
 71
     3
 72
     8
 73
     4
 74
     0
 42
0.000000001
 43
0.00000001
 40
0.0
 40
0.0
 40
0.0
 40
0.0
 40
1.0
 40
1.0
 40
1.0
 40
1.0
 10
74.57592257309418
 20
71.5935988439307
 30
0.0
 10
74.5287090452155
 20
71.5935988439307
 30
0.0
 10
74.48395933265525
 20
71.5935988439307
 30
0.0
 10
74.44194797687861
 20
71.5935988439307
 30
0.0
  0
LINE
  5
104
330
1F
100
AcDbEntity
  8
0
  6
Continuous
 62
     7
370
    25
100
AcDbLine
 10
74.4419479769
 20
71.5935988439
 30
0.0
 11
74.4419479769
 21
72.5097677442
 31
0.0
  0
SPLINE
  5
105
330
1F
100
AcDbEntity
  8
0
  6
Continuous
 62
     7
370
    25
100
AcDbSpline
210
0.0
220
0.0
230
1.0
 70
    24
 71
     3
 72
     8
 73
     4
 74
     0
 42
0.000000001
 43
0.00000001
 40
0.0
 40
0.0
 40
0.0
 40
0.0
 40
1.0
 40
1.0
 40
1.0
 40
1.0
 10
74.44194797687861
 20
71.5935988439307
 30
0.0
 10
74.39991321450782
 20
71.5935988439307
 30
0.0
 10
74.35516154082698
 20
71.5935988439307
 30
0.0
 10
74.30797338066306
 20
71.5935988439307
 30
0.0
  0
SPLINE
  5
106
330
1F
100
AcDbEntity
  8
0
  6
Continuous
 62
     7
370
    25
100
AcDbSpline
210
0.0
220
0.0
230
1.0
 70
    24
 71
     3
 72
     8
 73
     4
 74
     0
 42
0.000000001
 43
0.00000001
 40
0.0
 40
0.0
 40
0.0
 40
0.0
 40
1.0
 40
1.0
 40
1.0
 40
1.0
 10
74.30797338066306
 20
97.59359884393066
 30
0.0
 10
74.35518690854173
 20
97.59359884393066
 30
0.0
 10
74.39993662110197
 20
97.59359884393066
 30
0.0
 10
74.44194797687861
 20
97.59359884393066
 30
0.0
  0
LINE
  5
107
330
1F
100
AcDbEntity
  8
0
  6
Continuous
 62
     7
370
    25
100
AcDbLine
 10
74.4419479769
 20
96.6774299437
 30
0.0
 11
74.4419479769
 21
97.5935988439
 31
0.0
  0
SPLINE
  5
108
330
1F
100
AcDbEntity
  8
0
  6
Continuous
 62
     7
370
    25
100
AcDbSpline
210
0.0
220
0.0
230
1.0
 70
    24
 71
     3
 72
     8
 73
     4
 74
     0
 42
0.000000001
 43
0.00000001
 40
0.0
 40
0.0
 40
0.0
 40
0.0
 40
1.0
 40
1.0
 40
1.0
 40
1.0
 10
74.44194797687861
 20
97.59359884393066
 30
0.0
 10
74.4839827392494
 20
97.59359884393066
 30
0.0
 10
74.52873441293025
 20
97.59359884393066
 30
0.0
 10
74.57592257309418
 20
97.59359884393066
 30
0.0
  0
LINE
  5
109
330
1F
100
AcDbEntity
  8
0
  6
CENTERX2
 62
     7
370
    18
100
AcDbLine
 10
76.6364972424
 20
84.5935988439
 30
0.0
 11
79.9419479769
 21
84.5935988439
 31
0.0
  0
LINE
  5
10A
330
1F
100
AcDbEntity
  8
0
  6
CENTERX2
 62
     7
370
    18
100
AcDbLine
 10
41.2473987114
 20
84.5935988439
 30
0.0
 11
37.9419479769
 21
84.5935988439
 31
0.0
  0
ENDSEC
  0
SECTION
  2
OBJECTS
  0
DICTIONARY
  5
C
330
0
100
AcDbDictionary
281
     1
  3
ACAD_GROUP
350
D
  3
ACAD_LAYOUT
350
1A
  3
ACAD_MLINESTYLE
350
17
  3
ACAD_PLOTSETTINGS
350
19
  3
ACAD_PLOTSTYLENAME
350
E
  3
ACAD_SCALELIST
350
47
  0
DICTIONARY
  5
D
102
{ACAD_REACTORS
330
C
102
}
330
C
100
AcDbDictionary
281
     1
  0
DICTIONARY
  5
1A
102
{ACAD_REACTORS
330
C
102
}
330
C
100
AcDbDictionary
281
     1
  3
Layout1
350
1E
  3
Layout2
350
26
  3
Model
350
22
  0
DICTIONARY
  5
17
102
{ACAD_REACTORS
330
C
102
}
330
C
100
AcDbDictionary
281
     1
  3
Standard
350
18
  0
DICTIONARY
  5
19
102
{ACAD_REACTORS
330
C
102
}
330
C
100
AcDbDictionary
281
     1
  0
ACDBDICTIONARYWDFLT
  5
E
102
{ACAD_REACTORS
330
C
102
}
330
C
100
AcDbDictionary
281
     1
  3
Normal
350
F
100
AcDbDictionaryWithDefault
340
F
  0
DICTIONARY
  5
47
102
{ACAD_REACTORS
330
C
102
}
330
C
100
AcDbDictionary
281
     1
  3
A0
350
48
  3
A1
350
49
  3
A2
350
4A
  3
A3
350
4B
  3
A4
350
4C
  3
A5
350
4D
  3
A6
350
4E
  3
A7
350
4F
  3
A8
350
50
  3
A9
350
51
  3
B0
350
52
  3
B1
350
53
  3
B2
350
54
  3
B3
350
55
  3
B4
350
56
  3
B5
350
57
  3
B6
350
58
  3
B7
350
59
  3
B8
350
5A
  3
B9
350
5B
  3
C0
350
5C
  3
C1
350
5D
  3
C2
350
5E
  3
C3
350
5F
  3
C4
350
60
  3
C5
350
61
  3
C6
350
62
  3
C7
350
63
  3
C8
350
64
  3
C9
350
65
  3
D0
350
66
  3
D1
350
67
  3
D2
350
68
  0
LAYOUT
  5
1E
102
{ACAD_REACTORS
330
1A
102
}
330
1A
100
AcDbPlotSettings
  1

  2
none_device
  4

  6

 40
0.0
 41
0.0
 42
0.0
 43
0.0
 44
0.0
 45
0.0
 46
0.0
 47
0.0
 48
0.0
 49
0.0
140
0.0
141
0.0
142
1.0
143
1.0
 70
   688
 72
     1
 73
     0
 74
     5
  7

 75
    16
147
1.0
148
0.0
149
0.0
100
AcDbLayout
  1
Layout1
 70
     1
 71
     1
 10
0.0
 20
0.0
 11
420.0
 21
297.0
 12
0.0
 22
0.0
 32
0.0
 14
1.0000000000E+20
 24
1.0000000000E+20
 34
1.0000000000E+20
 15
-1.0000000000E+20
 25
-1.0000000000E+20
 35
-1.0000000000E+20
146
0.0
 13
0.0
 23
0.0
 33
0.0
 16
1.0
 26
0.0
 36
0.0
 17
0.0
 27
1.0
 37
0.0
 76
     0
330
1B
  0
LAYOUT
  5
26
102
{ACAD_REACTORS
330
1A
102
}
330
1A
100
AcDbPlotSettings
  1

  2
none_device
  4

  6

 40
0.0
 41
0.0
 42
0.0
 43
0.0
 44
0.0
 45
0.0
 46
0.0
 47
0.0
 48
0.0
 49
0.0
140
0.0
141
0.0
142
1.0
143
1.0
 70
   688
 72
     1
 73
     0
 74
     5
  7

 75
    16
147
1.0
148
0.0
149
0.0
100
AcDbLayout
  1
Layout2
 70
     1
 71
     2
 10
0.0
 20
0.0
 11
0.0
 21
0.0
 12
0.0
 22
0.0
 32
0.0
 14
0.0
 24
0.0
 34
0.0
 15
0.0
 25
0.0
 35
0.0
146
0.0
 13
0.0
 23
0.0
 33
0.0
 16
1.0
 26
0.0
 36
0.0
 17
0.0
 27
1.0
 37
0.0
 76
     0
330
23
  0
LAYOUT
  5
22
102
{ACAD_REACTORS
330
1A
102
}
330
1A
100
AcDbPlotSettings
  1

  2
none_device
  4
Letter_(8.50_x_11.00_Inches)
  6

 40
6.35
 41
6.35
 42
6.35000508
 43
6.35000508
 44
215.9
 45
279.4
 46
0.0
 47
0.0
 48
0.0
 49
0.0
140
0.0
141
0.0
142
1.0
143
1.0
 70
  1712
 72
     1
 73
     0
 74
     0
  7

 75
     0
147
1.0
148
0.0
149
0.0
100
AcDbLayout
  1
Model
 70
     1
 71
     0
 10
0.0
 20
0.0
 11
215.9
 21
139.7
 12
0.0
 22
0.0
 32
0.0
 14
0.0
 24
0.0
 34
0.0
 15
215.9
 25
139.7
 35
0.0
146
0.0
 13
0.0
 23
0.0
 33
0.0
 16
1.0
 26
0.0
 36
0.0
 17
0.0
 27
1.0
 37
0.0
 76
     0
330
1F
331
29
  0
MLINESTYLE
  5
18
102
{ACAD_REACTORS
330
17
102
}
330
17
100
AcDbMlineStyle
  2
Standard
 70
     0
  3

 62
   256
 51
90.0
 52
90.0
 71
     2
 49
0.5
 62
   256
  6
BYLAYER
 49
-0.5
 62
   256
  6
BYLAYER
  0
ACDBPLACEHOLDER
  5
F
102
{ACAD_REACTORS
330
E
102
}
330
E
  0
SCALE
  5
48
102
{ACAD_REACTORS
330
47
102
}
330
47
100
AcDbScale
 70
     0
300
1:1
140
1.0
141
1.0
290
     1
  0
SCALE
  5
49
102
{ACAD_REACTORS
330
47
102
}
330
47
100
AcDbScale
 70
     0
300
1:2
140
1.0
141
2.0
290
     0
  0
SCALE
  5
4A
102
{ACAD_REACTORS
330
47
102
}
330
47
100
AcDbScale
 70
     0
300
1:4
140
1.0
141
4.0
290
     0
  0
SCALE
  5
4B
102
{ACAD_REACTORS
330
47
102
}
330
47
100
AcDbScale
 70
     0
300
1:5
140
1.0
141
5.0
290
     0
  0
SCALE
  5
4C
102
{ACAD_REACTORS
330
47
102
}
330
47
100
AcDbScale
 70
     0
300
1:8
140
1.0
141
8.0
290
     0
  0
SCALE
  5
4D
102
{ACAD_REACTORS
330
47
102
}
330
47
100
AcDbScale
 70
     0
300
1:10
140
1.0
141
10.0
290
     0
  0
SCALE
  5
4E
102
{ACAD_REACTORS
330
47
102
}
330
47
100
AcDbScale
 70
     0
300
1:16
140
1.0
141
16.0
290
     0
  0
SCALE
  5
4F
102
{ACAD_REACTORS
330
47
102
}
330
47
100
AcDbScale
 70
     0
300
1:20
140
1.0
141
20.0
290
     0
  0
SCALE
  5
50
102
{ACAD_REACTORS
330
47
102
}
330
47
100
AcDbScale
 70
     0
300
1:30
140
1.0
141
30.0
290
     0
  0
SCALE
  5
51
102
{ACAD_REACTORS
330
47
102
}
330
47
100
AcDbScale
 70
     0
300
1:40
140
1.0
141
40.0
290
     0
  0
SCALE
  5
52
102
{ACAD_REACTORS
330
47
102
}
330
47
100
AcDbScale
 70
     0
300
1:50
140
1.0
141
50.0
290
     0
  0
SCALE
  5
53
102
{ACAD_REACTORS
330
47
102
}
330
47
100
AcDbScale
 70
     0
300
1:100
140
1.0
141
100.0
290
     0
  0
SCALE
  5
54
102
{ACAD_REACTORS
330
47
102
}
330
47
100
AcDbScale
 70
     0
300
2:1
140
2.0
141
1.0
290
     0
  0
SCALE
  5
55
102
{ACAD_REACTORS
330
47
102
}
330
47
100
AcDbScale
 70
     0
300
4:1
140
4.0
141
1.0
290
     0
  0
SCALE
  5
56
102
{ACAD_REACTORS
330
47
102
}
330
47
100
AcDbScale
 70
     0
300
8:1
140
8.0
141
1.0
290
     0
  0
SCALE
  5
57
102
{ACAD_REACTORS
330
47
102
}
330
47
100
AcDbScale
 70
     0
300
10:1
140
10.0
141
1.0
290
     0
  0
SCALE
  5
58
102
{ACAD_REACTORS
330
47
102
}
330
47
100
AcDbScale
 70
     0
300
100:1
140
100.0
141
1.0
290
     0
  0
SCALE
  5
59
102
{ACAD_REACTORS
330
47
102
}
330
47
100
AcDbScale
 70
     0
300
1/128" = 1'-0"
140
0.0078125
141
12.0
290
     0
  0
SCALE
  5
5A
102
{ACAD_REACTORS
330
47
102
}
330
47
100
AcDbScale
 70
     0
300
1/64" = 1'-0"
140
0.015625
141
12.0
290
     0
  0
SCALE
  5
5B
102
{ACAD_REACTORS
330
47
102
}
330
47
100
AcDbScale
 70
     0
300
1/32" = 1'-0"
140
0.03125
141
12.0
290
     0
  0
SCALE
  5
5C
102
{ACAD_REACTORS
330
47
102
}
330
47
100
AcDbScale
 70
     0
300
1/16" = 1'-0"
140
0.0625
141
12.0
290
     0
  0
SCALE
  5
5D
102
{ACAD_REACTORS
330
47
102
}
330
47
100
AcDbScale
 70
     0
300
3/32" = 1'-0"
140
0.09375
141
12.0
290
     0
  0
SCALE
  5
5E
102
{ACAD_REACTORS
330
47
102
}
330
47
100
AcDbScale
 70
     0
300
1/8" = 1'-0"
140
0.125
141
12.0
290
     0
  0
SCALE
  5
5F
102
{ACAD_REACTORS
330
47
102
}
330
47
100
AcDbScale
 70
     0
300
3/16" = 1'-0"
140
0.1875
141
12.0
290
     0
  0
SCALE
  5
60
102
{ACAD_REACTORS
330
47
102
}
330
47
100
AcDbScale
 70
     0
300
1/4" = 1'-0"
140
0.25
141
12.0
290
     0
  0
SCALE
  5
61
102
{ACAD_REACTORS
330
47
102
}
330
47
100
AcDbScale
 70
     0
300
3/8" = 1'-0"
140
0.375
141
12.0
290
     0
  0
SCALE
  5
62
102
{ACAD_REACTORS
330
47
102
}
330
47
100
AcDbScale
 70
     0
300
1/2" = 1'-0"
140
0.5
141
12.0
290
     0
  0
SCALE
  5
63
102
{ACAD_REACTORS
330
47
102
}
330
47
100
AcDbScale
 70
     0
300
3/4" = 1'-0"
140
0.75
141
12.0
290
     0
  0
SCALE
  5
64
102
{ACAD_REACTORS
330
47
102
}
330
47
100
AcDbScale
 70
     0
300
1" = 1'-0"
140
1.0
141
12.0
290
     0
  0
SCALE
  5
65
102
{ACAD_REACTORS
330
47
102
}
330
47
100
AcDbScale
 70
     0
300
1-1/2" = 1'-0"
140
1.5
141
12.0
290
     0
  0
SCALE
  5
66
102
{ACAD_REACTORS
330
47
102
}
330
47
100
AcDbScale
 70
     0
300
3" = 1'-0"
140
3.0
141
12.0
290
     0
  0
SCALE
  5
67
102
{ACAD_REACTORS
330
47
102
}
330
47
100
AcDbScale
 70
     0
300
6" = 1'-0"
140
6.0
141
12.0
290
     0
  0
SCALE
  5
68
102
{ACAD_REACTORS
330
47
102
}
330
47
100
AcDbScale
 70
     0
300
1'-0" = 1'-0"
140
12.0
141
12.0
290
     0
  0
ENDSEC
  0
EOF
