  0
SECTION
  2
HEADER
  9
$ACADVER
  1
AC1015
  9
$ACADMAINTVER
 70
     6
  9
$DWGCODEPAGE
  3
DOS932
  9
$INSBASE
 10
0.0
 20
0.0
 30
0.0
  9
$EXTMIN
 10
0.0
 20
0.0
 30
0.0
  9
$EXTMAX
 10
215.9
 20
139.7
 30
0.0
  9
$LIMMIN
 10
0.0
 20
0.0
  9
$LIMMAX
 10
215.9
 20
139.7
  9
$ORTHOMODE
 70
     0
  9
$REGENMODE
 70
     1
  9
$FILLMODE
 70
     1
  9
$QTEXTMODE
 70
     0
  9
$MIRRTEXT
 70
     1
  9
$LTSCALE
 40
0.5
  9
$ATTMODE
 70
     1
  9
$TEXTSIZE
 40
1.75
  9
$TRACEWID
 40
1.0
  9
$TEXTSTYLE
  7
Standard
  9
$CLAYER
  8
0
  9
$CELTYPE
  6
ByLayer
  9
$CECOLOR
 62
   256
  9
$CELTSCALE
 40
1.0
  9
$DISPSILH
 70
     0
  9
$DIMSCALE
 40
1.0
  9
$DIMASZ
 40
1.651
  9
$DIMEXO
 40
0.5
  9
$DIMDLI
 40
3.75
  9
$DIMRND
 40
0.0
  9
$DIMDLE
 40
0.0
  9
$DIMEXE
 40
0.5
  9
$DIMTP
 40
0.0
  9
$DIMTM
 40
0.0
  9
$DIMTXT
 40
1.75
  9
$DIMCEN
 40
2.5
  9
$DIMTSZ
 40
0.0
  9
$DIMTOL
 70
     0
  9
$DIMLIM
 70
     0
  9
$DIMTIH
 70
     1
  9
$DIMTOH
 70
     1
  9
$DIMSE1
 70
     0
  9
$DIMSE2
 70
     0
  9
$DIMTAD
 70
     1
  9
$DIMZIN
 70
     1
  9
$DIMBLK
  1

  9
$DIMASO
 70
     1
  9
$DIMSHO
 70
     1
  9
$DIMPOST
  1

  9
$DIMAPOST
  1

  9
$DIMALT
 70
     0
  9
$DIMALTD
 70
     3
  9
$DIMALTF
 40
0.0393700787
  9
$DIMLFAC
 40
1.0
  9
$DIMTOFL
 70
     1
  9
$DIMTVP
 40
0.0
  9
$DIMTIX
 70
     0
  9
$DIMSOXD
 70
     0
  9
$DIMSAH
 70
     0
  9
$DIMBLK1
  1

  9
$DIMBLK2
  1

  9
$DIMSTYLE
  2
ISO-25
  9
$DIMCLRD
 70
     0
  9
$DIMCLRE
 70
     0
  9
$DIMCLRT
 70
     0
  9
$DIMTFAC
 40
1.0
  9
$DIMGAP
 40
0.762
  9
$DIMJUST
 70
     0
  9
$DIMSD1
 70
     0
  9
$DIMSD2
 70
     0
  9
$DIMTOLJ
 70
     0
  9
$DIMTZIN
 70
     1
  9
$DIMALTZ
 70
     0
  9
$DIMALTTZ
 70
     0
  9
$DIMUPT
 70
     0
  9
$DIMDEC
 70
     2
  9
$DIMTDEC
 70
     2
  9
$DIMALTU
 70
     2
  9
$DIMALTTD
 70
     3
  9
$DIMTXSTY
  7
Standard
  9
$DIMAUNIT
 70
     0
  9
$DIMADEC
 70
     2
  9
$DIMALTRND
 40
0.0
  9
$DIMAZIN
 70
     0
  9
$DIMDSEP
 70
    44
  9
$DIMATFIT
 70
     3
  9
$DIMFRAC
 70
     0
  9
$DIMLDRBLK
  1

  9
$DIMLUNIT
 70
     2
  9
$DIMLWD
 70
    -2
  9
$DIMLWE
 70
    -2
  9
$DIMTMOVE
 70
     0
  9
$LUNITS
 70
     2
  9
$LUPREC
 70
     2
  9
$SKETCHINC
 40
1.0
  9
$FILLETRAD
 40
10.0
  9
$AUNITS
 70
     0
  9
$AUPREC
 70
     2
  9
$MENU
  1
.
  9
$ELEVATION
 40
0.0
  9
$PELEVATION
 40
0.0
  9
$THICKNESS
 40
0.0
  9
$LIMCHECK
 70
     0
  9
$CHAMFERA
 40
0.0
  9
$CHAMFERB
 40
0.0
  9
$CHAMFERC
 40
0.0
  9
$CHAMFERD
 40
0.0
  9
$SKPOLY
 70
     0
  9
$TDCREATE
 40
2459227.77033368
  9
$TDUCREATE
 40
2459227.39533368
  9
$TDUPDATE
 40
2459227.770334213
  9
$TDUUPDATE
 40
2459227.395334213
  9
$TDINDWG
 40
0.0000000116
  9
$TDUSRTIMER
 40
0.0000000116
  9
$USRTIMER
 70
     1
  9
$ANGBASE
 50
0.0
  9
$ANGDIR
 70
     0
  9
$PDMODE
 70
     0
  9
$PDSIZE
 40
-1.0
  9
$PLINEWID
 40
0.0
  9
$SPLFRAME
 70
     0
  9
$SPLINETYPE
 70
     6
  9
$SPLINESEGS
 70
     8
  9
$HANDSEED
  5
10D
  9
$SURFTAB1
 70
     6
  9
$SURFTAB2
 70
     6
  9
$SURFTYPE
 70
     6
  9
$SURFU
 70
     6
  9
$SURFV
 70
     6
  9
$UCSBASE
  2

  9
$UCSNAME
  2

  9
$UCSORG
 10
0.0
 20
0.0
 30
0.0
  9
$UCSXDIR
 10
1.0
 20
0.0
 30
0.0
  9
$UCSYDIR
 10
0.0
 20
1.0
 30
0.0
  9
$UCSORTHOREF
  2

  9
$UCSORTHOVIEW
 70
     0
  9
$UCSORGTOP
 10
0.0
 20
0.0
 30
0.0
  9
$UCSORGBOTTOM
 10
0.0
 20
0.0
 30
0.0
  9
$UCSORGLEFT
 10
0.0
 20
0.0
 30
0.0
  9
$UCSORGRIGHT
 10
0.0
 20
0.0
 30
0.0
  9
$UCSORGFRONT
 10
0.0
 20
0.0
 30
0.0
  9
$UCSORGBACK
 10
0.0
 20
0.0
 30
0.0
  9
$PUCSBASE
  2

  9
$PUCSNAME
  2

  9
$PUCSORG
 10
0.0
 20
0.0
 30
0.0
  9
$PUCSXDIR
 10
1.0
 20
0.0
 30
0.0
  9
$PUCSYDIR
 10
0.0
 20
1.0
 30
0.0
  9
$PUCSORTHOREF
  2

  9
$PUCSORTHOVIEW
 70
     0
  9
$PUCSORGTOP
 10
0.0
 20
0.0
 30
0.0
  9
$PUCSORGBOTTOM
 10
0.0
 20
0.0
 30
0.0
  9
$PUCSORGLEFT
 10
0.0
 20
0.0
 30
0.0
  9
$PUCSORGRIGHT
 10
0.0
 20
0.0
 30
0.0
  9
$PUCSORGFRONT
 10
0.0
 20
0.0
 30
0.0
  9
$PUCSORGBACK
 10
0.0
 20
0.0
 30
0.0
  9
$USERI1
 70
     0
  9
$USERI2
 70
     0
  9
$USERI3
 70
     0
  9
$USERI4
 70
     0
  9
$USERI5
 70
     0
  9
$USERR1
 40
0.0
  9
$USERR2
 40
0.0
  9
$USERR3
 40
0.0
  9
$USERR4
 40
0.0
  9
$USERR5
 40
0.0
  9
$WORLDVIEW
 70
     1
  9
$SHADEDGE
 70
     3
  9
$SHADEDIF
 70
    70
  9
$TILEMODE
 70
     1
  9
$MAXACTVP
 70
    64
  9
$PINSBASE
 10
0.0
 20
0.0
 30
0.0
  9
$PLIMCHECK
 70
     0
  9
$PEXTMIN
 10
1.0000000000E+20
 20
1.0000000000E+20
 30
1.0000000000E+20
  9
$PEXTMAX
 10
-1.0000000000E+20
 20
-1.0000000000E+20
 30
-1.0000000000E+20
  9
$PLIMMIN
 10
0.0
 20
0.0
  9
$PLIMMAX
 10
420.0
 20
297.0
  9
$UNITMODE
 70
     0
  9
$VISRETAIN
 70
     1
  9
$PLINEGEN
 70
     0
  9
$PSLTSCALE
 70
     1
  9
$TREEDEPTH
 70
  3020
  9
$CMLSTYLE
  2
Standard
  9
$CMLJUST
 70
     0
  9
$CMLSCALE
 40
20.0
  9
$PROXYGRAPHICS
 70
     1
  9
$MEASUREMENT
 70
     1
  9
$CELWEIGHT
370
    -1
  9
$ENDCAPS
280
     0
  9
$JOINSTYLE
280
     0
  9
$LWDISPLAY
290
     1
  9
$INSUNITS
 70
     4
  9
$HYPERLINKBASE
  1

  9
$STYLESHEET
  1

  9
$XEDIT
290
     1
  9
$CEPSNTYPE
380
     0
  9
$PSTYLEMODE
290
     1
  9
$FINGERPRINTGUID
  2
{FA09F591-FEDE-4F41-9EDC-F6D756B89B9A}
  9
$VERSIONGUID
  2
{FAEB1C32-E019-11D5-929B-00C0DF256EC4}
  9
$EXTNAMES
290
     1
  9
$PSVPSCALE
 40
0.0
  9
$OLESTARTUP
290
     0
  0
ENDSEC
  0
SECTION
  2
CLASSES
  0
CLASS
  1
ACDBDICTIONARYWDFLT
  2
AcDbDictionaryWithDefault
  3
ObjectDBX Classes
 90
        0
280
     0
281
     0
  0
CLASS
  1
VISUALSTYLE
  2
AcDbVisualStyle
  3
ObjectDBX Classes
 90
     4095
280
     0
281
     0
  0
CLASS
  1
MATERIAL
  2
AcDbMaterial
  3
ObjectDBX Classes
 90
     1153
280
     0
281
     0
  0
CLASS
  1
SCALE
  2
AcDbScale
  3
ObjectDBX Classes
 90
     1153
280
     0
281
     0
  0
CLASS
  1
TABLESTYLE
  2
AcDbTableStyle
  3
ObjectDBX Classes
 90
     4095
280
     0
281
     0
  0
CLASS
  1
MLEADERSTYLE
  2
AcDbMLeaderStyle
  3
ACDB_MLEADERSTYLE_CLASS
 90
     4095
280
     0
281
     0
  0
CLASS
  1
SUN
  2
AcDbSun
  3
SCENEOE
 90
     1153
280
     0
281
     0
  0
CLASS
  1
ACDBPLACEHOLDER
  2
AcDbPlaceHolder
  3
ObjectDBX Classes
 90
        0
280
     0
281
     0
  0
CLASS
  1
LAYOUT
  2
AcDbLayout
  3
ObjectDBX Classes
 90
        0
280
     0
281
     0
  0
ENDSEC
  0
SECTION
  2
TABLES
  0
TABLE
  2
VPORT
  5
8
330
0
100
AcDbSymbolTable
 70
     1
  0
VPORT
  5
29
330
8
100
AcDbSymbolTableRecord
100
AcDbViewportTableRecord
  2
*Active
 70
     0
 10
0.0
 20
0.0
 11
1.0
 21
1.0
 12
107.95
 22
69.85
 13
0.0
 23
0.0
 14
10.0
 24
10.0
 15
10.0
 25
10.0
 16
0.0
 26
0.0
 36
1.0
 17
0.0
 27
0.0
 37
0.0
 40
139.7
 41
1.5454545455
 42
50.0
 43
0.0
 44
0.0
 50
0.0
 51
0.0
 71
     0
 72
  2000
 73
     1
 74
     3
 75
     0
 76
     0
 77
     0
 78
     0
281
     0
 65
     1
110
0.0
120
0.0
130
0.0
111
1.0
121
0.0
131
0.0
112
0.0
122
1.0
132
0.0
 79
     0
146
0.0
  0
ENDTAB
  0
TABLE
  2
LTYPE
  5
5
330
0
100
AcDbSymbolTable
 70
     6
  0
LTYPE
  5
14
330
5
100
AcDbSymbolTableRecord
100
AcDbLinetypeTableRecord
  2
ByBlock
 70
     0
  3

 72
    65
 73
     0
 40
0.0
  0
LTYPE
  5
15
330
5
100
AcDbSymbolTableRecord
100
AcDbLinetypeTableRecord
  2
ByLayer
 70
     0
  3

 72
    65
 73
     0
 40
0.0
  0
LTYPE
  5
16
330
5
100
AcDbSymbolTableRecord
100
AcDbLinetypeTableRecord
  2
Continuous
 70
     0
  3
Solid line
 72
    65
 73
     0
 40
0.0
  0
LTYPE
  5
6E
330
5
100
AcDbSymbolTableRecord
100
AcDbLinetypeTableRecord
  2
HIDDEN
 70
     0
  3
Hidden __ __ __ __ __ __ __ __ __ __ __ __ __ __
 72
    65
 73
     2
 40
1.905
 49
1.27
 74
     0
 49
-0.635
 74
     0
  0
LTYPE
  5
6F
330
5
100
AcDbSymbolTableRecord
100
AcDbLinetypeTableRecord
  2
PHANTOM
 70
     0
  3
Phantom ______  __  __  ______  __  __  ______
 72
    65
 73
     6
 40
12.7
 49
6.35
 74
     0
 49
-1.27
 74
     0
 49
1.27
 74
     0
 49
-1.27
 74
     0
 49
1.27
 74
     0
 49
-1.27
 74
     0
  0
LTYPE
  5
70
330
5
100
AcDbSymbolTableRecord
100
AcDbLinetypeTableRecord
  2
CENTER
 70
     0
  3
Center ____ _ ____ _ ____ _ ____ _ ____ _ ____
 72
    65
 73
     4
 40
10.16
 49
6.35
 74
     0
 49
-1.27
 74
     0
 49
1.27
 74
     0
 49
-1.27
 74
     0
  0
LTYPE
  5
71
330
5
100
AcDbSymbolTableRecord
100
AcDbLinetypeTableRecord
  2
CENTERX2
 70
     0
  3
Center (2x) ________  __  ________  __  _____
 72
    65
 73
     4
 40
20.32
 49
12.7
 74
     0
 49
-2.54
 74
     0
 49
2.54
 74
     0
 49
-2.54
 74
     0
  0
LTYPE
  5
72
330
5
100
AcDbSymbolTableRecord
100
AcDbLinetypeTableRecord
  2
DOT2
 70
     0
  3
Dot (.5x) ........................................
 72
    65
 73
     2
 40
0.635
 49
0.0
 74
     0
 49
-0.635
 74
     0
  0
ENDTAB
  0
TABLE
  2
LAYER
  5
2
330
0
100
AcDbSymbolTable
 70
     1
  0
LAYER
  5
10
330
2
100
AcDbSymbolTableRecord
100
AcDbLayerTableRecord
  2
0
 70
     0
 62
     7
  6
Continuous
370
    -3
390
F
  0
ENDTAB
  0
TABLE
  2
STYLE
  5
3
330
0
100
AcDbSymbolTable
 70
     2
  0
STYLE
  5
11
330
3
100
AcDbSymbolTableRecord
100
AcDbTextStyleTableRecord
  2
Standard
 70
     0
 40
0.0
 41
1.0
 50
0.0
 71
     0
 42
1.75
  3
txt
  4
bigfont
  0
STYLE
  5
73
330
3
100
AcDbSymbolTableRecord
100
AcDbTextStyleTableRecord
  2
SLDTEXTSTYLE0
 70
     0
 40
0.0
 41
0.7
 50
0.0
 71
     0
 42
1.75
  3
TXT
  4
bigfont
  0
ENDTAB
  0
TABLE
  2
VIEW
  5
6
330
0
100
AcDbSymbolTable
 70
     0
  0
ENDTAB
  0
TABLE
  2
UCS
  5
7
330
0
100
AcDbSymbolTable
 70
     0
  0
ENDTAB
  0
TABLE
  2
APPID
  5
9
330
0
100
AcDbSymbolTable
 70
     1
  0
APPID
  5
12
330
9
100
AcDbSymbolTableRecord
100
AcDbRegAppTableRecord
  2
ACAD
 70
     0
  0
ENDTAB
  0
TABLE
  2
DIMSTYLE
  5
A
330
0
100
AcDbSymbolTable
 70
     1
100
AcDbDimStyleTable
  0
DIMSTYLE
105
27
330
A
100
AcDbSymbolTableRecord
100
AcDbDimStyleTableRecord
  2
ISO-25
 70
     0
 41
2.5
 42
0.625
 43
3.75
 44
1.25
 73
     0
 74
     0
 77
     1
 78
     8
140
2.5
141
2.5
143
0.0393700787
147
0.625
171
     3
172
     1
178
     0
271
     2
272
     2
274
     3
278
    44
283
     0
284
     8
340
11
  0
ENDTAB
  0
TABLE
  2
BLOCK_RECORD
  5
1
330
0
100
AcDbSymbolTable
 70
     2
  0
BLOCK_RECORD
  5
1F
330
1
100
AcDbSymbolTableRecord
100
AcDbBlockTableRecord
  2
*Model_Space
340
22
  0
BLOCK_RECORD
  5
1B
330
1
100
AcDbSymbolTableRecord
100
AcDbBlockTableRecord
  2
*Paper_Space
340
1E
  0
BLOCK_RECORD
  5
23
330
1
100
AcDbSymbolTableRecord
100
AcDbBlockTableRecord
  2
*Paper_Space0
340
26
  0
BLOCK_RECORD
  5
C8
330
1
100
AcDbSymbolTableRecord
100
AcDbBlockTableRecord
  2
SW_CENTERMARKSYMBOL_0
340
0
102
{BLKREFS
331
D3
102
}
  0
ENDTAB
  0
ENDSEC
  0
SECTION
  2
BLOCKS
  0
BLOCK
  5
20
330
1F
100
AcDbEntity
  8
0
100
AcDbBlockBegin
  2
*Model_Space
 70
     0
 10
0.0
 20
0.0
 30
0.0
  3
*Model_Space
  1

  0
ENDBLK
  5
21
330
1F
100
AcDbEntity
  8
0
100
AcDbBlockEnd
  0
BLOCK
  5
1C
330
1B
100
AcDbEntity
 67
     1
  8
0
100
AcDbBlockBegin
  2
*Paper_Space
 70
     0
 10
0.0
 20
0.0
 30
0.0
  3
*Paper_Space
  1

  0
ENDBLK
  5
1D
330
1B
100
AcDbEntity
 67
     1
  8
0
100
AcDbBlockEnd
  0
BLOCK
  5
24
330
23
100
AcDbEntity
  8
0
100
AcDbBlockBegin
  2
*Paper_Space0
 70
     0
 10
0.0
 20
0.0
 30
0.0
  3
*Paper_Space0
  1

  0
ENDBLK
  5
25
330
23
100
AcDbEntity
  8
0
100
AcDbBlockEnd
  0
BLOCK
  5
C9
330
C8
100
AcDbEntity
  8
0
100
AcDbBlockBegin
  2
SW_CENTERMARKSYMBOL_0
 70
     0
 10
0.0
 20
0.0
 30
0.0
  3
SW_CENTERMARKSYMBOL_0
  1

  0
LINE
  5
CB
330
C8
100
AcDbEntity
  8
0
  6
Continuous
 62
     0
370
    18
100
AcDbLine
 10
0.0
 20
0.0
 30
0.0
 11
0.0
 21
2.5
 31
0.0
  0
LINE
  5
CC
330
C8
100
AcDbEntity
  8
0
  6
Continuous
 62
     0
370
    18
100
AcDbLine
 10
0.0
 20
0.0
 30
0.0
 11
-2.5
 21
0.0
 31
0.0
  0
LINE
  5
CD
330
C8
100
AcDbEntity
  8
0
  6
Continuous
 62
     0
370
    18
100
AcDbLine
 10
0.0
 20
0.0
 30
0.0
 11
0.0
 21
-2.5
 31
0.0
  0
LINE
  5
CE
330
C8
100
AcDbEntity
  8
0
  6
Continuous
 62
     0
370
    18
100
AcDbLine
 10
0.0
 20
0.0
 30
0.0
 11
2.5
 21
0.0
 31
0.0
  0
LINE
  5
CF
330
C8
100
AcDbEntity
  8
0
  6
Continuous
 62
     0
370
    18
100
AcDbLine
 10
0.0
 20
5.0
 30
0.0
 11
0.0
 21
16.0956592227
 31
0.0
  0
LINE
  5
D0
330
C8
100
AcDbEntity
  8
0
  6
Continuous
 62
     0
370
    18
100
AcDbLine
 10
-5.0
 20
0.0
 30
0.0
 11
-13.8116074825
 21
0.0
 31
0.0
  0
LINE
  5
D1
330
C8
100
AcDbEntity
  8
0
  6
Continuous
 62
     0
370
    18
100
AcDbLine
 10
0.0
 20
-5.0
 30
0.0
 11
0.0
 21
-16.4832228995
 31
0.0
  0
LINE
  5
D2
330
C8
100
AcDbEntity
  8
0
  6
Continuous
 62
     0
370
    18
100
AcDbLine
 10
5.0
 20
0.0
 30
0.0
 11
13.9870774886
 21
0.0
 31
0.0
  0
ENDBLK
  5
CA
330
C8
100
AcDbEntity
  8
0
100
AcDbBlockEnd
  0
ENDSEC
  0
SECTION
  2
ENTITIES
  0
MTEXT
  5
74
330
1F
100
AcDbEntity
  8
0
  6
Continuous
 62
     7
370
     0
100
AcDbMText
 10
97.3247248555
 20
67.9914727719
 30
0.0
 40
2.9104166667
 41
0.0
 71
     1
 72
     1
  1
5R-NS1024
  7
SLDTEXTSTYLE0
 73
     1
 44
1.0
  0
LINE
  5
75
330
1F
100
AcDbEntity
  8
0
  6
Continuous
 62
     7
370
    25
100
AcDbLine
 10
89.1445989765
 20
28.3992548508
 30
0.0
 11
90.450049711
 21
30.6603618497
 31
0.0
  0
LINE
  5
76
330
1F
100
AcDbEntity
  8
0
  6
Continuous
 62
     7
370
    25
100
AcDbLine
 10
90.450049711
 20
56.1603618497
 30
0.0
 11
89.1445989765
 21
58.4214688486
 31
0.0
  0
LINE
  5
77
330
1F
100
AcDbEntity
  8
0
  6
Continuous
 62
     7
370
    25
100
AcDbLine
 10
55.7555004455
 20
58.4214688486
 30
0.0
 11
54.450049711
 21
56.1603618497
 31
0.0
  0
LINE
  5
78
330
1F
100
AcDbEntity
  8
0
  6
Continuous
 62
     7
370
    25
100
AcDbLine
 10
54.450049711
 20
30.6603618497
 30
0.0
 11
55.7555004455
 21
28.3992548508
 31
0.0
  0
LINE
  5
79
330
1F
100
AcDbEntity
  8
0
  6
Continuous
 62
     7
370
    25
100
AcDbLine
 10
72.450049711
 20
56.4103618497
 30
0.0
 11
71.985749076
 21
58.4214688486
 31
0.0
  0
LINE
  5
7A
330
1F
100
AcDbEntity
  8
0
  6
Continuous
 62
     7
370
    25
100
AcDbLine
 10
72.914350346
 20
58.4214688486
 30
0.0
 11
72.450049711
 21
56.4103618497
 31
0.0
  0
LINE
  5
7B
330
1F
100
AcDbEntity
  8
0
  6
Continuous
 62
     7
370
    25
100
AcDbLine
 10
72.450049711
 20
30.4103618497
 30
0.0
 11
72.914350346
 21
28.3992548508
 31
0.0
  0
LINE
  5
7C
330
1F
100
AcDbEntity
  8
0
  6
Continuous
 62
     7
370
    25
100
AcDbLine
 10
71.985749076
 20
28.3992548508
 30
0.0
 11
72.450049711
 21
30.4103618497
 31
0.0
  0
LINE
  5
7D
330
1F
100
AcDbEntity
  8
0
  6
Continuous
 62
     7
370
    25
100
AcDbLine
 10
85.950049711
 20
57.9214688486
 30
0.0
 11
85.8160751148
 21
58.4214688486
 31
0.0
  0
LINE
  5
7E
330
1F
100
AcDbEntity
  8
0
  6
Continuous
 62
     7
370
    25
100
AcDbLine
 10
86.0840243072
 20
58.4214688486
 30
0.0
 11
85.950049711
 21
57.9214688486
 31
0.0
  0
LINE
  5
7F
330
1F
100
AcDbEntity
  8
0
  6
Continuous
 62
     7
370
    25
100
AcDbLine
 10
85.950049711
 20
28.8992548508
 30
0.0
 11
86.0840243072
 21
28.3992548508
 31
0.0
  0
LINE
  5
80
330
1F
100
AcDbEntity
  8
0
  6
Continuous
 62
     7
370
    25
100
AcDbLine
 10
85.8160751148
 20
28.3992548508
 30
0.0
 11
85.950049711
 21
28.8992548508
 31
0.0
  0
SPLINE
  5
81
330
1F
100
AcDbEntity
  8
0
  6
Continuous
 62
     7
370
    25
100
AcDbSpline
210
0.0
220
0.0
230
1.0
 70
     8
 71
     3
 72
     8
 73
     4
 74
     0
 42
0.000000001
 43
0.00000001
 40
0.0
 40
0.0
 40
0.0
 40
0.0
 40
1.0
 40
1.0
 40
1.0
 40
1.0
 10
85.95004971098267
 20
49.8580146268387
 30
0.0
 10
85.99208447335344
 20
50.21107993558718
 30
0.0
 10
86.0368361470343
 20
50.56369812668113
 30
0.0
 10
86.08402430719822
 20
50.9159153491761
 30
0.0
  0
LINE
  5
82
330
1F
100
AcDbEntity
  8
0
  6
Continuous
 62
     7
370
    25
100
AcDbLine
 10
85.950049711
 20
51.4448657103
 30
0.0
 11
85.950049711
 21
49.8580146268
 31
0.0
  0
SPLINE
  5
83
330
1F
100
AcDbEntity
  8
0
  6
Continuous
 62
     7
370
    25
100
AcDbSpline
210
0.0
220
0.0
230
1.0
 70
     8
 71
     3
 72
     8
 73
     4
 74
     0
 42
0.000000001
 43
0.00000001
 40
0.0
 40
0.0
 40
0.0
 40
0.0
 40
1.0
 40
1.0
 40
1.0
 40
1.0
 10
86.08402430719822
 20
50.9159153491761
 30
0.0
 10
86.0368141773847
 20
51.0921059522721
 30
0.0
 10
85.9920641991571
 20
51.26841820115741
 30
0.0
 10
85.95004971098267
 20
51.44486571034479
 30
0.0
  0
LINE
  5
84
330
1F
100
AcDbEntity
  8
0
  6
Continuous
 62
     7
370
    25
100
AcDbLine
 10
89.1445989765
 20
58.4214688486
 30
0.0
 11
86.0840243072
 21
58.4214688486
 31
0.0
  0
SPLINE
  5
85
330
1F
100
AcDbEntity
  8
0
  6
Continuous
 62
     7
370
    25
100
AcDbSpline
210
0.0
220
0.0
230
1.0
 70
     8
 71
     3
 72
    16
 73
    12
 74
     0
 42
0.000000001
 43
0.00000001
 40
0.0
 40
0.0
 40
0.0
 40
0.0
 40
0.2499999999999999
 40
0.2499999999999999
 40
0.4999999999999998
 40
0.4999999999999998
 40
0.6249999999999998
 40
0.6249999999999998
 40
0.7499999999999999
 40
0.7499999999999999
 40
1.0
 40
1.0
 40
1.0
 40
1.0
 10
89.14459897648399
 20
58.4214688486413
 30
0.0
 10
89.49837457826926
 20
57.80871153187094
 30
0.0
 10
89.78994971195685
 20
57.19148679704572
 30
0.0
 10
90.19387590507237
 20
55.94416493447437
 30
0.0
 10
90.30489458711311
 20
55.31397211151923
 30
0.0
 10
90.30611406890036
 20
54.35680993811198
 30
0.0
 10
90.27897434185786
 20
54.03625428581903
 30
0.0
 10
90.17314358136719
 20
53.40216145387686
 30
0.0
 10
90.09455996489534
 20
53.08724091402362
 30
0.0
 10
89.79111242961991
 20
52.1480860204756
 30
0.0
 10
89.49881560474685
 20
51.52943654621333
 30
0.0
 10
89.14459897648386
 20
50.91591534917609
 30
0.0
  0
LINE
  5
86
330
1F
100
AcDbEntity
  8
0
  6
Continuous
 62
     7
370
    25
100
AcDbLine
 10
89.1445989765
 20
50.9159153492
 30
0.0
 11
86.0840243072
 21
50.9159153492
 31
0.0
  0
SPLINE
  5
87
330
1F
100
AcDbEntity
  8
0
  6
Continuous
 62
     7
370
    25
100
AcDbSpline
210
0.0
220
0.0
230
1.0
 70
     8
 71
     3
 72
     8
 73
     4
 74
     0
 42
0.000000001
 43
0.00000001
 40
0.0
 40
0.0
 40
0.0
 40
0.0
 40
1.0
 40
1.0
 40
1.0
 40
1.0
 10
85.95004971098267
 20
51.44486571034479
 30
0.0
 10
85.9080138483772
 20
51.26832843533424
 30
0.0
 10
85.86326208387878
 20
51.09201951535605
 30
0.0
 10
85.8160751147671
 20
50.9159153491761
 30
0.0
  0
LINE
  5
88
330
1F
100
AcDbEntity
  8
0
  6
Continuous
 62
     7
370
    25
100
AcDbLine
 10
85.8160751148
 20
50.9159153492
 30
0.0
 11
72.914350346
 21
50.9159153492
 31
0.0
  0
SPLINE
  5
89
330
1F
100
AcDbEntity
  8
0
  6
Continuous
 62
     7
370
    25
100
AcDbSpline
210
0.0
220
0.0
230
1.0
 70
     8
 71
     3
 72
    10
 73
     6
 74
     0
 42
0.000000001
 43
0.00000001
 40
0.0
 40
0.0
 40
0.0
 40
0.0
 40
0.5
 40
0.5
 40
1.0
 40
1.0
 40
1.0
 40
1.0
 10
72.45004971098267
 20
54.66869209890869
 30
0.0
 10
72.45004971098267
 20
54.04322930728659
 30
0.0
 10
72.49250283057113
 20
53.4177665156645
 30
0.0
 10
72.6526996518459
 20
52.1668409324203
 30
0.0
 10
72.76995088266747
 20
51.5413781407982
 30
0.0
 10
72.91435034598561
 20
50.9159153491761
 30
0.0
  0
SPLINE
  5
8A
330
1F
100
AcDbEntity
  8
0
  6
Continuous
 62
     7
370
    25
100
AcDbSpline
210
0.0
220
0.0
230
1.0
 70
     8
 71
     3
 72
    10
 73
     6
 74
     0
 42
0.000000001
 43
0.00000001
 40
0.0
 40
0.0
 40
0.0
 40
0.0
 40
0.5
 40
0.5
 40
1.0
 40
1.0
 40
1.0
 40
1.0
 10
72.91435034598561
 20
58.42146884864128
 30
0.0
 10
72.76995088266747
 20
57.79600605701917
 30
0.0
 10
72.6526996518459
 20
57.17054326539708
 30
0.0
 10
72.49250283057113
 20
55.91961768215288
 30
0.0
 10
72.45004971098267
 20
55.29415489053078
 30
0.0
 10
72.45004971098267
 20
54.66869209890869
 30
0.0
  0
LINE
  5
8B
330
1F
100
AcDbEntity
  8
0
  6
Continuous
 62
     7
370
    25
100
AcDbLine
 10
85.8160751148
 20
58.4214688486
 30
0.0
 11
72.914350346
 21
58.4214688486
 31
0.0
  0
SPLINE
  5
8C
330
1F
100
AcDbEntity
  8
0
  6
Continuous
 62
     7
370
    25
100
AcDbSpline
210
0.0
220
0.0
230
1.0
 70
     8
 71
     3
 72
     8
 73
     4
 74
     0
 42
0.000000001
 43
0.00000001
 40
0.0
 40
0.0
 40
0.0
 40
0.0
 40
1.0
 40
1.0
 40
1.0
 40
1.0
 10
85.8160751147671
 20
58.42146884864128
 30
0.0
 10
85.86328524458064
 20
58.24527824554528
 30
0.0
 10
85.90803522280822
 20
58.06896599665996
 30
0.0
 10
85.95004971098267
 20
57.89251848747257
 30
0.0
  0
SPLINE
  5
8D
330
1F
100
AcDbEntity
  8
0
  6
Continuous
 62
     7
370
    25
100
AcDbSpline
210
0.0
220
0.0
230
1.0
 70
     8
 71
     3
 72
     8
 73
     4
 74
     0
 42
0.000000001
 43
0.00000001
 40
0.0
 40
0.0
 40
0.0
 40
0.0
 40
1.0
 40
1.0
 40
1.0
 40
1.0
 10
85.95004971098267
 20
57.89251848747257
 30
0.0
 10
85.99208557358813
 20
58.06905576248312
 30
0.0
 10
86.03683733808656
 20
58.24536468246131
 30
0.0
 10
86.08402430719822
 20
58.42146884864128
 30
0.0
  0
SPLINE
  5
8E
330
1F
100
AcDbEntity
  8
0
  6
Continuous
 62
     7
370
    25
100
AcDbSpline
210
0.0
220
0.0
230
1.0
 70
     8
 71
     3
 72
    16
 73
    12
 74
     0
 42
0.000000001
 43
0.00000001
 40
0.0
 40
0.0
 40
0.0
 40
0.0
 40
0.25
 40
0.25
 40
0.5
 40
0.5
 40
0.625
 40
0.625
 40
0.75
 40
0.75
 40
1.0
 40
1.0
 40
1.0
 40
1.0
 10
89.14459897648376
 20
35.90480835024577
 30
0.0
 10
89.49726557125236
 20
37.12648127078882
 30
0.0
 10
89.79280210325648
 20
38.37697897834553
 30
0.0
 10
90.19681292289062
 20
40.88304287594756
 30
0.0
 10
90.30585175713486
 20
42.14355160486473
 30
0.0
 10
90.30564213224665
 20
44.04748562976402
 30
0.0
 10
90.27859673243826
 20
44.68429979485683
 30
0.0
 10
90.17118830272727
 20
45.96221616291061
 30
0.0
 10
90.09162784012464
 20
46.59464334571008
 30
0.0
 10
89.78648829767997
 20
48.47356786935185
 30
0.0
 10
89.49485737997703
 20
49.70258464791938
 30
0.0
 10
89.14459897648372
 20
50.9159153491761
 30
0.0
  0
LINE
  5
8F
330
1F
100
AcDbEntity
  8
0
  6
Continuous
 62
     7
370
    25
100
AcDbLine
 10
89.1445989765
 20
35.9048083502
 30
0.0
 11
86.0840243072
 21
35.9048083502
 31
0.0
  0
SPLINE
  5
90
330
1F
100
AcDbEntity
  8
0
  6
Continuous
 62
     7
370
    25
100
AcDbSpline
210
0.0
220
0.0
230
1.0
 70
     8
 71
     3
 72
     8
 73
     4
 74
     0
 42
0.000000001
 43
0.00000001
 40
0.0
 40
0.0
 40
0.0
 40
0.0
 40
1.0
 40
1.0
 40
1.0
 40
1.0
 10
86.08402430719822
 20
35.90480835024579
 30
0.0
 10
86.03681077931955
 20
36.2572149199413
 30
0.0
 10
85.9920610667593
 20
36.60984036436064
 30
0.0
 10
85.95004971098267
 20
36.96270907258318
 30
0.0
  0
SPLINE
  5
91
330
1F
100
AcDbEntity
  8
0
  6
Continuous
 62
     7
370
    25
100
AcDbSpline
210
0.0
220
0.0
230
1.0
 70
     8
 71
     3
 72
     8
 73
     4
 74
     0
 42
0.000000001
 43
0.00000001
 40
0.0
 40
0.0
 40
0.0
 40
0.0
 40
1.0
 40
1.0
 40
1.0
 40
1.0
 10
85.95004971098267
 20
36.96270907258318
 30
0.0
 10
85.90801494861188
 20
36.60964376383471
 30
0.0
 10
85.86326327493103
 20
36.25702557274076
 30
0.0
 10
85.8160751147671
 20
35.90480835024579
 30
0.0
  0
LINE
  5
92
330
1F
100
AcDbEntity
  8
0
  6
Continuous
 62
     7
370
    25
100
AcDbLine
 10
85.8160751148
 20
35.9048083502
 30
0.0
 11
72.914350346
 21
35.9048083502
 31
0.0
  0
SPLINE
  5
93
330
1F
100
AcDbEntity
  8
0
  6
Continuous
 62
     7
370
    25
100
AcDbSpline
210
0.0
220
0.0
230
1.0
 70
     8
 71
     3
 72
    10
 73
     6
 74
     0
 42
0.000000001
 43
0.00000001
 40
0.0
 40
0.0
 40
0.0
 40
0.0
 40
0.5
 40
0.5
 40
1.0
 40
1.0
 40
1.0
 40
1.0
 10
72.91435034598564
 20
35.90480835024579
 30
0.0
 10
72.77028654848007
 20
37.15282607675214
 30
0.0
 10
72.6526895545786
 20
38.40660726382551
 30
0.0
 10
72.49242558437894
 20
40.90992712467945
 30
0.0
 10
72.45004971098267
 20
42.16066303043094
 30
0.0
 10
72.45004971098267
 20
43.41036184971095
 30
0.0
  0
SPLINE
  5
94
330
1F
100
AcDbEntity
  8
0
  6
Continuous
 62
     7
370
    25
100
AcDbSpline
210
0.0
220
0.0
230
1.0
 70
     8
 71
     3
 72
    10
 73
     6
 74
     0
 42
0.000000001
 43
0.00000001
 40
0.0
 40
0.0
 40
0.0
 40
0.0
 40
0.5
 40
0.5
 40
1.0
 40
1.0
 40
1.0
 40
1.0
 10
72.45004971098267
 20
43.41036184971095
 30
0.0
 10
72.45004971098267
 20
44.66318127752859
 30
0.0
 10
72.49262594181118
 20
45.91495871542461
 30
0.0
 10
72.65291961414547
 20
48.4166746218504
 30
0.0
 10
72.77013967479661
 20
49.66662526303679
 30
0.0
 10
72.91435034598564
 20
50.9159153491761
 30
0.0
  0
SPLINE
  5
95
330
1F
100
AcDbEntity
  8
0
  6
Continuous
 62
     7
370
    25
100
AcDbSpline
210
0.0
220
0.0
230
1.0
 70
     8
 71
     3
 72
     8
 73
     4
 74
     0
 42
0.000000001
 43
0.00000001
 40
0.0
 40
0.0
 40
0.0
 40
0.0
 40
1.0
 40
1.0
 40
1.0
 40
1.0
 10
85.8160751147671
 20
50.9159153491761
 30
0.0
 10
85.86328864264577
 20
50.56350877948059
 30
0.0
 10
85.90803835520602
 20
50.21088333506125
 30
0.0
 10
85.95004971098267
 20
49.85801462683871
 30
0.0
  0
LINE
  5
96
330
1F
100
AcDbEntity
  8
0
  6
Continuous
 62
     7
370
    25
100
AcDbLine
 10
85.950049711
 20
36.9627090726
 30
0.0
 11
85.950049711
 21
35.3758579891
 31
0.0
  0
SPLINE
  5
97
330
1F
100
AcDbEntity
  8
0
  6
Continuous
 62
     7
370
    25
100
AcDbSpline
210
0.0
220
0.0
230
1.0
 70
     8
 71
     3
 72
     8
 73
     4
 74
     0
 42
0.000000001
 43
0.00000001
 40
0.0
 40
0.0
 40
0.0
 40
0.0
 40
1.0
 40
1.0
 40
1.0
 40
1.0
 10
85.8160751147671
 20
35.90480835024579
 30
0.0
 10
85.86328524458064
 20
35.72861774714979
 30
0.0
 10
85.90803522280822
 20
35.55230549826449
 30
0.0
 10
85.95004971098267
 20
35.3758579890771
 30
0.0
  0
LINE
  5
98
330
1F
100
AcDbEntity
  8
0
  6
Continuous
 62
     7
370
    25
100
AcDbLine
 10
71.985749076
 20
50.9159153492
 30
0.0
 11
55.7555004455
 21
50.9159153492
 31
0.0
  0
SPLINE
  5
99
330
1F
100
AcDbEntity
  8
0
  6
Continuous
 62
     7
370
    25
100
AcDbSpline
210
0.0
220
0.0
230
1.0
 70
     8
 71
     3
 72
    10
 73
     6
 74
     0
 42
0.000000001
 43
0.00000001
 40
0.0
 40
0.0
 40
0.0
 40
0.0
 40
0.5
 40
0.5
 40
1.0
 40
1.0
 40
1.0
 40
1.0
 10
72.45004971098267
 20
43.41036184971095
 30
0.0
 10
72.45004971098267
 20
44.66318127752859
 30
0.0
 10
72.40747348015414
 20
45.91495871542461
 30
0.0
 10
72.24717980781985
 20
48.4166746218504
 30
0.0
 10
72.12995974716873
 20
49.66662526303679
 30
0.0
 10
71.98574907597968
 20
50.9159153491761
 30
0.0
  0
SPLINE
  5
9A
330
1F
100
AcDbEntity
  8
0
  6
Continuous
 62
     7
370
    25
100
AcDbSpline
210
0.0
220
0.0
230
1.0
 70
     8
 71
     3
 72
    10
 73
     6
 74
     0
 42
0.000000001
 43
0.00000001
 40
0.0
 40
0.0
 40
0.0
 40
0.0
 40
0.5
 40
0.5
 40
1.0
 40
1.0
 40
1.0
 40
1.0
 10
71.98574907597968
 20
35.90480835024579
 30
0.0
 10
72.12981287348526
 20
37.15282607675214
 30
0.0
 10
72.24740986738674
 20
38.40660726382551
 30
0.0
 10
72.4076738375864
 20
40.90992712467945
 30
0.0
 10
72.45004971098267
 20
42.16066303043094
 30
0.0
 10
72.45004971098267
 20
43.41036184971095
 30
0.0
  0
LINE
  5
9B
330
1F
100
AcDbEntity
  8
0
  6
Continuous
 62
     7
370
    25
100
AcDbLine
 10
71.985749076
 20
35.9048083502
 30
0.0
 11
55.7555004455
 21
35.9048083502
 31
0.0
  0
SPLINE
  5
9C
330
1F
100
AcDbEntity
  8
0
  6
Continuous
 62
     7
370
    25
100
AcDbSpline
210
0.0
220
0.0
230
1.0
 70
     8
 71
     3
 72
    16
 73
    12
 74
     0
 42
0.000000001
 43
0.00000001
 40
0.0
 40
0.0
 40
0.0
 40
0.0
 40
0.25
 40
0.25
 40
0.5
 40
0.5
 40
0.625
 40
0.625
 40
0.75
 40
0.75
 40
1.0
 40
1.0
 40
1.0
 40
1.0
 10
55.75550044548157
 20
35.90480835024578
 30
0.0
 10
55.40259043738133
 20
37.12732447930413
 30
0.0
 10
55.10724023579918
 20
38.37737539003883
 30
0.0
 10
54.70338825645948
 20
40.88236935485012
 30
0.0
 10
54.59422803356343
 20
42.14299124269105
 30
0.0
 10
54.594467166662
 20
44.04828624395351
 30
0.0
 10
54.62166323213896
 20
44.68691409077793
 30
0.0
 10
54.72911372642967
 20
45.96392013949925
 30
0.0
 10
54.80862292634735
 20
46.59567970613588
 30
0.0
 10
55.11364503694892
 20
48.47356763098711
 30
0.0
 10
55.40519584999424
 20
49.70242463415813
 30
0.0
 10
55.7555004454816
 20
50.9159153491761
 30
0.0
  0
LINE
  5
9D
330
1F
100
AcDbEntity
  8
0
  6
Continuous
 62
     7
370
    25
100
AcDbLine
 10
71.985749076
 20
58.4214688486
 30
0.0
 11
55.7555004455
 21
58.4214688486
 31
0.0
  0
SPLINE
  5
9E
330
1F
100
AcDbEntity
  8
0
  6
Continuous
 62
     7
370
    25
100
AcDbSpline
210
0.0
220
0.0
230
1.0
 70
     8
 71
     3
 72
    10
 73
     6
 74
     0
 42
0.000000001
 43
0.00000001
 40
0.0
 40
0.0
 40
0.0
 40
0.0
 40
0.5
 40
0.5
 40
1.0
 40
1.0
 40
1.0
 40
1.0
 10
71.98574907597973
 20
58.42146884864128
 30
0.0
 10
72.13014853929786
 20
57.79600605701917
 30
0.0
 10
72.24739977011943
 20
57.17054326539708
 30
0.0
 10
72.4075965913942
 20
55.91961768215288
 30
0.0
 10
72.45004971098267
 20
55.29415489053078
 30
0.0
 10
72.45004971098267
 20
54.66869209890869
 30
0.0
  0
SPLINE
  5
9F
330
1F
100
AcDbEntity
  8
0
  6
Continuous
 62
     7
370
    25
100
AcDbSpline
210
0.0
220
0.0
230
1.0
 70
     8
 71
     3
 72
    10
 73
     6
 74
     0
 42
0.000000001
 43
0.00000001
 40
0.0
 40
0.0
 40
0.0
 40
0.0
 40
0.5
 40
0.5
 40
1.0
 40
1.0
 40
1.0
 40
1.0
 10
72.45004971098267
 20
54.66869209890869
 30
0.0
 10
72.45004971098267
 20
54.04322930728659
 30
0.0
 10
72.4075965913942
 20
53.4177665156645
 30
0.0
 10
72.24739977011943
 20
52.1668409324203
 30
0.0
 10
72.13014853929786
 20
51.5413781407982
 30
0.0
 10
71.98574907597973
 20
50.9159153491761
 30
0.0
  0
SPLINE
  5
A0
330
1F
100
AcDbEntity
  8
0
  6
Continuous
 62
     7
370
    25
100
AcDbSpline
210
0.0
220
0.0
230
1.0
 70
     8
 71
     3
 72
    16
 73
    12
 74
     0
 42
0.000000001
 43
0.00000001
 40
0.0
 40
0.0
 40
0.0
 40
0.0
 40
0.2499999999999998
 40
0.2499999999999998
 40
0.4999999999999997
 40
0.4999999999999997
 40
0.6249999999999998
 40
0.6249999999999998
 40
0.7499999999999999
 40
0.7499999999999999
 40
1.0
 40
1.0
 40
1.0
 40
1.0
 10
55.75550044548133
 20
50.91591534917608
 30
0.0
 10
55.40172484369607
 20
51.52867266594644
 30
0.0
 10
55.11014971000848
 20
52.14589740077166
 30
0.0
 10
54.70622351689295
 20
53.39321926334301
 30
0.0
 10
54.59520483485223
 20
54.02341208629814
 30
0.0
 10
54.59398535306498
 20
54.9805742597054
 30
0.0
 10
54.62112508010747
 20
55.30112991199835
 30
0.0
 10
54.72695584059814
 20
55.93522274394051
 30
0.0
 10
54.80553945706998
 20
56.25014328379376
 30
0.0
 10
55.10898699234541
 20
57.18929817734178
 30
0.0
 10
55.40128381721848
 20
57.80794765160406
 30
0.0
 10
55.75550044548147
 20
58.42146884864129
 30
0.0
  0
SPLINE
  5
A1
330
1F
100
AcDbEntity
  8
0
  6
Continuous
 62
     7
370
    25
100
AcDbSpline
210
0.0
220
0.0
230
1.0
 70
     8
 71
     3
 72
    10
 73
     6
 74
     0
 42
0.000000001
 43
0.00000001
 40
0.0
 40
0.0
 40
0.0
 40
0.0
 40
0.5
 40
0.5
 40
1.0
 40
1.0
 40
1.0
 40
1.0
 10
72.91435034598561
 20
35.90480835024579
 30
0.0
 10
72.76995088266747
 20
35.2793455586237
 30
0.0
 10
72.6526996518459
 20
34.65388276700161
 30
0.0
 10
72.49250283057113
 20
33.40295718375743
 30
0.0
 10
72.45004971098267
 20
32.77749439213535
 30
0.0
 10
72.45004971098267
 20
32.15203160051325
 30
0.0
  0
LINE
  5
A2
330
1F
100
AcDbEntity
  8
0
  6
Continuous
 62
     7
370
    25
100
AcDbLine
 10
72.450049711
 20
43.4103618497
 30
0.0
 11
72.450049711
 21
32.1520316005
 31
0.0
  0
SPLINE
  5
A3
330
1F
100
AcDbEntity
  8
0
  6
Continuous
 62
     7
370
    25
100
AcDbSpline
210
0.0
220
0.0
230
1.0
 70
     8
 71
     3
 72
     8
 73
     4
 74
     0
 42
0.000000001
 43
0.00000001
 40
0.0
 40
0.0
 40
0.0
 40
0.0
 40
1.0
 40
1.0
 40
1.0
 40
1.0
 10
85.95004971098267
 20
35.3758579890771
 30
0.0
 10
85.99208557358813
 20
35.55239526408765
 30
0.0
 10
86.03683733808656
 20
35.72870418406585
 30
0.0
 10
86.08402430719822
 20
35.90480835024579
 30
0.0
  0
SPLINE
  5
A4
330
1F
100
AcDbEntity
  8
0
  6
Continuous
 62
     7
370
    25
100
AcDbSpline
210
0.0
220
0.0
230
1.0
 70
     8
 71
     3
 72
    10
 73
     6
 74
     0
 42
0.000000001
 43
0.00000001
 40
0.0
 40
0.0
 40
0.0
 40
0.0
 40
0.5
 40
0.5
 40
1.0
 40
1.0
 40
1.0
 40
1.0
 10
71.98574907597973
 20
35.90480835024579
 30
0.0
 10
72.13014853929786
 20
35.2793455586237
 30
0.0
 10
72.24739977011943
 20
34.65388276700161
 30
0.0
 10
72.4075965913942
 20
33.40295718375743
 30
0.0
 10
72.45004971098267
 20
32.77749439213535
 30
0.0
 10
72.45004971098267
 20
32.15203160051325
 30
0.0
  0
LINE
  5
A5
330
1F
100
AcDbEntity
  8
0
  6
Continuous
 62
     7
370
    25
100
AcDbLine
 10
72.450049711
 20
54.6686920989
 30
0.0
 11
72.450049711
 21
43.4103618497
 31
0.0
  0
SPLINE
  5
A6
330
1F
100
AcDbEntity
  8
0
  6
Continuous
 62
     7
370
    25
100
AcDbSpline
210
0.0
220
0.0
230
1.0
 70
     8
 71
     3
 72
    16
 73
    12
 74
     0
 42
0.000000001
 43
0.00000001
 40
0.0
 40
0.0
 40
0.0
 40
0.0
 40
0.2500000000000001
 40
0.2500000000000001
 40
0.5000000000000002
 40
0.5000000000000002
 40
0.6250000000000001
 40
0.6250000000000001
 40
0.7500000000000001
 40
0.7500000000000001
 40
1.0
 40
1.0
 40
1.0
 40
1.0
 10
89.14459897648399
 20
35.90480835024581
 30
0.0
 10
89.49837457826926
 20
35.29205103347547
 30
0.0
 10
89.78994971195685
 20
34.67482629865025
 30
0.0
 10
90.19387590507237
 20
33.42750443607891
 30
0.0
 10
90.30489458711311
 20
32.79731161312378
 30
0.0
 10
90.30611406890036
 20
31.84014943971654
 30
0.0
 10
90.27897434185786
 20
31.51959378742359
 30
0.0
 10
90.17314358136719
 20
30.88550095548143
 30
0.0
 10
90.09455996489535
 20
30.57058041562819
 30
0.0
 10
89.79111242961991
 20
29.6314255220802
 30
0.0
 10
89.49881560474685
 20
29.01277604781792
 30
0.0
 10
89.14459897648386
 20
28.3992548507807
 30
0.0
  0
LINE
  5
A7
330
1F
100
AcDbEntity
  8
0
  6
Continuous
 62
     7
370
    25
100
AcDbLine
 10
90.450049711
 20
56.1603618497
 30
0.0
 11
90.450049711
 21
30.6603618497
 31
0.0
  0
SPLINE
  5
A8
330
1F
100
AcDbEntity
  8
0
  6
Continuous
 62
     7
370
    25
100
AcDbSpline
210
0.0
220
0.0
230
1.0
 70
     8
 71
     3
 72
    16
 73
    12
 74
     0
 42
0.000000001
 43
0.00000001
 40
0.0
 40
0.0
 40
0.0
 40
0.0
 40
0.25
 40
0.25
 40
0.5
 40
0.5
 40
0.625
 40
0.625
 40
0.75
 40
0.75
 40
1.0
 40
1.0
 40
1.0
 40
1.0
 10
55.75550044548134
 20
28.39925485078069
 30
0.0
 10
55.40172484369607
 20
29.01201216755103
 30
0.0
 10
55.11014971000848
 20
29.62923690237625
 30
0.0
 10
54.70622351689295
 20
30.87655876494758
 30
0.0
 10
54.59520483485223
 20
31.50675158790271
 30
0.0
 10
54.59398535306498
 20
32.46391376130995
 30
0.0
 10
54.62112508010747
 20
32.78446941360291
 30
0.0
 10
54.72695584059814
 20
33.41856224554507
 30
0.0
 10
54.80553945706998
 20
33.73348278539831
 30
0.0
 10
55.10898699234541
 20
34.67263767894631
 30
0.0
 10
55.40128381721848
 20
35.29128715320858
 30
0.0
 10
55.75550044548147
 20
35.9048083502458
 30
0.0
  0
LINE
  5
A9
330
1F
100
AcDbEntity
  8
0
  6
Continuous
 62
     7
370
    25
100
AcDbLine
 10
54.450049711
 20
43.4103618497
 30
0.0
 11
54.450049711
 21
56.1603618497
 31
0.0
  0
LINE
  5
AA
330
1F
100
AcDbEntity
  8
0
  6
Continuous
 62
     7
370
    25
100
AcDbLine
 10
54.450049711
 20
30.6603618497
 30
0.0
 11
54.450049711
 21
43.4103618497
 31
0.0
  0
LINE
  5
AB
330
1F
100
AcDbEntity
  8
0
  6
Continuous
 62
     7
370
    25
100
AcDbLine
 10
89.1445989765
 20
28.3992548508
 30
0.0
 11
86.0840243072
 21
28.3992548508
 31
0.0
  0
SPLINE
  5
AC
330
1F
100
AcDbEntity
  8
0
  6
Continuous
 62
     7
370
    25
100
AcDbSpline
210
0.0
220
0.0
230
1.0
 70
     8
 71
     3
 72
     8
 73
     4
 74
     0
 42
0.000000001
 43
0.00000001
 40
0.0
 40
0.0
 40
0.0
 40
0.0
 40
1.0
 40
1.0
 40
1.0
 40
1.0
 10
86.08402430719822
 20
28.39925485078071
 30
0.0
 10
86.0368141773847
 20
28.57544545387671
 30
0.0
 10
85.9920641991571
 20
28.75175770276201
 30
0.0
 10
85.95004971098267
 20
28.9282052119494
 30
0.0
  0
SPLINE
  5
AD
330
1F
100
AcDbEntity
  8
0
  6
Continuous
 62
     7
370
    25
100
AcDbSpline
210
0.0
220
0.0
230
1.0
 70
     8
 71
     3
 72
     8
 73
     4
 74
     0
 42
0.000000001
 43
0.00000001
 40
0.0
 40
0.0
 40
0.0
 40
0.0
 40
1.0
 40
1.0
 40
1.0
 40
1.0
 10
85.95004971098267
 20
28.9282052119494
 30
0.0
 10
85.9080138483772
 20
28.75166793693885
 30
0.0
 10
85.86326208387878
 20
28.57535901696066
 30
0.0
 10
85.8160751147671
 20
28.39925485078071
 30
0.0
  0
LINE
  5
AE
330
1F
100
AcDbEntity
  8
0
  6
Continuous
 62
     7
370
    25
100
AcDbLine
 10
85.8160751148
 20
28.3992548508
 30
0.0
 11
72.914350346
 21
28.3992548508
 31
0.0
  0
SPLINE
  5
AF
330
1F
100
AcDbEntity
  8
0
  6
Continuous
 62
     7
370
    25
100
AcDbSpline
210
0.0
220
0.0
230
1.0
 70
     8
 71
     3
 72
    10
 73
     6
 74
     0
 42
0.000000001
 43
0.00000001
 40
0.0
 40
0.0
 40
0.0
 40
0.0
 40
0.5
 40
0.5
 40
1.0
 40
1.0
 40
1.0
 40
1.0
 10
72.45004971098267
 20
32.15203160051325
 30
0.0
 10
72.45004971098267
 20
31.52656880889116
 30
0.0
 10
72.49250283057113
 20
30.90110601726907
 30
0.0
 10
72.6526996518459
 20
29.65018043402489
 30
0.0
 10
72.76995088266747
 20
29.02471764240279
 30
0.0
 10
72.91435034598561
 20
28.39925485078071
 30
0.0
  0
SPLINE
  5
B0
330
1F
100
AcDbEntity
  8
0
  6
Continuous
 62
     7
370
    25
100
AcDbSpline
210
0.0
220
0.0
230
1.0
 70
     8
 71
     3
 72
    10
 73
     6
 74
     0
 42
0.000000001
 43
0.00000001
 40
0.0
 40
0.0
 40
0.0
 40
0.0
 40
0.5
 40
0.5
 40
1.0
 40
1.0
 40
1.0
 40
1.0
 10
72.45004971098267
 20
32.15203160051325
 30
0.0
 10
72.45004971098267
 20
31.52656880889116
 30
0.0
 10
72.4075965913942
 20
30.90110601726907
 30
0.0
 10
72.24739977011943
 20
29.65018043402489
 30
0.0
 10
72.13014853929786
 20
29.02471764240279
 30
0.0
 10
71.98574907597973
 20
28.39925485078071
 30
0.0
  0
LINE
  5
B1
330
1F
100
AcDbEntity
  8
0
  6
Continuous
 62
     7
370
    25
100
AcDbLine
 10
71.985749076
 20
28.3992548508
 30
0.0
 11
55.7555004455
 21
28.3992548508
 31
0.0
  0
LINE
  5
B2
330
1F
100
AcDbEntity
  8
0
  6
Continuous
 62
     7
370
    25
100
AcDbLine
 10
72.450049711
 20
56.4103618497
 30
0.0
 11
72.450049711
 21
54.6686920989
 31
0.0
  0
LINE
  5
B3
330
1F
100
AcDbEntity
  8
0
  6
Continuous
 62
     7
370
    25
100
AcDbLine
 10
72.450049711
 20
32.1520316005
 30
0.0
 11
72.450049711
 21
30.4103618497
 31
0.0
  0
LINE
  5
B4
330
1F
100
AcDbEntity
  8
0
  6
Continuous
 62
     7
370
    25
100
AcDbLine
 10
85.950049711
 20
57.9214688486
 30
0.0
 11
85.950049711
 21
57.8925184875
 31
0.0
  0
LINE
  5
B5
330
1F
100
AcDbEntity
  8
0
  6
Continuous
 62
     7
370
    25
100
AcDbLine
 10
85.950049711
 20
28.9282052119
 30
0.0
 11
85.950049711
 21
28.8992548508
 31
0.0
  0
LINE
  5
B6
330
1F
100
AcDbEntity
  8
0
  6
CENTERX2
 62
     7
370
    18
100
AcDbLine
 10
88.1445989765
 20
43.4103618497
 30
0.0
 11
91.450049711
 21
43.4103618497
 31
0.0
  0
LINE
  5
B7
330
1F
100
AcDbEntity
  8
0
  6
CENTERX2
 62
     7
370
    18
100
AcDbLine
 10
89.1445989765
 20
43.4103618497
 30
0.0
 11
85.0840243072
 21
43.4103618497
 31
0.0
  0
LINE
  5
B8
330
1F
100
AcDbEntity
  8
0
  6
CENTERX2
 62
     7
370
    18
100
AcDbLine
 10
86.8160751148
 20
43.4103618497
 30
0.0
 11
71.914350346
 21
43.4103618497
 31
0.0
  0
LINE
  5
B9
330
1F
100
AcDbEntity
  8
0
  6
CENTERX2
 62
     7
370
    18
100
AcDbLine
 10
72.985749076
 20
43.4103618497
 30
0.0
 11
54.7555004455
 21
43.4103618497
 31
0.0
  0
LINE
  5
BA
330
1F
100
AcDbEntity
  8
0
  6
CENTERX2
 62
     7
370
    18
100
AcDbLine
 10
56.7555004455
 20
43.4103618497
 30
0.0
 11
53.450049711
 21
43.4103618497
 31
0.0
  0
CIRCLE
  5
BB
330
1F
100
AcDbEntity
  8
0
  6
Continuous
 62
     7
370
    25
100
AcDbCircle
 10
122.8583317919
 20
43.4103618497
 30
0.0
 40
12.75
  0
CIRCLE
  5
BC
330
1F
100
AcDbEntity
  8
0
  6
Continuous
 62
     7
370
    25
100
AcDbCircle
 10
122.8583317919
 20
43.4103618497
 30
0.0
 40
10.75
  0
SPLINE
  5
BD
330
1F
100
AcDbEntity
  8
0
  6
Continuous
 62
     7
370
    25
100
AcDbSpline
210
0.0
220
0.0
230
1.0
 70
    24
 71
     3
 72
    16
 73
    12
 74
     0
 42
0.000000001
 43
0.00000001
 40
0.0
 40
0.0
 40
0.0
 40
0.0
 40
0.2499999999999999
 40
0.2499999999999999
 40
0.4999999999999999
 40
0.4999999999999999
 40
0.6249999999999999
 40
0.6249999999999999
 40
0.7499999999999998
 40
0.7499999999999998
 40
1.0
 40
1.0
 40
1.0
 40
1.0
 10
135.8583317919076
 20
35.90480835024595
 30
0.0
 10
135.8583317919076
 20
37.12648127078898
 30
0.0
 10
135.8583317919076
 20
38.37697897834568
 30
0.0
 10
135.8583317919075
 20
40.88304287594791
 30
0.0
 10
135.8583317919075
 20
42.14355160486525
 30
0.0
 10
135.8583317919075
 20
44.04748562976491
 30
0.0
 10
135.8583317919075
 20
44.68429979485786
 30
0.0
 10
135.8583317919075
 20
45.96221616291197
 30
0.0
 10
135.8583317919075
 20
46.59464334571089
 30
0.0
 10
135.8583317919075
 20
48.47356786935224
 30
0.0
 10
135.8583317919075
 20
49.70258464791963
 30
0.0
 10
135.8583317919074
 20
50.91591534917628
 30
0.0
  0
SPLINE
  5
BE
330
1F
100
AcDbEntity
  8
0
  6
Continuous
 62
     7
370
    25
100
AcDbSpline
210
0.0
220
0.0
230
1.0
 70
    24
 71
     3
 72
    16
 73
    12
 74
     0
 42
0.000000001
 43
0.00000001
 40
0.0
 40
0.0
 40
0.0
 40
0.0
 40
0.2500000000000001
 40
0.2500000000000001
 40
0.5000000000000001
 40
0.5000000000000001
 40
0.6250000000000003
 40
0.6250000000000003
 40
0.7500000000000004
 40
0.7500000000000004
 40
1.0
 40
1.0
 40
1.0
 40
1.0
 10
122.8583317919076
 20
28.39925485078069
 30
0.0
 10
123.9196585972634
 20
29.01201216755105
 30
0.0
 10
124.9887231976689
 20
29.62923690237628
 30
0.0
 10
127.1491480370339
 20
30.87655876494764
 30
0.0
 10
128.2406740249575
 20
31.50675158790278
 30
0.0
 10
129.8985275403819
 20
32.46391376131005
 30
0.0
 10
130.4537462168066
 20
32.78446941360301
 30
0.0
 10
131.5520272184457
 20
33.41856224554518
 30
0.0
 10
132.0974855938185
 20
33.73348278539844
 30
0.0
 10
133.7241495856206
 20
34.67263767894645
 30
0.0
 10
134.7956819071186
 20
35.29128715320875
 30
0.0
 10
135.8583317919076
 20
35.90480835024598
 30
0.0
  0
SPLINE
  5
BF
330
1F
100
AcDbEntity
  8
0
  6
Continuous
 62
     7
370
    25
100
AcDbSpline
210
0.0
220
0.0
230
1.0
 70
    24
 71
     3
 72
    16
 73
    12
 74
     0
 42
0.000000001
 43
0.00000001
 40
0.0
 40
0.0
 40
0.0
 40
0.0
 40
0.2500000000000001
 40
0.2500000000000001
 40
0.5000000000000002
 40
0.5000000000000002
 40
0.6250000000000001
 40
0.6250000000000001
 40
0.7500000000000001
 40
0.7500000000000001
 40
1.0
 40
1.0
 40
1.0
 40
1.0
 10
109.8583317919075
 20
35.90480835024581
 30
0.0
 10
110.9196585972633
 20
35.29205103347547
 30
0.0
 10
111.9887231976688
 20
34.67482629865025
 30
0.0
 10
114.1491480370339
 20
33.42750443607891
 30
0.0
 10
115.2406740249574
 20
32.79731161312378
 30
0.0
 10
116.8985275403818
 20
31.84014943971654
 30
0.0
 10
117.4537462168066
 20
31.51959378742359
 30
0.0
 10
118.5520272184457
 20
30.88550095548143
 30
0.0
 10
119.0974855938185
 20
30.57058041562819
 30
0.0
 10
120.7241495856206
 20
29.6314255220802
 30
0.0
 10
121.7956819071187
 20
29.01277604781792
 30
0.0
 10
122.8583317919076
 20
28.3992548507807
 30
0.0
  0
SPLINE
  5
C0
330
1F
100
AcDbEntity
  8
0
  6
Continuous
 62
     7
370
    25
100
AcDbSpline
210
0.0
220
0.0
230
1.0
 70
    24
 71
     3
 72
    16
 73
    12
 74
     0
 42
0.000000001
 43
0.00000001
 40
0.0
 40
0.0
 40
0.0
 40
0.0
 40
0.25
 40
0.25
 40
0.5
 40
0.5
 40
0.625
 40
0.625
 40
0.75
 40
0.75
 40
1.0
 40
1.0
 40
1.0
 40
1.0
 10
109.8583317919075
 20
35.90480835024577
 30
0.0
 10
109.8583317919075
 20
37.12648127078882
 30
0.0
 10
109.8583317919075
 20
38.37697897834553
 30
0.0
 10
109.8583317919075
 20
40.88304287594756
 30
0.0
 10
109.8583317919075
 20
42.14355160486473
 30
0.0
 10
109.8583317919075
 20
44.04748562976402
 30
0.0
 10
109.8583317919075
 20
44.68429979485683
 30
0.0
 10
109.8583317919075
 20
45.96221616291061
 30
0.0
 10
109.8583317919075
 20
46.59464334571008
 30
0.0
 10
109.8583317919075
 20
48.47356786935185
 30
0.0
 10
109.8583317919075
 20
49.70258464791938
 30
0.0
 10
109.8583317919075
 20
50.9159153491761
 30
0.0
  0
SPLINE
  5
C1
330
1F
100
AcDbEntity
  8
0
  6
Continuous
 62
     7
370
    25
100
AcDbSpline
210
0.0
220
0.0
230
1.0
 70
    24
 71
     3
 72
    16
 73
    12
 74
     0
 42
0.000000001
 43
0.00000001
 40
0.0
 40
0.0
 40
0.0
 40
0.0
 40
0.2499999999999999
 40
0.2499999999999999
 40
0.4999999999999998
 40
0.4999999999999998
 40
0.6249999999999998
 40
0.6249999999999998
 40
0.7499999999999999
 40
0.7499999999999999
 40
1.0
 40
1.0
 40
1.0
 40
1.0
 10
122.8583317919075
 20
58.4214688486413
 30
0.0
 10
121.7970049865517
 20
57.80871153187094
 30
0.0
 10
120.7279403861462
 20
57.19148679704572
 30
0.0
 10
118.5675155467812
 20
55.94416493447437
 30
0.0
 10
117.4759895588576
 20
55.31397211151923
 30
0.0
 10
115.8181360434332
 20
54.35680993811198
 30
0.0
 10
115.2629173670085
 20
54.03625428581903
 30
0.0
 10
114.1646363653694
 20
53.40216145387686
 30
0.0
 10
113.6191779899966
 20
53.08724091402362
 30
0.0
 10
111.9925139981945
 20
52.1480860204756
 30
0.0
 10
110.9209816766964
 20
51.52943654621333
 30
0.0
 10
109.8583317919075
 20
50.91591534917609
 30
0.0
  0
SPLINE
  5
C2
330
1F
100
AcDbEntity
  8
0
  6
Continuous
 62
     7
370
    25
100
AcDbSpline
210
0.0
220
0.0
230
1.0
 70
    24
 71
     3
 72
    16
 73
    12
 74
     0
 42
0.000000001
 43
0.00000001
 40
0.0
 40
0.0
 40
0.0
 40
0.0
 40
0.2499999999999999
 40
0.2499999999999999
 40
0.4999999999999999
 40
0.4999999999999999
 40
0.6249999999999999
 40
0.6249999999999999
 40
0.7499999999999998
 40
0.7499999999999998
 40
1.0
 40
1.0
 40
1.0
 40
1.0
 10
135.8583317919075
 20
50.91591534917627
 30
0.0
 10
134.7970049865517
 20
51.5286726659466
 30
0.0
 10
133.7279403861461
 20
52.14589740077182
 30
0.0
 10
131.5675155467812
 20
53.39321926334313
 30
0.0
 10
130.4759895588576
 20
54.02341208629824
 30
0.0
 10
128.8181360434332
 20
54.98057425970548
 30
0.0
 10
128.2629173670084
 20
55.30112991199842
 30
0.0
 10
127.1646363653694
 20
55.93522274394059
 30
0.0
 10
126.6191779899966
 20
56.25014328379381
 30
0.0
 10
124.9925139981945
 20
57.1892981773418
 30
0.0
 10
123.9209816766964
 20
57.80794765160407
 30
0.0
 10
122.8583317919075
 20
58.42146884864129
 30
0.0
  0
CIRCLE
  5
C3
330
1F
100
AcDbEntity
  8
0
  6
Continuous
 62
     7
370
    25
100
AcDbCircle
 10
122.8583317919
 20
43.4103618497
 30
0.0
 40
9.831213860099353
  0
CIRCLE
  5
C4
330
1F
100
AcDbEntity
  8
0
  6
Continuous
 62
     7
370
    25
100
AcDbCircle
 10
122.8583317919
 20
43.4103618497
 30
0.0
 40
9.42825049455297
  0
CIRCLE
  5
C5
330
1F
100
AcDbEntity
  8
0
  6
Continuous
 62
     7
370
    25
100
AcDbCircle
 10
122.8583317919
 20
43.4103618497
 30
0.0
 40
9.315499999999986
  0
CIRCLE
  5
C6
330
1F
100
AcDbEntity
  8
0
  6
Continuous
 62
     7
370
    25
100
AcDbCircle
 10
122.8583317919
 20
43.4103618497
 30
0.0
 40
9.0
  0
CIRCLE
  5
C7
330
1F
100
AcDbEntity
  8
0
  6
Continuous
 62
     7
370
    25
100
AcDbCircle
 10
122.8583317919
 20
43.4103618497
 30
0.0
 40
5.823375851508274
  0
INSERT
  5
D3
330
1F
100
AcDbEntity
  8
0
  6
Continuous
 62
     7
370
    18
100
AcDbBlockReference
  2
SW_CENTERMARKSYMBOL_0
 10
122.8583317919
 20
43.4103618497
 30
0.0
  0
ARC
  5
D4
330
1F
100
AcDbEntity
  8
0
  6
Continuous
 62
     7
370
    18
100
AcDbCircle
 10
122.8583317919
 20
43.4103618497
 30
0.0
 40
10.4618915
100
AcDbArc
 50
75.0
 51
345.0
  0
ARC
  5
D5
330
1F
100
AcDbEntity
  8
0
  6
Continuous
 62
     7
370
    18
100
AcDbCircle
 10
122.8583317919
 20
43.4103618497
 30
0.0
 40
6.593901818208137
100
AcDbArc
 50
75.0
 51
345.0
  0
LINE
  5
D6
330
1F
100
AcDbEntity
  8
0
  6
Continuous
 62
     7
370
    25
100
AcDbLine
 10
90.3057121437
 20
72.9114624277
 30
0.0
 11
90.450049711
 21
73.1614624277
 31
0.0
  0
LINE
  5
D7
330
1F
100
AcDbEntity
  8
0
  6
Continuous
 62
     7
370
    25
100
AcDbLine
 10
90.450049711
 20
98.6614624277
 30
0.0
 11
90.3057121437
 21
98.9114624277
 31
0.0
  0
LINE
  5
D8
330
1F
100
AcDbEntity
  8
0
  6
Continuous
 62
     7
370
    25
100
AcDbLine
 10
54.5943872783
 20
98.9114624277
 30
0.0
 11
54.450049711
 21
98.6614624277
 31
0.0
  0
LINE
  5
D9
330
1F
100
AcDbEntity
  8
0
  6
Continuous
 62
     7
370
    25
100
AcDbLine
 10
54.450049711
 20
73.1614624277
 30
0.0
 11
54.5943872783
 21
72.9114624277
 31
0.0
  0
LINE
  5
DA
330
1F
100
AcDbEntity
  8
0
  6
Continuous
 62
     7
370
    25
100
AcDbLine
 10
89.1445989765
 20
98.9114624277
 30
0.0
 11
86.0840243072
 21
98.9114624277
 31
0.0
  0
SPLINE
  5
DB
330
1F
100
AcDbEntity
  8
0
  6
Continuous
 62
     7
370
    25
100
AcDbSpline
210
0.0
220
0.0
230
1.0
 70
     8
 71
     3
 72
    16
 73
    12
 74
     0
 42
0.000000001
 43
0.00000001
 40
0.0
 40
0.0
 40
0.0
 40
0.0
 40
0.2499999999999999
 40
0.2499999999999999
 40
0.4999999999999999
 40
0.4999999999999999
 40
0.6249999999999999
 40
0.6249999999999999
 40
0.7499999999999998
 40
0.7499999999999998
 40
1.0
 40
1.0
 40
1.0
 40
1.0
 10
89.14459897648399
 20
98.91146242774562
 30
0.0
 10
89.49837457826926
 20
97.85013562238981
 30
0.0
 10
89.78994971195684
 20
96.7810710219843
 30
0.0
 10
90.19387590507236
 20
94.62064618261931
 30
0.0
 10
90.30489458711308
 20
93.52912019469576
 30
0.0
 10
90.30611406890033
 20
91.87126667927137
 30
0.0
 10
90.27897434185782
 20
91.3160480028466
 30
0.0
 10
90.17314358136716
 20
90.21776700120753
 30
0.0
 10
90.09455996489532
 20
89.67230862583472
 30
0.0
 10
89.79111242961989
 20
88.04564463403263
 30
0.0
 10
89.49881560474684
 20
86.97411231253459
 30
0.0
 10
89.14459897648386
 20
85.91146242774563
 30
0.0
  0
LINE
  5
DC
330
1F
100
AcDbEntity
  8
0
  6
Continuous
 62
     7
370
    25
100
AcDbLine
 10
89.1445989765
 20
85.9114624277
 30
0.0
 11
86.0840243072
 21
85.9114624277
 31
0.0
  0
SPLINE
  5
DD
330
1F
100
AcDbEntity
  8
0
  6
Continuous
 62
     7
370
    25
100
AcDbSpline
210
0.0
220
0.0
230
1.0
 70
     8
 71
     3
 72
     8
 73
     4
 74
     0
 42
0.000000001
 43
0.00000001
 40
0.0
 40
0.0
 40
0.0
 40
0.0
 40
1.0
 40
1.0
 40
1.0
 40
1.0
 10
86.08402430719822
 20
85.91146242774566
 30
0.0
 10
86.0368141773847
 20
86.21663350412415
 30
0.0
 10
85.9920641991571
 20
86.52201527719023
 30
0.0
 10
85.95004971098267
 20
86.82763132797176
 30
0.0
  0
SPLINE
  5
DE
330
1F
100
AcDbEntity
  8
0
  6
Continuous
 62
     7
370
    25
100
AcDbSpline
210
0.0
220
0.0
230
1.0
 70
     8
 71
     3
 72
     8
 73
     4
 74
     0
 42
0.000000001
 43
0.00000001
 40
0.0
 40
0.0
 40
0.0
 40
0.0
 40
1.0
 40
1.0
 40
1.0
 40
1.0
 10
85.95004971098267
 20
86.82763132797176
 30
0.0
 10
85.9080138483772
 20
86.52185979822373
 30
0.0
 10
85.86326208387878
 20
86.21648379099389
 30
0.0
 10
85.8160751147671
 20
85.91146242774566
 30
0.0
  0
LINE
  5
DF
330
1F
100
AcDbEntity
  8
0
  6
Continuous
 62
     7
370
    25
100
AcDbLine
 10
85.8160751148
 20
85.9114624277
 30
0.0
 11
72.914350346
 21
85.9114624277
 31
0.0
  0
SPLINE
  5
E0
330
1F
100
AcDbEntity
  8
0
  6
Continuous
 62
     7
370
    25
100
AcDbSpline
210
0.0
220
0.0
230
1.0
 70
     8
 71
     3
 72
    10
 73
     6
 74
     0
 42
0.000000001
 43
0.00000001
 40
0.0
 40
0.0
 40
0.0
 40
0.0
 40
0.5
 40
0.5
 40
1.0
 40
1.0
 40
1.0
 40
1.0
 10
72.45004971098268
 20
92.41146242774563
 30
0.0
 10
72.45004971098268
 20
91.32812909441229
 30
0.0
 10
72.49250283057114
 20
90.24479576107896
 30
0.0
 10
72.65269965184591
 20
88.07812909441232
 30
0.0
 10
72.76995088266747
 20
86.99479576107899
 30
0.0
 10
72.91435034598561
 20
85.91146242774566
 30
0.0
  0
SPLINE
  5
E1
330
1F
100
AcDbEntity
  8
0
  6
Continuous
 62
     7
370
    25
100
AcDbSpline
210
0.0
220
0.0
230
1.0
 70
     8
 71
     3
 72
    10
 73
     6
 74
     0
 42
0.000000001
 43
0.00000001
 40
0.0
 40
0.0
 40
0.0
 40
0.0
 40
0.5
 40
0.5
 40
1.0
 40
1.0
 40
1.0
 40
1.0
 10
72.91435034598561
 20
98.91146242774559
 30
0.0
 10
72.76995088266747
 20
97.82812909441228
 30
0.0
 10
72.65269965184591
 20
96.74479576107893
 30
0.0
 10
72.49250283057113
 20
94.57812909441228
 30
0.0
 10
72.45004971098268
 20
93.49479576107896
 30
0.0
 10
72.45004971098268
 20
92.41146242774563
 30
0.0
  0
LINE
  5
E2
330
1F
100
AcDbEntity
  8
0
  6
Continuous
 62
     7
370
    25
100
AcDbLine
 10
85.8160751148
 20
98.9114624277
 30
0.0
 11
72.914350346
 21
98.9114624277
 31
0.0
  0
SPLINE
  5
E3
330
1F
100
AcDbEntity
  8
0
  6
Continuous
 62
     7
370
    25
100
AcDbSpline
210
0.0
220
0.0
230
1.0
 70
     8
 71
     3
 72
     8
 73
     4
 74
     0
 42
0.000000001
 43
0.00000001
 40
0.0
 40
0.0
 40
0.0
 40
0.0
 40
1.0
 40
1.0
 40
1.0
 40
1.0
 10
85.8160751147671
 20
98.91146242774559
 30
0.0
 10
85.86328524458064
 20
98.60629135136712
 30
0.0
 10
85.90803522280822
 20
98.30090957830103
 30
0.0
 10
85.95004971098267
 20
97.99529352751948
 30
0.0
  0
SPLINE
  5
E4
330
1F
100
AcDbEntity
  8
0
  6
Continuous
 62
     7
370
    25
100
AcDbSpline
210
0.0
220
0.0
230
1.0
 70
     8
 71
     3
 72
     8
 73
     4
 74
     0
 42
0.000000001
 43
0.00000001
 40
0.0
 40
0.0
 40
0.0
 40
0.0
 40
1.0
 40
1.0
 40
1.0
 40
1.0
 10
85.95004971098267
 20
97.99529352751948
 30
0.0
 10
85.99208557358813
 20
98.30106505726752
 30
0.0
 10
86.03683733808656
 20
98.60644106449736
 30
0.0
 10
86.08402430719822
 20
98.91146242774559
 30
0.0
  0
SPLINE
  5
E5
330
1F
100
AcDbEntity
  8
0
  6
Continuous
 62
     7
370
    25
100
AcDbSpline
210
0.0
220
0.0
230
1.0
 70
    24
 71
     3
 72
    13
 73
     9
 74
     0
 42
0.000000001
 43
0.00000001
 40
0.0
 40
0.0
 40
0.0
 40
0.0
 40
0.1251044678746831
 40
0.2539989361434449
 40
0.4392408733682347
 40
0.6250667686480006
 40
0.8123508216762355
 40
1.0
 40
1.0
 40
1.0
 40
1.0
 10
90.30510073257722
 20
98.91146242774566
 30
0.0
 10
90.30142806624872
 20
98.91146242774566
 30
0.0
 10
90.29397147132373
 20
98.91146242774565
 30
0.0
 10
90.22007160868378
 20
98.91146242774565
 30
0.0
 10
90.07572664874183
 20
98.91146242774563
 30
0.0
 10
89.83421925905607
 20
98.91146242774562
 30
0.0
 10
89.52648625378622
 20
98.9114624277456
 30
0.0
 10
89.27197735263917
 20
98.91146242774559
 30
0.0
 10
89.14459897648372
 20
98.91146242774559
 30
0.0
  0
SPLINE
  5
E6
330
1F
100
AcDbEntity
  8
0
  6
Continuous
 62
     7
370
    25
100
AcDbSpline
210
0.0
220
0.0
230
1.0
 70
    24
 71
     3
 72
    14
 73
    10
 74
     0
 42
0.000000001
 43
0.00000001
 40
0.0
 40
0.0
 40
0.0
 40
0.0
 40
0.1855043665615893
 40
0.371327936986665
 40
0.5583928715432215
 40
0.7460185893479034
 40
0.8707818958249236
 40
0.9955436343921116
 40
0.9999999999999999
 40
0.9999999999999999
 40
0.9999999999999999
 40
0.9999999999999999
 10
89.14459897648372
 20
72.91146242774565
 30
0.0
 10
89.27055714510537
 20
72.91146242774565
 30
0.0
 10
89.5226902229829
 20
72.91146242774565
 30
0.0
 10
89.8303240548214
 20
72.91146242774566
 30
0.0
 10
90.07316447124741
 20
72.91146242774566
 30
0.0
 10
90.22051509086904
 20
72.91146242774568
 30
0.0
 10
90.28788161438192
 20
72.91146242774566
 30
0.0
 10
90.31194946050094
 20
72.91146242774568
 30
0.0
 10
90.30524660629594
 20
72.91146242774568
 30
0.0
 10
90.30501544388147
 20
72.91146242774568
 30
0.0
  0
SPLINE
  5
E7
330
1F
100
AcDbEntity
  8
0
  6
Continuous
 62
     7
370
    25
100
AcDbSpline
210
0.0
220
0.0
230
1.0
 70
     8
 71
     3
 72
    16
 73
    12
 74
     0
 42
0.000000001
 43
0.00000001
 40
0.0
 40
0.0
 40
0.0
 40
0.0
 40
0.2499999999999999
 40
0.2499999999999999
 40
0.4999999999999998
 40
0.4999999999999998
 40
0.6249999999999998
 40
0.6249999999999998
 40
0.7499999999999999
 40
0.7499999999999999
 40
1.0
 40
1.0
 40
1.0
 40
1.0
 10
89.14459897648399
 20
85.91146242774569
 30
0.0
 10
89.49837457826926
 20
84.85013562238989
 30
0.0
 10
89.78994971195685
 20
83.78107102198436
 30
0.0
 10
90.19387590507237
 20
81.62064618261935
 30
0.0
 10
90.30489458711311
 20
80.52912019469579
 30
0.0
 10
90.30611406890036
 20
78.87126667927139
 30
0.0
 10
90.27897434185786
 20
78.31604800284661
 30
0.0
 10
90.17314358136719
 20
77.21776700120753
 30
0.0
 10
90.09455996489534
 20
76.67230862583472
 30
0.0
 10
89.79111242961991
 20
75.04564463403261
 30
0.0
 10
89.49881560474685
 20
73.97411231253456
 30
0.0
 10
89.14459897648386
 20
72.91146242774563
 30
0.0
  0
LINE
  5
E8
330
1F
100
AcDbEntity
  8
0
  6
Continuous
 62
     7
370
    25
100
AcDbLine
 10
90.450049711
 20
98.6614624277
 30
0.0
 11
90.450049711
 21
73.1614624277
 31
0.0
  0
SPLINE
  5
E9
330
1F
100
AcDbEntity
  8
0
  6
Continuous
 62
     7
370
    25
100
AcDbSpline
210
0.0
220
0.0
230
1.0
 70
     8
 71
     3
 72
    16
 73
    12
 74
     0
 42
0.000000001
 43
0.00000001
 40
0.0
 40
0.0
 40
0.0
 40
0.0
 40
0.2500000000000001
 40
0.2500000000000001
 40
0.5000000000000002
 40
0.5000000000000002
 40
0.6250000000000001
 40
0.6250000000000001
 40
0.7500000000000001
 40
0.7500000000000001
 40
1.0
 40
1.0
 40
1.0
 40
1.0
 10
55.75550044548133
 20
85.91146242774563
 30
0.0
 10
55.40172484369607
 20
86.97278923310145
 30
0.0
 10
55.11014971000849
 20
88.04185383350696
 30
0.0
 10
54.70622351689298
 20
90.20227867287196
 30
0.0
 10
54.59520483485226
 20
91.29380466079547
 30
0.0
 10
54.59398535306502
 20
92.9516581762199
 30
0.0
 10
54.6211250801075
 20
93.50687685264467
 30
0.0
 10
54.72695584059817
 20
94.60515785428372
 30
0.0
 10
54.80553945707001
 20
95.15061622965655
 30
0.0
 10
55.10898699234544
 20
96.77728022145862
 30
0.0
 10
55.4012838172185
 20
97.84881254295668
 30
0.0
 10
55.75550044548147
 20
98.9114624277456
 30
0.0
  0
SPLINE
  5
EA
330
1F
100
AcDbEntity
  8
0
  6
Continuous
 62
     7
370
    25
100
AcDbSpline
210
0.0
220
0.0
230
1.0
 70
     8
 71
     3
 72
    16
 73
    12
 74
     0
 42
0.000000001
 43
0.00000001
 40
0.0
 40
0.0
 40
0.0
 40
0.0
 40
0.2499999999999998
 40
0.2499999999999998
 40
0.4999999999999997
 40
0.4999999999999997
 40
0.6249999999999998
 40
0.6249999999999998
 40
0.7499999999999999
 40
0.7499999999999999
 40
1.0
 40
1.0
 40
1.0
 40
1.0
 10
55.75550044548133
 20
72.9114624277456
 30
0.0
 10
55.40172484369607
 20
73.97278923310142
 30
0.0
 10
55.11014971000848
 20
75.04185383350695
 30
0.0
 10
54.70622351689295
 20
77.20227867287197
 30
0.0
 10
54.59520483485223
 20
78.2938046607955
 30
0.0
 10
54.59398535306498
 20
79.95165817621992
 30
0.0
 10
54.62112508010747
 20
80.5068768526447
 30
0.0
 10
54.72695584059814
 20
81.60515785428376
 30
0.0
 10
54.80553945706998
 20
82.15061622965659
 30
0.0
 10
55.10898699234541
 20
83.7772802214587
 30
0.0
 10
55.40128381721848
 20
84.84881254295675
 30
0.0
 10
55.75550044548147
 20
85.91146242774568
 30
0.0
  0
SPLINE
  5
EB
330
1F
100
AcDbEntity
  8
0
  6
Continuous
 62
     7
370
    25
100
AcDbSpline
210
0.0
220
0.0
230
1.0
 70
    24
 71
     3
 72
    13
 73
     9
 74
     0
 42
0.000000001
 43
0.00000001
 40
0.0
 40
0.0
 40
0.0
 40
0.0
 40
0.1039389916501375
 40
0.233520409585113
 40
0.4237558579789657
 40
0.6146341488048989
 40
0.8071168930678118
 40
0.9999999999999999
 40
0.9999999999999999
 40
0.9999999999999999
 40
0.9999999999999999
 10
54.59783006090125
 20
72.91146242774568
 30
0.0
 10
54.59916512144915
 20
72.91146242774566
 30
0.0
 10
54.60216461067853
 20
72.91146242774566
 30
0.0
 10
54.66725370928479
 20
72.91146242774566
 30
0.0
 10
54.80692568050947
 20
72.91146242774566
 30
0.0
 10
55.04997990177755
 20
72.91146242774566
 30
0.0
 10
55.36338579116161
 20
72.91146242774565
 30
0.0
 10
55.62470506446817
 20
72.91146242774565
 30
0.0
 10
55.7555004454816
 20
72.91146242774565
 30
0.0
  0
SPLINE
  5
EC
330
1F
100
AcDbEntity
  8
0
  6
Continuous
 62
     7
370
    25
100
AcDbSpline
210
0.0
220
0.0
230
1.0
 70
    24
 71
     3
 72
    13
 73
     9
 74
     0
 42
0.000000001
 43
0.00000001
 40
0.0
 40
0.0
 40
0.0
 40
0.0
 40
0.1905223085226388
 40
0.381392957586441
 40
0.5736260522572565
 40
0.7664777356917762
 40
0.8919058633580915
 40
1.0
 40
1.0
 40
1.0
 40
1.0
 10
55.7555004454816
 20
98.91146242774559
 30
0.0
 10
55.62624747850576
 20
98.91146242774559
 30
0.0
 10
55.36750522551713
 20
98.9114624277456
 30
0.0
 10
55.05437350296715
 20
98.91146242774562
 30
0.0
 10
54.80900838778382
 20
98.91146242774563
 30
0.0
 10
54.66862945970656
 20
98.91146242774565
 30
0.0
 10
54.60298987068897
 20
98.91146242774566
 30
0.0
 10
54.5987628617467
 20
98.91146242774566
 30
0.0
 10
54.59680623939402
 20
98.91146242774566
 30
0.0
  0
LINE
  5
ED
330
1F
100
AcDbEntity
  8
0
  6
Continuous
 62
     7
370
    25
100
AcDbLine
 10
54.450049711
 20
73.1614624277
 30
0.0
 11
54.450049711
 21
98.6614624277
 31
0.0
  0
LINE
  5
EE
330
1F
100
AcDbEntity
  8
0
  6
Continuous
 62
     7
370
    25
100
AcDbLine
 10
71.985749076
 20
98.9114624277
 30
0.0
 11
55.7555004455
 21
98.9114624277
 31
0.0
  0
SPLINE
  5
EF
330
1F
100
AcDbEntity
  8
0
  6
Continuous
 62
     7
370
    25
100
AcDbSpline
210
0.0
220
0.0
230
1.0
 70
     8
 71
     3
 72
    10
 73
     6
 74
     0
 42
0.000000001
 43
0.00000001
 40
0.0
 40
0.0
 40
0.0
 40
0.0
 40
0.5
 40
0.5
 40
1.0
 40
1.0
 40
1.0
 40
1.0
 10
71.98574907597973
 20
98.91146242774559
 30
0.0
 10
72.13014853929786
 20
97.82812909441228
 30
0.0
 10
72.24739977011942
 20
96.74479576107893
 30
0.0
 10
72.4075965913942
 20
94.57812909441228
 30
0.0
 10
72.45004971098265
 20
93.49479576107896
 30
0.0
 10
72.45004971098265
 20
92.41146242774563
 30
0.0
  0
SPLINE
  5
F0
330
1F
100
AcDbEntity
  8
0
  6
Continuous
 62
     7
370
    25
100
AcDbSpline
210
0.0
220
0.0
230
1.0
 70
     8
 71
     3
 72
    10
 73
     6
 74
     0
 42
0.000000001
 43
0.00000001
 40
0.0
 40
0.0
 40
0.0
 40
0.0
 40
0.5
 40
0.5
 40
1.0
 40
1.0
 40
1.0
 40
1.0
 10
72.45004971098265
 20
92.41146242774563
 30
0.0
 10
72.45004971098265
 20
91.32812909441229
 30
0.0
 10
72.40759659139418
 20
90.24479576107896
 30
0.0
 10
72.24739977011942
 20
88.07812909441232
 30
0.0
 10
72.13014853929786
 20
86.99479576107899
 30
0.0
 10
71.98574907597973
 20
85.91146242774566
 30
0.0
  0
LINE
  5
F1
330
1F
100
AcDbEntity
  8
0
  6
Continuous
 62
     7
370
    25
100
AcDbLine
 10
71.985749076
 20
85.9114624277
 30
0.0
 11
55.7555004455
 21
85.9114624277
 31
0.0
  0
LINE
  5
F2
330
1F
100
AcDbEntity
  8
0
  6
Continuous
 62
     7
370
    25
100
AcDbLine
 10
72.450049711
 20
92.4114624277
 30
0.0
 11
72.450049711
 21
79.4114624277
 31
0.0
  0
SPLINE
  5
F3
330
1F
100
AcDbEntity
  8
0
  6
Continuous
 62
     7
370
    25
100
AcDbSpline
210
0.0
220
0.0
230
1.0
 70
     8
 71
     3
 72
    10
 73
     6
 74
     0
 42
0.000000001
 43
0.00000001
 40
0.0
 40
0.0
 40
0.0
 40
0.0
 40
0.5
 40
0.5
 40
1.0
 40
1.0
 40
1.0
 40
1.0
 10
71.98574907597973
 20
85.91146242774566
 30
0.0
 10
72.13014853929786
 20
84.82812909441233
 30
0.0
 10
72.24739977011943
 20
83.74479576107899
 30
0.0
 10
72.4075965913942
 20
81.57812909441232
 30
0.0
 10
72.45004971098267
 20
80.49479576107899
 30
0.0
 10
72.45004971098267
 20
79.41146242774565
 30
0.0
  0
SPLINE
  5
F4
330
1F
100
AcDbEntity
  8
0
  6
Continuous
 62
     7
370
    25
100
AcDbSpline
210
0.0
220
0.0
230
1.0
 70
     8
 71
     3
 72
    10
 73
     6
 74
     0
 42
0.000000001
 43
0.00000001
 40
0.0
 40
0.0
 40
0.0
 40
0.0
 40
0.5
 40
0.5
 40
1.0
 40
1.0
 40
1.0
 40
1.0
 10
72.91435034598561
 20
85.91146242774566
 30
0.0
 10
72.76995088266747
 20
84.82812909441233
 30
0.0
 10
72.6526996518459
 20
83.74479576107899
 30
0.0
 10
72.49250283057113
 20
81.57812909441232
 30
0.0
 10
72.45004971098267
 20
80.49479576107899
 30
0.0
 10
72.45004971098267
 20
79.41146242774565
 30
0.0
  0
LINE
  5
F5
330
1F
100
AcDbEntity
  8
0
  6
Continuous
 62
     7
370
    25
100
AcDbLine
 10
85.950049711
 20
86.827631328
 30
0.0
 11
85.950049711
 21
84.9952935275
 31
0.0
  0
SPLINE
  5
F6
330
1F
100
AcDbEntity
  8
0
  6
Continuous
 62
     7
370
    25
100
AcDbSpline
210
0.0
220
0.0
230
1.0
 70
     8
 71
     3
 72
     8
 73
     4
 74
     0
 42
0.000000001
 43
0.00000001
 40
0.0
 40
0.0
 40
0.0
 40
0.0
 40
1.0
 40
1.0
 40
1.0
 40
1.0
 10
85.8160751147671
 20
85.91146242774566
 30
0.0
 10
85.86328524458064
 20
85.60629135136719
 30
0.0
 10
85.90803522280822
 20
85.30090957830112
 30
0.0
 10
85.95004971098267
 20
84.99529352751956
 30
0.0
  0
SPLINE
  5
F7
330
1F
100
AcDbEntity
  8
0
  6
Continuous
 62
     7
370
    25
100
AcDbSpline
210
0.0
220
0.0
230
1.0
 70
     8
 71
     3
 72
     8
 73
     4
 74
     0
 42
0.000000001
 43
0.00000001
 40
0.0
 40
0.0
 40
0.0
 40
0.0
 40
1.0
 40
1.0
 40
1.0
 40
1.0
 10
85.95004971098267
 20
84.99529352751958
 30
0.0
 10
85.99208557358813
 20
85.3010650572676
 30
0.0
 10
86.03683733808656
 20
85.60644106449745
 30
0.0
 10
86.08402430719822
 20
85.91146242774566
 30
0.0
  0
SPLINE
  5
F8
330
1F
100
AcDbEntity
  8
0
  6
Continuous
 62
     7
370
    25
100
AcDbSpline
210
0.0
220
0.0
230
1.0
 70
     8
 71
     3
 72
    10
 73
     6
 74
     0
 42
0.000000001
 43
0.00000001
 40
0.0
 40
0.0
 40
0.0
 40
0.0
 40
0.5
 40
0.5
 40
1.0
 40
1.0
 40
1.0
 40
1.0
 10
72.45004971098267
 20
79.41146242774565
 30
0.0
 10
72.45004971098267
 20
78.32812909441232
 30
0.0
 10
72.4075965913942
 20
77.24479576107898
 30
0.0
 10
72.24739977011943
 20
75.0781290944123
 30
0.0
 10
72.13014853929786
 20
73.99479576107898
 30
0.0
 10
71.98574907597973
 20
72.91146242774565
 30
0.0
  0
LINE
  5
F9
330
1F
100
AcDbEntity
  8
0
  6
Continuous
 62
     7
370
    25
100
AcDbLine
 10
71.985749076
 20
72.9114624277
 30
0.0
 11
55.7555004455
 21
72.9114624277
 31
0.0
  0
LINE
  5
FA
330
1F
100
AcDbEntity
  8
0
  6
Continuous
 62
     7
370
    25
100
AcDbLine
 10
89.1445989765
 20
72.9114624277
 30
0.0
 11
86.0840243072
 21
72.9114624277
 31
0.0
  0
SPLINE
  5
FB
330
1F
100
AcDbEntity
  8
0
  6
Continuous
 62
     7
370
    25
100
AcDbSpline
210
0.0
220
0.0
230
1.0
 70
     8
 71
     3
 72
     8
 73
     4
 74
     0
 42
0.000000001
 43
0.00000001
 40
0.0
 40
0.0
 40
0.0
 40
0.0
 40
1.0
 40
1.0
 40
1.0
 40
1.0
 10
86.08402430719822
 20
72.91146242774565
 30
0.0
 10
86.0368141773847
 20
73.2166335041241
 30
0.0
 10
85.9920641991571
 20
73.52201527719019
 30
0.0
 10
85.95004971098267
 20
73.82763132797173
 30
0.0
  0
SPLINE
  5
FC
330
1F
100
AcDbEntity
  8
0
  6
Continuous
 62
     7
370
    25
100
AcDbSpline
210
0.0
220
0.0
230
1.0
 70
     8
 71
     3
 72
     8
 73
     4
 74
     0
 42
0.000000001
 43
0.00000001
 40
0.0
 40
0.0
 40
0.0
 40
0.0
 40
1.0
 40
1.0
 40
1.0
 40
1.0
 10
85.95004971098267
 20
73.82763132797173
 30
0.0
 10
85.9080138483772
 20
73.52185979822369
 30
0.0
 10
85.86326208387878
 20
73.21648379099386
 30
0.0
 10
85.8160751147671
 20
72.91146242774565
 30
0.0
  0
LINE
  5
FD
330
1F
100
AcDbEntity
  8
0
  6
Continuous
 62
     7
370
    25
100
AcDbLine
 10
85.8160751148
 20
72.9114624277
 30
0.0
 11
72.914350346
 21
72.9114624277
 31
0.0
  0
SPLINE
  5
FE
330
1F
100
AcDbEntity
  8
0
  6
Continuous
 62
     7
370
    25
100
AcDbSpline
210
0.0
220
0.0
230
1.0
 70
     8
 71
     3
 72
    10
 73
     6
 74
     0
 42
0.000000001
 43
0.00000001
 40
0.0
 40
0.0
 40
0.0
 40
0.0
 40
0.5
 40
0.5
 40
1.0
 40
1.0
 40
1.0
 40
1.0
 10
72.45004971098267
 20
79.41146242774565
 30
0.0
 10
72.45004971098267
 20
78.32812909441232
 30
0.0
 10
72.49250283057113
 20
77.24479576107898
 30
0.0
 10
72.6526996518459
 20
75.0781290944123
 30
0.0
 10
72.76995088266747
 20
73.99479576107898
 30
0.0
 10
72.91435034598561
 20
72.91146242774565
 30
0.0
  0
SPLINE
  5
FF
330
1F
100
AcDbEntity
  8
0
  6
Continuous
 62
     7
370
    25
100
AcDbSpline
210
0.0
220
0.0
230
1.0
 70
    24
 71
     3
 72
    10
 73
     6
 74
     0
 42
0.000000001
 43
0.00000001
 40
0.0
 40
0.0
 40
0.0
 40
0.0
 40
0.5
 40
0.5
 40
1.0
 40
1.0
 40
1.0
 40
1.0
 10
72.45004971098267
 20
98.91146242774566
 30
0.0
 10
72.45004971098267
 20
98.91146242774565
 30
0.0
 10
72.40747348015414
 20
98.91146242774563
 30
0.0
 10
72.24717980781985
 20
98.91146242774562
 30
0.0
 10
72.12995974716873
 20
98.9114624277456
 30
0.0
 10
71.98574907597968
 20
98.91146242774559
 30
0.0
  0
LINE
  5
100
330
1F
100
AcDbEntity
  8
0
  6
Continuous
 62
     7
370
    25
100
AcDbLine
 10
72.450049711
 20
98.9114624277
 30
0.0
 11
72.450049711
 21
92.4114624277
 31
0.0
  0
SPLINE
  5
101
330
1F
100
AcDbEntity
  8
0
  6
Continuous
 62
     7
370
    25
100
AcDbSpline
210
0.0
220
0.0
230
1.0
 70
    24
 71
     3
 72
    10
 73
     6
 74
     0
 42
0.000000001
 43
0.00000001
 40
0.0
 40
0.0
 40
0.0
 40
0.0
 40
0.5
 40
0.5
 40
1.0
 40
1.0
 40
1.0
 40
1.0
 10
72.45004971098267
 20
98.91146242774566
 30
0.0
 10
72.45004971098267
 20
98.91146242774565
 30
0.0
 10
72.49262594181118
 20
98.91146242774563
 30
0.0
 10
72.65291961414547
 20
98.91146242774562
 30
0.0
 10
72.77013967479661
 20
98.9114624277456
 30
0.0
 10
72.91435034598564
 20
98.91146242774559
 30
0.0
  0
SPLINE
  5
102
330
1F
100
AcDbEntity
  8
0
  6
Continuous
 62
     7
370
    25
100
AcDbSpline
210
0.0
220
0.0
230
1.0
 70
    24
 71
     3
 72
    10
 73
     6
 74
     0
 42
0.000000001
 43
0.00000001
 40
0.0
 40
0.0
 40
0.0
 40
0.0
 40
0.5
 40
0.5
 40
1.0
 40
1.0
 40
1.0
 40
1.0
 10
72.45004971098267
 20
72.91146242774568
 30
0.0
 10
72.45004971098267
 20
72.91146242774566
 30
0.0
 10
72.49262594181118
 20
72.91146242774566
 30
0.0
 10
72.65291961414547
 20
72.91146242774566
 30
0.0
 10
72.77013967479661
 20
72.91146242774565
 30
0.0
 10
72.91435034598564
 20
72.91146242774565
 30
0.0
  0
LINE
  5
103
330
1F
100
AcDbEntity
  8
0
  6
Continuous
 62
     7
370
    25
100
AcDbLine
 10
72.450049711
 20
79.4114624277
 30
0.0
 11
72.450049711
 21
72.9114624277
 31
0.0
  0
SPLINE
  5
104
330
1F
100
AcDbEntity
  8
0
  6
Continuous
 62
     7
370
    25
100
AcDbSpline
210
0.0
220
0.0
230
1.0
 70
    24
 71
     3
 72
    10
 73
     6
 74
     0
 42
0.000000001
 43
0.00000001
 40
0.0
 40
0.0
 40
0.0
 40
0.0
 40
0.5
 40
0.5
 40
1.0
 40
1.0
 40
1.0
 40
1.0
 10
72.45004971098267
 20
72.91146242774568
 30
0.0
 10
72.45004971098267
 20
72.91146242774566
 30
0.0
 10
72.40747348015414
 20
72.91146242774566
 30
0.0
 10
72.24717980781985
 20
72.91146242774566
 30
0.0
 10
72.12995974716873
 20
72.91146242774565
 30
0.0
 10
71.98574907597968
 20
72.91146242774565
 30
0.0
  0
SPLINE
  5
105
330
1F
100
AcDbEntity
  8
0
  6
Continuous
 62
     7
370
    25
100
AcDbSpline
210
0.0
220
0.0
230
1.0
 70
    24
 71
     3
 72
     8
 73
     4
 74
     0
 42
0.000000001
 43
0.00000001
 40
0.0
 40
0.0
 40
0.0
 40
0.0
 40
1.0
 40
1.0
 40
1.0
 40
1.0
 10
85.95004971098267
 20
98.91146242774559
 30
0.0
 10
85.90801494861188
 20
98.91146242774559
 30
0.0
 10
85.86326327493103
 20
98.91146242774559
 30
0.0
 10
85.8160751147671
 20
98.91146242774559
 30
0.0
  0
LINE
  5
106
330
1F
100
AcDbEntity
  8
0
  6
Continuous
 62
     7
370
    25
100
AcDbLine
 10
85.950049711
 20
98.9114624277
 30
0.0
 11
85.950049711
 21
97.9952935275
 31
0.0
  0
SPLINE
  5
107
330
1F
100
AcDbEntity
  8
0
  6
Continuous
 62
     7
370
    25
100
AcDbSpline
210
0.0
220
0.0
230
1.0
 70
    24
 71
     3
 72
     8
 73
     4
 74
     0
 42
0.000000001
 43
0.00000001
 40
0.0
 40
0.0
 40
0.0
 40
0.0
 40
1.0
 40
1.0
 40
1.0
 40
1.0
 10
86.08402430719822
 20
98.91146242774559
 30
0.0
 10
86.03681077931955
 20
98.91146242774559
 30
0.0
 10
85.9920610667593
 20
98.91146242774559
 30
0.0
 10
85.95004971098267
 20
98.91146242774559
 30
0.0
  0
SPLINE
  5
108
330
1F
100
AcDbEntity
  8
0
  6
Continuous
 62
     7
370
    25
100
AcDbSpline
210
0.0
220
0.0
230
1.0
 70
    24
 71
     3
 72
     8
 73
     4
 74
     0
 42
0.000000001
 43
0.00000001
 40
0.0
 40
0.0
 40
0.0
 40
0.0
 40
1.0
 40
1.0
 40
1.0
 40
1.0
 10
85.95004971098267
 20
72.91146242774565
 30
0.0
 10
85.99208447335344
 20
72.91146242774565
 30
0.0
 10
86.0368361470343
 20
72.91146242774565
 30
0.0
 10
86.08402430719822
 20
72.91146242774565
 30
0.0
  0
LINE
  5
109
330
1F
100
AcDbEntity
  8
0
  6
Continuous
 62
     7
370
    25
100
AcDbLine
 10
85.950049711
 20
73.827631328
 30
0.0
 11
85.950049711
 21
72.9114624277
 31
0.0
  0
SPLINE
  5
10A
330
1F
100
AcDbEntity
  8
0
  6
Continuous
 62
     7
370
    25
100
AcDbSpline
210
0.0
220
0.0
230
1.0
 70
    24
 71
     3
 72
     8
 73
     4
 74
     0
 42
0.000000001
 43
0.00000001
 40
0.0
 40
0.0
 40
0.0
 40
0.0
 40
1.0
 40
1.0
 40
1.0
 40
1.0
 10
85.8160751147671
 20
72.91146242774565
 30
0.0
 10
85.86328864264577
 20
72.91146242774565
 30
0.0
 10
85.90803835520602
 20
72.91146242774565
 30
0.0
 10
85.95004971098267
 20
72.91146242774565
 30
0.0
  0
LINE
  5
10B
330
1F
100
AcDbEntity
  8
0
  6
CENTERX2
 62
     7
370
    18
100
AcDbLine
 10
56.7555004455
 20
85.9114624277
 30
0.0
 11
53.450049711
 21
85.9114624277
 31
0.0
  0
LINE
  5
10C
330
1F
100
AcDbEntity
  8
0
  6
CENTERX2
 62
     7
370
    18
100
AcDbLine
 10
88.1445989765
 20
85.9114624277
 30
0.0
 11
91.450049711
 21
85.9114624277
 31
0.0
  0
ENDSEC
  0
SECTION
  2
OBJECTS
  0
DICTIONARY
  5
C
330
0
100
AcDbDictionary
281
     1
  3
ACAD_GROUP
350
D
  3
ACAD_LAYOUT
350
1A
  3
ACAD_MLINESTYLE
350
17
  3
ACAD_PLOTSETTINGS
350
19
  3
ACAD_PLOTSTYLENAME
350
E
  3
ACAD_SCALELIST
350
47
  0
DICTIONARY
  5
D
102
{ACAD_REACTORS
330
C
102
}
330
C
100
AcDbDictionary
281
     1
  0
DICTIONARY
  5
1A
102
{ACAD_REACTORS
330
C
102
}
330
C
100
AcDbDictionary
281
     1
  3
Layout1
350
1E
  3
Layout2
350
26
  3
Model
350
22
  0
DICTIONARY
  5
17
102
{ACAD_REACTORS
330
C
102
}
330
C
100
AcDbDictionary
281
     1
  3
Standard
350
18
  0
DICTIONARY
  5
19
102
{ACAD_REACTORS
330
C
102
}
330
C
100
AcDbDictionary
281
     1
  0
ACDBDICTIONARYWDFLT
  5
E
102
{ACAD_REACTORS
330
C
102
}
330
C
100
AcDbDictionary
281
     1
  3
Normal
350
F
100
AcDbDictionaryWithDefault
340
F
  0
DICTIONARY
  5
47
102
{ACAD_REACTORS
330
C
102
}
330
C
100
AcDbDictionary
281
     1
  3
A0
350
48
  3
A1
350
49
  3
A2
350
4A
  3
A3
350
4B
  3
A4
350
4C
  3
A5
350
4D
  3
A6
350
4E
  3
A7
350
4F
  3
A8
350
50
  3
A9
350
51
  3
B0
350
52
  3
B1
350
53
  3
B2
350
54
  3
B3
350
55
  3
B4
350
56
  3
B5
350
57
  3
B6
350
58
  3
B7
350
59
  3
B8
350
5A
  3
B9
350
5B
  3
C0
350
5C
  3
C1
350
5D
  3
C2
350
5E
  3
C3
350
5F
  3
C4
350
60
  3
C5
350
61
  3
C6
350
62
  3
C7
350
63
  3
C8
350
64
  3
C9
350
65
  3
D0
350
66
  3
D1
350
67
  3
D2
350
68
  0
LAYOUT
  5
1E
102
{ACAD_REACTORS
330
1A
102
}
330
1A
100
AcDbPlotSettings
  1

  2
none_device
  4

  6

 40
0.0
 41
0.0
 42
0.0
 43
0.0
 44
0.0
 45
0.0
 46
0.0
 47
0.0
 48
0.0
 49
0.0
140
0.0
141
0.0
142
1.0
143
1.0
 70
   688
 72
     1
 73
     0
 74
     5
  7

 75
    16
147
1.0
148
0.0
149
0.0
100
AcDbLayout
  1
Layout1
 70
     1
 71
     1
 10
0.0
 20
0.0
 11
420.0
 21
297.0
 12
0.0
 22
0.0
 32
0.0
 14
1.0000000000E+20
 24
1.0000000000E+20
 34
1.0000000000E+20
 15
-1.0000000000E+20
 25
-1.0000000000E+20
 35
-1.0000000000E+20
146
0.0
 13
0.0
 23
0.0
 33
0.0
 16
1.0
 26
0.0
 36
0.0
 17
0.0
 27
1.0
 37
0.0
 76
     0
330
1B
  0
LAYOUT
  5
26
102
{ACAD_REACTORS
330
1A
102
}
330
1A
100
AcDbPlotSettings
  1

  2
none_device
  4

  6

 40
0.0
 41
0.0
 42
0.0
 43
0.0
 44
0.0
 45
0.0
 46
0.0
 47
0.0
 48
0.0
 49
0.0
140
0.0
141
0.0
142
1.0
143
1.0
 70
   688
 72
     1
 73
     0
 74
     5
  7

 75
    16
147
1.0
148
0.0
149
0.0
100
AcDbLayout
  1
Layout2
 70
     1
 71
     2
 10
0.0
 20
0.0
 11
0.0
 21
0.0
 12
0.0
 22
0.0
 32
0.0
 14
0.0
 24
0.0
 34
0.0
 15
0.0
 25
0.0
 35
0.0
146
0.0
 13
0.0
 23
0.0
 33
0.0
 16
1.0
 26
0.0
 36
0.0
 17
0.0
 27
1.0
 37
0.0
 76
     0
330
23
  0
LAYOUT
  5
22
102
{ACAD_REACTORS
330
1A
102
}
330
1A
100
AcDbPlotSettings
  1

  2
none_device
  4
Letter_(8.50_x_11.00_Inches)
  6

 40
6.35
 41
6.35
 42
6.35000508
 43
6.35000508
 44
215.9
 45
279.4
 46
0.0
 47
0.0
 48
0.0
 49
0.0
140
0.0
141
0.0
142
1.0
143
1.0
 70
  1712
 72
     1
 73
     0
 74
     0
  7

 75
     0
147
1.0
148
0.0
149
0.0
100
AcDbLayout
  1
Model
 70
     1
 71
     0
 10
0.0
 20
0.0
 11
215.9
 21
139.7
 12
0.0
 22
0.0
 32
0.0
 14
0.0
 24
0.0
 34
0.0
 15
215.9
 25
139.7
 35
0.0
146
0.0
 13
0.0
 23
0.0
 33
0.0
 16
1.0
 26
0.0
 36
0.0
 17
0.0
 27
1.0
 37
0.0
 76
     0
330
1F
331
29
  0
MLINESTYLE
  5
18
102
{ACAD_REACTORS
330
17
102
}
330
17
100
AcDbMlineStyle
  2
Standard
 70
     0
  3

 62
   256
 51
90.0
 52
90.0
 71
     2
 49
0.5
 62
   256
  6
BYLAYER
 49
-0.5
 62
   256
  6
BYLAYER
  0
ACDBPLACEHOLDER
  5
F
102
{ACAD_REACTORS
330
E
102
}
330
E
  0
SCALE
  5
48
102
{ACAD_REACTORS
330
47
102
}
330
47
100
AcDbScale
 70
     0
300
1:1
140
1.0
141
1.0
290
     1
  0
SCALE
  5
49
102
{ACAD_REACTORS
330
47
102
}
330
47
100
AcDbScale
 70
     0
300
1:2
140
1.0
141
2.0
290
     0
  0
SCALE
  5
4A
102
{ACAD_REACTORS
330
47
102
}
330
47
100
AcDbScale
 70
     0
300
1:4
140
1.0
141
4.0
290
     0
  0
SCALE
  5
4B
102
{ACAD_REACTORS
330
47
102
}
330
47
100
AcDbScale
 70
     0
300
1:5
140
1.0
141
5.0
290
     0
  0
SCALE
  5
4C
102
{ACAD_REACTORS
330
47
102
}
330
47
100
AcDbScale
 70
     0
300
1:8
140
1.0
141
8.0
290
     0
  0
SCALE
  5
4D
102
{ACAD_REACTORS
330
47
102
}
330
47
100
AcDbScale
 70
     0
300
1:10
140
1.0
141
10.0
290
     0
  0
SCALE
  5
4E
102
{ACAD_REACTORS
330
47
102
}
330
47
100
AcDbScale
 70
     0
300
1:16
140
1.0
141
16.0
290
     0
  0
SCALE
  5
4F
102
{ACAD_REACTORS
330
47
102
}
330
47
100
AcDbScale
 70
     0
300
1:20
140
1.0
141
20.0
290
     0
  0
SCALE
  5
50
102
{ACAD_REACTORS
330
47
102
}
330
47
100
AcDbScale
 70
     0
300
1:30
140
1.0
141
30.0
290
     0
  0
SCALE
  5
51
102
{ACAD_REACTORS
330
47
102
}
330
47
100
AcDbScale
 70
     0
300
1:40
140
1.0
141
40.0
290
     0
  0
SCALE
  5
52
102
{ACAD_REACTORS
330
47
102
}
330
47
100
AcDbScale
 70
     0
300
1:50
140
1.0
141
50.0
290
     0
  0
SCALE
  5
53
102
{ACAD_REACTORS
330
47
102
}
330
47
100
AcDbScale
 70
     0
300
1:100
140
1.0
141
100.0
290
     0
  0
SCALE
  5
54
102
{ACAD_REACTORS
330
47
102
}
330
47
100
AcDbScale
 70
     0
300
2:1
140
2.0
141
1.0
290
     0
  0
SCALE
  5
55
102
{ACAD_REACTORS
330
47
102
}
330
47
100
AcDbScale
 70
     0
300
4:1
140
4.0
141
1.0
290
     0
  0
SCALE
  5
56
102
{ACAD_REACTORS
330
47
102
}
330
47
100
AcDbScale
 70
     0
300
8:1
140
8.0
141
1.0
290
     0
  0
SCALE
  5
57
102
{ACAD_REACTORS
330
47
102
}
330
47
100
AcDbScale
 70
     0
300
10:1
140
10.0
141
1.0
290
     0
  0
SCALE
  5
58
102
{ACAD_REACTORS
330
47
102
}
330
47
100
AcDbScale
 70
     0
300
100:1
140
100.0
141
1.0
290
     0
  0
SCALE
  5
59
102
{ACAD_REACTORS
330
47
102
}
330
47
100
AcDbScale
 70
     0
300
1/128" = 1'-0"
140
0.0078125
141
12.0
290
     0
  0
SCALE
  5
5A
102
{ACAD_REACTORS
330
47
102
}
330
47
100
AcDbScale
 70
     0
300
1/64" = 1'-0"
140
0.015625
141
12.0
290
     0
  0
SCALE
  5
5B
102
{ACAD_REACTORS
330
47
102
}
330
47
100
AcDbScale
 70
     0
300
1/32" = 1'-0"
140
0.03125
141
12.0
290
     0
  0
SCALE
  5
5C
102
{ACAD_REACTORS
330
47
102
}
330
47
100
AcDbScale
 70
     0
300
1/16" = 1'-0"
140
0.0625
141
12.0
290
     0
  0
SCALE
  5
5D
102
{ACAD_REACTORS
330
47
102
}
330
47
100
AcDbScale
 70
     0
300
3/32" = 1'-0"
140
0.09375
141
12.0
290
     0
  0
SCALE
  5
5E
102
{ACAD_REACTORS
330
47
102
}
330
47
100
AcDbScale
 70
     0
300
1/8" = 1'-0"
140
0.125
141
12.0
290
     0
  0
SCALE
  5
5F
102
{ACAD_REACTORS
330
47
102
}
330
47
100
AcDbScale
 70
     0
300
3/16" = 1'-0"
140
0.1875
141
12.0
290
     0
  0
SCALE
  5
60
102
{ACAD_REACTORS
330
47
102
}
330
47
100
AcDbScale
 70
     0
300
1/4" = 1'-0"
140
0.25
141
12.0
290
     0
  0
SCALE
  5
61
102
{ACAD_REACTORS
330
47
102
}
330
47
100
AcDbScale
 70
     0
300
3/8" = 1'-0"
140
0.375
141
12.0
290
     0
  0
SCALE
  5
62
102
{ACAD_REACTORS
330
47
102
}
330
47
100
AcDbScale
 70
     0
300
1/2" = 1'-0"
140
0.5
141
12.0
290
     0
  0
SCALE
  5
63
102
{ACAD_REACTORS
330
47
102
}
330
47
100
AcDbScale
 70
     0
300
3/4" = 1'-0"
140
0.75
141
12.0
290
     0
  0
SCALE
  5
64
102
{ACAD_REACTORS
330
47
102
}
330
47
100
AcDbScale
 70
     0
300
1" = 1'-0"
140
1.0
141
12.0
290
     0
  0
SCALE
  5
65
102
{ACAD_REACTORS
330
47
102
}
330
47
100
AcDbScale
 70
     0
300
1-1/2" = 1'-0"
140
1.5
141
12.0
290
     0
  0
SCALE
  5
66
102
{ACAD_REACTORS
330
47
102
}
330
47
100
AcDbScale
 70
     0
300
3" = 1'-0"
140
3.0
141
12.0
290
     0
  0
SCALE
  5
67
102
{ACAD_REACTORS
330
47
102
}
330
47
100
AcDbScale
 70
     0
300
6" = 1'-0"
140
6.0
141
12.0
290
     0
  0
SCALE
  5
68
102
{ACAD_REACTORS
330
47
102
}
330
47
100
AcDbScale
 70
     0
300
1'-0" = 1'-0"
140
12.0
141
12.0
290
     0
  0
ENDSEC
  0
EOF
