  0
SECTION
  2
HEADER
  9
$ACADVER
  1
AC1015
  9
$ACADMAINTVER
 70
     6
  9
$DWGCODEPAGE
  3
DOS932
  9
$INSBASE
 10
0.0
 20
0.0
 30
0.0
  9
$EXTMIN
 10
0.0
 20
0.0
 30
0.0
  9
$EXTMAX
 10
215.9
 20
139.7
 30
0.0
  9
$LIMMIN
 10
0.0
 20
0.0
  9
$LIMMAX
 10
215.9
 20
139.7
  9
$ORTHOMODE
 70
     0
  9
$REGENMODE
 70
     1
  9
$FILLMODE
 70
     1
  9
$QTEXTMODE
 70
     0
  9
$MIRRTEXT
 70
     1
  9
$LTSCALE
 40
0.5
  9
$ATTMODE
 70
     1
  9
$TEXTSIZE
 40
1.75
  9
$TRACEWID
 40
1.0
  9
$TEXTSTYLE
  7
Standard
  9
$CLAYER
  8
0
  9
$CELTYPE
  6
ByLayer
  9
$CECOLOR
 62
   256
  9
$CELTSCALE
 40
1.0
  9
$DISPSILH
 70
     0
  9
$DIMSCALE
 40
1.0
  9
$DIMASZ
 40
1.651
  9
$DIMEXO
 40
0.5
  9
$DIMDLI
 40
3.75
  9
$DIMRND
 40
0.0
  9
$DIMDLE
 40
0.0
  9
$DIMEXE
 40
0.5
  9
$DIMTP
 40
0.0
  9
$DIMTM
 40
0.0
  9
$DIMTXT
 40
1.75
  9
$DIMCEN
 40
2.5
  9
$DIMTSZ
 40
0.0
  9
$DIMTOL
 70
     0
  9
$DIMLIM
 70
     0
  9
$DIMTIH
 70
     1
  9
$DIMTOH
 70
     1
  9
$DIMSE1
 70
     0
  9
$DIMSE2
 70
     0
  9
$DIMTAD
 70
     1
  9
$DIMZIN
 70
     1
  9
$DIMBLK
  1

  9
$DIMASO
 70
     1
  9
$DIMSHO
 70
     1
  9
$DIMPOST
  1

  9
$DIMAPOST
  1

  9
$DIMALT
 70
     0
  9
$DIMALTD
 70
     3
  9
$DIMALTF
 40
0.0393700787
  9
$DIMLFAC
 40
1.0
  9
$DIMTOFL
 70
     1
  9
$DIMTVP
 40
0.0
  9
$DIMTIX
 70
     0
  9
$DIMSOXD
 70
     0
  9
$DIMSAH
 70
     0
  9
$DIMBLK1
  1

  9
$DIMBLK2
  1

  9
$DIMSTYLE
  2
ISO-25
  9
$DIMCLRD
 70
     0
  9
$DIMCLRE
 70
     0
  9
$DIMCLRT
 70
     0
  9
$DIMTFAC
 40
1.0
  9
$DIMGAP
 40
0.762
  9
$DIMJUST
 70
     0
  9
$DIMSD1
 70
     0
  9
$DIMSD2
 70
     0
  9
$DIMTOLJ
 70
     0
  9
$DIMTZIN
 70
     1
  9
$DIMALTZ
 70
     0
  9
$DIMALTTZ
 70
     0
  9
$DIMUPT
 70
     0
  9
$DIMDEC
 70
     2
  9
$DIMTDEC
 70
     2
  9
$DIMALTU
 70
     2
  9
$DIMALTTD
 70
     3
  9
$DIMTXSTY
  7
Standard
  9
$DIMAUNIT
 70
     0
  9
$DIMADEC
 70
     2
  9
$DIMALTRND
 40
0.0
  9
$DIMAZIN
 70
     0
  9
$DIMDSEP
 70
    44
  9
$DIMATFIT
 70
     3
  9
$DIMFRAC
 70
     0
  9
$DIMLDRBLK
  1

  9
$DIMLUNIT
 70
     2
  9
$DIMLWD
 70
    -2
  9
$DIMLWE
 70
    -2
  9
$DIMTMOVE
 70
     0
  9
$LUNITS
 70
     2
  9
$LUPREC
 70
     2
  9
$SKETCHINC
 40
1.0
  9
$FILLETRAD
 40
10.0
  9
$AUNITS
 70
     0
  9
$AUPREC
 70
     2
  9
$MENU
  1
.
  9
$ELEVATION
 40
0.0
  9
$PELEVATION
 40
0.0
  9
$THICKNESS
 40
0.0
  9
$LIMCHECK
 70
     0
  9
$CHAMFERA
 40
0.0
  9
$CHAMFERB
 40
0.0
  9
$CHAMFERC
 40
0.0
  9
$CHAMFERD
 40
0.0
  9
$SKPOLY
 70
     0
  9
$TDCREATE
 40
2459227.764682153
  9
$TDUCREATE
 40
2459227.389682153
  9
$TDUPDATE
 40
2459227.764682697
  9
$TDUUPDATE
 40
2459227.389682697
  9
$TDINDWG
 40
0.0000000116
  9
$TDUSRTIMER
 40
0.0000000116
  9
$USRTIMER
 70
     1
  9
$ANGBASE
 50
0.0
  9
$ANGDIR
 70
     0
  9
$PDMODE
 70
     0
  9
$PDSIZE
 40
-1.0
  9
$PLINEWID
 40
0.0
  9
$SPLFRAME
 70
     0
  9
$SPLINETYPE
 70
     6
  9
$SPLINESEGS
 70
     8
  9
$HANDSEED
  5
10D
  9
$SURFTAB1
 70
     6
  9
$SURFTAB2
 70
     6
  9
$SURFTYPE
 70
     6
  9
$SURFU
 70
     6
  9
$SURFV
 70
     6
  9
$UCSBASE
  2

  9
$UCSNAME
  2

  9
$UCSORG
 10
0.0
 20
0.0
 30
0.0
  9
$UCSXDIR
 10
1.0
 20
0.0
 30
0.0
  9
$UCSYDIR
 10
0.0
 20
1.0
 30
0.0
  9
$UCSORTHOREF
  2

  9
$UCSORTHOVIEW
 70
     0
  9
$UCSORGTOP
 10
0.0
 20
0.0
 30
0.0
  9
$UCSORGBOTTOM
 10
0.0
 20
0.0
 30
0.0
  9
$UCSORGLEFT
 10
0.0
 20
0.0
 30
0.0
  9
$UCSORGRIGHT
 10
0.0
 20
0.0
 30
0.0
  9
$UCSORGFRONT
 10
0.0
 20
0.0
 30
0.0
  9
$UCSORGBACK
 10
0.0
 20
0.0
 30
0.0
  9
$PUCSBASE
  2

  9
$PUCSNAME
  2

  9
$PUCSORG
 10
0.0
 20
0.0
 30
0.0
  9
$PUCSXDIR
 10
1.0
 20
0.0
 30
0.0
  9
$PUCSYDIR
 10
0.0
 20
1.0
 30
0.0
  9
$PUCSORTHOREF
  2

  9
$PUCSORTHOVIEW
 70
     0
  9
$PUCSORGTOP
 10
0.0
 20
0.0
 30
0.0
  9
$PUCSORGBOTTOM
 10
0.0
 20
0.0
 30
0.0
  9
$PUCSORGLEFT
 10
0.0
 20
0.0
 30
0.0
  9
$PUCSORGRIGHT
 10
0.0
 20
0.0
 30
0.0
  9
$PUCSORGFRONT
 10
0.0
 20
0.0
 30
0.0
  9
$PUCSORGBACK
 10
0.0
 20
0.0
 30
0.0
  9
$USERI1
 70
     0
  9
$USERI2
 70
     0
  9
$USERI3
 70
     0
  9
$USERI4
 70
     0
  9
$USERI5
 70
     0
  9
$USERR1
 40
0.0
  9
$USERR2
 40
0.0
  9
$USERR3
 40
0.0
  9
$USERR4
 40
0.0
  9
$USERR5
 40
0.0
  9
$WORLDVIEW
 70
     1
  9
$SHADEDGE
 70
     3
  9
$SHADEDIF
 70
    70
  9
$TILEMODE
 70
     1
  9
$MAXACTVP
 70
    64
  9
$PINSBASE
 10
0.0
 20
0.0
 30
0.0
  9
$PLIMCHECK
 70
     0
  9
$PEXTMIN
 10
1.0000000000E+20
 20
1.0000000000E+20
 30
1.0000000000E+20
  9
$PEXTMAX
 10
-1.0000000000E+20
 20
-1.0000000000E+20
 30
-1.0000000000E+20
  9
$PLIMMIN
 10
0.0
 20
0.0
  9
$PLIMMAX
 10
420.0
 20
297.0
  9
$UNITMODE
 70
     0
  9
$VISRETAIN
 70
     1
  9
$PLINEGEN
 70
     0
  9
$PSLTSCALE
 70
     1
  9
$TREEDEPTH
 70
  3020
  9
$CMLSTYLE
  2
Standard
  9
$CMLJUST
 70
     0
  9
$CMLSCALE
 40
20.0
  9
$PROXYGRAPHICS
 70
     1
  9
$MEASUREMENT
 70
     1
  9
$CELWEIGHT
370
    -1
  9
$ENDCAPS
280
     0
  9
$JOINSTYLE
280
     0
  9
$LWDISPLAY
290
     1
  9
$INSUNITS
 70
     4
  9
$HYPERLINKBASE
  1

  9
$STYLESHEET
  1

  9
$XEDIT
290
     1
  9
$CEPSNTYPE
380
     0
  9
$PSTYLEMODE
290
     1
  9
$FINGERPRINTGUID
  2
{B23641CA-FCE7-4D18-AA95-C979A9F86750}
  9
$VERSIONGUID
  2
{FAEB1C32-E019-11D5-929B-00C0DF256EC4}
  9
$EXTNAMES
290
     1
  9
$PSVPSCALE
 40
0.0
  9
$OLESTARTUP
290
     0
  0
ENDSEC
  0
SECTION
  2
CLASSES
  0
CLASS
  1
ACDBDICTIONARYWDFLT
  2
AcDbDictionaryWithDefault
  3
ObjectDBX Classes
 90
        0
280
     0
281
     0
  0
CLASS
  1
VISUALSTYLE
  2
AcDbVisualStyle
  3
ObjectDBX Classes
 90
     4095
280
     0
281
     0
  0
CLASS
  1
MATERIAL
  2
AcDbMaterial
  3
ObjectDBX Classes
 90
     1153
280
     0
281
     0
  0
CLASS
  1
SCALE
  2
AcDbScale
  3
ObjectDBX Classes
 90
     1153
280
     0
281
     0
  0
CLASS
  1
TABLESTYLE
  2
AcDbTableStyle
  3
ObjectDBX Classes
 90
     4095
280
     0
281
     0
  0
CLASS
  1
MLEADERSTYLE
  2
AcDbMLeaderStyle
  3
ACDB_MLEADERSTYLE_CLASS
 90
     4095
280
     0
281
     0
  0
CLASS
  1
SUN
  2
AcDbSun
  3
SCENEOE
 90
     1153
280
     0
281
     0
  0
CLASS
  1
ACDBPLACEHOLDER
  2
AcDbPlaceHolder
  3
ObjectDBX Classes
 90
        0
280
     0
281
     0
  0
CLASS
  1
LAYOUT
  2
AcDbLayout
  3
ObjectDBX Classes
 90
        0
280
     0
281
     0
  0
ENDSEC
  0
SECTION
  2
TABLES
  0
TABLE
  2
VPORT
  5
8
330
0
100
AcDbSymbolTable
 70
     1
  0
VPORT
  5
29
330
8
100
AcDbSymbolTableRecord
100
AcDbViewportTableRecord
  2
*Active
 70
     0
 10
0.0
 20
0.0
 11
1.0
 21
1.0
 12
107.95
 22
69.85
 13
0.0
 23
0.0
 14
10.0
 24
10.0
 15
10.0
 25
10.0
 16
0.0
 26
0.0
 36
1.0
 17
0.0
 27
0.0
 37
0.0
 40
139.7
 41
1.5454545455
 42
50.0
 43
0.0
 44
0.0
 50
0.0
 51
0.0
 71
     0
 72
  2000
 73
     1
 74
     3
 75
     0
 76
     0
 77
     0
 78
     0
281
     0
 65
     1
110
0.0
120
0.0
130
0.0
111
1.0
121
0.0
131
0.0
112
0.0
122
1.0
132
0.0
 79
     0
146
0.0
  0
ENDTAB
  0
TABLE
  2
LTYPE
  5
5
330
0
100
AcDbSymbolTable
 70
     6
  0
LTYPE
  5
14
330
5
100
AcDbSymbolTableRecord
100
AcDbLinetypeTableRecord
  2
ByBlock
 70
     0
  3

 72
    65
 73
     0
 40
0.0
  0
LTYPE
  5
15
330
5
100
AcDbSymbolTableRecord
100
AcDbLinetypeTableRecord
  2
ByLayer
 70
     0
  3

 72
    65
 73
     0
 40
0.0
  0
LTYPE
  5
16
330
5
100
AcDbSymbolTableRecord
100
AcDbLinetypeTableRecord
  2
Continuous
 70
     0
  3
Solid line
 72
    65
 73
     0
 40
0.0
  0
LTYPE
  5
6E
330
5
100
AcDbSymbolTableRecord
100
AcDbLinetypeTableRecord
  2
HIDDEN
 70
     0
  3
Hidden __ __ __ __ __ __ __ __ __ __ __ __ __ __
 72
    65
 73
     2
 40
1.905
 49
1.27
 74
     0
 49
-0.635
 74
     0
  0
LTYPE
  5
6F
330
5
100
AcDbSymbolTableRecord
100
AcDbLinetypeTableRecord
  2
PHANTOM
 70
     0
  3
Phantom ______  __  __  ______  __  __  ______
 72
    65
 73
     6
 40
12.7
 49
6.35
 74
     0
 49
-1.27
 74
     0
 49
1.27
 74
     0
 49
-1.27
 74
     0
 49
1.27
 74
     0
 49
-1.27
 74
     0
  0
LTYPE
  5
70
330
5
100
AcDbSymbolTableRecord
100
AcDbLinetypeTableRecord
  2
CENTER
 70
     0
  3
Center ____ _ ____ _ ____ _ ____ _ ____ _ ____
 72
    65
 73
     4
 40
10.16
 49
6.35
 74
     0
 49
-1.27
 74
     0
 49
1.27
 74
     0
 49
-1.27
 74
     0
  0
LTYPE
  5
71
330
5
100
AcDbSymbolTableRecord
100
AcDbLinetypeTableRecord
  2
CENTERX2
 70
     0
  3
Center (2x) ________  __  ________  __  _____
 72
    65
 73
     4
 40
20.32
 49
12.7
 74
     0
 49
-2.54
 74
     0
 49
2.54
 74
     0
 49
-2.54
 74
     0
  0
LTYPE
  5
72
330
5
100
AcDbSymbolTableRecord
100
AcDbLinetypeTableRecord
  2
DOT2
 70
     0
  3
Dot (.5x) ........................................
 72
    65
 73
     2
 40
0.635
 49
0.0
 74
     0
 49
-0.635
 74
     0
  0
ENDTAB
  0
TABLE
  2
LAYER
  5
2
330
0
100
AcDbSymbolTable
 70
     1
  0
LAYER
  5
10
330
2
100
AcDbSymbolTableRecord
100
AcDbLayerTableRecord
  2
0
 70
     0
 62
     7
  6
Continuous
370
    -3
390
F
  0
ENDTAB
  0
TABLE
  2
STYLE
  5
3
330
0
100
AcDbSymbolTable
 70
     2
  0
STYLE
  5
11
330
3
100
AcDbSymbolTableRecord
100
AcDbTextStyleTableRecord
  2
Standard
 70
     0
 40
0.0
 41
1.0
 50
0.0
 71
     0
 42
1.75
  3
txt
  4
bigfont
  0
STYLE
  5
73
330
3
100
AcDbSymbolTableRecord
100
AcDbTextStyleTableRecord
  2
SLDTEXTSTYLE0
 70
     0
 40
0.0
 41
0.7
 50
0.0
 71
     0
 42
1.75
  3
TXT
  4
bigfont
  0
ENDTAB
  0
TABLE
  2
VIEW
  5
6
330
0
100
AcDbSymbolTable
 70
     0
  0
ENDTAB
  0
TABLE
  2
UCS
  5
7
330
0
100
AcDbSymbolTable
 70
     0
  0
ENDTAB
  0
TABLE
  2
APPID
  5
9
330
0
100
AcDbSymbolTable
 70
     1
  0
APPID
  5
12
330
9
100
AcDbSymbolTableRecord
100
AcDbRegAppTableRecord
  2
ACAD
 70
     0
  0
ENDTAB
  0
TABLE
  2
DIMSTYLE
  5
A
330
0
100
AcDbSymbolTable
 70
     1
100
AcDbDimStyleTable
  0
DIMSTYLE
105
27
330
A
100
AcDbSymbolTableRecord
100
AcDbDimStyleTableRecord
  2
ISO-25
 70
     0
 41
2.5
 42
0.625
 43
3.75
 44
1.25
 73
     0
 74
     0
 77
     1
 78
     8
140
2.5
141
2.5
143
0.0393700787
147
0.625
171
     3
172
     1
178
     0
271
     2
272
     2
274
     3
278
    44
283
     0
284
     8
340
11
  0
ENDTAB
  0
TABLE
  2
BLOCK_RECORD
  5
1
330
0
100
AcDbSymbolTable
 70
     2
  0
BLOCK_RECORD
  5
1F
330
1
100
AcDbSymbolTableRecord
100
AcDbBlockTableRecord
  2
*Model_Space
340
22
  0
BLOCK_RECORD
  5
1B
330
1
100
AcDbSymbolTableRecord
100
AcDbBlockTableRecord
  2
*Paper_Space
340
1E
  0
BLOCK_RECORD
  5
23
330
1
100
AcDbSymbolTableRecord
100
AcDbBlockTableRecord
  2
*Paper_Space0
340
26
  0
BLOCK_RECORD
  5
C8
330
1
100
AcDbSymbolTableRecord
100
AcDbBlockTableRecord
  2
SW_CENTERMARKSYMBOL_0
340
0
102
{BLKREFS
331
D3
102
}
  0
ENDTAB
  0
ENDSEC
  0
SECTION
  2
BLOCKS
  0
BLOCK
  5
20
330
1F
100
AcDbEntity
  8
0
100
AcDbBlockBegin
  2
*Model_Space
 70
     0
 10
0.0
 20
0.0
 30
0.0
  3
*Model_Space
  1

  0
ENDBLK
  5
21
330
1F
100
AcDbEntity
  8
0
100
AcDbBlockEnd
  0
BLOCK
  5
1C
330
1B
100
AcDbEntity
 67
     1
  8
0
100
AcDbBlockBegin
  2
*Paper_Space
 70
     0
 10
0.0
 20
0.0
 30
0.0
  3
*Paper_Space
  1

  0
ENDBLK
  5
1D
330
1B
100
AcDbEntity
 67
     1
  8
0
100
AcDbBlockEnd
  0
BLOCK
  5
24
330
23
100
AcDbEntity
  8
0
100
AcDbBlockBegin
  2
*Paper_Space0
 70
     0
 10
0.0
 20
0.0
 30
0.0
  3
*Paper_Space0
  1

  0
ENDBLK
  5
25
330
23
100
AcDbEntity
  8
0
100
AcDbBlockEnd
  0
BLOCK
  5
C9
330
C8
100
AcDbEntity
  8
0
100
AcDbBlockBegin
  2
SW_CENTERMARKSYMBOL_0
 70
     0
 10
0.0
 20
0.0
 30
0.0
  3
SW_CENTERMARKSYMBOL_0
  1

  0
LINE
  5
CB
330
C8
100
AcDbEntity
  8
0
  6
Continuous
 62
     0
370
    18
100
AcDbLine
 10
0.0
 20
0.0
 30
0.0
 11
0.0
 21
2.5
 31
0.0
  0
LINE
  5
CC
330
C8
100
AcDbEntity
  8
0
  6
Continuous
 62
     0
370
    18
100
AcDbLine
 10
0.0
 20
0.0
 30
0.0
 11
-2.5
 21
0.0
 31
0.0
  0
LINE
  5
CD
330
C8
100
AcDbEntity
  8
0
  6
Continuous
 62
     0
370
    18
100
AcDbLine
 10
0.0
 20
0.0
 30
0.0
 11
0.0
 21
-2.5
 31
0.0
  0
LINE
  5
CE
330
C8
100
AcDbEntity
  8
0
  6
Continuous
 62
     0
370
    18
100
AcDbLine
 10
0.0
 20
0.0
 30
0.0
 11
2.5
 21
0.0
 31
0.0
  0
LINE
  5
CF
330
C8
100
AcDbEntity
  8
0
  6
Continuous
 62
     0
370
    18
100
AcDbLine
 10
0.0
 20
5.0
 30
0.0
 11
0.0
 21
13.1779436563
 31
0.0
  0
LINE
  5
D0
330
C8
100
AcDbEntity
  8
0
  6
Continuous
 62
     0
370
    18
100
AcDbLine
 10
-5.0
 20
0.0
 30
0.0
 11
-11.5063654231
 21
0.0
 31
0.0
  0
LINE
  5
D1
330
C8
100
AcDbEntity
  8
0
  6
Continuous
 62
     0
370
    18
100
AcDbLine
 10
0.0
 20
-5.0
 30
0.0
 11
0.0
 21
-12.8900572142
 31
0.0
  0
LINE
  5
D2
330
C8
100
AcDbEntity
  8
0
  6
Continuous
 62
     0
370
    18
100
AcDbLine
 10
5.0
 20
0.0
 30
0.0
 11
11.3162216844
 21
0.0
 31
0.0
  0
ENDBLK
  5
CA
330
C8
100
AcDbEntity
  8
0
100
AcDbBlockEnd
  0
ENDSEC
  0
SECTION
  2
ENTITIES
  0
MTEXT
  5
74
330
1F
100
AcDbEntity
  8
0
  6
Continuous
 62
     7
370
     0
100
AcDbMText
 10
91.5215091134
 20
62.8688021391
 30
0.0
 40
2.6458333333
 41
0.0
 71
     1
 72
     1
  1
5R-NS1013
  7
SLDTEXTSTYLE0
 73
     1
 44
1.0
  0
LINE
  5
75
330
1F
100
AcDbEntity
  8
0
  6
Continuous
 62
     7
370
    25
100
AcDbLine
 10
58.5438117639
 20
55.2052516067
 30
0.0
 11
57.4616520231
 21
53.3308959538
 31
0.0
  0
LINE
  5
76
330
1F
100
AcDbEntity
  8
0
  6
Continuous
 62
     7
370
    25
100
AcDbLine
 10
57.4616520231
 20
32.8308959538
 30
0.0
 11
58.5438117639
 21
30.9565403008
 31
0.0
  0
LINE
  5
77
330
1F
100
AcDbEntity
  8
0
  6
Continuous
 62
     7
370
    25
100
AcDbLine
 10
84.3794922823
 20
30.9565403008
 30
0.0
 11
85.4616520231
 21
32.8308959538
 31
0.0
  0
LINE
  5
78
330
1F
100
AcDbEntity
  8
0
  6
Continuous
 62
     7
370
    25
100
AcDbLine
 10
85.4616520231
 20
53.3308959538
 30
0.0
 11
84.3794922823
 21
55.2052516067
 31
0.0
  0
LINE
  5
79
330
1F
100
AcDbEntity
  8
0
  6
Continuous
 62
     7
370
    25
100
AcDbLine
 10
71.4616520231
 20
53.5808959538
 30
0.0
 11
71.0264072377
 21
55.2052516067
 31
0.0
  0
LINE
  5
7A
330
1F
100
AcDbEntity
  8
0
  6
Continuous
 62
     7
370
    25
100
AcDbLine
 10
71.8968968086
 20
55.2052516067
 30
0.0
 11
71.4616520231
 21
53.5808959538
 31
0.0
  0
LINE
  5
7B
330
1F
100
AcDbEntity
  8
0
  6
Continuous
 62
     7
370
    25
100
AcDbLine
 10
71.4616520231
 20
32.5808959538
 30
0.0
 11
71.8968968086
 21
30.9565403008
 31
0.0
  0
LINE
  5
7C
330
1F
100
AcDbEntity
  8
0
  6
Continuous
 62
     7
370
    25
100
AcDbLine
 10
71.0264072377
 20
30.9565403008
 30
0.0
 11
71.4616520231
 21
32.5808959538
 31
0.0
  0
LINE
  5
7D
330
1F
100
AcDbEntity
  8
0
  6
Continuous
 62
     7
370
    25
100
AcDbLine
 10
80.9616520231
 20
54.9052516067
 30
0.0
 11
80.8812672654
 21
55.2052516067
 31
0.0
  0
LINE
  5
7E
330
1F
100
AcDbEntity
  8
0
  6
Continuous
 62
     7
370
    25
100
AcDbLine
 10
81.0420367809
 20
55.2052516067
 30
0.0
 11
80.9616520231
 21
54.9052516067
 31
0.0
  0
LINE
  5
7F
330
1F
100
AcDbEntity
  8
0
  6
Continuous
 62
     7
370
    25
100
AcDbLine
 10
80.9616520231
 20
31.2565403008
 30
0.0
 11
81.0420367809
 21
30.9565403008
 31
0.0
  0
LINE
  5
80
330
1F
100
AcDbEntity
  8
0
  6
Continuous
 62
     7
370
    25
100
AcDbLine
 10
80.8812672654
 20
30.9565403008
 30
0.0
 11
80.9616520231
 21
31.2565403008
 31
0.0
  0
LINE
  5
81
330
1F
100
AcDbEntity
  8
0
  6
Continuous
 62
     7
370
    25
100
AcDbLine
 10
71.0264072377
 20
55.2052516067
 30
0.0
 11
58.5438117639
 21
55.2052516067
 31
0.0
  0
SPLINE
  5
82
330
1F
100
AcDbEntity
  8
0
  6
Continuous
 62
     7
370
    25
100
AcDbSpline
210
0.0
220
0.0
230
1.0
 70
     8
 71
     3
 72
    10
 73
     6
 74
     0
 42
0.000000001
 43
0.00000001
 40
0.0
 40
0.0
 40
0.0
 40
0.0
 40
0.5
 40
0.5
 40
1.0
 40
1.0
 40
1.0
 40
1.0
 10
71.026407237684
 20
55.20525160673939
 30
0.0
 10
71.16177020876583
 20
54.70007012119846
 30
0.0
 10
71.27168387881896
 20
54.19488863565753
 30
0.0
 10
71.42185561206043
 20
53.18452566457568
 30
0.0
 10
71.46165202312135
 20
52.67934417903476
 30
0.0
 10
71.46165202312135
 20
52.17416269349383
 30
0.0
  0
SPLINE
  5
83
330
1F
100
AcDbEntity
  8
0
  6
Continuous
 62
     7
370
    25
100
AcDbSpline
210
0.0
220
0.0
230
1.0
 70
     8
 71
     3
 72
    10
 73
     6
 74
     0
 42
0.000000001
 43
0.00000001
 40
0.0
 40
0.0
 40
0.0
 40
0.0
 40
0.5
 40
0.5
 40
1.0
 40
1.0
 40
1.0
 40
1.0
 10
71.46165202312135
 20
52.17416269349383
 30
0.0
 10
71.46165202312135
 20
51.66898120795291
 30
0.0
 10
71.42185561206043
 20
51.16379972241199
 30
0.0
 10
71.27168387881896
 20
50.15343675133013
 30
0.0
 10
71.16177020876583
 20
49.64825526578921
 30
0.0
 10
71.026407237684
 20
49.14307378024829
 30
0.0
  0
LINE
  5
84
330
1F
100
AcDbEntity
  8
0
  6
Continuous
 62
     7
370
    25
100
AcDbLine
 10
71.0264072377
 20
49.1430737802
 30
0.0
 11
58.5438117639
 21
49.1430737802
 31
0.0
  0
SPLINE
  5
85
330
1F
100
AcDbEntity
  8
0
  6
Continuous
 62
     7
370
    25
100
AcDbSpline
210
0.0
220
0.0
230
1.0
 70
     8
 71
     3
 72
    16
 73
    12
 74
     0
 42
0.000000001
 43
0.00000001
 40
0.0
 40
0.0
 40
0.0
 40
0.0
 40
0.2499999999999998
 40
0.2499999999999998
 40
0.4999999999999997
 40
0.4999999999999997
 40
0.6249999999999998
 40
0.6249999999999998
 40
0.7499999999999999
 40
0.7499999999999999
 40
1.0
 40
1.0
 40
1.0
 40
1.0
 10
58.54381176392736
 20
49.14307378024827
 30
0.0
 10
58.25806996664468
 20
49.63799309098791
 30
0.0
 10
58.02256696648947
 20
50.13652074517776
 30
0.0
 10
57.69631884932301
 20
51.14397312095103
 30
0.0
 10
57.60664988435209
 20
51.65297513590907
 30
0.0
 10
57.60566497794986
 20
52.42606797300413
 30
0.0
 10
57.62758555475965
 20
52.68497825373212
 30
0.0
 10
57.71306427249403
 20
53.19713007758298
 30
0.0
 10
57.77653566096051
 20
53.45148893530828
 30
0.0
 10
58.02162789815888
 20
54.21003699802709
 30
0.0
 10
58.25771376571609
 20
54.70971533789344
 30
0.0
 10
58.54381176392752
 20
55.2052516067394
 30
0.0
  0
LINE
  5
86
330
1F
100
AcDbEntity
  8
0
  6
Continuous
 62
     7
370
    25
100
AcDbLine
 10
84.3794922823
 20
55.2052516067
 30
0.0
 11
81.0420367809
 21
55.2052516067
 31
0.0
  0
SPLINE
  5
87
330
1F
100
AcDbEntity
  8
0
  6
Continuous
 62
     7
370
    25
100
AcDbSpline
210
0.0
220
0.0
230
1.0
 70
     8
 71
     3
 72
    16
 73
    12
 74
     0
 42
0.000000001
 43
0.00000001
 40
0.0
 40
0.0
 40
0.0
 40
0.0
 40
0.2499999999999999
 40
0.2499999999999999
 40
0.4999999999999998
 40
0.4999999999999998
 40
0.6249999999999998
 40
0.6249999999999998
 40
0.7499999999999999
 40
0.7499999999999999
 40
1.0
 40
1.0
 40
1.0
 40
1.0
 10
84.37949228231535
 20
55.20525160673941
 30
0.0
 10
84.66523407959802
 20
54.71033229599977
 30
0.0
 10
84.90073707975324
 20
54.21180464180992
 30
0.0
 10
85.2269851969197
 20
53.20435226603664
 30
0.0
 10
85.31665416189061
 20
52.6953502510786
 30
0.0
 10
85.31763906829285
 20
51.92225741398355
 30
0.0
 10
85.29571849148306
 20
51.66334713325555
 30
0.0
 10
85.21023977374868
 20
51.15119530940468
 30
0.0
 10
85.14676838528219
 20
50.89683645167938
 30
0.0
 10
84.90167614808382
 20
50.13828838896059
 30
0.0
 10
84.66559028052662
 20
49.63861004909423
 30
0.0
 10
84.37949228231518
 20
49.14307378024827
 30
0.0
  0
LINE
  5
88
330
1F
100
AcDbEntity
  8
0
  6
Continuous
 62
     7
370
    25
100
AcDbLine
 10
84.3794922823
 20
49.1430737802
 30
0.0
 11
81.0420367809
 21
49.1430737802
 31
0.0
  0
SPLINE
  5
89
330
1F
100
AcDbEntity
  8
0
  6
Continuous
 62
     7
370
    25
100
AcDbSpline
210
0.0
220
0.0
230
1.0
 70
     8
 71
     3
 72
     8
 73
     4
 74
     0
 42
0.000000001
 43
0.00000001
 40
0.0
 40
0.0
 40
0.0
 40
0.0
 40
1.0
 40
1.0
 40
1.0
 40
1.0
 10
81.0420367808507
 20
49.14307378024829
 30
0.0
 10
81.01415007226892
 20
49.24714839353135
 30
0.0
 10
80.98732627610252
 20
49.35127556359335
 30
0.0
 10
80.96165202312136
 20
49.45545957398027
 30
0.0
  0
SPLINE
  5
8A
330
1F
100
AcDbEntity
  8
0
  6
Continuous
 62
     7
370
    25
100
AcDbSpline
210
0.0
220
0.0
230
1.0
 70
     8
 71
     3
 72
     8
 73
     4
 74
     0
 42
0.000000001
 43
0.00000001
 40
0.0
 40
0.0
 40
0.0
 40
0.0
 40
1.0
 40
1.0
 40
1.0
 40
1.0
 10
80.96165202312136
 20
49.45545957398027
 30
0.0
 10
80.93596839935317
 20
49.35123753770913
 30
0.0
 10
80.90914406507864
 20
49.24711141303118
 30
0.0
 10
80.88126726539203
 20
49.14307378024829
 30
0.0
  0
LINE
  5
8B
330
1F
100
AcDbEntity
  8
0
  6
Continuous
 62
     7
370
    25
100
AcDbLine
 10
80.8812672654
 20
49.1430737802
 30
0.0
 11
71.8968968086
 21
49.1430737802
 31
0.0
  0
SPLINE
  5
8C
330
1F
100
AcDbEntity
  8
0
  6
Continuous
 62
     7
370
    25
100
AcDbSpline
210
0.0
220
0.0
230
1.0
 70
     8
 71
     3
 72
    10
 73
     6
 74
     0
 42
0.000000001
 43
0.00000001
 40
0.0
 40
0.0
 40
0.0
 40
0.0
 40
0.5
 40
0.5
 40
1.0
 40
1.0
 40
1.0
 40
1.0
 10
71.46165202312135
 20
52.17416269349383
 30
0.0
 10
71.46165202312135
 20
51.66898120795291
 30
0.0
 10
71.50144843418228
 20
51.16379972241199
 30
0.0
 10
71.65162016742374
 20
50.15343675133013
 30
0.0
 10
71.76153383747686
 20
49.64825526578921
 30
0.0
 10
71.89689680855871
 20
49.14307378024829
 30
0.0
  0
SPLINE
  5
8D
330
1F
100
AcDbEntity
  8
0
  6
Continuous
 62
     7
370
    25
100
AcDbSpline
210
0.0
220
0.0
230
1.0
 70
     8
 71
     3
 72
    10
 73
     6
 74
     0
 42
0.000000001
 43
0.00000001
 40
0.0
 40
0.0
 40
0.0
 40
0.0
 40
0.5
 40
0.5
 40
1.0
 40
1.0
 40
1.0
 40
1.0
 10
71.89689680855871
 20
55.20525160673939
 30
0.0
 10
71.76153383747686
 20
54.70007012119846
 30
0.0
 10
71.65162016742374
 20
54.19488863565753
 30
0.0
 10
71.50144843418228
 20
53.18452566457568
 30
0.0
 10
71.46165202312135
 20
52.67934417903476
 30
0.0
 10
71.46165202312135
 20
52.17416269349383
 30
0.0
  0
LINE
  5
8E
330
1F
100
AcDbEntity
  8
0
  6
Continuous
 62
     7
370
    25
100
AcDbLine
 10
80.8812672654
 20
55.2052516067
 30
0.0
 11
71.8968968086
 21
55.2052516067
 31
0.0
  0
SPLINE
  5
8F
330
1F
100
AcDbEntity
  8
0
  6
Continuous
 62
     7
370
    25
100
AcDbSpline
210
0.0
220
0.0
230
1.0
 70
     8
 71
     3
 72
     8
 73
     4
 74
     0
 42
0.000000001
 43
0.00000001
 40
0.0
 40
0.0
 40
0.0
 40
0.0
 40
1.0
 40
1.0
 40
1.0
 40
1.0
 10
80.88126726539203
 20
55.20525160673939
 30
0.0
 10
80.9091539739738
 20
55.10117699345632
 30
0.0
 10
80.9359777701402
 20
54.99704982339433
 30
0.0
 10
80.96165202312136
 20
54.8928658130074
 30
0.0
  0
SPLINE
  5
90
330
1F
100
AcDbEntity
  8
0
  6
Continuous
 62
     7
370
    25
100
AcDbSpline
210
0.0
220
0.0
230
1.0
 70
     8
 71
     3
 72
     8
 73
     4
 74
     0
 42
0.000000001
 43
0.00000001
 40
0.0
 40
0.0
 40
0.0
 40
0.0
 40
1.0
 40
1.0
 40
1.0
 40
1.0
 10
80.96165202312136
 20
54.8928658130074
 30
0.0
 10
80.98733564688953
 20
54.99708784927854
 30
0.0
 10
81.01415998116407
 20
55.1012139739565
 30
0.0
 10
81.0420367808507
 20
55.20525160673939
 30
0.0
  0
SPLINE
  5
91
330
1F
100
AcDbEntity
  8
0
  6
Continuous
 62
     7
370
    25
100
AcDbSpline
210
0.0
220
0.0
230
1.0
 70
     8
 71
     3
 72
    16
 73
    12
 74
     0
 42
0.000000001
 43
0.00000001
 40
0.0
 40
0.0
 40
0.0
 40
0.0
 40
0.2500000000000001
 40
0.2500000000000001
 40
0.5
 40
0.5
 40
0.6249999999999999
 40
0.6249999999999999
 40
0.7499999999999999
 40
0.7499999999999999
 40
1.0
 40
1.0
 40
1.0
 40
1.0
 10
84.37949228231504
 20
37.01871812726609
 30
0.0
 10
84.66428159115833
 20
38.00525723200403
 30
0.0
 10
84.90301888341774
 20
39.01533413630222
 30
0.0
 10
85.22937972452412
 20
41.03973862220055
 30
0.0
 10
85.31742302113057
 20
42.057827935253
 30
0.0
 10
85.31726001986215
 20
43.59532209893915
 30
0.0
 10
85.295426339844
 20
44.10952658743842
 30
0.0
 10
85.20873364702707
 20
45.14130664303292
 30
0.0
 10
85.14443879852327
 20
45.6525505802982
 30
0.0
 10
84.89795245146303
 20
47.17039500140085
 30
0.0
 10
84.66238452723336
 20
48.16310629771671
 30
0.0
 10
84.37949228231501
 20
49.14307378024829
 30
0.0
  0
LINE
  5
92
330
1F
100
AcDbEntity
  8
0
  6
Continuous
 62
     7
370
    25
100
AcDbLine
 10
84.3794922823
 20
37.0187181273
 30
0.0
 11
81.0420367809
 21
37.0187181273
 31
0.0
  0
SPLINE
  5
93
330
1F
100
AcDbEntity
  8
0
  6
Continuous
 62
     7
370
    25
100
AcDbSpline
210
0.0
220
0.0
230
1.0
 70
     8
 71
     3
 72
     8
 73
     4
 74
     0
 42
0.000000001
 43
0.00000001
 40
0.0
 40
0.0
 40
0.0
 40
0.0
 40
1.0
 40
1.0
 40
1.0
 40
1.0
 10
81.0420367808507
 20
37.01871812726611
 30
0.0
 10
81.01414861848546
 20
37.22687820501964
 30
0.0
 10
80.98732490240268
 20
37.43513284267858
 30
0.0
 10
80.96165202312136
 20
37.64348971473009
 30
0.0
  0
SPLINE
  5
94
330
1F
100
AcDbEntity
  8
0
  6
Continuous
 62
     7
370
    25
100
AcDbSpline
210
0.0
220
0.0
230
1.0
 70
     8
 71
     3
 72
     8
 73
     4
 74
     0
 42
0.000000001
 43
0.00000001
 40
0.0
 40
0.0
 40
0.0
 40
0.0
 40
1.0
 40
1.0
 40
1.0
 40
1.0
 10
80.96165202312136
 20
37.64348971473008
 30
0.0
 10
80.9359688815729
 20
37.43504955580394
 30
0.0
 10
80.90914457464108
 20
37.22679719625771
 30
0.0
 10
80.88126726539203
 20
37.01871812726611
 30
0.0
  0
LINE
  5
95
330
1F
100
AcDbEntity
  8
0
  6
Continuous
 62
     7
370
    25
100
AcDbLine
 10
80.8812672654
 20
37.0187181273
 30
0.0
 11
71.8968968086
 21
37.0187181273
 31
0.0
  0
SPLINE
  5
96
330
1F
100
AcDbEntity
  8
0
  6
Continuous
 62
     7
370
    25
100
AcDbSpline
210
0.0
220
0.0
230
1.0
 70
     8
 71
     3
 72
    10
 73
     6
 74
     0
 42
0.000000001
 43
0.00000001
 40
0.0
 40
0.0
 40
0.0
 40
0.0
 40
0.5
 40
0.5
 40
1.0
 40
1.0
 40
1.0
 40
1.0
 10
71.89689680855885
 20
37.01871812726611
 30
0.0
 10
71.76194105571211
 20
38.02604158006155
 30
0.0
 10
71.65159270631703
 20
39.03954631107482
 30
0.0
 10
71.50134684988774
 20
41.0618044474726
 30
0.0
 10
71.46165202312135
 20
42.07191871107635
 30
0.0
 10
71.46165202312135
 20
43.0808959537572
 30
0.0
  0
SPLINE
  5
97
330
1F
100
AcDbEntity
  8
0
  6
Continuous
 62
     7
370
    25
100
AcDbSpline
210
0.0
220
0.0
230
1.0
 70
     8
 71
     3
 72
    10
 73
     6
 74
     0
 42
0.000000001
 43
0.00000001
 40
0.0
 40
0.0
 40
0.0
 40
0.0
 40
0.5
 40
0.5
 40
1.0
 40
1.0
 40
1.0
 40
1.0
 10
71.46165202312135
 20
43.08089595375719
 30
0.0
 10
71.46165202312135
 20
44.09333678765704
 30
0.0
 10
71.50160518125855
 20
45.1046332009752
 30
0.0
 10
71.65190009259416
 20
47.12520981260722
 30
0.0
 10
71.7617740007048
 20
48.13450341190295
 30
0.0
 10
71.89689680855885
 20
49.14307378024829
 30
0.0
  0
SPLINE
  5
98
330
1F
100
AcDbEntity
  8
0
  6
Continuous
 62
     7
370
    25
100
AcDbSpline
210
0.0
220
0.0
230
1.0
 70
     8
 71
     3
 72
     8
 73
     4
 74
     0
 42
0.000000001
 43
0.00000001
 40
0.0
 40
0.0
 40
0.0
 40
0.0
 40
1.0
 40
1.0
 40
1.0
 40
1.0
 10
80.88126726539203
 20
49.14307378024829
 30
0.0
 10
80.90915542775724
 20
48.93491370249476
 30
0.0
 10
80.93597914384003
 20
48.72665906483581
 30
0.0
 10
80.96165202312136
 20
48.51830219278431
 30
0.0
  0
SPLINE
  5
99
330
1F
100
AcDbEntity
  8
0
  6
Continuous
 62
     7
370
    25
100
AcDbSpline
210
0.0
220
0.0
230
1.0
 70
     8
 71
     3
 72
     8
 73
     4
 74
     0
 42
0.000000001
 43
0.00000001
 40
0.0
 40
0.0
 40
0.0
 40
0.0
 40
1.0
 40
1.0
 40
1.0
 40
1.0
 10
80.96165202312136
 20
48.51830219278431
 30
0.0
 10
80.9873351646698
 20
48.72674235171046
 30
0.0
 10
81.01415947160163
 20
48.93499471125669
 30
0.0
 10
81.0420367808507
 20
49.14307378024829
 30
0.0
  0
SPLINE
  5
9A
330
1F
100
AcDbEntity
  8
0
  6
Continuous
 62
     7
370
    25
100
AcDbSpline
210
0.0
220
0.0
230
1.0
 70
     8
 71
     3
 72
    16
 73
    12
 74
     0
 42
0.000000001
 43
0.00000001
 40
0.0
 40
0.0
 40
0.0
 40
0.0
 40
0.2499999999999999
 40
0.2499999999999999
 40
0.4999999999999998
 40
0.4999999999999998
 40
0.6249999999999998
 40
0.6249999999999998
 40
0.7499999999999998
 40
0.7499999999999998
 40
1.0
 40
1.0
 40
1.0
 40
1.0
 10
58.54381176392765
 20
37.01871812726609
 30
0.0
 10
58.25903969332497
 20
38.00519751698698
 30
0.0
 10
58.02029266980414
 20
39.01528838922338
 30
0.0
 10
57.69391767804522
 20
41.03977901422692
 30
0.0
 10
57.60588227081473
 20
42.05786523233772
 30
0.0
 10
57.60604340004539
 20
43.59527040027347
 30
0.0
 10
57.6278739001664
 20
44.10943130644485
 30
0.0
 10
57.71454851782811
 20
45.14109618594341
 30
0.0
 10
57.77885324121416
 20
45.65246804649708
 30
0.0
 10
58.02534794052156
 20
47.17038969459205
 30
0.0
 10
58.26092200433828
 20
48.16311490714872
 30
0.0
 10
58.54381176392769
 20
49.14307378024829
 30
0.0
  0
SPLINE
  5
9B
330
1F
100
AcDbEntity
  8
0
  6
Continuous
 62
     7
370
    25
100
AcDbSpline
210
0.0
220
0.0
230
1.0
 70
     8
 71
     3
 72
    16
 73
    12
 74
     0
 42
0.000000001
 43
0.00000001
 40
0.0
 40
0.0
 40
0.0
 40
0.0
 40
0.2499999999999999
 40
0.2499999999999999
 40
0.4999999999999998
 40
0.4999999999999998
 40
0.6249999999999998
 40
0.6249999999999998
 40
0.7499999999999999
 40
0.7499999999999999
 40
1.0
 40
1.0
 40
1.0
 40
1.0
 10
58.54381176392735
 20
30.95654030077506
 30
0.0
 10
58.25806996664468
 20
31.4514596115147
 30
0.0
 10
58.02256696648947
 20
31.94998726570453
 30
0.0
 10
57.696318849323
 20
32.95743964147781
 30
0.0
 10
57.60664988435209
 20
33.46644165643583
 30
0.0
 10
57.60566497794986
 20
34.23953449353088
 30
0.0
 10
57.62758555475964
 20
34.49844477425888
 30
0.0
 10
57.71306427249402
 20
35.01059659810974
 30
0.0
 10
57.77653566096051
 20
35.26495545583503
 30
0.0
 10
58.02162789815888
 20
36.02350351855382
 30
0.0
 10
58.25771376571608
 20
36.52318185842017
 30
0.0
 10
58.54381176392752
 20
37.01871812726612
 30
0.0
  0
LINE
  5
9C
330
1F
100
AcDbEntity
  8
0
  6
Continuous
 62
     7
370
    25
100
AcDbLine
 10
57.4616520231
 20
43.0808959538
 30
0.0
 11
57.4616520231
 21
53.3308959538
 31
0.0
  0
LINE
  5
9D
330
1F
100
AcDbEntity
  8
0
  6
Continuous
 62
     7
370
    25
100
AcDbLine
 10
57.4616520231
 20
32.8308959538
 30
0.0
 11
57.4616520231
 21
43.0808959538
 31
0.0
  0
SPLINE
  5
9E
330
1F
100
AcDbEntity
  8
0
  6
Continuous
 62
     7
370
    25
100
AcDbSpline
210
0.0
220
0.0
230
1.0
 70
     8
 71
     3
 72
    16
 73
    12
 74
     0
 42
0.000000001
 43
0.00000001
 40
0.0
 40
0.0
 40
0.0
 40
0.0
 40
0.2500000000000002
 40
0.2500000000000002
 40
0.5000000000000003
 40
0.5000000000000003
 40
0.6250000000000003
 40
0.6250000000000003
 40
0.7500000000000002
 40
0.7500000000000002
 40
1.0
 40
1.0
 40
1.0
 40
1.0
 10
84.37949228231535
 20
37.01871812726613
 30
0.0
 10
84.66523407959802
 20
36.52379881652649
 30
0.0
 10
84.90073707975324
 20
36.02527116233666
 30
0.0
 10
85.22698519691971
 20
35.01781878656339
 30
0.0
 10
85.31665416189061
 20
34.50881677160535
 30
0.0
 10
85.31763906829285
 20
33.73572393451031
 30
0.0
 10
85.29571849148306
 20
33.47681365378232
 30
0.0
 10
85.21023977374868
 20
32.96466182993146
 30
0.0
 10
85.14676838528219
 20
32.71030297220616
 30
0.0
 10
84.90167614808382
 20
31.95175490948736
 30
0.0
 10
84.66559028052662
 20
31.45207656962101
 30
0.0
 10
84.37949228231518
 20
30.95654030077507
 30
0.0
  0
LINE
  5
9F
330
1F
100
AcDbEntity
  8
0
  6
Continuous
 62
     7
370
    25
100
AcDbLine
 10
85.4616520231
 20
53.3308959538
 30
0.0
 11
85.4616520231
 21
32.8308959538
 31
0.0
  0
LINE
  5
A0
330
1F
100
AcDbEntity
  8
0
  6
Continuous
 62
     7
370
    25
100
AcDbLine
 10
80.9616520231
 20
37.6434897147
 30
0.0
 11
80.9616520231
 21
36.7063323335
 31
0.0
  0
SPLINE
  5
A1
330
1F
100
AcDbEntity
  8
0
  6
Continuous
 62
     7
370
    25
100
AcDbSpline
210
0.0
220
0.0
230
1.0
 70
     8
 71
     3
 72
     8
 73
     4
 74
     0
 42
0.000000001
 43
0.00000001
 40
0.0
 40
0.0
 40
0.0
 40
0.0
 40
1.0
 40
1.0
 40
1.0
 40
1.0
 10
80.88126726539203
 20
37.01871812726611
 30
0.0
 10
80.9091539739738
 20
36.91464351398304
 30
0.0
 10
80.9359777701402
 20
36.81051634392104
 30
0.0
 10
80.96165202312136
 20
36.70633233353412
 30
0.0
  0
SPLINE
  5
A2
330
1F
100
AcDbEntity
  8
0
  6
Continuous
 62
     7
370
    25
100
AcDbSpline
210
0.0
220
0.0
230
1.0
 70
     8
 71
     3
 72
     8
 73
     4
 74
     0
 42
0.000000001
 43
0.00000001
 40
0.0
 40
0.0
 40
0.0
 40
0.0
 40
1.0
 40
1.0
 40
1.0
 40
1.0
 10
80.96165202312136
 20
36.70633233353413
 30
0.0
 10
80.98733564688953
 20
36.81055436980527
 30
0.0
 10
81.01415998116407
 20
36.91468049448322
 30
0.0
 10
81.0420367808507
 20
37.01871812726611
 30
0.0
  0
LINE
  5
A3
330
1F
100
AcDbEntity
  8
0
  6
Continuous
 62
     7
370
    25
100
AcDbLine
 10
80.9616520231
 20
49.455459574
 30
0.0
 11
80.9616520231
 21
48.5183021928
 31
0.0
  0
LINE
  5
A4
330
1F
100
AcDbEntity
  8
0
  6
Continuous
 62
     7
370
    25
100
AcDbLine
 10
71.4616520231
 20
43.0808959538
 30
0.0
 11
71.4616520231
 21
33.987629214
 31
0.0
  0
SPLINE
  5
A5
330
1F
100
AcDbEntity
  8
0
  6
Continuous
 62
     7
370
    25
100
AcDbSpline
210
0.0
220
0.0
230
1.0
 70
     8
 71
     3
 72
    10
 73
     6
 74
     0
 42
0.000000001
 43
0.00000001
 40
0.0
 40
0.0
 40
0.0
 40
0.0
 40
0.4999999999999998
 40
0.4999999999999998
 40
1.0
 40
1.0
 40
1.0
 40
1.0
 10
71.026407237684
 20
37.01871812726611
 30
0.0
 10
71.16177020876583
 20
36.5135366417252
 30
0.0
 10
71.27168387881896
 20
36.00835515618427
 30
0.0
 10
71.42185561206043
 20
34.99799218510244
 30
0.0
 10
71.46165202312135
 20
34.49281069956151
 30
0.0
 10
71.46165202312135
 20
33.9876292140206
 30
0.0
  0
SPLINE
  5
A6
330
1F
100
AcDbEntity
  8
0
  6
Continuous
 62
     7
370
    25
100
AcDbSpline
210
0.0
220
0.0
230
1.0
 70
     8
 71
     3
 72
    10
 73
     6
 74
     0
 42
0.000000001
 43
0.00000001
 40
0.0
 40
0.0
 40
0.0
 40
0.0
 40
0.5
 40
0.5
 40
1.0
 40
1.0
 40
1.0
 40
1.0
 10
71.02640723768386
 20
37.01871812726611
 30
0.0
 10
71.16136299053059
 20
38.02604158006155
 30
0.0
 10
71.27171133992567
 20
39.03954631107482
 30
0.0
 10
71.42195719635497
 20
41.0618044474726
 30
0.0
 10
71.46165202312135
 20
42.07191871107635
 30
0.0
 10
71.46165202312135
 20
43.0808959537572
 30
0.0
  0
SPLINE
  5
A7
330
1F
100
AcDbEntity
  8
0
  6
Continuous
 62
     7
370
    25
100
AcDbSpline
210
0.0
220
0.0
230
1.0
 70
     8
 71
     3
 72
    10
 73
     6
 74
     0
 42
0.000000001
 43
0.00000001
 40
0.0
 40
0.0
 40
0.0
 40
0.0
 40
0.4999999999999998
 40
0.4999999999999998
 40
1.0
 40
1.0
 40
1.0
 40
1.0
 10
71.89689680855871
 20
37.01871812726611
 30
0.0
 10
71.76153383747686
 20
36.5135366417252
 30
0.0
 10
71.65162016742374
 20
36.00835515618427
 30
0.0
 10
71.50144843418228
 20
34.99799218510244
 30
0.0
 10
71.46165202312135
 20
34.49281069956151
 30
0.0
 10
71.46165202312135
 20
33.9876292140206
 30
0.0
  0
LINE
  5
A8
330
1F
100
AcDbEntity
  8
0
  6
Continuous
 62
     7
370
    25
100
AcDbLine
 10
71.4616520231
 20
52.1741626935
 30
0.0
 11
71.4616520231
 21
43.0808959538
 31
0.0
  0
SPLINE
  5
A9
330
1F
100
AcDbEntity
  8
0
  6
Continuous
 62
     7
370
    25
100
AcDbSpline
210
0.0
220
0.0
230
1.0
 70
     8
 71
     3
 72
    10
 73
     6
 74
     0
 42
0.000000001
 43
0.00000001
 40
0.0
 40
0.0
 40
0.0
 40
0.0
 40
0.5
 40
0.5
 40
1.0
 40
1.0
 40
1.0
 40
1.0
 10
71.46165202312135
 20
43.08089595375719
 30
0.0
 10
71.46165202312135
 20
44.09333678765704
 30
0.0
 10
71.42169886498415
 20
45.1046332009752
 30
0.0
 10
71.27140395364854
 20
47.12520981260722
 30
0.0
 10
71.1615300455379
 20
48.13450341190295
 30
0.0
 10
71.02640723768386
 20
49.14307378024829
 30
0.0
  0
LINE
  5
AA
330
1F
100
AcDbEntity
  8
0
  6
Continuous
 62
     7
370
    25
100
AcDbLine
 10
71.0264072377
 20
37.0187181273
 30
0.0
 11
58.5438117639
 21
37.0187181273
 31
0.0
  0
LINE
  5
AB
330
1F
100
AcDbEntity
  8
0
  6
Continuous
 62
     7
370
    25
100
AcDbLine
 10
84.3794922823
 20
30.9565403008
 30
0.0
 11
81.0420367809
 21
30.9565403008
 31
0.0
  0
SPLINE
  5
AC
330
1F
100
AcDbEntity
  8
0
  6
Continuous
 62
     7
370
    25
100
AcDbSpline
210
0.0
220
0.0
230
1.0
 70
     8
 71
     3
 72
     8
 73
     4
 74
     0
 42
0.000000001
 43
0.00000001
 40
0.0
 40
0.0
 40
0.0
 40
0.0
 40
1.0
 40
1.0
 40
1.0
 40
1.0
 10
81.0420367808507
 20
30.95654030077508
 30
0.0
 10
81.01415007226892
 20
31.06061491405814
 30
0.0
 10
80.98732627610252
 20
31.16474208412014
 30
0.0
 10
80.96165202312136
 20
31.26892609450707
 30
0.0
  0
SPLINE
  5
AD
330
1F
100
AcDbEntity
  8
0
  6
Continuous
 62
     7
370
    25
100
AcDbSpline
210
0.0
220
0.0
230
1.0
 70
     8
 71
     3
 72
     8
 73
     4
 74
     0
 42
0.000000001
 43
0.00000001
 40
0.0
 40
0.0
 40
0.0
 40
0.0
 40
1.0
 40
1.0
 40
1.0
 40
1.0
 10
80.96165202312136
 20
31.26892609450707
 30
0.0
 10
80.93596839935317
 20
31.16470405823592
 30
0.0
 10
80.90914406507864
 20
31.06057793355797
 30
0.0
 10
80.88126726539203
 20
30.95654030077508
 30
0.0
  0
LINE
  5
AE
330
1F
100
AcDbEntity
  8
0
  6
Continuous
 62
     7
370
    25
100
AcDbLine
 10
80.8812672654
 20
30.9565403008
 30
0.0
 11
71.8968968086
 21
30.9565403008
 31
0.0
  0
SPLINE
  5
AF
330
1F
100
AcDbEntity
  8
0
  6
Continuous
 62
     7
370
    25
100
AcDbSpline
210
0.0
220
0.0
230
1.0
 70
     8
 71
     3
 72
    10
 73
     6
 74
     0
 42
0.000000001
 43
0.00000001
 40
0.0
 40
0.0
 40
0.0
 40
0.0
 40
0.5
 40
0.5
 40
1.0
 40
1.0
 40
1.0
 40
1.0
 10
71.46165202312135
 20
33.9876292140206
 30
0.0
 10
71.46165202312135
 20
33.48244772847968
 30
0.0
 10
71.50144843418228
 20
32.97726624293876
 30
0.0
 10
71.65162016742374
 20
31.96690327185692
 30
0.0
 10
71.76153383747686
 20
31.461721786316
 30
0.0
 10
71.89689680855871
 20
30.95654030077508
 30
0.0
  0
SPLINE
  5
B0
330
1F
100
AcDbEntity
  8
0
  6
Continuous
 62
     7
370
    25
100
AcDbSpline
210
0.0
220
0.0
230
1.0
 70
     8
 71
     3
 72
    10
 73
     6
 74
     0
 42
0.000000001
 43
0.00000001
 40
0.0
 40
0.0
 40
0.0
 40
0.0
 40
0.5
 40
0.5
 40
1.0
 40
1.0
 40
1.0
 40
1.0
 10
71.46165202312135
 20
33.9876292140206
 30
0.0
 10
71.46165202312135
 20
33.48244772847968
 30
0.0
 10
71.42185561206043
 20
32.97726624293876
 30
0.0
 10
71.27168387881896
 20
31.96690327185692
 30
0.0
 10
71.16177020876583
 20
31.461721786316
 30
0.0
 10
71.026407237684
 20
30.95654030077508
 30
0.0
  0
LINE
  5
B1
330
1F
100
AcDbEntity
  8
0
  6
Continuous
 62
     7
370
    25
100
AcDbLine
 10
71.0264072377
 20
30.9565403008
 30
0.0
 11
58.5438117639
 21
30.9565403008
 31
0.0
  0
LINE
  5
B2
330
1F
100
AcDbEntity
  8
0
  6
Continuous
 62
     7
370
    25
100
AcDbLine
 10
71.4616520231
 20
53.5808959538
 30
0.0
 11
71.4616520231
 21
52.1741626935
 31
0.0
  0
LINE
  5
B3
330
1F
100
AcDbEntity
  8
0
  6
Continuous
 62
     7
370
    25
100
AcDbLine
 10
71.4616520231
 20
33.987629214
 30
0.0
 11
71.4616520231
 21
32.5808959538
 31
0.0
  0
LINE
  5
B4
330
1F
100
AcDbEntity
  8
0
  6
Continuous
 62
     7
370
    25
100
AcDbLine
 10
80.9616520231
 20
54.9052516067
 30
0.0
 11
80.9616520231
 21
54.892865813
 31
0.0
  0
LINE
  5
B5
330
1F
100
AcDbEntity
  8
0
  6
Continuous
 62
     7
370
    25
100
AcDbLine
 10
80.9616520231
 20
31.2689260945
 30
0.0
 11
80.9616520231
 21
31.2565403008
 31
0.0
  0
LINE
  5
B6
330
1F
100
AcDbEntity
  8
0
  6
CENTERX2
 62
     7
370
    18
100
AcDbLine
 10
83.3794922823
 20
43.0808959538
 30
0.0
 11
86.4616520231
 21
43.0808959538
 31
0.0
  0
LINE
  5
B7
330
1F
100
AcDbEntity
  8
0
  6
CENTERX2
 62
     7
370
    18
100
AcDbLine
 10
84.3794922823
 20
43.0808959538
 30
0.0
 11
80.0420367809
 21
43.0808959538
 31
0.0
  0
LINE
  5
B8
330
1F
100
AcDbEntity
  8
0
  6
CENTERX2
 62
     7
370
    18
100
AcDbLine
 10
81.8812672654
 20
43.0808959538
 30
0.0
 11
70.8968968086
 21
43.0808959538
 31
0.0
  0
LINE
  5
B9
330
1F
100
AcDbEntity
  8
0
  6
CENTERX2
 62
     7
370
    18
100
AcDbLine
 10
72.0264072377
 20
43.0808959538
 30
0.0
 11
57.5438117639
 21
43.0808959538
 31
0.0
  0
LINE
  5
BA
330
1F
100
AcDbEntity
  8
0
  6
CENTERX2
 62
     7
370
    18
100
AcDbLine
 10
59.5438117639
 20
43.0808959538
 30
0.0
 11
56.4616520231
 21
43.0808959538
 31
0.0
  0
CIRCLE
  5
BB
330
1F
100
AcDbEntity
  8
0
  6
Continuous
 62
     7
370
    25
100
AcDbCircle
 10
116.2690138728
 20
43.0808959538
 30
0.0
 40
10.25000000000001
  0
CIRCLE
  5
BC
330
1F
100
AcDbEntity
  8
0
  6
Continuous
 62
     7
370
    25
100
AcDbCircle
 10
116.2690138728
 20
43.0808959538
 30
0.0
 40
8.500000000000014
  0
SPLINE
  5
BD
330
1F
100
AcDbEntity
  8
0
  6
Continuous
 62
     7
370
    25
100
AcDbSpline
210
0.0
220
0.0
230
1.0
 70
    24
 71
     3
 72
    16
 73
    12
 74
     0
 42
0.000000001
 43
0.00000001
 40
0.0
 40
0.0
 40
0.0
 40
0.0
 40
0.2500000000000001
 40
0.2500000000000001
 40
0.5000000000000001
 40
0.5000000000000001
 40
0.6250000000000001
 40
0.6250000000000001
 40
0.7500000000000002
 40
0.7500000000000002
 40
1.0
 40
1.0
 40
1.0
 40
1.0
 10
126.7690138728324
 20
37.01871812726624
 30
0.0
 10
126.7690138728324
 20
38.00525723200418
 30
0.0
 10
126.7690138728324
 20
39.01533413630236
 30
0.0
 10
126.7690138728324
 20
41.03973862220069
 30
0.0
 10
126.7690138728324
 20
42.05782793525315
 30
0.0
 10
126.7690138728324
 20
43.5953220989393
 30
0.0
 10
126.7690138728323
 20
44.10952658743858
 30
0.0
 10
126.7690138728323
 20
45.14130664303307
 30
0.0
 10
126.7690138728323
 20
45.65255058029836
 30
0.0
 10
126.7690138728323
 20
47.170395001401
 30
0.0
 10
126.7690138728323
 20
48.16310629771686
 30
0.0
 10
126.7690138728323
 20
49.14307378024843
 30
0.0
  0
SPLINE
  5
BE
330
1F
100
AcDbEntity
  8
0
  6
Continuous
 62
     7
370
    25
100
AcDbSpline
210
0.0
220
0.0
230
1.0
 70
    24
 71
     3
 72
    16
 73
    12
 74
     0
 42
0.000000001
 43
0.00000001
 40
0.0
 40
0.0
 40
0.0
 40
0.0
 40
0.2500000000000001
 40
0.2500000000000001
 40
0.5000000000000001
 40
0.5000000000000001
 40
0.625
 40
0.625
 40
0.7499999999999999
 40
0.7499999999999999
 40
1.0
 40
1.0
 40
1.0
 40
1.0
 10
116.2690138728324
 20
30.95654030077506
 30
0.0
 10
117.1262392646804
 20
31.45145961151471
 30
0.0
 10
117.9897144907154
 20
31.94998726570455
 30
0.0
 10
119.7346731917606
 20
32.95743964147785
 30
0.0
 10
120.6162905428229
 20
33.4664416564359
 30
0.0
 10
121.9553266156391
 20
34.23953449353096
 30
0.0
 10
122.4037723764619
 20
34.49844477425896
 30
0.0
 10
123.2908453565607
 20
35.01059659810983
 30
0.0
 10
123.7314078214961
 20
35.26495545583514
 30
0.0
 10
125.045251606108
 20
36.02350351855394
 30
0.0
 10
125.9107198781982
 20
36.52318185842031
 30
0.0
 10
126.7690138728325
 20
37.01871812726628
 30
0.0
  0
SPLINE
  5
BF
330
1F
100
AcDbEntity
  8
0
  6
Continuous
 62
     7
370
    25
100
AcDbSpline
210
0.0
220
0.0
230
1.0
 70
    24
 71
     3
 72
    16
 73
    12
 74
     0
 42
0.000000001
 43
0.00000001
 40
0.0
 40
0.0
 40
0.0
 40
0.0
 40
0.2500000000000002
 40
0.2500000000000002
 40
0.5000000000000003
 40
0.5000000000000003
 40
0.6250000000000003
 40
0.6250000000000003
 40
0.7500000000000002
 40
0.7500000000000002
 40
1.0
 40
1.0
 40
1.0
 40
1.0
 10
105.7690138728323
 20
37.01871812726613
 30
0.0
 10
106.6262392646804
 20
36.52379881652649
 30
0.0
 10
107.4897144907153
 20
36.02527116233666
 30
0.0
 10
109.2346731917606
 20
35.01781878656339
 30
0.0
 10
110.1162905428229
 20
34.50881677160535
 30
0.0
 10
111.4553266156391
 20
33.73572393451031
 30
0.0
 10
111.9037723764619
 20
33.47681365378232
 30
0.0
 10
112.7908453565607
 20
32.96466182993146
 30
0.0
 10
113.2314078214961
 20
32.71030297220616
 30
0.0
 10
114.545251606108
 20
31.95175490948736
 30
0.0
 10
115.4107198781982
 20
31.45207656962101
 30
0.0
 10
116.2690138728325
 20
30.95654030077507
 30
0.0
  0
SPLINE
  5
C0
330
1F
100
AcDbEntity
  8
0
  6
Continuous
 62
     7
370
    25
100
AcDbSpline
210
0.0
220
0.0
230
1.0
 70
    24
 71
     3
 72
    16
 73
    12
 74
     0
 42
0.000000001
 43
0.00000001
 40
0.0
 40
0.0
 40
0.0
 40
0.0
 40
0.2500000000000001
 40
0.2500000000000001
 40
0.5
 40
0.5
 40
0.6249999999999999
 40
0.6249999999999999
 40
0.7499999999999999
 40
0.7499999999999999
 40
1.0
 40
1.0
 40
1.0
 40
1.0
 10
105.7690138728324
 20
37.01871812726609
 30
0.0
 10
105.7690138728324
 20
38.00525723200403
 30
0.0
 10
105.7690138728324
 20
39.01533413630222
 30
0.0
 10
105.7690138728324
 20
41.03973862220055
 30
0.0
 10
105.7690138728324
 20
42.057827935253
 30
0.0
 10
105.7690138728324
 20
43.59532209893915
 30
0.0
 10
105.7690138728324
 20
44.10952658743842
 30
0.0
 10
105.7690138728324
 20
45.14130664303292
 30
0.0
 10
105.7690138728324
 20
45.6525505802982
 30
0.0
 10
105.7690138728324
 20
47.17039500140085
 30
0.0
 10
105.7690138728323
 20
48.16310629771671
 30
0.0
 10
105.7690138728323
 20
49.14307378024829
 30
0.0
  0
SPLINE
  5
C1
330
1F
100
AcDbEntity
  8
0
  6
Continuous
 62
     7
370
    25
100
AcDbSpline
210
0.0
220
0.0
230
1.0
 70
    24
 71
     3
 72
    16
 73
    12
 74
     0
 42
0.000000001
 43
0.00000001
 40
0.0
 40
0.0
 40
0.0
 40
0.0
 40
0.2499999999999999
 40
0.2499999999999999
 40
0.4999999999999998
 40
0.4999999999999998
 40
0.6249999999999998
 40
0.6249999999999998
 40
0.7499999999999999
 40
0.7499999999999999
 40
1.0
 40
1.0
 40
1.0
 40
1.0
 10
116.2690138728324
 20
55.20525160673941
 30
0.0
 10
115.4117884809844
 20
54.71033229599977
 30
0.0
 10
114.5483132549494
 20
54.21180464180992
 30
0.0
 10
112.8033545539042
 20
53.20435226603664
 30
0.0
 10
111.9217372028419
 20
52.6953502510786
 30
0.0
 10
110.5827011300257
 20
51.92225741398355
 30
0.0
 10
110.1342553692029
 20
51.66334713325555
 30
0.0
 10
109.2471823891041
 20
51.15119530940468
 30
0.0
 10
108.8066199241687
 20
50.89683645167938
 30
0.0
 10
107.4927761395568
 20
50.13828838896059
 30
0.0
 10
106.6273078674666
 20
49.63861004909423
 30
0.0
 10
105.7690138728323
 20
49.14307378024827
 30
0.0
  0
SPLINE
  5
C2
330
1F
100
AcDbEntity
  8
0
  6
Continuous
 62
     7
370
    25
100
AcDbSpline
210
0.0
220
0.0
230
1.0
 70
    24
 71
     3
 72
    16
 73
    12
 74
     0
 42
0.000000001
 43
0.00000001
 40
0.0
 40
0.0
 40
0.0
 40
0.0
 40
0.2499999999999998
 40
0.2499999999999998
 40
0.4999999999999997
 40
0.4999999999999997
 40
0.6249999999999997
 40
0.6249999999999997
 40
0.7499999999999998
 40
0.7499999999999998
 40
1.0
 40
1.0
 40
1.0
 40
1.0
 10
126.7690138728323
 20
49.14307378024841
 30
0.0
 10
125.9117884809843
 20
49.63799309098804
 30
0.0
 10
125.0483132549494
 20
50.13652074517788
 30
0.0
 10
123.3033545539041
 20
51.14397312095112
 30
0.0
 10
122.4217372028419
 20
51.65297513590916
 30
0.0
 10
121.0827011300257
 20
52.42606797300419
 30
0.0
 10
120.6342553692029
 20
52.68497825373218
 30
0.0
 10
119.7471823891041
 20
53.19713007758303
 30
0.0
 10
119.3066199241687
 20
53.45148893530833
 30
0.0
 10
117.9927761395568
 20
54.21003699802711
 30
0.0
 10
117.1273078674666
 20
54.70971533789346
 30
0.0
 10
116.2690138728323
 20
55.2052516067394
 30
0.0
  0
CIRCLE
  5
C3
330
1F
100
AcDbEntity
  8
0
  6
Continuous
 62
     7
370
    25
100
AcDbCircle
 10
116.2690138728
 20
43.0808959538
 30
0.0
 40
7.905177158368943
  0
CIRCLE
  5
C4
330
1F
100
AcDbEntity
  8
0
  6
Continuous
 62
     7
370
    25
100
AcDbCircle
 10
116.2690138728
 20
43.0808959538
 30
0.0
 40
7.547130736683599
  0
CIRCLE
  5
C5
330
1F
100
AcDbEntity
  8
0
  6
Continuous
 62
     7
370
    25
100
AcDbCircle
 10
116.2690138728
 20
43.0808959538
 30
0.0
 40
7.475000000000009
  0
CIRCLE
  5
C6
330
1F
100
AcDbEntity
  8
0
  6
Continuous
 62
     7
370
    25
100
AcDbCircle
 10
116.2690138728
 20
43.0808959538
 30
0.0
 40
7.25
  0
CIRCLE
  5
C7
330
1F
100
AcDbEntity
  8
0
  6
Continuous
 62
     7
370
    25
100
AcDbCircle
 10
116.2690138728
 20
43.0808959538
 30
0.0
 40
4.35006576567153
  0
INSERT
  5
D3
330
1F
100
AcDbEntity
  8
0
  6
Continuous
 62
     7
370
    18
100
AcDbBlockReference
  2
SW_CENTERMARKSYMBOL_0
 10
116.2690138728
 20
43.0808959538
 30
0.0
  0
ARC
  5
D4
330
1F
100
AcDbEntity
  8
0
  6
Continuous
 62
     7
370
    18
100
AcDbCircle
 10
116.2690138728
 20
43.0808959538
 30
0.0
 40
8.365338499999996
100
AcDbArc
 50
75.0
 51
345.0
  0
ARC
  5
D5
330
1F
100
AcDbEntity
  8
0
  6
Continuous
 62
     7
370
    18
100
AcDbCircle
 10
116.2690138728
 20
43.0808959538
 30
0.0
 40
4.929413560516998
100
AcDbArc
 50
75.0
 51
345.0
  0
LINE
  5
D6
330
1F
100
AcDbEntity
  8
0
  6
Continuous
 62
     7
370
    25
100
AcDbLine
 10
57.6059895904
 20
88.8337468208
 30
0.0
 11
57.4616520231
 21
88.5837468208
 31
0.0
  0
LINE
  5
D7
330
1F
100
AcDbEntity
  8
0
  6
Continuous
 62
     7
370
    25
100
AcDbLine
 10
57.4616520231
 20
68.0837468208
 30
0.0
 11
57.6059895904
 21
67.8337468208
 31
0.0
  0
LINE
  5
D8
330
1F
100
AcDbEntity
  8
0
  6
Continuous
 62
     7
370
    25
100
AcDbLine
 10
85.3173144558
 20
67.8337468208
 30
0.0
 11
85.4616520231
 21
68.0837468208
 31
0.0
  0
LINE
  5
D9
330
1F
100
AcDbEntity
  8
0
  6
Continuous
 62
     7
370
    25
100
AcDbLine
 10
85.4616520231
 20
88.5837468208
 30
0.0
 11
85.3173144558
 21
88.8337468208
 31
0.0
  0
LINE
  5
DA
330
1F
100
AcDbEntity
  8
0
  6
Continuous
 62
     7
370
    25
100
AcDbLine
 10
84.3794922823
 20
88.8337468208
 30
0.0
 11
81.0420367809
 21
88.8337468208
 31
0.0
  0
SPLINE
  5
DB
330
1F
100
AcDbEntity
  8
0
  6
Continuous
 62
     7
370
    25
100
AcDbSpline
210
0.0
220
0.0
230
1.0
 70
     8
 71
     3
 72
    16
 73
    12
 74
     0
 42
0.000000001
 43
0.00000001
 40
0.0
 40
0.0
 40
0.0
 40
0.0
 40
0.2499999999999998
 40
0.2499999999999998
 40
0.4999999999999997
 40
0.4999999999999997
 40
0.6249999999999997
 40
0.6249999999999997
 40
0.7499999999999998
 40
0.7499999999999998
 40
1.0
 40
1.0
 40
1.0
 40
1.0
 10
84.37949228231535
 20
88.83374682080924
 30
0.0
 10
84.66523407959802
 20
87.97652142896123
 30
0.0
 10
84.90073707975323
 20
87.11304620292628
 30
0.0
 10
85.22698519691968
 20
85.36808750188102
 30
0.0
 10
85.3166541618906
 20
84.48647015081877
 30
0.0
 10
85.31763906829283
 20
83.14743407800259
 30
0.0
 10
85.29571849148304
 20
82.69898831717978
 30
0.0
 10
85.21023977374865
 20
81.81191533708102
 30
0.0
 10
85.14676838528216
 20
81.37135287214561
 30
0.0
 10
84.90167614808381
 20
80.05750908753373
 30
0.0
 10
84.66559028052662
 20
79.19204081544353
 30
0.0
 10
84.37949228231518
 20
78.33374682080924
 30
0.0
  0
LINE
  5
DC
330
1F
100
AcDbEntity
  8
0
  6
Continuous
 62
     7
370
    25
100
AcDbLine
 10
84.3794922823
 20
78.3337468208
 30
0.0
 11
81.0420367809
 21
78.3337468208
 31
0.0
  0
SPLINE
  5
DD
330
1F
100
AcDbEntity
  8
0
  6
Continuous
 62
     7
370
    25
100
AcDbSpline
210
0.0
220
0.0
230
1.0
 70
     8
 71
     3
 72
     8
 73
     4
 74
     0
 42
0.000000001
 43
0.00000001
 40
0.0
 40
0.0
 40
0.0
 40
0.0
 40
1.0
 40
1.0
 40
1.0
 40
1.0
 10
81.0420367808507
 20
78.33374682080927
 30
0.0
 10
81.01415007226892
 20
78.51400933879361
 30
0.0
 10
80.98732627610252
 20
78.69436288778935
 30
0.0
 10
80.96165202312136
 20
78.87481488711582
 30
0.0
  0
SPLINE
  5
DE
330
1F
100
AcDbEntity
  8
0
  6
Continuous
 62
     7
370
    25
100
AcDbSpline
210
0.0
220
0.0
230
1.0
 70
     8
 71
     3
 72
     8
 73
     4
 74
     0
 42
0.000000001
 43
0.00000001
 40
0.0
 40
0.0
 40
0.0
 40
0.0
 40
1.0
 40
1.0
 40
1.0
 40
1.0
 10
80.96165202312136
 20
78.87481488711582
 30
0.0
 10
80.93596839935317
 20
78.6942970250259
 30
0.0
 10
80.90914406507864
 20
78.51394528668843
 30
0.0
 10
80.88126726539203
 20
78.33374682080927
 30
0.0
  0
LINE
  5
DF
330
1F
100
AcDbEntity
  8
0
  6
Continuous
 62
     7
370
    25
100
AcDbLine
 10
80.8812672654
 20
78.3337468208
 30
0.0
 11
71.8968968086
 21
78.3337468208
 31
0.0
  0
SPLINE
  5
E0
330
1F
100
AcDbEntity
  8
0
  6
Continuous
 62
     7
370
    25
100
AcDbSpline
210
0.0
220
0.0
230
1.0
 70
     8
 71
     3
 72
    10
 73
     6
 74
     0
 42
0.000000001
 43
0.00000001
 40
0.0
 40
0.0
 40
0.0
 40
0.0
 40
0.5
 40
0.5
 40
1.0
 40
1.0
 40
1.0
 40
1.0
 10
71.46165202312136
 20
83.58374682080924
 30
0.0
 10
71.46165202312136
 20
82.70874682080924
 30
0.0
 10
71.5014484341823
 20
81.83374682080924
 30
0.0
 10
71.65162016742376
 20
80.08374682080925
 30
0.0
 10
71.76153383747686
 20
79.20874682080927
 30
0.0
 10
71.89689680855871
 20
78.33374682080927
 30
0.0
  0
SPLINE
  5
E1
330
1F
100
AcDbEntity
  8
0
  6
Continuous
 62
     7
370
    25
100
AcDbSpline
210
0.0
220
0.0
230
1.0
 70
     8
 71
     3
 72
    10
 73
     6
 74
     0
 42
0.000000001
 43
0.00000001
 40
0.0
 40
0.0
 40
0.0
 40
0.0
 40
0.5000000000000001
 40
0.5000000000000001
 40
1.0
 40
1.0
 40
1.0
 40
1.0
 10
71.89689680855871
 20
88.83374682080921
 30
0.0
 10
71.76153383747686
 20
87.9587468208092
 30
0.0
 10
71.65162016742376
 20
87.08374682080921
 30
0.0
 10
71.5014484341823
 20
85.33374682080922
 30
0.0
 10
71.46165202312136
 20
84.45874682080922
 30
0.0
 10
71.46165202312136
 20
83.58374682080924
 30
0.0
  0
LINE
  5
E2
330
1F
100
AcDbEntity
  8
0
  6
Continuous
 62
     7
370
    25
100
AcDbLine
 10
80.8812672654
 20
88.8337468208
 30
0.0
 11
71.8968968086
 21
88.8337468208
 31
0.0
  0
SPLINE
  5
E3
330
1F
100
AcDbEntity
  8
0
  6
Continuous
 62
     7
370
    25
100
AcDbSpline
210
0.0
220
0.0
230
1.0
 70
     8
 71
     3
 72
     8
 73
     4
 74
     0
 42
0.000000001
 43
0.00000001
 40
0.0
 40
0.0
 40
0.0
 40
0.0
 40
1.0
 40
1.0
 40
1.0
 40
1.0
 10
80.88126726539203
 20
88.83374682080921
 30
0.0
 10
80.9091539739738
 20
88.65348430282485
 30
0.0
 10
80.9359777701402
 20
88.47313075382911
 30
0.0
 10
80.96165202312136
 20
88.29267875450266
 30
0.0
  0
SPLINE
  5
E4
330
1F
100
AcDbEntity
  8
0
  6
Continuous
 62
     7
370
    25
100
AcDbSpline
210
0.0
220
0.0
230
1.0
 70
     8
 71
     3
 72
     8
 73
     4
 74
     0
 42
0.000000001
 43
0.00000001
 40
0.0
 40
0.0
 40
0.0
 40
0.0
 40
1.0
 40
1.0
 40
1.0
 40
1.0
 10
80.96165202312136
 20
88.29267875450266
 30
0.0
 10
80.98733564688953
 20
88.47319661659256
 30
0.0
 10
81.01415998116407
 20
88.65354835493004
 30
0.0
 10
81.0420367808507
 20
88.83374682080921
 30
0.0
  0
LINE
  5
E5
330
1F
100
AcDbEntity
  8
0
  6
Continuous
 62
     7
370
    25
100
AcDbLine
 10
71.0264072377
 20
88.8337468208
 30
0.0
 11
58.5438117639
 21
88.8337468208
 31
0.0
  0
SPLINE
  5
E6
330
1F
100
AcDbEntity
  8
0
  6
Continuous
 62
     7
370
    25
100
AcDbSpline
210
0.0
220
0.0
230
1.0
 70
     8
 71
     3
 72
    10
 73
     6
 74
     0
 42
0.000000001
 43
0.00000001
 40
0.0
 40
0.0
 40
0.0
 40
0.0
 40
0.5000000000000001
 40
0.5000000000000001
 40
1.0
 40
1.0
 40
1.0
 40
1.0
 10
71.026407237684
 20
88.83374682080921
 30
0.0
 10
71.16177020876583
 20
87.9587468208092
 30
0.0
 10
71.27168387881895
 20
87.08374682080921
 30
0.0
 10
71.42185561206041
 20
85.33374682080922
 30
0.0
 10
71.46165202312135
 20
84.45874682080922
 30
0.0
 10
71.46165202312135
 20
83.58374682080924
 30
0.0
  0
SPLINE
  5
E7
330
1F
100
AcDbEntity
  8
0
  6
Continuous
 62
     7
370
    25
100
AcDbSpline
210
0.0
220
0.0
230
1.0
 70
     8
 71
     3
 72
    10
 73
     6
 74
     0
 42
0.000000001
 43
0.00000001
 40
0.0
 40
0.0
 40
0.0
 40
0.0
 40
0.5
 40
0.5
 40
1.0
 40
1.0
 40
1.0
 40
1.0
 10
71.46165202312135
 20
83.58374682080924
 30
0.0
 10
71.46165202312135
 20
82.70874682080924
 30
0.0
 10
71.42185561206041
 20
81.83374682080924
 30
0.0
 10
71.27168387881895
 20
80.08374682080925
 30
0.0
 10
71.16177020876583
 20
79.20874682080927
 30
0.0
 10
71.026407237684
 20
78.33374682080927
 30
0.0
  0
LINE
  5
E8
330
1F
100
AcDbEntity
  8
0
  6
Continuous
 62
     7
370
    25
100
AcDbLine
 10
71.0264072377
 20
78.3337468208
 30
0.0
 11
58.5438117639
 21
78.3337468208
 31
0.0
  0
SPLINE
  5
E9
330
1F
100
AcDbEntity
  8
0
  6
Continuous
 62
     7
370
    25
100
AcDbSpline
210
0.0
220
0.0
230
1.0
 70
     8
 71
     3
 72
    16
 73
    12
 74
     0
 42
0.000000001
 43
0.00000001
 40
0.0
 40
0.0
 40
0.0
 40
0.0
 40
0.2500000000000001
 40
0.2500000000000001
 40
0.5000000000000001
 40
0.5000000000000001
 40
0.625
 40
0.625
 40
0.7499999999999999
 40
0.7499999999999999
 40
1.0
 40
1.0
 40
1.0
 40
1.0
 10
58.54381176392736
 20
78.33374682080922
 30
0.0
 10
58.25806996664469
 20
79.19097221265726
 30
0.0
 10
58.02256696648949
 20
80.05444743869218
 30
0.0
 10
57.69631884932302
 20
81.79940613973744
 30
0.0
 10
57.60664988435212
 20
82.6810234907997
 30
0.0
 10
57.60566497794989
 20
84.02005956361589
 30
0.0
 10
57.62758555475966
 20
84.46850532443868
 30
0.0
 10
57.71306427249404
 20
85.35557830453745
 30
0.0
 10
57.77653566096053
 20
85.79614076947286
 30
0.0
 10
58.0216278981589
 20
87.10998455408473
 30
0.0
 10
58.25771376571609
 20
87.97545282617493
 30
0.0
 10
58.54381176392752
 20
88.83374682080922
 30
0.0
  0
SPLINE
  5
EA
330
1F
100
AcDbEntity
  8
0
  6
Continuous
 62
     7
370
    25
100
AcDbSpline
210
0.0
220
0.0
230
1.0
 70
     8
 71
     3
 72
    16
 73
    12
 74
     0
 42
0.000000001
 43
0.00000001
 40
0.0
 40
0.0
 40
0.0
 40
0.0
 40
0.2499999999999998
 40
0.2499999999999998
 40
0.4999999999999997
 40
0.4999999999999997
 40
0.6249999999999998
 40
0.6249999999999998
 40
0.7499999999999999
 40
0.7499999999999999
 40
1.0
 40
1.0
 40
1.0
 40
1.0
 10
58.54381176392736
 20
67.8337468208092
 30
0.0
 10
58.25806996664468
 20
68.69097221265723
 30
0.0
 10
58.02256696648947
 20
69.55444743869216
 30
0.0
 10
57.69631884932301
 20
71.29940613973746
 30
0.0
 10
57.60664988435209
 20
72.18102349079972
 30
0.0
 10
57.60566497794986
 20
73.52005956361592
 30
0.0
 10
57.62758555475965
 20
73.96850532443871
 30
0.0
 10
57.71306427249403
 20
74.85557830453749
 30
0.0
 10
57.77653566096051
 20
75.29614076947288
 30
0.0
 10
58.02162789815888
 20
76.60998455408479
 30
0.0
 10
58.25771376571609
 20
77.47545282617499
 30
0.0
 10
58.54381176392752
 20
78.3337468208093
 30
0.0
  0
SPLINE
  5
EB
330
1F
100
AcDbEntity
  8
0
  6
Continuous
 62
     7
370
    25
100
AcDbSpline
210
0.0
220
0.0
230
1.0
 70
    24
 71
     3
 72
    14
 73
    10
 74
     0
 42
0.000000001
 43
0.00000001
 40
0.0
 40
0.0
 40
0.0
 40
0.0
 40
0.0044092787471686
 40
0.1330515621141369
 40
0.2616956652448462
 40
0.4450587007438586
 40
0.6289845291495793
 40
0.8143160278864111
 40
1.0
 40
1.0
 40
1.0
 40
1.0
 10
57.60655602236325
 20
67.83374682080925
 30
0.0
 10
57.60636810146986
 20
67.83374682080925
 30
0.0
 10
57.60069752134694
 20
67.83374682080928
 30
0.0
 10
57.62122958079778
 20
67.83374682080925
 30
0.0
 10
57.67771601417065
 20
67.83374682080925
 30
0.0
 10
57.79762734040442
 20
67.83374682080925
 30
0.0
 10
57.99156061588454
 20
67.83374682080925
 30
0.0
 10
58.23851021233037
 20
67.83374682080924
 30
0.0
 10
58.44198014632951
 20
67.83374682080924
 30
0.0
 10
58.54381176392769
 20
67.83374682080924
 30
0.0
  0
SPLINE
  5
EC
330
1F
100
AcDbEntity
  8
0
  6
Continuous
 62
     7
370
    25
100
AcDbSpline
210
0.0
220
0.0
230
1.0
 70
    24
 71
     3
 72
    14
 73
    10
 74
     0
 42
0.000000001
 43
0.00000001
 40
0.0
 40
0.0
 40
0.0
 40
0.0
 40
0.1836101167332365
 40
0.3675289148000465
 40
0.5526455381612336
 40
0.738302217695099
 40
0.8628196751337335
 40
0.9873354875472181
 40
1.0
 40
1.0
 40
1.0
 40
1.0
 10
58.54381176392769
 20
88.83374682080921
 30
0.0
 10
58.44307578263631
 20
88.83374682080921
 30
0.0
 10
58.24143446491345
 20
88.83374682080921
 30
0.0
 10
57.99475113908006
 20
88.83374682080921
 30
0.0
 10
57.79912188502208
 20
88.83374682080924
 30
0.0
 10
57.67913174149583
 20
88.83374682080924
 30
0.0
 10
57.62235571432686
 20
88.83374682080925
 30
0.0
 10
57.60172757628225
 20
88.83374682080927
 30
0.0
 10
57.60699189568331
 20
88.83374682080927
 30
0.0
 10
57.60747789860446
 20
88.83374682080927
 30
0.0
  0
LINE
  5
ED
330
1F
100
AcDbEntity
  8
0
  6
Continuous
 62
     7
370
    25
100
AcDbLine
 10
57.4616520231
 20
68.0837468208
 30
0.0
 11
57.4616520231
 21
88.5837468208
 31
0.0
  0
SPLINE
  5
EE
330
1F
100
AcDbEntity
  8
0
  6
Continuous
 62
     7
370
    25
100
AcDbSpline
210
0.0
220
0.0
230
1.0
 70
    24
 71
     3
 72
    14
 73
    10
 74
     0
 42
0.000000001
 43
0.00000001
 40
0.0
 40
0.0
 40
0.0
 40
0.0
 40
0.0024943092068472
 40
0.1311954589216398
 40
0.2598984079150783
 40
0.443700309527648
 40
0.628069888791413
 40
0.8138572478962027
 40
1.0
 40
1.0
 40
1.0
 40
1.0
 10
85.3169889414238
 20
88.83374682080927
 30
0.0
 10
85.31709718337494
 20
88.83374682080927
 30
0.0
 10
85.32279048411526
 20
88.83374682080928
 30
0.0
 10
85.3025213426549
 20
88.83374682080924
 30
0.0
 10
85.24660306848092
 20
88.83374682080924
 30
0.0
 10
85.1269247601651
 20
88.83374682080924
 30
0.0
 10
84.93288567321196
 20
88.83374682080921
 30
0.0
 10
84.68551809318002
 20
88.83374682080921
 30
0.0
 10
84.4815658472454
 20
88.83374682080921
 30
0.0
 10
84.37949228231501
 20
88.83374682080921
 30
0.0
  0
SPLINE
  5
EF
330
1F
100
AcDbEntity
  8
0
  6
Continuous
 62
     7
370
    25
100
AcDbSpline
210
0.0
220
0.0
230
1.0
 70
    24
 71
     3
 72
    14
 73
    10
 74
     0
 42
0.000000001
 43
0.00000001
 40
0.0
 40
0.0
 40
0.0
 40
0.0
 40
0.1840514075183105
 40
0.3684139251903485
 40
0.5539843086319626
 40
0.7400995251687731
 40
0.8646739563828552
 40
0.9892467603277324
 40
0.9999999999999999
 40
0.9999999999999999
 40
0.9999999999999999
 40
0.9999999999999999
 10
84.37949228231501
 20
67.83374682080924
 30
0.0
 10
84.48046118593172
 20
67.83374682080924
 30
0.0
 10
84.68256966532432
 20
67.83374682080924
 30
0.0
 10
84.92967140209575
 20
67.83374682080925
 30
0.0
 10
85.12542348170935
 20
67.83374682080925
 30
0.0
 10
85.24518793615003
 20
67.83374682080925
 30
0.0
 10
85.30142073026374
 20
67.83374682080927
 30
0.0
 10
85.32175853126715
 20
67.83374682080924
 30
0.0
 10
85.31645060297407
 20
67.83374682080927
 30
0.0
 10
85.31602882588246
 20
67.83374682080925
 30
0.0
  0
SPLINE
  5
F0
330
1F
100
AcDbEntity
  8
0
  6
Continuous
 62
     7
370
    25
100
AcDbSpline
210
0.0
220
0.0
230
1.0
 70
     8
 71
     3
 72
    16
 73
    12
 74
     0
 42
0.000000001
 43
0.00000001
 40
0.0
 40
0.0
 40
0.0
 40
0.0
 40
0.2499999999999999
 40
0.2499999999999999
 40
0.4999999999999998
 40
0.4999999999999998
 40
0.6249999999999998
 40
0.6249999999999998
 40
0.7499999999999999
 40
0.7499999999999999
 40
1.0
 40
1.0
 40
1.0
 40
1.0
 10
84.37949228231535
 20
78.33374682080931
 30
0.0
 10
84.66523407959802
 20
77.47652142896128
 30
0.0
 10
84.90073707975324
 20
76.61304620292633
 30
0.0
 10
85.2269851969197
 20
74.86808750188105
 30
0.0
 10
85.31665416189061
 20
73.98647015081879
 30
0.0
 10
85.31763906829285
 20
72.64743407800259
 30
0.0
 10
85.29571849148306
 20
72.19898831717978
 30
0.0
 10
85.21023977374868
 20
71.31191533708102
 30
0.0
 10
85.14676838528219
 20
70.87135287214562
 30
0.0
 10
84.90167614808382
 20
69.55750908753372
 30
0.0
 10
84.66559028052662
 20
68.69204081544352
 30
0.0
 10
84.37949228231518
 20
67.83374682080921
 30
0.0
  0
LINE
  5
F1
330
1F
100
AcDbEntity
  8
0
  6
Continuous
 62
     7
370
    25
100
AcDbLine
 10
85.4616520231
 20
88.5837468208
 30
0.0
 11
85.4616520231
 21
68.0837468208
 31
0.0
  0
SPLINE
  5
F2
330
1F
100
AcDbEntity
  8
0
  6
Continuous
 62
     7
370
    25
100
AcDbSpline
210
0.0
220
0.0
230
1.0
 70
     8
 71
     3
 72
    10
 73
     6
 74
     0
 42
0.000000001
 43
0.00000001
 40
0.0
 40
0.0
 40
0.0
 40
0.0
 40
0.5
 40
0.5
 40
1.0
 40
1.0
 40
1.0
 40
1.0
 10
71.89689680855871
 20
78.33374682080927
 30
0.0
 10
71.76153383747686
 20
77.45874682080927
 30
0.0
 10
71.65162016742374
 20
76.58374682080927
 30
0.0
 10
71.50144843418228
 20
74.83374682080927
 30
0.0
 10
71.46165202312135
 20
73.95874682080924
 30
0.0
 10
71.46165202312135
 20
73.08374682080924
 30
0.0
  0
LINE
  5
F3
330
1F
100
AcDbEntity
  8
0
  6
Continuous
 62
     7
370
    25
100
AcDbLine
 10
71.4616520231
 20
83.5837468208
 30
0.0
 11
71.4616520231
 21
73.0837468208
 31
0.0
  0
SPLINE
  5
F4
330
1F
100
AcDbEntity
  8
0
  6
Continuous
 62
     7
370
    25
100
AcDbSpline
210
0.0
220
0.0
230
1.0
 70
     8
 71
     3
 72
    10
 73
     6
 74
     0
 42
0.000000001
 43
0.00000001
 40
0.0
 40
0.0
 40
0.0
 40
0.0
 40
0.5
 40
0.5
 40
1.0
 40
1.0
 40
1.0
 40
1.0
 10
71.026407237684
 20
78.33374682080927
 30
0.0
 10
71.16177020876583
 20
77.45874682080927
 30
0.0
 10
71.27168387881896
 20
76.58374682080927
 30
0.0
 10
71.42185561206043
 20
74.83374682080927
 30
0.0
 10
71.46165202312135
 20
73.95874682080924
 30
0.0
 10
71.46165202312135
 20
73.08374682080924
 30
0.0
  0
LINE
  5
F5
330
1F
100
AcDbEntity
  8
0
  6
Continuous
 62
     7
370
    25
100
AcDbLine
 10
80.9616520231
 20
78.8748148871
 30
0.0
 11
80.9616520231
 21
77.7926787545
 31
0.0
  0
SPLINE
  5
F6
330
1F
100
AcDbEntity
  8
0
  6
Continuous
 62
     7
370
    25
100
AcDbSpline
210
0.0
220
0.0
230
1.0
 70
     8
 71
     3
 72
     8
 73
     4
 74
     0
 42
0.000000001
 43
0.00000001
 40
0.0
 40
0.0
 40
0.0
 40
0.0
 40
1.0
 40
1.0
 40
1.0
 40
1.0
 10
80.88126726539203
 20
78.33374682080927
 30
0.0
 10
80.9091539739738
 20
78.1534843028249
 30
0.0
 10
80.9359777701402
 20
77.97313075382917
 30
0.0
 10
80.96165202312136
 20
77.79267875450273
 30
0.0
  0
SPLINE
  5
F7
330
1F
100
AcDbEntity
  8
0
  6
Continuous
 62
     7
370
    25
100
AcDbSpline
210
0.0
220
0.0
230
1.0
 70
     8
 71
     3
 72
     8
 73
     4
 74
     0
 42
0.000000001
 43
0.00000001
 40
0.0
 40
0.0
 40
0.0
 40
0.0
 40
1.0
 40
1.0
 40
1.0
 40
1.0
 10
80.96165202312136
 20
77.79267875450273
 30
0.0
 10
80.98733564688953
 20
77.97319661659263
 30
0.0
 10
81.01415998116407
 20
78.15354835493011
 30
0.0
 10
81.0420367808507
 20
78.33374682080927
 30
0.0
  0
SPLINE
  5
F8
330
1F
100
AcDbEntity
  8
0
  6
Continuous
 62
     7
370
    25
100
AcDbSpline
210
0.0
220
0.0
230
1.0
 70
     8
 71
     3
 72
    10
 73
     6
 74
     0
 42
0.000000001
 43
0.00000001
 40
0.0
 40
0.0
 40
0.0
 40
0.0
 40
0.5
 40
0.5
 40
1.0
 40
1.0
 40
1.0
 40
1.0
 10
71.46165202312135
 20
73.08374682080924
 30
0.0
 10
71.46165202312135
 20
72.20874682080924
 30
0.0
 10
71.42185561206043
 20
71.33374682080924
 30
0.0
 10
71.27168387881896
 20
69.58374682080924
 30
0.0
 10
71.16177020876583
 20
68.70874682080924
 30
0.0
 10
71.026407237684
 20
67.83374682080924
 30
0.0
  0
LINE
  5
F9
330
1F
100
AcDbEntity
  8
0
  6
Continuous
 62
     7
370
    25
100
AcDbLine
 10
71.0264072377
 20
67.8337468208
 30
0.0
 11
58.5438117639
 21
67.8337468208
 31
0.0
  0
LINE
  5
FA
330
1F
100
AcDbEntity
  8
0
  6
Continuous
 62
     7
370
    25
100
AcDbLine
 10
84.3794922823
 20
67.8337468208
 30
0.0
 11
81.0420367809
 21
67.8337468208
 31
0.0
  0
SPLINE
  5
FB
330
1F
100
AcDbEntity
  8
0
  6
Continuous
 62
     7
370
    25
100
AcDbSpline
210
0.0
220
0.0
230
1.0
 70
     8
 71
     3
 72
     8
 73
     4
 74
     0
 42
0.000000001
 43
0.00000001
 40
0.0
 40
0.0
 40
0.0
 40
0.0
 40
1.0
 40
1.0
 40
1.0
 40
1.0
 10
81.0420367808507
 20
67.83374682080924
 30
0.0
 10
81.01415007226892
 20
68.01400933879358
 30
0.0
 10
80.98732627610252
 20
68.19436288778934
 30
0.0
 10
80.96165202312136
 20
68.37481488711578
 30
0.0
  0
SPLINE
  5
FC
330
1F
100
AcDbEntity
  8
0
  6
Continuous
 62
     7
370
    25
100
AcDbSpline
210
0.0
220
0.0
230
1.0
 70
     8
 71
     3
 72
     8
 73
     4
 74
     0
 42
0.000000001
 43
0.00000001
 40
0.0
 40
0.0
 40
0.0
 40
0.0
 40
1.0
 40
1.0
 40
1.0
 40
1.0
 10
80.96165202312136
 20
68.37481488711578
 30
0.0
 10
80.93596839935317
 20
68.19429702502588
 30
0.0
 10
80.90914406507864
 20
68.01394528668838
 30
0.0
 10
80.88126726539203
 20
67.83374682080924
 30
0.0
  0
LINE
  5
FD
330
1F
100
AcDbEntity
  8
0
  6
Continuous
 62
     7
370
    25
100
AcDbLine
 10
80.8812672654
 20
67.8337468208
 30
0.0
 11
71.8968968086
 21
67.8337468208
 31
0.0
  0
SPLINE
  5
FE
330
1F
100
AcDbEntity
  8
0
  6
Continuous
 62
     7
370
    25
100
AcDbSpline
210
0.0
220
0.0
230
1.0
 70
     8
 71
     3
 72
    10
 73
     6
 74
     0
 42
0.000000001
 43
0.00000001
 40
0.0
 40
0.0
 40
0.0
 40
0.0
 40
0.5
 40
0.5
 40
1.0
 40
1.0
 40
1.0
 40
1.0
 10
71.46165202312135
 20
73.08374682080924
 30
0.0
 10
71.46165202312135
 20
72.20874682080924
 30
0.0
 10
71.50144843418228
 20
71.33374682080924
 30
0.0
 10
71.65162016742374
 20
69.58374682080924
 30
0.0
 10
71.76153383747686
 20
68.70874682080924
 30
0.0
 10
71.89689680855871
 20
67.83374682080924
 30
0.0
  0
SPLINE
  5
FF
330
1F
100
AcDbEntity
  8
0
  6
Continuous
 62
     7
370
    25
100
AcDbSpline
210
0.0
220
0.0
230
1.0
 70
    24
 71
     3
 72
    10
 73
     6
 74
     0
 42
0.000000001
 43
0.00000001
 40
0.0
 40
0.0
 40
0.0
 40
0.0
 40
0.5
 40
0.5
 40
1.0
 40
1.0
 40
1.0
 40
1.0
 10
71.46165202312135
 20
88.83374682080927
 30
0.0
 10
71.46165202312135
 20
88.83374682080925
 30
0.0
 10
71.42169886498415
 20
88.83374682080924
 30
0.0
 10
71.27140395364854
 20
88.83374682080921
 30
0.0
 10
71.1615300455379
 20
88.83374682080921
 30
0.0
 10
71.02640723768386
 20
88.83374682080921
 30
0.0
  0
LINE
  5
100
330
1F
100
AcDbEntity
  8
0
  6
Continuous
 62
     7
370
    25
100
AcDbLine
 10
71.4616520231
 20
88.8337468208
 30
0.0
 11
71.4616520231
 21
83.5837468208
 31
0.0
  0
SPLINE
  5
101
330
1F
100
AcDbEntity
  8
0
  6
Continuous
 62
     7
370
    25
100
AcDbSpline
210
0.0
220
0.0
230
1.0
 70
    24
 71
     3
 72
    10
 73
     6
 74
     0
 42
0.000000001
 43
0.00000001
 40
0.0
 40
0.0
 40
0.0
 40
0.0
 40
0.5
 40
0.5
 40
1.0
 40
1.0
 40
1.0
 40
1.0
 10
71.46165202312135
 20
88.83374682080927
 30
0.0
 10
71.46165202312135
 20
88.83374682080925
 30
0.0
 10
71.50160518125855
 20
88.83374682080924
 30
0.0
 10
71.65190009259416
 20
88.83374682080921
 30
0.0
 10
71.7617740007048
 20
88.83374682080921
 30
0.0
 10
71.89689680855885
 20
88.83374682080921
 30
0.0
  0
SPLINE
  5
102
330
1F
100
AcDbEntity
  8
0
  6
Continuous
 62
     7
370
    25
100
AcDbSpline
210
0.0
220
0.0
230
1.0
 70
    24
 71
     3
 72
    10
 73
     6
 74
     0
 42
0.000000001
 43
0.00000001
 40
0.0
 40
0.0
 40
0.0
 40
0.0
 40
0.5
 40
0.5
 40
1.0
 40
1.0
 40
1.0
 40
1.0
 10
71.46165202312135
 20
67.83374682080925
 30
0.0
 10
71.46165202312135
 20
67.83374682080925
 30
0.0
 10
71.50160518125855
 20
67.83374682080925
 30
0.0
 10
71.65190009259416
 20
67.83374682080924
 30
0.0
 10
71.7617740007048
 20
67.83374682080924
 30
0.0
 10
71.89689680855885
 20
67.83374682080924
 30
0.0
  0
LINE
  5
103
330
1F
100
AcDbEntity
  8
0
  6
Continuous
 62
     7
370
    25
100
AcDbLine
 10
71.4616520231
 20
73.0837468208
 30
0.0
 11
71.4616520231
 21
67.8337468208
 31
0.0
  0
SPLINE
  5
104
330
1F
100
AcDbEntity
  8
0
  6
Continuous
 62
     7
370
    25
100
AcDbSpline
210
0.0
220
0.0
230
1.0
 70
    24
 71
     3
 72
    10
 73
     6
 74
     0
 42
0.000000001
 43
0.00000001
 40
0.0
 40
0.0
 40
0.0
 40
0.0
 40
0.5
 40
0.5
 40
1.0
 40
1.0
 40
1.0
 40
1.0
 10
71.46165202312135
 20
67.83374682080925
 30
0.0
 10
71.46165202312135
 20
67.83374682080925
 30
0.0
 10
71.42169886498415
 20
67.83374682080925
 30
0.0
 10
71.27140395364854
 20
67.83374682080924
 30
0.0
 10
71.1615300455379
 20
67.83374682080924
 30
0.0
 10
71.02640723768386
 20
67.83374682080924
 30
0.0
  0
SPLINE
  5
105
330
1F
100
AcDbEntity
  8
0
  6
Continuous
 62
     7
370
    25
100
AcDbSpline
210
0.0
220
0.0
230
1.0
 70
    24
 71
     3
 72
     8
 73
     4
 74
     0
 42
0.000000001
 43
0.00000001
 40
0.0
 40
0.0
 40
0.0
 40
0.0
 40
1.0
 40
1.0
 40
1.0
 40
1.0
 10
80.96165202312136
 20
88.83374682080921
 30
0.0
 10
80.9359688815729
 20
88.83374682080921
 30
0.0
 10
80.90914457464108
 20
88.83374682080921
 30
0.0
 10
80.88126726539203
 20
88.83374682080921
 30
0.0
  0
LINE
  5
106
330
1F
100
AcDbEntity
  8
0
  6
Continuous
 62
     7
370
    25
100
AcDbLine
 10
80.9616520231
 20
88.8337468208
 30
0.0
 11
80.9616520231
 21
88.2926787545
 31
0.0
  0
SPLINE
  5
107
330
1F
100
AcDbEntity
  8
0
  6
Continuous
 62
     7
370
    25
100
AcDbSpline
210
0.0
220
0.0
230
1.0
 70
    24
 71
     3
 72
     8
 73
     4
 74
     0
 42
0.000000001
 43
0.00000001
 40
0.0
 40
0.0
 40
0.0
 40
0.0
 40
1.0
 40
1.0
 40
1.0
 40
1.0
 10
81.0420367808507
 20
88.83374682080921
 30
0.0
 10
81.01414861848546
 20
88.83374682080921
 30
0.0
 10
80.98732490240268
 20
88.83374682080921
 30
0.0
 10
80.96165202312136
 20
88.83374682080921
 30
0.0
  0
SPLINE
  5
108
330
1F
100
AcDbEntity
  8
0
  6
Continuous
 62
     7
370
    25
100
AcDbSpline
210
0.0
220
0.0
230
1.0
 70
    24
 71
     3
 72
     8
 73
     4
 74
     0
 42
0.000000001
 43
0.00000001
 40
0.0
 40
0.0
 40
0.0
 40
0.0
 40
1.0
 40
1.0
 40
1.0
 40
1.0
 10
80.96165202312136
 20
67.83374682080924
 30
0.0
 10
80.9873351646698
 20
67.83374682080924
 30
0.0
 10
81.01415947160163
 20
67.83374682080924
 30
0.0
 10
81.0420367808507
 20
67.83374682080924
 30
0.0
  0
LINE
  5
109
330
1F
100
AcDbEntity
  8
0
  6
Continuous
 62
     7
370
    25
100
AcDbLine
 10
80.9616520231
 20
68.3748148871
 30
0.0
 11
80.9616520231
 21
67.8337468208
 31
0.0
  0
SPLINE
  5
10A
330
1F
100
AcDbEntity
  8
0
  6
Continuous
 62
     7
370
    25
100
AcDbSpline
210
0.0
220
0.0
230
1.0
 70
    24
 71
     3
 72
     8
 73
     4
 74
     0
 42
0.000000001
 43
0.00000001
 40
0.0
 40
0.0
 40
0.0
 40
0.0
 40
1.0
 40
1.0
 40
1.0
 40
1.0
 10
80.88126726539203
 20
67.83374682080924
 30
0.0
 10
80.90915542775724
 20
67.83374682080924
 30
0.0
 10
80.93597914384003
 20
67.83374682080924
 30
0.0
 10
80.96165202312136
 20
67.83374682080924
 30
0.0
  0
LINE
  5
10B
330
1F
100
AcDbEntity
  8
0
  6
CENTERX2
 62
     7
370
    18
100
AcDbLine
 10
59.5438117639
 20
78.3337468208
 30
0.0
 11
56.4616520231
 21
78.3337468208
 31
0.0
  0
LINE
  5
10C
330
1F
100
AcDbEntity
  8
0
  6
CENTERX2
 62
     7
370
    18
100
AcDbLine
 10
83.3794922823
 20
78.3337468208
 30
0.0
 11
86.4616520231
 21
78.3337468208
 31
0.0
  0
ENDSEC
  0
SECTION
  2
OBJECTS
  0
DICTIONARY
  5
C
330
0
100
AcDbDictionary
281
     1
  3
ACAD_GROUP
350
D
  3
ACAD_LAYOUT
350
1A
  3
ACAD_MLINESTYLE
350
17
  3
ACAD_PLOTSETTINGS
350
19
  3
ACAD_PLOTSTYLENAME
350
E
  3
ACAD_SCALELIST
350
47
  0
DICTIONARY
  5
D
102
{ACAD_REACTORS
330
C
102
}
330
C
100
AcDbDictionary
281
     1
  0
DICTIONARY
  5
1A
102
{ACAD_REACTORS
330
C
102
}
330
C
100
AcDbDictionary
281
     1
  3
Layout1
350
1E
  3
Layout2
350
26
  3
Model
350
22
  0
DICTIONARY
  5
17
102
{ACAD_REACTORS
330
C
102
}
330
C
100
AcDbDictionary
281
     1
  3
Standard
350
18
  0
DICTIONARY
  5
19
102
{ACAD_REACTORS
330
C
102
}
330
C
100
AcDbDictionary
281
     1
  0
ACDBDICTIONARYWDFLT
  5
E
102
{ACAD_REACTORS
330
C
102
}
330
C
100
AcDbDictionary
281
     1
  3
Normal
350
F
100
AcDbDictionaryWithDefault
340
F
  0
DICTIONARY
  5
47
102
{ACAD_REACTORS
330
C
102
}
330
C
100
AcDbDictionary
281
     1
  3
A0
350
48
  3
A1
350
49
  3
A2
350
4A
  3
A3
350
4B
  3
A4
350
4C
  3
A5
350
4D
  3
A6
350
4E
  3
A7
350
4F
  3
A8
350
50
  3
A9
350
51
  3
B0
350
52
  3
B1
350
53
  3
B2
350
54
  3
B3
350
55
  3
B4
350
56
  3
B5
350
57
  3
B6
350
58
  3
B7
350
59
  3
B8
350
5A
  3
B9
350
5B
  3
C0
350
5C
  3
C1
350
5D
  3
C2
350
5E
  3
C3
350
5F
  3
C4
350
60
  3
C5
350
61
  3
C6
350
62
  3
C7
350
63
  3
C8
350
64
  3
C9
350
65
  3
D0
350
66
  3
D1
350
67
  3
D2
350
68
  0
LAYOUT
  5
1E
102
{ACAD_REACTORS
330
1A
102
}
330
1A
100
AcDbPlotSettings
  1

  2
none_device
  4

  6

 40
0.0
 41
0.0
 42
0.0
 43
0.0
 44
0.0
 45
0.0
 46
0.0
 47
0.0
 48
0.0
 49
0.0
140
0.0
141
0.0
142
1.0
143
1.0
 70
   688
 72
     1
 73
     0
 74
     5
  7

 75
    16
147
1.0
148
0.0
149
0.0
100
AcDbLayout
  1
Layout1
 70
     1
 71
     1
 10
0.0
 20
0.0
 11
420.0
 21
297.0
 12
0.0
 22
0.0
 32
0.0
 14
1.0000000000E+20
 24
1.0000000000E+20
 34
1.0000000000E+20
 15
-1.0000000000E+20
 25
-1.0000000000E+20
 35
-1.0000000000E+20
146
0.0
 13
0.0
 23
0.0
 33
0.0
 16
1.0
 26
0.0
 36
0.0
 17
0.0
 27
1.0
 37
0.0
 76
     0
330
1B
  0
LAYOUT
  5
26
102
{ACAD_REACTORS
330
1A
102
}
330
1A
100
AcDbPlotSettings
  1

  2
none_device
  4

  6

 40
0.0
 41
0.0
 42
0.0
 43
0.0
 44
0.0
 45
0.0
 46
0.0
 47
0.0
 48
0.0
 49
0.0
140
0.0
141
0.0
142
1.0
143
1.0
 70
   688
 72
     1
 73
     0
 74
     5
  7

 75
    16
147
1.0
148
0.0
149
0.0
100
AcDbLayout
  1
Layout2
 70
     1
 71
     2
 10
0.0
 20
0.0
 11
0.0
 21
0.0
 12
0.0
 22
0.0
 32
0.0
 14
0.0
 24
0.0
 34
0.0
 15
0.0
 25
0.0
 35
0.0
146
0.0
 13
0.0
 23
0.0
 33
0.0
 16
1.0
 26
0.0
 36
0.0
 17
0.0
 27
1.0
 37
0.0
 76
     0
330
23
  0
LAYOUT
  5
22
102
{ACAD_REACTORS
330
1A
102
}
330
1A
100
AcDbPlotSettings
  1

  2
none_device
  4
Letter_(8.50_x_11.00_Inches)
  6

 40
6.35
 41
6.35
 42
6.35000508
 43
6.35000508
 44
215.9
 45
279.4
 46
0.0
 47
0.0
 48
0.0
 49
0.0
140
0.0
141
0.0
142
1.0
143
1.0
 70
  1712
 72
     1
 73
     0
 74
     0
  7

 75
     0
147
1.0
148
0.0
149
0.0
100
AcDbLayout
  1
Model
 70
     1
 71
     0
 10
0.0
 20
0.0
 11
215.9
 21
139.7
 12
0.0
 22
0.0
 32
0.0
 14
0.0
 24
0.0
 34
0.0
 15
215.9
 25
139.7
 35
0.0
146
0.0
 13
0.0
 23
0.0
 33
0.0
 16
1.0
 26
0.0
 36
0.0
 17
0.0
 27
1.0
 37
0.0
 76
     0
330
1F
331
29
  0
MLINESTYLE
  5
18
102
{ACAD_REACTORS
330
17
102
}
330
17
100
AcDbMlineStyle
  2
Standard
 70
     0
  3

 62
   256
 51
90.0
 52
90.0
 71
     2
 49
0.5
 62
   256
  6
BYLAYER
 49
-0.5
 62
   256
  6
BYLAYER
  0
ACDBPLACEHOLDER
  5
F
102
{ACAD_REACTORS
330
E
102
}
330
E
  0
SCALE
  5
48
102
{ACAD_REACTORS
330
47
102
}
330
47
100
AcDbScale
 70
     0
300
1:1
140
1.0
141
1.0
290
     1
  0
SCALE
  5
49
102
{ACAD_REACTORS
330
47
102
}
330
47
100
AcDbScale
 70
     0
300
1:2
140
1.0
141
2.0
290
     0
  0
SCALE
  5
4A
102
{ACAD_REACTORS
330
47
102
}
330
47
100
AcDbScale
 70
     0
300
1:4
140
1.0
141
4.0
290
     0
  0
SCALE
  5
4B
102
{ACAD_REACTORS
330
47
102
}
330
47
100
AcDbScale
 70
     0
300
1:5
140
1.0
141
5.0
290
     0
  0
SCALE
  5
4C
102
{ACAD_REACTORS
330
47
102
}
330
47
100
AcDbScale
 70
     0
300
1:8
140
1.0
141
8.0
290
     0
  0
SCALE
  5
4D
102
{ACAD_REACTORS
330
47
102
}
330
47
100
AcDbScale
 70
     0
300
1:10
140
1.0
141
10.0
290
     0
  0
SCALE
  5
4E
102
{ACAD_REACTORS
330
47
102
}
330
47
100
AcDbScale
 70
     0
300
1:16
140
1.0
141
16.0
290
     0
  0
SCALE
  5
4F
102
{ACAD_REACTORS
330
47
102
}
330
47
100
AcDbScale
 70
     0
300
1:20
140
1.0
141
20.0
290
     0
  0
SCALE
  5
50
102
{ACAD_REACTORS
330
47
102
}
330
47
100
AcDbScale
 70
     0
300
1:30
140
1.0
141
30.0
290
     0
  0
SCALE
  5
51
102
{ACAD_REACTORS
330
47
102
}
330
47
100
AcDbScale
 70
     0
300
1:40
140
1.0
141
40.0
290
     0
  0
SCALE
  5
52
102
{ACAD_REACTORS
330
47
102
}
330
47
100
AcDbScale
 70
     0
300
1:50
140
1.0
141
50.0
290
     0
  0
SCALE
  5
53
102
{ACAD_REACTORS
330
47
102
}
330
47
100
AcDbScale
 70
     0
300
1:100
140
1.0
141
100.0
290
     0
  0
SCALE
  5
54
102
{ACAD_REACTORS
330
47
102
}
330
47
100
AcDbScale
 70
     0
300
2:1
140
2.0
141
1.0
290
     0
  0
SCALE
  5
55
102
{ACAD_REACTORS
330
47
102
}
330
47
100
AcDbScale
 70
     0
300
4:1
140
4.0
141
1.0
290
     0
  0
SCALE
  5
56
102
{ACAD_REACTORS
330
47
102
}
330
47
100
AcDbScale
 70
     0
300
8:1
140
8.0
141
1.0
290
     0
  0
SCALE
  5
57
102
{ACAD_REACTORS
330
47
102
}
330
47
100
AcDbScale
 70
     0
300
10:1
140
10.0
141
1.0
290
     0
  0
SCALE
  5
58
102
{ACAD_REACTORS
330
47
102
}
330
47
100
AcDbScale
 70
     0
300
100:1
140
100.0
141
1.0
290
     0
  0
SCALE
  5
59
102
{ACAD_REACTORS
330
47
102
}
330
47
100
AcDbScale
 70
     0
300
1/128" = 1'-0"
140
0.0078125
141
12.0
290
     0
  0
SCALE
  5
5A
102
{ACAD_REACTORS
330
47
102
}
330
47
100
AcDbScale
 70
     0
300
1/64" = 1'-0"
140
0.015625
141
12.0
290
     0
  0
SCALE
  5
5B
102
{ACAD_REACTORS
330
47
102
}
330
47
100
AcDbScale
 70
     0
300
1/32" = 1'-0"
140
0.03125
141
12.0
290
     0
  0
SCALE
  5
5C
102
{ACAD_REACTORS
330
47
102
}
330
47
100
AcDbScale
 70
     0
300
1/16" = 1'-0"
140
0.0625
141
12.0
290
     0
  0
SCALE
  5
5D
102
{ACAD_REACTORS
330
47
102
}
330
47
100
AcDbScale
 70
     0
300
3/32" = 1'-0"
140
0.09375
141
12.0
290
     0
  0
SCALE
  5
5E
102
{ACAD_REACTORS
330
47
102
}
330
47
100
AcDbScale
 70
     0
300
1/8" = 1'-0"
140
0.125
141
12.0
290
     0
  0
SCALE
  5
5F
102
{ACAD_REACTORS
330
47
102
}
330
47
100
AcDbScale
 70
     0
300
3/16" = 1'-0"
140
0.1875
141
12.0
290
     0
  0
SCALE
  5
60
102
{ACAD_REACTORS
330
47
102
}
330
47
100
AcDbScale
 70
     0
300
1/4" = 1'-0"
140
0.25
141
12.0
290
     0
  0
SCALE
  5
61
102
{ACAD_REACTORS
330
47
102
}
330
47
100
AcDbScale
 70
     0
300
3/8" = 1'-0"
140
0.375
141
12.0
290
     0
  0
SCALE
  5
62
102
{ACAD_REACTORS
330
47
102
}
330
47
100
AcDbScale
 70
     0
300
1/2" = 1'-0"
140
0.5
141
12.0
290
     0
  0
SCALE
  5
63
102
{ACAD_REACTORS
330
47
102
}
330
47
100
AcDbScale
 70
     0
300
3/4" = 1'-0"
140
0.75
141
12.0
290
     0
  0
SCALE
  5
64
102
{ACAD_REACTORS
330
47
102
}
330
47
100
AcDbScale
 70
     0
300
1" = 1'-0"
140
1.0
141
12.0
290
     0
  0
SCALE
  5
65
102
{ACAD_REACTORS
330
47
102
}
330
47
100
AcDbScale
 70
     0
300
1-1/2" = 1'-0"
140
1.5
141
12.0
290
     0
  0
SCALE
  5
66
102
{ACAD_REACTORS
330
47
102
}
330
47
100
AcDbScale
 70
     0
300
3" = 1'-0"
140
3.0
141
12.0
290
     0
  0
SCALE
  5
67
102
{ACAD_REACTORS
330
47
102
}
330
47
100
AcDbScale
 70
     0
300
6" = 1'-0"
140
6.0
141
12.0
290
     0
  0
SCALE
  5
68
102
{ACAD_REACTORS
330
47
102
}
330
47
100
AcDbScale
 70
     0
300
1'-0" = 1'-0"
140
12.0
141
12.0
290
     0
  0
ENDSEC
  0
EOF
