  0
SECTION
  2
HEADER
  9
$ACADVER
  1
AC1015
  9
$ACADMAINTVER
 70
     6
  9
$DWGCODEPAGE
  3
DOS932
  9
$INSBASE
 10
0.0
 20
0.0
 30
0.0
  9
$EXTMIN
 10
0.0
 20
0.0
 30
0.0
  9
$EXTMAX
 10
297.0
 20
210.0
 30
0.0
  9
$LIMMIN
 10
0.0
 20
0.0
  9
$LIMMAX
 10
297.0
 20
210.0
  9
$ORTHOMODE
 70
     0
  9
$REGENMODE
 70
     1
  9
$FILLMODE
 70
     1
  9
$QTEXTMODE
 70
     0
  9
$MIRRTEXT
 70
     1
  9
$LTSCALE
 40
1.0
  9
$ATTMODE
 70
     1
  9
$TEXTSIZE
 40
3.5277777778
  9
$TRACEWID
 40
1.0
  9
$TEXTSTYLE
  7
Standard
  9
$CLAYER
  8
0
  9
$CELTYPE
  6
ByLayer
  9
$CECOLOR
 62
   256
  9
$CELTSCALE
 40
1.0
  9
$DISPSILH
 70
     0
  9
$DIMSCALE
 40
1.0
  9
$DIMASZ
 40
2.728515625
  9
$DIMEXO
 40
1.0
  9
$DIMDLI
 40
3.75
  9
$DIMRND
 40
0.0
  9
$DIMDLE
 40
0.0
  9
$DIMEXE
 40
1.0
  9
$DIMTP
 40
0.0
  9
$DIMTM
 40
0.0
  9
$DIMTXT
 40
3.5277777778
  9
$DIMCEN
 40
2.5
  9
$DIMTSZ
 40
0.0
  9
$DIMTOL
 70
     0
  9
$DIMLIM
 70
     0
  9
$DIMTIH
 70
     1
  9
$DIMTOH
 70
     1
  9
$DIMSE1
 70
     0
  9
$DIMSE2
 70
     0
  9
$DIMTAD
 70
     1
  9
$DIMZIN
 70
     0
  9
$DIMBLK
  1

  9
$DIMASO
 70
     1
  9
$DIMSHO
 70
     1
  9
$DIMPOST
  1

  9
$DIMAPOST
  1

  9
$DIMALT
 70
     0
  9
$DIMALTD
 70
     3
  9
$DIMALTF
 40
0.0393700787
  9
$DIMLFAC
 40
1.0
  9
$DIMTOFL
 70
     1
  9
$DIMTVP
 40
0.0
  9
$DIMTIX
 70
     0
  9
$DIMSOXD
 70
     0
  9
$DIMSAH
 70
     0
  9
$DIMBLK1
  1

  9
$DIMBLK2
  1

  9
$DIMSTYLE
  2
ISO-25
  9
$DIMCLRD
 70
     0
  9
$DIMCLRE
 70
     0
  9
$DIMCLRT
 70
     0
  9
$DIMTFAC
 40
1.0
  9
$DIMGAP
 40
1.524
  9
$DIMJUST
 70
     0
  9
$DIMSD1
 70
     0
  9
$DIMSD2
 70
     0
  9
$DIMTOLJ
 70
     0
  9
$DIMTZIN
 70
     0
  9
$DIMALTZ
 70
     0
  9
$DIMALTTZ
 70
     0
  9
$DIMUPT
 70
     0
  9
$DIMDEC
 70
     2
  9
$DIMTDEC
 70
     2
  9
$DIMALTU
 70
     2
  9
$DIMALTTD
 70
     3
  9
$DIMTXSTY
  7
Standard
  9
$DIMAUNIT
 70
     0
  9
$DIMADEC
 70
     2
  9
$DIMALTRND
 40
0.0
  9
$DIMAZIN
 70
     0
  9
$DIMDSEP
 70
    44
  9
$DIMATFIT
 70
     3
  9
$DIMFRAC
 70
     0
  9
$DIMLDRBLK
  1

  9
$DIMLUNIT
 70
     2
  9
$DIMLWD
 70
    -2
  9
$DIMLWE
 70
    -2
  9
$DIMTMOVE
 70
     0
  9
$LUNITS
 70
     2
  9
$LUPREC
 70
     2
  9
$SKETCHINC
 40
1.0
  9
$FILLETRAD
 40
0.0
  9
$AUNITS
 70
     0
  9
$AUPREC
 70
     2
  9
$MENU
  1
.
  9
$ELEVATION
 40
0.0
  9
$PELEVATION
 40
0.0
  9
$THICKNESS
 40
0.0
  9
$LIMCHECK
 70
     0
  9
$CHAMFERA
 40
0.0
  9
$CHAMFERB
 40
0.0
  9
$CHAMFERC
 40
0.0
  9
$CHAMFERD
 40
0.0
  9
$SKPOLY
 70
     0
  9
$TDCREATE
 40
2460406.690187905
  9
$TDUCREATE
 40
2460406.315187905
  9
$TDUPDATE
 40
2460406.690188449
  9
$TDUUPDATE
 40
2460406.315188449
  9
$TDINDWG
 40
0.0000000116
  9
$TDUSRTIMER
 40
0.0000000116
  9
$USRTIMER
 70
     1
  9
$ANGBASE
 50
0.0
  9
$ANGDIR
 70
     0
  9
$PDMODE
 70
     0
  9
$PDSIZE
 40
-1.0
  9
$PLINEWID
 40
0.0
  9
$SPLFRAME
 70
     0
  9
$SPLINETYPE
 70
     6
  9
$SPLINESEGS
 70
     8
  9
$HANDSEED
  5
144
  9
$SURFTAB1
 70
     6
  9
$SURFTAB2
 70
     6
  9
$SURFTYPE
 70
     6
  9
$SURFU
 70
     6
  9
$SURFV
 70
     6
  9
$UCSBASE
  2

  9
$UCSNAME
  2

  9
$UCSORG
 10
0.0
 20
0.0
 30
0.0
  9
$UCSXDIR
 10
1.0
 20
0.0
 30
0.0
  9
$UCSYDIR
 10
0.0
 20
1.0
 30
0.0
  9
$UCSORTHOREF
  2

  9
$UCSORTHOVIEW
 70
     0
  9
$UCSORGTOP
 10
0.0
 20
0.0
 30
0.0
  9
$UCSORGBOTTOM
 10
0.0
 20
0.0
 30
0.0
  9
$UCSORGLEFT
 10
0.0
 20
0.0
 30
0.0
  9
$UCSORGRIGHT
 10
0.0
 20
0.0
 30
0.0
  9
$UCSORGFRONT
 10
0.0
 20
0.0
 30
0.0
  9
$UCSORGBACK
 10
0.0
 20
0.0
 30
0.0
  9
$PUCSBASE
  2

  9
$PUCSNAME
  2

  9
$PUCSORG
 10
0.0
 20
0.0
 30
0.0
  9
$PUCSXDIR
 10
1.0
 20
0.0
 30
0.0
  9
$PUCSYDIR
 10
0.0
 20
1.0
 30
0.0
  9
$PUCSORTHOREF
  2

  9
$PUCSORTHOVIEW
 70
     0
  9
$PUCSORGTOP
 10
0.0
 20
0.0
 30
0.0
  9
$PUCSORGBOTTOM
 10
0.0
 20
0.0
 30
0.0
  9
$PUCSORGLEFT
 10
0.0
 20
0.0
 30
0.0
  9
$PUCSORGRIGHT
 10
0.0
 20
0.0
 30
0.0
  9
$PUCSORGFRONT
 10
0.0
 20
0.0
 30
0.0
  9
$PUCSORGBACK
 10
0.0
 20
0.0
 30
0.0
  9
$USERI1
 70
     0
  9
$USERI2
 70
     0
  9
$USERI3
 70
     0
  9
$USERI4
 70
     0
  9
$USERI5
 70
     0
  9
$USERR1
 40
0.0
  9
$USERR2
 40
0.0
  9
$USERR3
 40
0.0
  9
$USERR4
 40
0.0
  9
$USERR5
 40
0.0
  9
$WORLDVIEW
 70
     1
  9
$SHADEDGE
 70
     3
  9
$SHADEDIF
 70
    70
  9
$TILEMODE
 70
     1
  9
$MAXACTVP
 70
    64
  9
$PINSBASE
 10
0.0
 20
0.0
 30
0.0
  9
$PLIMCHECK
 70
     0
  9
$PEXTMIN
 10
1.0000000000E+20
 20
1.0000000000E+20
 30
1.0000000000E+20
  9
$PEXTMAX
 10
-1.0000000000E+20
 20
-1.0000000000E+20
 30
-1.0000000000E+20
  9
$PLIMMIN
 10
0.0
 20
0.0
  9
$PLIMMAX
 10
420.0
 20
297.0
  9
$UNITMODE
 70
     0
  9
$VISRETAIN
 70
     1
  9
$PLINEGEN
 70
     0
  9
$PSLTSCALE
 70
     1
  9
$TREEDEPTH
 70
  3020
  9
$CMLSTYLE
  2
Standard
  9
$CMLJUST
 70
     0
  9
$CMLSCALE
 40
20.0
  9
$PROXYGRAPHICS
 70
     1
  9
$MEASUREMENT
 70
     1
  9
$CELWEIGHT
370
    -1
  9
$ENDCAPS
280
     0
  9
$JOINSTYLE
280
     0
  9
$LWDISPLAY
290
     1
  9
$INSUNITS
 70
     4
  9
$HYPERLINKBASE
  1

  9
$STYLESHEET
  1

  9
$XEDIT
290
     1
  9
$CEPSNTYPE
380
     0
  9
$PSTYLEMODE
290
     1
  9
$FINGERPRINTGUID
  2
{39b025b1-ecdc-4d9e-ba7f-6e2be624ec42}
  9
$VERSIONGUID
  2
{FAEB1C32-E019-11D5-929B-00C0DF256EC4}
  9
$EXTNAMES
290
     1
  9
$PSVPSCALE
 40
0.0
  9
$OLESTARTUP
290
     0
  0
ENDSEC
  0
SECTION
  2
CLASSES
  0
CLASS
  1
ACDBDICTIONARYWDFLT
  2
AcDbDictionaryWithDefault
  3
ObjectDBX Classes
 90
        0
280
     0
281
     0
  0
CLASS
  1
VISUALSTYLE
  2
AcDbVisualStyle
  3
ObjectDBX Classes
 90
     4095
280
     0
281
     0
  0
CLASS
  1
MATERIAL
  2
AcDbMaterial
  3
ObjectDBX Classes
 90
     1153
280
     0
281
     0
  0
CLASS
  1
SCALE
  2
AcDbScale
  3
ObjectDBX Classes
 90
     1153
280
     0
281
     0
  0
CLASS
  1
TABLESTYLE
  2
AcDbTableStyle
  3
ObjectDBX Classes
 90
     4095
280
     0
281
     0
  0
CLASS
  1
MLEADERSTYLE
  2
AcDbMLeaderStyle
  3
ACDB_MLEADERSTYLE_CLASS
 90
     4095
280
     0
281
     0
  0
CLASS
  1
SUN
  2
AcDbSun
  3
SCENEOE
 90
     1153
280
     0
281
     0
  0
CLASS
  1
ACDBPLACEHOLDER
  2
AcDbPlaceHolder
  3
ObjectDBX Classes
 90
        0
280
     0
281
     0
  0
CLASS
  1
LAYOUT
  2
AcDbLayout
  3
ObjectDBX Classes
 90
        0
280
     0
281
     0
  0
ENDSEC
  0
SECTION
  2
TABLES
  0
TABLE
  2
VPORT
  5
8
330
0
100
AcDbSymbolTable
 70
     1
  0
VPORT
  5
29
330
8
100
AcDbSymbolTableRecord
100
AcDbViewportTableRecord
  2
*Active
 70
     0
 10
0.0
 20
0.0
 11
1.0
 21
1.0
 12
148.5
 22
105.0
 13
0.0
 23
0.0
 14
10.0
 24
10.0
 15
10.0
 25
10.0
 16
0.0
 26
0.0
 36
1.0
 17
0.0
 27
0.0
 37
0.0
 40
210.0
 41
1.4142857143
 42
50.0
 43
0.0
 44
0.0
 50
0.0
 51
0.0
 71
     0
 72
  2000
 73
     1
 74
     3
 75
     0
 76
     0
 77
     0
 78
     0
281
     0
 65
     1
110
0.0
120
0.0
130
0.0
111
1.0
121
0.0
131
0.0
112
0.0
122
1.0
132
0.0
 79
     0
146
0.0
  0
ENDTAB
  0
TABLE
  2
LTYPE
  5
5
330
0
100
AcDbSymbolTable
 70
     6
  0
LTYPE
  5
14
330
5
100
AcDbSymbolTableRecord
100
AcDbLinetypeTableRecord
  2
ByBlock
 70
     0
  3

 72
    65
 73
     0
 40
0.0
  0
LTYPE
  5
15
330
5
100
AcDbSymbolTableRecord
100
AcDbLinetypeTableRecord
  2
ByLayer
 70
     0
  3

 72
    65
 73
     0
 40
0.0
  0
LTYPE
  5
16
330
5
100
AcDbSymbolTableRecord
100
AcDbLinetypeTableRecord
  2
Continuous
 70
     0
  3
Solid line
 72
    65
 73
     0
 40
0.0
  0
LTYPE
  5
5E
330
5
100
AcDbSymbolTableRecord
100
AcDbLinetypeTableRecord
  2
HIDDEN
 70
     0
  3
Hidden __ __ __ __ __ __ __ __ __ __ __ __ __ __
 72
    65
 73
     2
 40
1.905
 49
1.27
 74
     0
 49
-0.635
 74
     0
  0
LTYPE
  5
5F
330
5
100
AcDbSymbolTableRecord
100
AcDbLinetypeTableRecord
  2
PHANTOM
 70
     0
  3
Phantom ______  __  __  ______  __  __  ______
 72
    65
 73
     6
 40
12.7
 49
6.35
 74
     0
 49
-1.27
 74
     0
 49
1.27
 74
     0
 49
-1.27
 74
     0
 49
1.27
 74
     0
 49
-1.27
 74
     0
  0
LTYPE
  5
60
330
5
100
AcDbSymbolTableRecord
100
AcDbLinetypeTableRecord
  2
CENTER
 70
     0
  3
Center ____ _ ____ _ ____ _ ____ _ ____ _ ____
 72
    65
 73
     4
 40
10.16
 49
6.35
 74
     0
 49
-1.27
 74
     0
 49
1.27
 74
     0
 49
-1.27
 74
     0
  0
LTYPE
  5
61
330
5
100
AcDbSymbolTableRecord
100
AcDbLinetypeTableRecord
  2
CENTERX2
 70
     0
  3
Center (2x) ________  __  ________  __  _____
 72
    65
 73
     4
 40
20.32
 49
12.7
 74
     0
 49
-2.54
 74
     0
 49
2.54
 74
     0
 49
-2.54
 74
     0
  0
LTYPE
  5
62
330
5
100
AcDbSymbolTableRecord
100
AcDbLinetypeTableRecord
  2
DOT2
 70
     0
  3
Dot (.5x) ........................................
 72
    65
 73
     2
 40
0.635
 49
0.0
 74
     0
 49
-0.635
 74
     0
  0
ENDTAB
  0
TABLE
  2
LAYER
  5
2
330
0
100
AcDbSymbolTable
 70
     2
  0
LAYER
  5
10
330
2
100
AcDbSymbolTableRecord
100
AcDbLayerTableRecord
  2
0
 70
     0
 62
     7
  6
Continuous
370
    -3
390
F
  0
LAYER
  5
63
330
2
100
AcDbSymbolTableRecord
100
AcDbLayerTableRecord
  2
FORMAT
 70
     0
 62
     7
  6
Continuous
370
    -3
390
F
  0
ENDTAB
  0
TABLE
  2
STYLE
  5
3
330
0
100
AcDbSymbolTable
 70
     2
  0
STYLE
  5
11
330
3
100
AcDbSymbolTableRecord
100
AcDbTextStyleTableRecord
  2
Standard
 70
     0
 40
0.0
 41
1.0
 50
0.0
 71
     0
 42
3.5277777778
  3
txt
  4
bigfont
  0
STYLE
  5
64
330
3
100
AcDbSymbolTableRecord
100
AcDbTextStyleTableRecord
  2
SLDTEXTSTYLE0
 70
     0
 40
0.0
 41
0.7
 50
0.0
 71
     0
 42
3.5277777778
  3
TXT
  4
bigfont
  0
ENDTAB
  0
TABLE
  2
VIEW
  5
6
330
0
100
AcDbSymbolTable
 70
     0
  0
ENDTAB
  0
TABLE
  2
UCS
  5
7
330
0
100
AcDbSymbolTable
 70
     0
  0
ENDTAB
  0
TABLE
  2
APPID
  5
9
330
0
100
AcDbSymbolTable
 70
     1
  0
APPID
  5
12
330
9
100
AcDbSymbolTableRecord
100
AcDbRegAppTableRecord
  2
ACAD
 70
     0
  0
ENDTAB
  0
TABLE
  2
DIMSTYLE
  5
A
330
0
100
AcDbSymbolTable
 70
     1
100
AcDbDimStyleTable
  0
DIMSTYLE
105
27
330
A
100
AcDbSymbolTableRecord
100
AcDbDimStyleTableRecord
  2
ISO-25
 70
     0
 41
2.5
 42
0.625
 43
3.75
 44
1.25
 73
     0
 74
     0
 77
     1
 78
     8
140
2.5
141
2.5
143
0.0393700787
147
0.625
171
     3
172
     1
178
     0
271
     2
272
     2
274
     3
278
    44
283
     0
284
     8
340
11
  0
ENDTAB
  0
TABLE
  2
BLOCK_RECORD
  5
1
330
0
100
AcDbSymbolTable
 70
     2
  0
BLOCK_RECORD
  5
1F
330
1
100
AcDbSymbolTableRecord
100
AcDbBlockTableRecord
  2
*Model_Space
340
22
  0
BLOCK_RECORD
  5
1B
330
1
100
AcDbSymbolTableRecord
100
AcDbBlockTableRecord
  2
*Paper_Space
340
1E
  0
BLOCK_RECORD
  5
23
330
1
100
AcDbSymbolTableRecord
100
AcDbBlockTableRecord
  2
*Paper_Space0
340
26
  0
BLOCK_RECORD
  5
11A
330
1
100
AcDbSymbolTableRecord
100
AcDbBlockTableRecord
  2
SW_CENTERMARKSYMBOL_0
340
0
102
{BLKREFS
331
125
102
}
  0
ENDTAB
  0
ENDSEC
  0
SECTION
  2
BLOCKS
  0
BLOCK
  5
20
330
1F
100
AcDbEntity
  8
0
100
AcDbBlockBegin
  2
*Model_Space
 70
     0
 10
0.0
 20
0.0
 30
0.0
  3
*Model_Space
  1

  0
ENDBLK
  5
21
330
1F
100
AcDbEntity
  8
0
100
AcDbBlockEnd
  0
BLOCK
  5
1C
330
1B
100
AcDbEntity
 67
     1
  8
0
100
AcDbBlockBegin
  2
*Paper_Space
 70
     0
 10
0.0
 20
0.0
 30
0.0
  3
*Paper_Space
  1

  0
ENDBLK
  5
1D
330
1B
100
AcDbEntity
 67
     1
  8
0
100
AcDbBlockEnd
  0
BLOCK
  5
24
330
23
100
AcDbEntity
  8
0
100
AcDbBlockBegin
  2
*Paper_Space0
 70
     0
 10
0.0
 20
0.0
 30
0.0
  3
*Paper_Space0
  1

  0
ENDBLK
  5
25
330
23
100
AcDbEntity
  8
0
100
AcDbBlockEnd
  0
BLOCK
  5
11B
330
11A
100
AcDbEntity
  8
0
100
AcDbBlockBegin
  2
SW_CENTERMARKSYMBOL_0
 70
     0
 10
0.0
 20
0.0
 30
0.0
  3
SW_CENTERMARKSYMBOL_0
  1

  0
LINE
  5
11D
330
11A
100
AcDbEntity
  8
FORMAT
 62
     0
100
AcDbLine
 10
0.0
 20
0.0
 30
0.0
 11
0.0
 21
2.5
 31
0.0
  0
LINE
  5
11E
330
11A
100
AcDbEntity
  8
FORMAT
 62
     0
100
AcDbLine
 10
0.0
 20
0.0
 30
0.0
 11
-2.5
 21
0.0
 31
0.0
  0
LINE
  5
11F
330
11A
100
AcDbEntity
  8
FORMAT
 62
     0
100
AcDbLine
 10
0.0
 20
0.0
 30
0.0
 11
0.0
 21
-2.5
 31
0.0
  0
LINE
  5
120
330
11A
100
AcDbEntity
  8
FORMAT
 62
     0
100
AcDbLine
 10
0.0
 20
0.0
 30
0.0
 11
2.5
 21
0.0
 31
0.0
  0
LINE
  5
121
330
11A
100
AcDbEntity
  8
FORMAT
 62
     0
100
AcDbLine
 10
0.0
 20
5.0
 30
0.0
 11
0.0
 21
22.0247502105
 31
0.0
  0
LINE
  5
122
330
11A
100
AcDbEntity
  8
FORMAT
 62
     0
100
AcDbLine
 10
-5.0
 20
0.0
 30
0.0
 11
-19.484
 21
0.0
 31
0.0
  0
LINE
  5
123
330
11A
100
AcDbEntity
  8
FORMAT
 62
     0
100
AcDbLine
 10
0.0
 20
-5.0
 30
0.0
 11
0.0
 21
-22.0851527075
 31
0.0
  0
LINE
  5
124
330
11A
100
AcDbEntity
  8
FORMAT
 62
     0
100
AcDbLine
 10
5.0
 20
0.0
 30
0.0
 11
19.484
 21
0.0
 31
0.0
  0
ENDBLK
  5
11C
330
11A
100
AcDbEntity
  8
0
100
AcDbBlockEnd
  0
ENDSEC
  0
SECTION
  2
ENTITIES
  0
MTEXT
  5
65
330
1F
100
AcDbEntity
  8
FORMAT
100
AcDbMText
 10
172.8619388002
 20
112.1419456755
 30
0.0
 40
4.2333333333
 41
0.0
 71
     1
 72
     1
  1
5R-NB1486
  7
SLDTEXTSTYLE0
 73
     1
 44
1.0
  0
LINE
  5
66
330
1F
100
AcDbEntity
  8
0
  6
Continuous
 62
     7
370
    25
100
AcDbLine
 10
145.7946130877
 20
97.9544752634
 30
0.0
 11
144.0872385646
 21
94.9972158418
 31
0.0
  0
LINE
  5
67
330
1F
100
AcDbEntity
  8
0
  6
Continuous
 62
     7
370
    25
100
AcDbLine
 10
144.0872385646
 20
60.4972158418
 30
0.0
 11
145.7946130877
 21
57.5399564202
 31
0.0
  0
LINE
  5
68
330
1F
100
AcDbEntity
  8
0
  6
Continuous
 62
     7
370
    25
100
AcDbLine
 10
153.3798640414
 20
57.5399564202
 30
0.0
 11
155.0872385646
 21
60.4972158418
 31
0.0
  0
LINE
  5
69
330
1F
100
AcDbEntity
  8
0
  6
Continuous
 62
     7
370
    25
100
AcDbLine
 10
155.0872385646
 20
94.9972158418
 30
0.0
 11
153.3798640414
 21
97.9544752634
 31
0.0
  0
LINE
  5
6A
330
1F
100
AcDbEntity
  8
0
  6
Continuous
 62
     7
370
    25
100
AcDbLine
 10
144.0872385646
 20
94.7312158418
 30
0.0
 11
125.3769274759
 21
94.1465186203
 31
0.0
  0
LINE
  5
6B
330
1F
100
AcDbEntity
  8
0
  6
Continuous
 62
     7
370
    25
100
AcDbLine
 10
125.3769274759
 20
61.3479130633
 30
0.0
 11
144.0872385646
 21
60.7632158418
 31
0.0
  0
LINE
  5
6C
330
1F
100
AcDbEntity
  8
0
  6
Continuous
 62
     7
370
    25
100
AcDbLine
 10
125.3769274759
 20
94.1465186203
 30
0.0
 11
122.0872385646
 21
92.2472158418
 31
0.0
  0
LINE
  5
6D
330
1F
100
AcDbEntity
  8
0
  6
Continuous
 62
     7
370
    25
100
AcDbLine
 10
122.0872385646
 20
63.2472158418
 30
0.0
 11
125.3769274759
 21
61.3479130633
 31
0.0
  0
SPLINE
  5
6E
330
1F
100
AcDbEntity
  8
0
  6
Continuous
 62
     7
370
    25
100
AcDbSpline
210
0.0
220
0.0
230
1.0
 70
     8
 71
     3
 72
    18
 73
    14
 74
     0
 42
0.00000001
 43
0.00000001
 40
0.0
 40
0.0
 40
0.0
 40
0.0
 40
0.2499999999999999
 40
0.2499999999999999
 40
0.4999999999999998
 40
0.4999999999999998
 40
0.5624999999999998
 40
0.5624999999999998
 40
0.6249999999999998
 40
0.6249999999999998
 40
0.7499999999999998
 40
0.7499999999999998
 40
1.0
 40
1.0
 40
1.0
 40
1.0
 10
145.7946130877398
 20
57.53995642017039
 30
0.0
 10
145.3183766378464
 20
58.36482214780196
 30
0.0
 10
144.9258716637986
 20
59.19570162777653
 30
0.0
 10
144.3821249339747
 20
60.87478856659504
 30
0.0
 10
144.2326767612101
 20
61.72312484394994
 30
0.0
 10
144.2313086633145
 20
62.7968639929304
 30
0.0
 10
144.2402333363876
 20
63.01270027409844
 30
0.0
 10
144.2761924727837
 20
63.44241495721634
 30
0.0
 10
144.3031853505597
 20
63.65652580544039
 30
0.0
 10
144.4100336786492
 20
64.29671579031823
 30
0.0
 10
144.5158193055309
 20
64.72064735800045
 30
0.0
 10
144.9243063773448
 20
65.9848945470372
 30
0.0
 10
145.3177829253855
 20
66.8176920632097
 30
0.0
 10
145.7946130877399
 20
67.64358613098887
 30
0.0
  0
LINE
  5
6F
330
1F
100
AcDbEntity
  8
0
  6
Continuous
 62
     7
370
    25
100
AcDbLine
 10
145.7946130877
 20
67.643586131
 30
0.0
 11
153.3798640414
 21
67.643586131
 31
0.0
  0
SPLINE
  5
70
330
1F
100
AcDbEntity
  8
0
  6
Continuous
 62
     7
370
    25
100
AcDbSpline
210
0.0
220
0.0
230
1.0
 70
     8
 71
     3
 72
    18
 73
    14
 74
     0
 42
0.00000001
 43
0.00000001
 40
0.0
 40
0.0
 40
0.0
 40
0.0
 40
0.2499999999999999
 40
0.2499999999999999
 40
0.4999999999999998
 40
0.4999999999999998
 40
0.5624999999999998
 40
0.5624999999999998
 40
0.6249999999999998
 40
0.6249999999999998
 40
0.7499999999999998
 40
0.7499999999999998
 40
1.0
 40
1.0
 40
1.0
 40
1.0
 10
153.379864041449
 20
57.53995642017039
 30
0.0
 10
153.8561004913423
 20
58.36482214780196
 30
0.0
 10
154.2486054653901
 20
59.19570162777653
 30
0.0
 10
154.7923521952141
 20
60.87478856659504
 30
0.0
 10
154.9418003679786
 20
61.72312484394994
 30
0.0
 10
154.9431684658742
 20
62.7968639929304
 30
0.0
 10
154.9342437928012
 20
63.01270027409844
 30
0.0
 10
154.8982846564051
 20
63.44241495721634
 30
0.0
 10
154.8712917786291
 20
63.65652580544039
 30
0.0
 10
154.7644434505395
 20
64.29671579031823
 30
0.0
 10
154.6586578236579
 20
64.72064735800045
 30
0.0
 10
154.2501707518439
 20
65.9848945470372
 30
0.0
 10
153.8566942038033
 20
66.8176920632097
 30
0.0
 10
153.3798640414489
 20
67.64358613098887
 30
0.0
  0
LINE
  5
71
330
1F
100
AcDbEntity
  8
0
  6
Continuous
 62
     7
370
    25
100
AcDbLine
 10
145.7946130877
 20
57.5399564202
 30
0.0
 11
153.3798640414
 21
57.5399564202
 31
0.0
  0
SPLINE
  5
72
330
1F
100
AcDbEntity
  8
0
  6
Continuous
 62
     7
370
    25
100
AcDbSpline
210
0.0
220
0.0
230
1.0
 70
     8
 71
     3
 72
    14
 73
    10
 74
     0
 42
0.00000001
 43
0.00000001
 40
0.0
 40
0.0
 40
0.0
 40
0.0
 40
0.25
 40
0.25
 40
0.5
 40
0.5
 40
0.75
 40
0.75
 40
1.0
 40
1.0
 40
1.0
 40
1.0
 10
145.79461308774
 20
67.64358613098885
 30
0.0
 10
145.3198158233581
 20
69.28833210139702
 30
0.0
 10
144.9271618992815
 20
70.94825723004466
 30
0.0
 10
144.3820615802573
 20
74.31249511610474
 30
0.0
 10
144.231439066829
 20
76.01871685255458
 30
0.0
 10
144.2317133872861
 20
79.4805186283775
 30
0.0
 10
144.3823371617802
 20
81.18404496012344
 30
0.0
 10
144.9273228587795
 20
84.54675996836956
 30
0.0
 10
145.3198676715714
 20
86.2062791896969
 30
0.0
 10
145.79461308774
 20
87.85084555262576
 30
0.0
  0
LINE
  5
73
330
1F
100
AcDbEntity
  8
0
  6
Continuous
 62
     7
370
    25
100
AcDbLine
 10
145.7946130877
 20
87.8508455526
 30
0.0
 11
153.3798640414
 21
87.8508455526
 31
0.0
  0
SPLINE
  5
74
330
1F
100
AcDbEntity
  8
0
  6
Continuous
 62
     7
370
    25
100
AcDbSpline
210
0.0
220
0.0
230
1.0
 70
     8
 71
     3
 72
    14
 73
    10
 74
     0
 42
0.00000001
 43
0.00000001
 40
0.0
 40
0.0
 40
0.0
 40
0.0
 40
0.25
 40
0.25
 40
0.5
 40
0.5
 40
0.75
 40
0.75
 40
1.0
 40
1.0
 40
1.0
 40
1.0
 10
153.3798640414488
 20
67.64358613098885
 30
0.0
 10
153.8546613058306
 20
69.28833210139702
 30
0.0
 10
154.2473152299073
 20
70.94825723004466
 30
0.0
 10
154.7924155489314
 20
74.31249511610474
 30
0.0
 10
154.9430380623598
 20
76.01871685255458
 30
0.0
 10
154.9427637419026
 20
79.4805186283775
 30
0.0
 10
154.7921399674085
 20
81.18404496012344
 30
0.0
 10
154.2471542704093
 20
84.54675996836956
 30
0.0
 10
153.8546094576174
 20
86.2062791896969
 30
0.0
 10
153.3798640414488
 20
87.85084555262576
 30
0.0
  0
LINE
  5
75
330
1F
100
AcDbEntity
  8
0
  6
Continuous
 62
     7
370
    25
100
AcDbLine
 10
148.3474702248
 20
71.4819909838
 30
0.0
 11
150.9223736997
 21
71.4819909838
 31
0.0
  0
LINE
  5
76
330
1F
100
AcDbEntity
  8
0
  6
Continuous
 62
     7
370
    25
100
AcDbLine
 10
149.4628713402
 20
71.1256203274
 30
0.0
 11
148.3474702248
 21
71.1256203274
 31
0.0
  0
LINE
  5
77
330
1F
100
AcDbEntity
  8
0
  6
Continuous
 62
     7
370
    25
100
AcDbLine
 10
149.4628713402
 20
70.3426087444
 30
0.0
 11
149.4628713402
 21
71.1256203274
 31
0.0
  0
LINE
  5
78
330
1F
100
AcDbEntity
  8
0
  6
Continuous
 62
     7
370
    25
100
AcDbLine
 10
148.3474702248
 20
69.8005238023
 30
0.0
 11
149.4628713402
 21
70.3426087444
 31
0.0
  0
LINE
  5
79
330
1F
100
AcDbEntity
  8
0
  6
Continuous
 62
     7
370
    25
100
AcDbLine
 10
148.3474702248
 20
69.4240759259
 30
0.0
 11
148.3474702248
 21
69.8005238023
 31
0.0
  0
LINE
  5
7A
330
1F
100
AcDbEntity
  8
0
  6
Continuous
 62
     7
370
    25
100
AcDbLine
 10
149.5069296843
 20
70.0113346131
 30
0.0
 11
148.3474702248
 21
69.4240759259
 31
0.0
  0
SPLINE
  5
7B
330
1F
100
AcDbEntity
  8
0
  6
Continuous
 62
     7
370
    25
100
AcDbSpline
210
0.0
220
0.0
230
1.0
 70
     8
 71
     3
 72
    11
 73
     7
 74
     0
 42
0.00000001
 43
0.00000001
 40
0.0
 40
0.0
 40
0.0
 40
0.0
 40
0.2256209836966661
 40
0.4629707984282279
 40
0.7196090303667897
 40
1.0
 40
1.0
 40
1.0
 40
1.0
 10
149.6424509198067
 20
69.71017631195653
 30
0.0
 10
149.6256552247655
 20
69.72911741335277
 30
0.0
 10
149.591190716119
 20
69.7679842629376
 30
0.0
 10
149.5534914099588
 20
69.83975290018337
 30
0.0
 10
149.5231451814448
 20
69.92118188945126
 30
0.0
 10
149.5124919142521
 20
69.980410480712
 30
0.0
 10
149.5069296842855
 20
70.01133461311483
 30
0.0
  0
SPLINE
  5
7C
330
1F
100
AcDbEntity
  8
0
  6
Continuous
 62
     7
370
    25
100
AcDbSpline
210
0.0
220
0.0
230
1.0
 70
     8
 71
     3
 72
    15
 73
    11
 74
     0
 42
0.00000001
 43
0.00000001
 40
0.0
 40
0.0
 40
0.0
 40
0.0
 40
0.1423455204062214
 40
0.2780244263979214
 40
0.4068124412900596
 40
0.5301826523562196
 40
0.6505629722368654
 40
0.76779017533683
 40
0.8838874421453792
 40
1.0
 40
1.0
 40
1.0
 40
1.0
 10
150.1845358618917
 20
69.51442341620363
 30
0.0
 10
150.1564307168246
 20
69.51481857975756
 30
0.0
 10
150.1015367039057
 20
69.51559039976351
 30
0.0
 10
150.0217873797145
 20
69.52566775481081
 30
0.0
 10
149.9465121368544
 20
69.54003548096743
 30
0.0
 10
149.8763551208873
 20
69.56241431507428
 30
0.0
 10
149.8103141740949
 20
69.58934290521539
 30
0.0
 10
149.7489760860159
 20
69.62297986273181
 30
0.0
 10
149.692823613802
 20
69.66334896579043
 30
0.0
 10
149.6592425549108
 20
69.69456651134139
 30
0.0
 10
149.6424509198067
 20
69.71017631195653
 30
0.0
  0
SPLINE
  5
7D
330
1F
100
AcDbEntity
  8
0
  6
Continuous
 62
     7
370
    25
100
AcDbSpline
210
0.0
220
0.0
230
1.0
 70
     8
 71
     3
 72
    15
 73
    11
 74
     0
 42
0.00000001
 43
0.00000001
 40
0.0
 40
0.0
 40
0.0
 40
0.0
 40
0.1161090580639835
 40
0.2322028255427883
 40
0.3494264952551893
 40
0.468933628794335
 40
0.593199820590994
 40
0.7219839536369561
 40
0.8576587700816362
 40
1.0
 40
1.0
 40
1.0
 40
1.0
 10
150.7266208039766
 20
69.71017631195653
 30
0.0
 10
150.7098284946468
 20
69.69456821109706
 30
0.0
 10
150.676246087393
 20
69.66335406483361
 30
0.0
 10
150.6201037596808
 20
69.62295938699438
 30
0.0
 10
150.5588773075474
 20
69.58950386011476
 30
0.0
 10
150.4929948486371
 20
69.56216423524876
 30
0.0
 10
150.4227043505426
 20
69.54015812203042
 30
0.0
 10
150.3472928980784
 20
69.52564217366546
 30
0.0
 10
150.2675327097142
 20
69.51559730840985
 30
0.0
 10
150.2126402246921
 20
69.5148209191609
 30
0.0
 10
150.1845358618917
 20
69.51442341620363
 30
0.0
  0
SPLINE
  5
7E
330
1F
100
AcDbEntity
  8
0
  6
Continuous
 62
     7
370
    25
100
AcDbSpline
210
0.0
220
0.0
230
1.0
 70
     8
 71
     3
 72
    15
 73
    11
 74
     0
 42
0.00000001
 43
0.00000001
 40
0.0
 40
0.0
 40
0.0
 40
0.0
 40
0.1342477572737636
 40
0.263461772575685
 40
0.3884666271730294
 40
0.5118790511869588
 40
0.6324080741525876
 40
0.7535525248235473
 40
0.875508480528275
 40
1.0
 40
1.0
 40
1.0
 40
1.0
 10
150.9223736997295
 20
70.20708750886773
 30
0.0
 10
150.9219704773958
 20
70.18251100407517
 30
0.0
 10
150.9211791519171
 20
70.13427951292884
 30
0.0
 10
150.9110464592468
 20
70.06380553606932
 30
0.0
 10
150.8964103286463
 20
69.9962105491157
 30
0.0
 10
150.8744727793448
 20
69.93222999022902
 30
0.0
 10
150.8468864846236
 20
69.87132313669952
 30
0.0
 10
150.8135771270598
 20
69.81358510163568
 30
0.0
 10
150.7729342938383
 20
69.75979900693132
 30
0.0
 10
150.7421641596445
 20
69.72683027604988
 30
0.0
 10
150.7266208039766
 20
69.71017631195653
 30
0.0
  0
LINE
  5
7F
330
1F
100
AcDbEntity
  8
0
  6
Continuous
 62
     7
370
    25
100
AcDbLine
 10
150.9223736997
 20
71.4819909838
 30
0.0
 11
150.9223736997
 21
70.2070875089
 31
0.0
  0
SPLINE
  5
80
330
1F
100
AcDbEntity
  8
0
  6
Continuous
 62
     7
370
    25
100
AcDbSpline
210
0.0
220
0.0
230
1.0
 70
     8
 71
     3
 72
    23
 73
    19
 74
     0
 42
0.00000001
 43
0.00000001
 40
0.0
 40
0.0
 40
0.0
 40
0.0
 40
0.0441906106282861
 40
0.0897849017527575
 40
0.1375220657281904
 40
0.187079067401253
 40
0.2386344326447443
 40
0.292841115526398
 40
0.3496729339480913
 40
0.4094358303820871
 40
0.4719926205430656
 40
0.5377040045925532
 40
0.606060574370704
 40
0.6781604155713943
 40
0.7535848462545455
 40
0.8324062082865286
 40
0.9141977901571283
 40
1.0
 40
1.0
 40
1.0
 40
1.0
 10
148.528165205521
 20
73.23372843550865
 30
0.0
 10
148.5398756705662
 20
73.24490767999565
 30
0.0
 10
148.5636685745025
 20
73.2676212690062
 30
0.0
 10
148.6036617038017
 20
73.298406379184
 30
0.0
 10
148.6478857440203
 20
73.3264129438429
 30
0.0
 10
148.6951661537015
 20
73.35363547202829
 30
0.0
 10
148.7469716512472
 20
73.37723657644487
 30
0.0
 10
148.8021016035154
 20
73.39978270777436
 30
0.0
 10
148.8614793986935
 20
73.41952396679726
 30
0.0
 10
148.9243699402174
 20
73.43828906365265
 30
0.0
 10
148.9915737760725
 20
73.45342960290614
 30
0.0
 10
149.0621885030451
 20
73.46751664083659
 30
0.0
 10
149.136796422621
 20
73.47921568281059
 30
0.0
 10
149.215304133449
 20
73.4885827833266
 30
0.0
 10
149.2978859016497
 20
73.49584332241487
 30
0.0
 10
149.3841959102614
 20
73.50057089895687
 30
0.0
 10
149.4743666039041
 20
73.50421885147733
 30
0.0
 10
149.5357401943905
 20
73.50458397564064
 30
0.0
 10
149.5671613445172
 20
73.50477090655113
 30
0.0
  0
SPLINE
  5
81
330
1F
100
AcDbEntity
  8
0
  6
Continuous
 62
     7
370
    25
100
AcDbSpline
210
0.0
220
0.0
230
1.0
 70
     8
 71
     3
 72
    15
 73
    11
 74
     0
 42
0.00000001
 43
0.00000001
 40
0.0
 40
0.0
 40
0.0
 40
0.0
 40
0.119504086310742
 40
0.2383815255843716
 40
0.3571090773014073
 40
0.4777214423508232
 40
0.6009465942306377
 40
0.7281225224148418
 40
0.8606317931271521
 40
1.0
 40
1.0
 40
1.0
 40
1.0
 10
148.3022964796523
 20
72.73681723859745
 30
0.0
 10
148.3029014645734
 20
72.75916541525567
 30
0.0
 10
148.3041082620385
 20
72.80374458079116
 30
0.0
 10
148.315043651732
 20
72.86980864327573
 30
0.0
 10
148.3331847205461
 20
72.93435278058014
 30
0.0
 10
148.3576782163934
 20
72.997663366591
 30
0.0
 10
148.3897232362928
 20
73.05933092181361
 30
0.0
 10
148.4293070445884
 20
73.11905155790582
 30
0.0
 10
148.4750222939161
 20
73.17813104683862
 30
0.0
 10
148.510155454712
 20
73.21488688006238
 30
0.0
 10
148.528165205521
 20
73.23372843550865
 30
0.0
  0
SPLINE
  5
82
330
1F
100
AcDbEntity
  8
0
  6
Continuous
 62
     7
370
    25
100
AcDbSpline
210
0.0
220
0.0
230
1.0
 70
     8
 71
     3
 72
    15
 73
    11
 74
     0
 42
0.00000001
 43
0.00000001
 40
0.0
 40
0.0
 40
0.0
 40
0.0
 40
0.117108690557987
 40
0.233399329962063
 40
0.3506160626962312
 40
0.4711822020542313
 40
0.5946445890795223
 40
0.7237659205994503
 40
0.8581711095996144
 40
1.0
 40
1.0
 40
1.0
 40
1.0
 10
148.4829914603473
 20
72.23990604168625
 30
0.0
 10
148.4685128195109
 20
72.25540806617515
 30
0.0
 10
148.4396566769491
 20
72.28630382729693
 30
0.0
 10
148.4025779026461
 20
72.33807707327482
 30
0.0
 10
148.3719939326883
 20
72.3945103373298
 30
0.0
 10
148.3460495090016
 20
72.45466611984394
 30
0.0
 10
148.3268468878673
 20
72.51954135789265
 30
0.0
 10
148.3121430005995
 20
72.58809757044288
 30
0.0
 10
148.3038322210501
 20
72.66113743792779
 30
0.0
 10
148.3028174836975
 20
72.71114268014563
 30
0.0
 10
148.3022964796523
 20
72.73681723859745
 30
0.0
  0
SPLINE
  5
83
330
1F
100
AcDbEntity
  8
0
  6
Continuous
 62
     7
370
    25
100
AcDbSpline
210
0.0
220
0.0
230
1.0
 70
     8
 71
     3
 72
    15
 73
    11
 74
     0
 42
0.00000001
 43
0.00000001
 40
0.0
 40
0.0
 40
0.0
 40
0.0
 40
0.1476270724396861
 40
0.2864810592714898
 40
0.4181894659268069
 40
0.5428808841137348
 40
0.6619178330920032
 40
0.7770087505932002
 40
0.8893050437597241
 40
1.0
 40
1.0
 40
1.0
 40
1.0
 10
149.1907134680693
 20
71.99897940075962
 30
0.0
 10
149.1529490225157
 20
71.99973531923676
 30
0.0
 10
149.0796643723075
 20
72.00120223395963
 30
0.0
 10
148.9731278765764
 20
72.01233769742538
 30
0.0
 10
148.8737081954951
 20
72.03123417989558
 30
0.0
 10
148.7810670117724
 20
72.05711567722835
 30
0.0
 10
148.6957556037966
 20
72.09144520485061
 30
0.0
 10
148.6171573643477
 20
72.13264854153773
 30
0.0
 10
148.5455241662673
 20
72.18167962698709
 30
0.0
 10
148.5037356656164
 20
72.2205903782933
 30
0.0
 10
148.4829914603473
 20
72.23990604168625
 30
0.0
  0
SPLINE
  5
84
330
1F
100
AcDbEntity
  8
0
  6
Continuous
 62
     7
370
    25
100
AcDbSpline
210
0.0
220
0.0
230
1.0
 70
     8
 71
     3
 72
    15
 73
    11
 74
     0
 42
0.00000001
 43
0.00000001
 40
0.0
 40
0.0
 40
0.0
 40
0.0
 40
0.1094376231375981
 40
0.2200197609697443
 40
0.3343721928536024
 40
0.4529129170384311
 40
0.5777009796868825
 40
0.7100641746072381
 40
0.8508042784674905
 40
0.9999999999999999
 40
0.9999999999999999
 40
0.9999999999999999
 40
0.9999999999999999
 10
149.8683196456755
 20
72.22484812662834
 30
0.0
 10
149.8486827999433
 20
72.20664763504246
 30
0.0
 10
149.8092037434697
 20
72.17005630846347
 30
0.0
 10
149.7410907086656
 20
72.12439778792766
 30
0.0
 10
149.666733470602
 20
72.08522007200057
 30
0.0
 10
149.5851574174813
 20
72.05332955488856
 30
0.0
 10
149.4964870592009
 20
72.02907510289661
 30
0.0
 10
149.4008132973924
 20
72.01129971815439
 30
0.0
 10
149.298034004861
 20
72.00064909793662
 30
0.0
 10
149.2271758106953
 20
71.99954668333544
 30
0.0
 10
149.1907134680693
 20
71.99897940075962
 30
0.0
  0
SPLINE
  5
85
330
1F
100
AcDbEntity
  8
0
  6
Continuous
 62
     7
370
    25
100
AcDbSpline
210
0.0
220
0.0
230
1.0
 70
     8
 71
     3
 72
    15
 73
    11
 74
     0
 42
0.00000001
 43
0.00000001
 40
0.0
 40
0.0
 40
0.0
 40
0.0
 40
0.1328879382642808
 40
0.2611764415433332
 40
0.3862019221938192
 40
0.5075747214113127
 40
0.6293724124715379
 40
0.7508835925620005
 40
0.8736128964297314
 40
1.0
 40
1.0
 40
1.0
 40
1.0
 10
150.0490146263704
 20
72.6765855783658
 30
0.0
 10
150.0484827825387
 20
72.65444015984171
 30
0.0
 10
150.0474375027243
 20
72.61091580629878
 30
0.0
 10
150.0390777650962
 20
72.54695548883706
 30
0.0
 10
150.0243552807347
 20
72.48620708780994
 30
0.0
 10
150.0049466564303
 20
72.42788723055207
 30
0.0
 10
149.9789319079511
 20
72.37285880804131
 30
0.0
 10
149.9484689546247
 20
72.31991243769122
 30
0.0
 10
149.9111424487885
 20
72.27049566371657
 30
0.0
 10
149.8827329597819
 20
72.24021219068784
 30
0.0
 10
149.8683196456755
 20
72.22484812662834
 30
0.0
  0
SPLINE
  5
86
330
1F
100
AcDbEntity
  8
0
  6
Continuous
 62
     7
370
    25
100
AcDbSpline
210
0.0
220
0.0
230
1.0
 70
     8
 71
     3
 72
    15
 73
    11
 74
     0
 42
0.00000001
 43
0.00000001
 40
0.0
 40
0.0
 40
0.0
 40
0.0
 40
0.1277118540336126
 40
0.2523621141955311
 40
0.3748537650566255
 40
0.4969693854038488
 40
0.6192731655242173
 40
0.742485444301998
 40
0.86944787803766
 40
1.0
 40
1.0
 40
1.0
 40
1.0
 10
149.9134933908492
 20
73.00785970963993
 30
0.0
 10
149.924369546345
 20
72.99657209725378
 30
0.0
 10
149.945861126872
 20
72.97426746666527
 30
0.0
 10
149.9729150494878
 20
72.93699197993705
 30
0.0
 10
149.996856325781
 20
72.898491643884
 30
0.0
 10
150.0155752669057
 20
72.85748599645007
 30
0.0
 10
150.0308916639864
 20
72.81503520060475
 30
0.0
 10
150.0415129092104
 20
72.77052818040333
 30
0.0
 10
150.04762079791
 20
72.72416153927989
 30
0.0
 10
150.0485457191603
 20
72.69259092747019
 30
0.0
 10
150.0490146263704
 20
72.6765855783658
 30
0.0
  0
SPLINE
  5
87
330
1F
100
AcDbEntity
  8
0
  6
Continuous
 62
     7
370
    25
100
AcDbSpline
210
0.0
220
0.0
230
1.0
 70
     8
 71
     3
 72
    11
 73
     7
 74
     0
 42
0.00000001
 43
0.00000001
 40
0.0
 40
0.0
 40
0.0
 40
0.0
 40
0.2456044615709278
 40
0.4924340960494099
 40
0.7435400941223406
 40
1.0
 40
1.0
 40
1.0
 40
1.0
 10
149.7177404950963
 20
73.15843886021908
 30
0.0
 10
149.7352064645776
 20
73.14811575170732
 30
0.0
 10
149.7702255307547
 20
73.12741803890563
 30
0.0
 10
149.81987410602
 20
73.09119106965615
 30
0.0
 10
149.8681107551017
 20
73.05170794684129
 30
0.0
 10
149.8982598393873
 20
73.02257821082262
 30
0.0
 10
149.9134933908492
 20
73.00785970963993
 30
0.0
  0
SPLINE
  5
88
330
1F
100
AcDbEntity
  8
0
  6
Continuous
 62
     7
370
    25
100
AcDbSpline
210
0.0
220
0.0
230
1.0
 70
     8
 71
     3
 72
    15
 73
    11
 74
     0
 42
0.00000001
 43
0.00000001
 40
0.0
 40
0.0
 40
0.0
 40
0.0
 40
0.0964433484801642
 40
0.1980702687146758
 40
0.3069659373397296
 40
0.4243879496894928
 40
0.5513513962467962
 40
0.6889628351337208
 40
0.8385011961339891
 40
1.0
 40
1.0
 40
1.0
 40
1.0
 10
150.5609837383395
 20
72.91751221929243
 30
0.0
 10
150.5395692650769
 20
72.93695053657989
 30
0.0
 10
150.4955893479509
 20
72.97687192866303
 30
0.0
 10
150.4171983260257
 20
73.02575153251414
 30
0.0
 10
150.3278202048983
 20
73.06676496404373
 30
0.0
 10
150.2274511349047
 20
73.1007580069684
 30
0.0
 10
150.1158613496908
 20
73.12645937709797
 30
0.0
 10
149.9932266774447
 20
73.14532361270354
 30
0.0
 10
149.8592224100052
 20
73.15624110983191
 30
0.0
 10
149.7660948247948
 20
73.15768773420496
 30
0.0
 10
149.7177404950963
 20
73.15843886021908
 30
0.0
  0
SPLINE
  5
89
330
1F
100
AcDbEntity
  8
0
  6
Continuous
 62
     7
370
    25
100
AcDbSpline
210
0.0
220
0.0
230
1.0
 70
     8
 71
     3
 72
    11
 73
     7
 74
     0
 42
0.00000001
 43
0.00000001
 40
0.0
 40
0.0
 40
0.0
 40
0.0
 40
0.2600145085164591
 40
0.5081836035516316
 40
0.7509482378681027
 40
1.0
 40
1.0
 40
1.0
 40
1.0
 10
150.651331228687
 20
72.69164349342373
 30
0.0
 10
150.650311367437
 20
72.71332291919772
 30
0.0
 10
150.6483181064913
 20
72.75569412677238
 30
0.0
 10
150.6311627288736
 20
72.8163590356803
 30
0.0
 10
150.6023658283909
 20
72.87150841309666
 30
0.0
 10
150.5748948267412
 20
72.90204748529742
 30
0.0
 10
150.5609837383395
 20
72.91751221929243
 30
0.0
  0
SPLINE
  5
8A
330
1F
100
AcDbEntity
  8
0
  6
Continuous
 62
     7
370
    25
100
AcDbSpline
210
0.0
220
0.0
230
1.0
 70
     8
 71
     3
 72
    11
 73
     7
 74
     0
 42
0.00000001
 43
0.00000001
 40
0.0
 40
0.0
 40
0.0
 40
0.0
 40
0.2490517621319001
 40
0.4918163964483714
 40
0.7399854914835441
 40
1.0
 40
1.0
 40
1.0
 40
1.0
 10
150.5609837383395
 20
72.46577476755499
 30
0.0
 10
150.5748948267412
 20
72.48123950155001
 30
0.0
 10
150.6023658283909
 20
72.51177857375076
 30
0.0
 10
150.6311627288736
 20
72.56692795116712
 30
0.0
 10
150.6483181064913
 20
72.62759286007504
 30
0.0
 10
150.650311367437
 20
72.6699640676497
 30
0.0
 10
150.651331228687
 20
72.69164349342373
 30
0.0
  0
SPLINE
  5
8B
330
1F
100
AcDbEntity
  8
0
  6
Continuous
 62
     7
370
    25
100
AcDbSpline
210
0.0
220
0.0
230
1.0
 70
     8
 71
     3
 72
    15
 73
    11
 74
     0
 42
0.00000001
 43
0.00000001
 40
0.0
 40
0.0
 40
0.0
 40
0.0
 40
0.1575795759530248
 40
0.3051873770201202
 40
0.4403374772752379
 40
0.5671048604317469
 40
0.6842314239145112
 40
0.7956973262442281
 40
0.8993807647161679
 40
1.0
 40
1.0
 40
1.0
 40
1.0
 10
150.2598254371813
 20
72.37542727720749
 30
0.0
 10
150.2767463303282
 20
72.37584222368889
 30
0.0
 10
150.3095173475436
 20
72.37664585847149
 30
0.0
 10
150.3567362237862
 20
72.38012310353378
 30
0.0
 10
150.4001654033795
 20
72.38751737983152
 30
0.0
 10
150.4396517722546
 20
72.39754448596241
 30
0.0
 10
150.4759391495454
 20
72.40960653715194
 30
0.0
 10
150.5081865499574
 20
72.42511360255791
 30
0.0
 10
150.5367434130635
 20
72.44368454235652
 30
0.0
 10
150.5529848280612
 20
72.45848535508306
 30
0.0
 10
150.5609837383395
 20
72.46577476755499
 30
0.0
  0
LINE
  5
8C
330
1F
100
AcDbEntity
  8
0
  6
Continuous
 62
     7
370
    25
100
AcDbLine
 10
150.2598254372
 20
72.0290952309
 30
0.0
 11
150.2598254372
 21
72.3754272772
 31
0.0
  0
SPLINE
  5
8D
330
1F
100
AcDbEntity
  8
0
  6
Continuous
 62
     7
370
    25
100
AcDbSpline
210
0.0
220
0.0
230
1.0
 70
     8
 71
     3
 72
    15
 73
    11
 74
     0
 42
0.00000001
 43
0.00000001
 40
0.0
 40
0.0
 40
0.0
 40
0.0
 40
0.1244915194717258
 40
0.2464474751764532
 40
0.3675919258474112
 40
0.4881209488130426
 40
0.6115333728269708
 40
0.7365382274243155
 40
0.8657522427262367
 40
1.0
 40
1.0
 40
1.0
 40
1.0
 10
150.7567366340924
 20
72.22484812662834
 30
0.0
 10
150.7400826699991
 20
72.20930477096043
 30
0.0
 10
150.7071139391177
 20
72.17853463676668
 30
0.0
 10
150.6533278444133
 20
72.13789180354517
 30
0.0
 10
150.5955898093495
 20
72.10458244598132
 30
0.0
 10
150.53468295582
 20
72.0769961512601
 30
0.0
 10
150.4707023969333
 20
72.05505860195862
 30
0.0
 10
150.4031074099797
 20
72.04042247135814
 30
0.0
 10
150.3326334331202
 20
72.03028977868786
 30
0.0
 10
150.2844019419738
 20
72.02949845320917
 30
0.0
 10
150.2598254371813
 20
72.02909523087544
 30
0.0
  0
SPLINE
  5
8E
330
1F
100
AcDbEntity
  8
0
  6
Continuous
 62
     7
370
    25
100
AcDbSpline
210
0.0
220
0.0
230
1.0
 70
     8
 71
     3
 72
    15
 73
    11
 74
     0
 42
0.00000001
 43
0.00000001
 40
0.0
 40
0.0
 40
0.0
 40
0.0
 40
0.1356800108501678
 40
0.2668415897771091
 40
0.3926005974967497
 40
0.5157318537894203
 40
0.6360998884170284
 40
0.756095992954332
 40
0.8771413117267548
 40
1.0
 40
1.0
 40
1.0
 40
1.0
 10
150.9374316147874
 20
72.69164349342373
 30
0.0
 10
150.9368894341362
 20
72.66838612911913
 30
0.0
 10
150.9358231285986
 20
72.62264592003328
 30
0.0
 10
150.9276418091924
 20
72.55568767313589
 30
0.0
 10
150.9126180086029
 20
72.49223519741103
 30
0.0
 10
150.8937395892325
 20
72.43169016952282
 30
0.0
 10
150.8673303307979
 20
72.37511371161715
 30
0.0
 10
150.8368775760559
 20
72.32108908833925
 30
0.0
 10
150.7999047270166
 20
72.27060361699755
 30
0.0
 10
150.7711971431344
 20
72.2401753657391
 30
0.0
 10
150.7567366340924
 20
72.22484812662834
 30
0.0
  0
SPLINE
  5
8F
330
1F
100
AcDbEntity
  8
0
  6
Continuous
 62
     7
370
    25
100
AcDbSpline
210
0.0
220
0.0
230
1.0
 70
     8
 71
     3
 72
    15
 73
    11
 74
     0
 42
0.00000001
 43
0.00000001
 40
0.0
 40
0.0
 40
0.0
 40
0.0
 40
0.1263812889588904
 40
0.2491049464973157
 40
0.3706105362999215
 40
0.4913917559424293
 40
0.6138158455532666
 40
0.7388355742356968
 40
0.8671181754268779
 40
1.0
 40
1.0
 40
1.0
 40
1.0
 10
150.7567366340924
 20
73.14338094516117
 30
0.0
 10
150.7711478521468
 20
73.12801595114463
 30
0.0
 10
150.7995532097117
 20
73.09773064511592
 30
0.0
 10
150.8369099150225
 20
73.04832726976576
 30
0.0
 10
150.8671760027142
 20
72.99547710856602
 30
0.0
 10
150.8936320124132
 20
72.94063753659321
 30
0.0
 10
150.9126388575009
 20
72.88215947188701
 30
0.0
 10
150.9275201636418
 20
72.82128295035548
 30
0.0
 10
150.9358478015833
 20
72.75731079939597
 30
0.0
 10
150.9368975150766
 20
72.71378808032162
 30
0.0
 10
150.9374316147874
 20
72.69164349342373
 30
0.0
  0
SPLINE
  5
90
330
1F
100
AcDbEntity
  8
0
  6
Continuous
 62
     7
370
    25
100
AcDbSpline
210
0.0
220
0.0
230
1.0
 70
     8
 71
     3
 72
    23
 73
    19
 74
     0
 42
0.00000001
 43
0.00000001
 40
0.0
 40
0.0
 40
0.0
 40
0.0
 40
0.0796294701120216
 40
0.1566842067799501
 40
0.2308342243899714
 40
0.3025278065272982
 40
0.3715101076111978
 40
0.4382633308465718
 40
0.5024649722906295
 40
0.5646604536693953
 40
0.6245612367645356
 40
0.6823215461207702
 40
0.738511554278173
 40
0.7932995870703852
 40
0.846720510756645
 40
0.8985430522702744
 40
0.9498534420925907
 40
1.0
 40
1.0
 40
1.0
 40
1.0
 10
149.5671613445172
 20
73.50477090655113
 30
0.0
 10
149.600996700725
 20
73.50434671568162
 30
0.0
 10
149.6675733832156
 20
73.50351204969904
 30
0.0
 10
149.7656310971253
 20
73.49999777361097
 30
0.0
 10
149.8600516197272
 20
73.49229222938355
 30
0.0
 10
149.9509236412927
 20
73.48336412564925
 30
0.0
 10
150.0381229709491
 20
73.47026666594874
 30
0.0
 10
150.1216936680162
 20
73.45484690272808
 30
0.0
 10
150.2016948091634
 20
73.43637465099275
 30
0.0
 10
150.2780381486967
 20
73.41531997866292
 30
0.0
 10
150.3506562286724
 20
73.39137582299996
 30
0.0
 10
150.4195262211847
 20
73.36453371473283
 30
0.0
 10
150.4848563040456
 20
73.3349158344435
 30
0.0
 10
150.5469886320579
 20
73.30285128954705
 30
0.0
 10
150.6047930340716
 20
73.26692682146533
 30
0.0
 10
150.6594458765734
 20
73.22893704232169
 30
0.0
 10
150.7100970547965
 20
73.18784901503003
 30
0.0
 10
150.7413094554523
 20
73.15808984408365
 30
0.0
 10
150.7567366340924
 20
73.14338094516117
 30
0.0
  0
SPLINE
  5
91
330
1F
100
AcDbEntity
  8
0
  6
Continuous
 62
     7
370
    25
100
AcDbSpline
210
0.0
220
0.0
230
1.0
 70
     8
 71
     3
 72
    15
 73
    11
 74
     0
 42
0.00000001
 43
0.00000001
 40
0.0
 40
0.0
 40
0.0
 40
0.0
 40
0.1277537861028401
 40
0.2523881274276965
 40
0.3749507025098772
 40
0.4966307329499335
 40
0.6182353574560138
 40
0.7414944577527958
 40
0.8687927067128585
 40
1.0
 40
1.0
 40
1.0
 40
1.0
 10
149.8080879854438
 20
75.22137322315345
 30
0.0
 10
149.8219238462794
 20
75.2347260050405
 30
0.0
 10
149.8492577290093
 20
75.2611055255168
 30
0.0
 10
149.8949541342598
 20
75.29438506875726
 30
0.0
 10
149.9424952096194
 20
75.32304778233829
 30
0.0
 10
149.9922784163214
 20
75.34672026104631
 30
0.0
 10
150.0445546582237
 20
75.36450715411563
 30
0.0
 10
150.099076186329
 20
75.37739016187174
 30
0.0
 10
150.1560466319513
 20
75.38533984636382
 30
0.0
 10
150.1949207244802
 20
75.38644788948154
 30
0.0
 10
150.2146516920075
 20
75.3870102887905
 30
0.0
  0
SPLINE
  5
92
330
1F
100
AcDbEntity
  8
0
  6
Continuous
 62
     7
370
    25
100
AcDbSpline
210
0.0
220
0.0
230
1.0
 70
     8
 71
     3
 72
    11
 73
     7
 74
     0
 42
0.00000001
 43
0.00000001
 40
0.0
 40
0.0
 40
0.0
 40
0.0
 40
0.209297780612872
 40
0.4440196881627223
 40
0.7056818925799198
 40
1.0
 40
1.0
 40
1.0
 40
1.0
 10
149.6725667499226
 20
75.02562032740053
 30
0.0
 10
149.6785750378281
 20
75.04129553157283
 30
0.0
 10
149.6913214611988
 20
75.07455006130594
 30
0.0
 10
149.7222705107207
 20
75.12213372355313
 30
0.0
 10
149.7609050103561
 20
75.17227696971526
 30
0.0
 10
149.7917563028066
 20
75.20437928777018
 30
0.0
 10
149.8080879854438
 20
75.22137322315345
 30
0.0
  0
LINE
  5
93
330
1F
100
AcDbEntity
  8
0
  6
Continuous
 62
     7
370
    25
100
AcDbLine
 10
149.6424509198
 20
75.0256203274
 30
0.0
 11
149.6725667499
 21
75.0256203274
 31
0.0
  0
SPLINE
  5
94
330
1F
100
AcDbEntity
  8
0
  6
Continuous
 62
     7
370
    25
100
AcDbSpline
210
0.0
220
0.0
230
1.0
 70
     8
 71
     3
 72
    11
 73
     7
 74
     0
 42
0.00000001
 43
0.00000001
 40
0.0
 40
0.0
 40
0.0
 40
0.0
 40
0.2730973471020077
 40
0.5276266715073731
 40
0.7672178540063626
 40
1.0
 40
1.0
 40
1.0
 40
1.0
 10
149.4918717692276
 20
75.2816048833851
 30
0.0
 10
149.5106398996261
 20
75.26161059809831
 30
0.0
 10
149.5469001060239
 20
75.22298144879687
 30
0.0
 10
149.5906716265466
 20
75.15940669536903
 30
0.0
 10
149.6238445400069
 20
75.09400991612685
 30
0.0
 10
149.6363086814271
 20
75.04819673190046
 30
0.0
 10
149.6424509198067
 20
75.02562032740053
 30
0.0
  0
SPLINE
  5
95
330
1F
100
AcDbEntity
  8
0
  6
Continuous
 62
     7
370
    25
100
AcDbSpline
210
0.0
220
0.0
230
1.0
 70
     8
 71
     3
 72
    15
 73
    11
 74
     0
 42
0.00000001
 43
0.00000001
 40
0.0
 40
0.0
 40
0.0
 40
0.0
 40
0.1393528499704186
 40
0.2721672659958593
 40
0.3996369800758506
 40
0.522419380423086
 40
0.6433523706273658
 40
0.7619060577341114
 40
0.880497288563469
 40
1.0
 40
1.0
 40
1.0
 40
1.0
 10
149.0100184873743
 20
75.46229986408008
 30
0.0
 10
149.0345779719269
 20
75.46177291113517
 30
0.0
 10
149.0825446103297
 20
75.46074372987084
 30
0.0
 10
149.1526293010503
 20
75.45246845051132
 30
0.0
 10
149.2185697193206
 20
75.43768603352088
 30
0.0
 10
149.2812049657797
 20
75.41844843793987
 30
0.0
 10
149.3396646060005
 20
75.3924900601906
 30
0.0
 10
149.3949321721154
 20
75.36186149861716
 30
0.0
 10
149.446054270688
 20
75.32493842960054
 30
0.0
 10
149.4765603415337
 20
75.2960862165164
 30
0.0
 10
149.4918717692276
 20
75.2816048833851
 30
0.0
  0
SPLINE
  5
96
330
1F
100
AcDbEntity
  8
0
  6
Continuous
 62
     7
370
    25
100
AcDbSpline
210
0.0
220
0.0
230
1.0
 70
     8
 71
     3
 72
    15
 73
    11
 74
     0
 42
0.00000001
 43
0.00000001
 40
0.0
 40
0.0
 40
0.0
 40
0.0
 40
0.1290558124453277
 40
0.2537561262749727
 40
0.376491064692112
 40
0.4992690631939025
 40
0.6208079408516743
 40
0.7437423943369788
 40
0.8704610395548735
 40
1.0
 40
1.0
 40
1.0
 40
1.0
 10
148.4980493754052
 20
75.25148905326927
 30
0.0
 10
148.5157246715264
 20
75.26844931962475
 30
0.0
 10
148.5504787410215
 20
75.3017974610948
 30
0.0
 10
148.608186139995
 20
75.34413117992091
 30
0.0
 10
148.6681382750969
 20
75.38079579803346
 30
0.0
 10
148.7310149232654
 20
75.41097750219487
 30
0.0
 10
148.7968942305863
 20
75.43401288163209
 30
0.0
 10
148.8655260705098
 20
75.45002418860625
 30
0.0
 10
148.9368269504444
 20
75.46045545190097
 30
0.0
 10
148.9854429560187
 20
75.46168056557588
 30
0.0
 10
149.0100184873743
 20
75.46229986408008
 30
0.0
  0
SPLINE
  5
97
330
1F
100
AcDbEntity
  8
0
  6
Continuous
 62
     7
370
    25
100
AcDbSpline
210
0.0
220
0.0
230
1.0
 70
     8
 71
     3
 72
    15
 73
    11
 74
     0
 42
0.00000001
 43
0.00000001
 40
0.0
 40
0.0
 40
0.0
 40
0.0
 40
0.147401061150269
 40
0.2856974574838599
 40
0.417317025911133
 40
0.5418311731195041
 40
0.6607761138044993
 40
0.7757147634118137
 40
0.888613045543336
 40
1.0
 40
1.0
 40
1.0
 40
1.0
 10
148.3022964796523
 20
74.6792882810685
 30
0.0
 10
148.3026729576259
 20
74.70980913763337
 30
0.0
 10
148.3034026592916
 20
74.7689656393082
 30
0.0
 10
148.3135726030954
 20
74.85482830225837
 30
0.0
 10
148.3278081398301
 20
74.93529901711797
 30
0.0
 10
148.3499920724846
 20
75.00982300231435
 30
0.0
 10
148.3771138226542
 20
75.07896646794838
 30
0.0
 10
148.4107200349777
 20
75.14254512149456
 30
0.0
 10
148.4508816807936
 20
75.20041205626896
 30
0.0
 10
148.4823975996797
 20
75.23454004381767
 30
0.0
 10
148.4980493754052
 20
75.25148905326927
 30
0.0
  0
SPLINE
  5
98
330
1F
100
AcDbEntity
  8
0
  6
Continuous
 62
     7
370
    25
100
AcDbSpline
210
0.0
220
0.0
230
1.0
 70
     8
 71
     3
 72
    15
 73
    11
 74
     0
 42
0.00000001
 43
0.00000001
 40
0.0
 40
0.0
 40
0.0
 40
0.0
 40
0.1113869544566641
 40
0.2242852365881864
 40
0.3392238861955008
 40
0.4581688268804959
 40
0.5826829740888672
 40
0.7143025425161402
 40
0.8525989388497311
 40
1.0
 40
1.0
 40
1.0
 40
1.0
 10
148.4980493754052
 20
74.10708750886772
 30
0.0
 10
148.4823975996797
 20
74.12403651831933
 30
0.0
 10
148.4508816807936
 20
74.15816450586804
 30
0.0
 10
148.4107200349777
 20
74.21603144064242
 30
0.0
 10
148.3771138226542
 20
74.27961009418863
 30
0.0
 10
148.3499920724846
 20
74.34875355982267
 30
0.0
 10
148.3278081398301
 20
74.42327754501902
 30
0.0
 10
148.3135726030954
 20
74.50374825987863
 30
0.0
 10
148.3034026592916
 20
74.5896109228288
 30
0.0
 10
148.3026729576259
 20
74.64876742450365
 30
0.0
 10
148.3022964796523
 20
74.6792882810685
 30
0.0
  0
SPLINE
  5
99
330
1F
100
AcDbEntity
  8
0
  6
Continuous
 62
     7
370
    25
100
AcDbSpline
210
0.0
220
0.0
230
1.0
 70
     8
 71
     3
 72
    15
 73
    11
 74
     0
 42
0.00000001
 43
0.00000001
 40
0.0
 40
0.0
 40
0.0
 40
0.0
 40
0.1295508505393025
 40
0.2562811269808872
 40
0.3792268643473065
 40
0.501104648909013
 40
0.6234743780272042
 40
0.7462205820124123
 40
0.8709323418075804
 40
1.0
 40
1.0
 40
1.0
 40
1.0
 10
149.0100184873743
 20
73.89627669805691
 30
0.0
 10
148.9854409031828
 20
73.8968905719923
 30
0.0
 10
148.9368208366309
 20
73.89810495463303
 30
0.0
 10
148.8655496099548
 20
73.90861457593995
 30
0.0
 10
148.7967485525877
 20
73.92435298495805
 30
0.0
 10
148.731288949764
 20
73.94845063512211
 30
0.0
 10
148.667972521115
 20
73.97760355176983
 30
0.0
 10
148.6082126965931
 20
74.01450477144576
 30
0.0
 10
148.5504717851475
 20
74.05676354543519
 30
0.0
 10
148.5157223265212
 20
74.09012199831453
 30
0.0
 10
148.4980493754052
 20
74.10708750886772
 30
0.0
  0
SPLINE
  5
9A
330
1F
100
AcDbEntity
  8
0
  6
Continuous
 62
     7
370
    25
100
AcDbSpline
210
0.0
220
0.0
230
1.0
 70
     8
 71
     3
 72
    15
 73
    11
 74
     0
 42
0.00000001
 43
0.00000001
 40
0.0
 40
0.0
 40
0.0
 40
0.0
 40
0.1195027114365311
 40
0.2380939422658887
 40
0.3566476293726342
 40
0.4775806195769141
 40
0.6003630199241492
 40
0.7278327340041408
 40
0.8606471500295816
 40
1.0
 40
1.0
 40
1.0
 40
1.0
 10
149.4918717692276
 20
74.07697167875189
 30
0.0
 10
149.4765603415337
 20
74.0624903456206
 30
0.0
 10
149.446054270688
 20
74.03363813253647
 30
0.0
 10
149.3949321721154
 20
73.99671506351983
 30
0.0
 10
149.3396646060005
 20
73.96608650194642
 30
0.0
 10
149.2812049657797
 20
73.94012812419712
 30
0.0
 10
149.2185697193206
 20
73.92089052861613
 30
0.0
 10
149.1526293010503
 20
73.90610811162568
 30
0.0
 10
149.0825446103297
 20
73.89783283226616
 30
0.0
 10
149.0345779719269
 20
73.89680365100182
 30
0.0
 10
149.0100184873743
 20
73.89627669805691
 30
0.0
  0
SPLINE
  5
9B
330
1F
100
AcDbEntity
  8
0
  6
Continuous
 62
     7
370
    25
100
AcDbSpline
210
0.0
220
0.0
230
1.0
 70
     8
 71
     3
 72
    11
 73
     7
 74
     0
 42
0.00000001
 43
0.00000001
 40
0.0
 40
0.0
 40
0.0
 40
0.0
 40
0.2327821459936375
 40
0.4723733284926269
 40
0.7269026528979924
 40
1.0
 40
1.0
 40
1.0
 40
1.0
 10
149.6424509198067
 20
74.33295623473646
 30
0.0
 10
149.6363086814271
 20
74.31037983023654
 30
0.0
 10
149.6238445400069
 20
74.26456664601015
 30
0.0
 10
149.5906716265466
 20
74.19916986676799
 30
0.0
 10
149.5469001060239
 20
74.13559511334013
 30
0.0
 10
149.5106398996261
 20
74.09696596403869
 30
0.0
 10
149.4918717692276
 20
74.07697167875189
 30
0.0
  0
LINE
  5
9C
330
1F
100
AcDbEntity
  8
0
  6
Continuous
 62
     7
370
    25
100
AcDbLine
 10
149.6725667499
 20
74.3329562347
 30
0.0
 11
149.6424509198
 21
74.3329562347
 31
0.0
  0
SPLINE
  5
9D
330
1F
100
AcDbEntity
  8
0
  6
Continuous
 62
     7
370
    25
100
AcDbSpline
210
0.0
220
0.0
230
1.0
 70
     8
 71
     3
 72
    11
 73
     7
 74
     0
 42
0.00000001
 43
0.00000001
 40
0.0
 40
0.0
 40
0.0
 40
0.0
 40
0.2487470629387109
 40
0.4976060858529048
 40
0.7454415990539021
 40
0.9999999999999999
 40
0.9999999999999999
 40
0.9999999999999999
 40
0.9999999999999999
 10
149.7779721553279
 20
74.15226125404146
 30
0.0
 10
149.766105207602
 20
74.16518259005274
 30
0.0
 10
149.7423659708882
 20
74.19103107791265
 30
0.0
 10
149.712938526235
 20
74.23474570972985
 30
0.0
 10
149.6889361020091
 20
74.28213248298493
 30
0.0
 10
149.6780716621985
 20
74.31586452008285
 30
0.0
 10
149.6725667499226
 20
74.33295623473646
 30
0.0
  0
SPLINE
  5
9E
330
1F
100
AcDbEntity
  8
0
  6
Continuous
 62
     7
370
    25
100
AcDbSpline
210
0.0
220
0.0
230
1.0
 70
     8
 71
     3
 72
    15
 73
    11
 74
     0
 42
0.00000001
 43
0.00000001
 40
0.0
 40
0.0
 40
0.0
 40
0.0
 40
0.1299113129690334
 40
0.2551436434037571
 40
0.3782673290843511
 40
0.4999523087047299
 40
0.6222158812656398
 40
0.7453234951064157
 40
0.8707452845457336
 40
1.0
 40
1.0
 40
1.0
 40
1.0
 10
150.2146516920075
 20
73.97156627334648
 30
0.0
 10
150.1936203819142
 20
73.97209595339284
 30
0.0
 10
150.1523152410445
 20
73.97313623613479
 30
0.0
 10
150.0914994827477
 20
73.98153776998588
 30
0.0
 10
150.033409188169
 20
73.99641158669442
 30
0.0
 10
149.9770634254939
 20
74.01561836253718
 30
0.0
 10
149.9236029385341
 20
74.04179029098837
 30
0.0
 10
149.8718126219227
 20
74.07227085877754
 30
0.0
 10
149.8230441502424
 20
74.10944166411772
 30
0.0
 10
149.7931461437115
 20
74.13784556284958
 30
0.0
 10
149.7779721553279
 20
74.15226125404146
 30
0.0
  0
SPLINE
  5
9F
330
1F
100
AcDbEntity
  8
0
  6
Continuous
 62
     7
370
    25
100
AcDbSpline
210
0.0
220
0.0
230
1.0
 70
     8
 71
     3
 72
    15
 73
    11
 74
     0
 42
0.00000001
 43
0.00000001
 40
0.0
 40
0.0
 40
0.0
 40
0.0
 40
0.1190175566788506
 40
0.2372370543807517
 40
0.3548673391635886
 40
0.4755888455761296
 40
0.5992829081147947
 40
0.7265630484102545
 40
0.8598843047151137
 40
1.0
 40
1.0
 40
1.0
 40
1.0
 10
150.7416787190346
 20
74.16731916909939
 30
0.0
 10
150.7248761142361
 20
74.15172143765375
 30
0.0
 10
150.691383572635
 20
74.1206305636143
 30
0.0
 10
150.6359315367918
 20
74.08043403934234
 30
0.0
 10
150.5761121115172
 20
74.04645888700811
 30
0.0
 10
150.5117006214951
 20
74.01955709841162
 30
0.0
 10
150.4435564748357
 20
73.99733635621918
 30
0.0
 10
150.3709130922504
 20
73.98282739068496
 30
0.0
 10
150.2943159693988
 20
73.97272772748042
 30
0.0
 10
150.2416427309971
 20
73.97195978540535
 30
0.0
 10
150.2146516920075
 20
73.97156627334648
 30
0.0
  0
SPLINE
  5
A0
330
1F
100
AcDbEntity
  8
0
  6
Continuous
 62
     7
370
    25
100
AcDbSpline
210
0.0
220
0.0
230
1.0
 70
     8
 71
     3
 72
    15
 73
    11
 74
     0
 42
0.00000001
 43
0.00000001
 40
0.0
 40
0.0
 40
0.0
 40
0.0
 40
0.1367625375912039
 40
0.2685728084152054
 40
0.3952257228126164
 40
0.5183084604466276
 40
0.6384758419271773
 40
0.7582466910205611
 40
0.8786831316695053
 40
1.0
 40
1.0
 40
1.0
 40
1.0
 10
150.9374316147874
 20
74.6792882810685
 30
0.0
 10
150.9370271336413
 20
74.65359777228105
 30
0.0
 10
150.9362328178931
 20
74.60314702592763
 30
0.0
 10
150.9261253131958
 20
74.5295225692298
 30
0.0
 10
150.9116496212221
 20
74.45928251620163
 30
0.0
 10
150.8894963093249
 20
74.39332405737593
 30
0.0
 10
150.8621142255514
 20
74.33082922899959
 30
0.0
 10
150.8285983941743
 20
74.27191669877288
 30
0.0
 10
150.7883426667962
 20
74.21704820447698
 30
0.0
 10
150.7572710875632
 20
74.18393571106327
 30
0.0
 10
150.7416787190346
 20
74.16731916909939
 30
0.0
  0
SPLINE
  5
A1
330
1F
100
AcDbEntity
  8
0
  6
Continuous
 62
     7
370
    25
100
AcDbSpline
210
0.0
220
0.0
230
1.0
 70
     8
 71
     3
 72
    15
 73
    11
 74
     0
 42
0.00000001
 43
0.00000001
 40
0.0
 40
0.0
 40
0.0
 40
0.0
 40
0.1171086905579875
 40
0.2333993299620634
 40
0.3506160626962321
 40
0.4711822020542322
 40
0.5946445890795227
 40
0.7237659205994512
 40
0.8581711095996136
 40
1.0
 40
1.0
 40
1.0
 40
1.0
 10
150.7567366340924
 20
75.1761994779797
 30
0.0
 10
150.7712152749288
 20
75.1606974534908
 30
0.0
 10
150.8000714174906
 20
75.12980169236901
 30
0.0
 10
150.8371501917936
 20
75.07802844639114
 30
0.0
 10
150.8677341617514
 20
75.02159518233614
 30
0.0
 10
150.8936785854381
 20
74.96143939982201
 30
0.0
 10
150.9128812065724
 20
74.8965641617733
 30
0.0
 10
150.9275850938402
 20
74.82800794922309
 30
0.0
 10
150.9358958733896
 20
74.75496808173817
 30
0.0
 10
150.9369106107423
 20
74.70496283952033
 30
0.0
 10
150.9374316147874
 20
74.6792882810685
 30
0.0
  0
SPLINE
  5
A2
330
1F
100
AcDbEntity
  8
0
  6
Continuous
 62
     7
370
    25
100
AcDbSpline
210
0.0
220
0.0
230
1.0
 70
     8
 71
     3
 72
    15
 73
    11
 74
     0
 42
0.00000001
 43
0.00000001
 40
0.0
 40
0.0
 40
0.0
 40
0.0
 40
0.1354445824934146
 40
0.2662567558803001
 40
0.3914793001254337
 40
0.5142572831105973
 40
0.635370959795744
 40
0.7562290499621889
 40
0.8764476079351725
 40
1.0
 40
1.0
 40
1.0
 40
1.0
 10
150.2146516920075
 20
75.3870102887905
 30
0.0
 10
150.2416405021513
 20
75.3863982917487
 30
0.0
 10
150.2946950644061
 20
75.38519522888741
 30
0.0
 10
150.3721342586634
 20
75.37484562843262
 30
0.0
 10
150.4459268761742
 20
75.35875269089706
 30
0.0
 10
150.5160458937561
 20
75.33608580393545
 30
0.0
 10
150.5820779093056
 20
75.30544178484976
 30
0.0
 10
150.644626258033
 20
75.26933859786682
 30
0.0
 10
150.7036504519552
 20
75.22664461778098
 30
0.0
 10
150.738880636292
 20
75.1931671382836
 30
0.0
 10
150.7567366340924
 20
75.1761994779797
 30
0.0
  0
LINE
  5
A3
330
1F
100
AcDbEntity
  8
0
  6
Continuous
 62
     7
370
    25
100
AcDbLine
 10
148.9960759734
 20
77.4348867367
 30
0.0
 11
149.2961188735
 21
77.4348867367
 31
0.0
  0
LINE
  5
A4
330
1F
100
AcDbEntity
  8
0
  6
Continuous
 62
     7
370
    25
100
AcDbLine
 10
148.9960759734
 20
76.4360450378
 30
0.0
 11
148.9960759734
 21
77.4348867367
 31
0.0
  0
LINE
  5
A5
330
1F
100
AcDbEntity
  8
0
  6
Continuous
 62
     7
370
    25
100
AcDbLine
 10
148.3324123098
 20
76.4360450378
 30
0.0
 11
148.9960759734
 21
76.4360450378
 31
0.0
  0
LINE
  5
A6
330
1F
100
AcDbEntity
  8
0
  6
Continuous
 62
     7
370
    25
100
AcDbLine
 10
148.3324123098
 20
76.0796743815
 30
0.0
 11
148.3324123098
 21
76.4360450378
 31
0.0
  0
LINE
  5
A7
330
1F
100
AcDbEntity
  8
0
  6
Continuous
 62
     7
370
    25
100
AcDbLine
 10
148.9960759734
 20
76.0796743815
 30
0.0
 11
148.3324123098
 21
76.0796743815
 31
0.0
  0
LINE
  5
A8
330
1F
100
AcDbEntity
  8
0
  6
Continuous
 62
     7
370
    25
100
AcDbLine
 10
148.9960759734
 20
75.7634581652
 30
0.0
 11
148.9960759734
 21
76.0796743815
 31
0.0
  0
LINE
  5
A9
330
1F
100
AcDbEntity
  8
0
  6
Continuous
 62
     7
370
    25
100
AcDbLine
 10
149.2810609584
 20
75.7634581652
 30
0.0
 11
148.9960759734
 21
75.7634581652
 31
0.0
  0
LINE
  5
AA
330
1F
100
AcDbEntity
  8
0
  6
Continuous
 62
     7
370
    25
100
AcDbLine
 10
149.2810609584
 20
76.0796743815
 30
0.0
 11
149.2810609584
 21
75.7634581652
 31
0.0
  0
LINE
  5
AB
330
1F
100
AcDbEntity
  8
0
  6
Continuous
 62
     7
370
    25
100
AcDbLine
 10
150.9374316148
 20
76.0796743815
 30
0.0
 11
149.2810609584
 21
76.0796743815
 31
0.0
  0
SPLINE
  5
AC
330
1F
100
AcDbEntity
  8
0
  6
Continuous
 62
     7
370
    25
100
AcDbSpline
210
0.0
220
0.0
230
1.0
 70
     8
 71
     3
 72
    15
 73
    11
 74
     0
 42
0.00000001
 43
0.00000001
 40
0.0
 40
0.0
 40
0.0
 40
0.0
 40
0.141803257205507
 40
0.2768956124422272
 40
0.4056005815718938
 40
0.5283792299702863
 40
0.6485398625937333
 40
0.7671999810702801
 40
0.8821728056706521
 40
1.0
 40
1.0
 40
1.0
 40
1.0
 10
150.5308679082237
 20
78.95573615751637
 30
0.0
 10
150.5310416345257
 20
78.93860434834849
 30
0.0
 10
150.5313808654555
 20
78.90515150047126
 30
0.0
 10
150.538311546582
 20
78.85663508248103
 30
0.0
 10
150.5463421852096
 20
78.81059944811324
 30
0.0
 10
150.5604587609147
 20
78.76793646428561
 30
0.0
 10
150.5766735793179
 20
78.72733066012005
 30
0.0
 10
150.5982374842013
 20
78.69037796361674
 30
0.0
 10
150.622255175888
 20
78.65528937752877
 30
0.0
 10
150.6415603107608
 20
78.6348214626275
 30
0.0
 10
150.651331228687
 20
78.62446202624226
 30
0.0
  0
LINE
  5
AD
330
1F
100
AcDbEntity
  8
0
  6
Continuous
 62
     7
370
    25
100
AcDbLine
 10
150.5308679082
 20
79.091257393
 30
0.0
 11
150.5308679082
 21
78.9557361575
 31
0.0
  0
LINE
  5
AE
330
1F
100
AcDbEntity
  8
0
  6
Continuous
 62
     7
370
    25
100
AcDbLine
 10
150.3529614303
 20
79.091257393
 30
0.0
 11
150.5308679082
 21
79.091257393
 31
0.0
  0
LINE
  5
AF
330
1F
100
AcDbEntity
  8
0
  6
Continuous
 62
     7
370
    25
100
AcDbLine
 10
150.3529614303
 20
78.6495585513
 30
0.0
 11
150.3529614303
 21
79.091257393
 31
0.0
  0
LINE
  5
B0
330
1F
100
AcDbEntity
  8
0
  6
Continuous
 62
     7
370
    25
100
AcDbLine
 10
148.3474702248
 20
78.6495585513
 30
0.0
 11
150.3529614303
 21
78.6495585513
 31
0.0
  0
LINE
  5
B1
330
1F
100
AcDbEntity
  8
0
  6
Continuous
 62
     7
370
    25
100
AcDbLine
 10
148.3474702248
 20
78.293187895
 30
0.0
 11
148.3474702248
 21
78.6495585513
 31
0.0
  0
LINE
  5
B2
330
1F
100
AcDbEntity
  8
0
  6
Continuous
 62
     7
370
    25
100
AcDbLine
 10
150.9524895298
 20
78.293187895
 30
0.0
 11
148.3474702248
 21
78.293187895
 31
0.0
  0
SPLINE
  5
B3
330
1F
100
AcDbEntity
  8
0
  6
Continuous
 62
     7
370
    25
100
AcDbSpline
210
0.0
220
0.0
230
1.0
 70
     8
 71
     3
 72
    11
 73
     7
 74
     0
 42
0.00000001
 43
0.00000001
 40
0.0
 40
0.0
 40
0.0
 40
0.0
 40
0.2682823389612932
 40
0.5197997967341373
 40
0.7604656312619605
 40
1.0
 40
1.0
 40
1.0
 40
1.0
 10
150.651331228687
 20
78.62446202624226
 30
0.0
 10
150.6739096388058
 20
78.6035368093156
 30
0.0
 10
150.7176555411105
 20
78.5629939858588
 30
0.0
 10
150.7925152451041
 20
78.51765157816443
 30
0.0
 10
150.8706751460631
 20
78.48570547480162
 30
0.0
 10
150.9252609409526
 20
78.47781754676497
 30
0.0
 10
150.9524895298453
 20
78.4738828756631
 30
0.0
  0
LINE
  5
B4
330
1F
100
AcDbEntity
  8
0
  6
Continuous
 62
     7
370
    25
100
AcDbLine
 10
149.528680006
 20
81.3198288216
 30
0.0
 11
149.7779721553
 21
81.3198288216
 31
0.0
  0
LINE
  5
B5
330
1F
100
AcDbEntity
  8
0
  6
Continuous
 62
     7
370
    25
100
AcDbLine
 10
149.528680006
 20
79.603226505
 30
0.0
 11
149.528680006
 21
81.3198288216
 31
0.0
  0
LINE
  5
B6
330
1F
100
AcDbEntity
  8
0
  6
Continuous
 62
     7
370
    25
100
AcDbLine
 10
149.7779721553
 20
79.603226505
 30
0.0
 11
149.528680006
 21
79.603226505
 31
0.0
  0
LINE
  5
B7
330
1F
100
AcDbEntity
  8
0
  6
Continuous
 62
     7
370
    25
100
AcDbLine
 10
149.7779721553
 20
81.3198288216
 30
0.0
 11
149.7779721553
 21
79.603226505
 31
0.0
  0
LINE
  5
B8
330
1F
100
AcDbEntity
  8
0
  6
Continuous
 62
     7
370
    25
100
AcDbLine
 10
148.3335277109
 20
83.6420939439
 30
0.0
 11
150.9073157847
 21
83.6420939439
 31
0.0
  0
LINE
  5
B9
330
1F
100
AcDbEntity
  8
0
  6
Continuous
 62
     7
370
    25
100
AcDbLine
 10
148.3335277109
 20
82.4424800443
 30
0.0
 11
148.3335277109
 21
83.6420939439
 31
0.0
  0
SPLINE
  5
BA
330
1F
100
AcDbEntity
  8
0
  6
Continuous
 62
     7
370
    25
100
AcDbSpline
210
0.0
220
0.0
230
1.0
 70
     8
 71
     3
 72
    15
 73
    11
 74
     0
 42
0.00000001
 43
0.00000001
 40
0.0
 40
0.0
 40
0.0
 40
0.0
 40
0.108627746915249
 40
0.2195300404679353
 40
0.3340583594962493
 40
0.4525037346025803
 40
0.578166032102879
 40
0.7098017975268059
 40
0.8504665399585419
 40
1.0
 40
1.0
 40
1.0
 40
1.0
 10
148.5131072904631
 20
81.90039510217532
 30
0.0
 10
148.4987864725107
 20
81.9160694186394
 30
0.0
 10
148.4698449742848
 20
81.94774625467238
 30
0.0
 10
148.4328581374848
 20
82.00178647839242
 30
0.0
 10
148.4024226743256
 20
82.06180607016773
 30
0.0
 10
148.3772330858621
 20
82.12725666546856
 30
0.0
 10
148.3571279136027
 20
82.19794919687986
 30
0.0
 10
148.3434639859813
 20
82.27454987302195
 30
0.0
 10
148.3349977041575
 20
82.35658796709984
 30
0.0
 10
148.3340275911497
 20
82.41327191443285
 30
0.0
 10
148.3335277108835
 20
82.44248004426026
 30
0.0
  0
SPLINE
  5
BB
330
1F
100
AcDbEntity
  8
0
  6
Continuous
 62
     7
370
    25
100
AcDbSpline
210
0.0
220
0.0
230
1.0
 70
     8
 71
     3
 72
    15
 73
    11
 74
     0
 42
0.00000001
 43
0.00000001
 40
0.0
 40
0.0
 40
0.0
 40
0.0
 40
0.1319114978615547
 40
0.2585593955794499
 40
0.3829282045992124
 40
0.5051155152535451
 40
0.6266776175559873
 40
0.7489849223246634
 40
0.8728415720964474
 40
1.0
 40
1.0
 40
1.0
 40
1.0
 10
149.070250147606
 20
81.67452637630659
 30
0.0
 10
149.0430726225341
 20
81.6750967813197
 30
0.0
 10
148.9898020239143
 20
81.67621483075294
 30
0.0
 10
148.9115241007483
 20
81.68717375529586
 30
0.0
 10
148.8366782243508
 20
81.70503772550022
 30
0.0
 10
148.7648056434778
 20
81.72954221274425
 30
0.0
 10
148.696349855355
 20
81.76150130477689
 30
0.0
 10
148.6315826410064
 20
81.80092979840589
 30
0.0
 10
148.5695138085636
 20
81.84660055831552
 30
0.0
 10
148.5320736222112
 20
81.88230703009705
 30
0.0
 10
148.5131072904631
 20
81.90039510217532
 30
0.0
  0
SPLINE
  5
BC
330
1F
100
AcDbEntity
  8
0
  6
Continuous
 62
     7
370
    25
100
AcDbSpline
210
0.0
220
0.0
230
1.0
 70
     8
 71
     3
 72
    15
 73
    11
 74
     0
 42
0.00000001
 43
0.00000001
 40
0.0
 40
0.0
 40
0.0
 40
0.0
 40
0.1263812889588914
 40
0.2491049464973162
 40
0.3706105362999224
 40
0.4913917559424307
 40
0.6138158455532661
 40
0.7388355742356973
 40
0.8671181754268789
 40
1.0
 40
1.0
 40
1.0
 40
1.0
 10
149.5219875993434
 20
81.85522135700157
 30
0.0
 10
149.5066226053269
 20
81.84081013894722
 30
0.0
 10
149.4763372992982
 20
81.81240478138228
 30
0.0
 10
149.426933923948
 20
81.7750480760715
 30
0.0
 10
149.3740837627483
 20
81.74478198837984
 30
0.0
 10
149.3192441907755
 20
81.71832597868081
 30
0.0
 10
149.2607661260693
 20
81.69931913359316
 30
0.0
 10
149.1998896045377
 20
81.68443782745219
 30
0.0
 10
149.1359174535782
 20
81.67611018951071
 30
0.0
 10
149.0923947345039
 20
81.67506047601739
 30
0.0
 10
149.070250147606
 20
81.67452637630659
 30
0.0
  0
SPLINE
  5
BD
330
1F
100
AcDbEntity
  8
0
  6
Continuous
 62
     7
370
    25
100
AcDbSpline
210
0.0
220
0.0
230
1.0
 70
     8
 71
     3
 72
    11
 73
     7
 74
     0
 42
0.00000001
 43
0.00000001
 40
0.0
 40
0.0
 40
0.0
 40
0.0
 40
0.2758864184465405
 40
0.53100768777131
 40
0.7722766677115237
 40
1.0
 40
1.0
 40
1.0
 40
1.0
 10
149.6876246649805
 20
82.14132174310195
 30
0.0
 10
149.6772844819169
 20
82.11242911720657
 30
0.0
 10
149.6573823905757
 20
82.0568185273242
 30
0.0
 10
149.6182880851409
 20
81.98020778486791
 30
0.0
 10
149.5741883330359
 20
81.91254414984664
 30
0.0
 10
149.5390495458031
 20
81.8739574619039
 30
0.0
 10
149.5219875993434
 20
81.85522135700157
 30
0.0
  0
SPLINE
  5
BE
330
1F
100
AcDbEntity
  8
0
  6
Continuous
 62
     7
370
    25
100
AcDbSpline
210
0.0
220
0.0
230
1.0
 70
     8
 71
     3
 72
    11
 73
     7
 74
     0
 42
0.00000001
 43
0.00000001
 40
0.0
 40
0.0
 40
0.0
 40
0.0
 40
0.2409277974217348
 40
0.4854864172424156
 40
0.7380410464993924
 40
1.0
 40
1.0
 40
1.0
 40
1.0
 10
149.8231459005017
 20
81.91545301723325
 30
0.0
 10
149.8086055056833
 20
81.93109941724275
 30
0.0
 10
149.7793055898528
 20
81.96262801113954
 30
0.0
 10
149.7423928313392
 20
82.01687317115459
 30
0.0
 10
149.7117447913857
 20
82.07688521770078
 30
0.0
 10
149.6957620848844
 20
82.11958275817578
 30
0.0
 10
149.6876246649805
 20
82.14132174310195
 30
0.0
  0
SPLINE
  5
BF
330
1F
100
AcDbEntity
  8
0
  6
Continuous
 62
     7
370
    25
100
AcDbSpline
210
0.0
220
0.0
230
1.0
 70
     8
 71
     3
 72
    15
 73
    11
 74
     0
 42
0.00000001
 43
0.00000001
 40
0.0
 40
0.0
 40
0.0
 40
0.0
 40
0.1312072932871416
 40
0.2585055422472045
 40
0.3817646425439864
 40
0.5033692670500663
 40
0.625049297490124
 40
0.7476118725723041
 40
0.87224621389716
 40
1.0
 40
1.0
 40
1.0
 40
1.0
 10
150.2297096070654
 20
81.74981595159616
 30
0.0
 10
150.2099786395381
 20
81.75037835090514
 30
0.0
 10
150.1711045470092
 20
81.75148639402285
 30
0.0
 10
150.1141341013869
 20
81.75943607851494
 30
0.0
 10
150.0596125732816
 20
81.77231908627104
 30
0.0
 10
150.0073363313793
 20
81.79010597934037
 30
0.0
 10
149.9575531246773
 20
81.81377845804838
 30
0.0
 10
149.9100120493177
 20
81.8424411716294
 30
0.0
 10
149.8643156440672
 20
81.87572071486989
 30
0.0
 10
149.8369817613373
 20
81.90210023534618
 30
0.0
 10
149.8231459005017
 20
81.91545301723325
 30
0.0
  0
SPLINE
  5
C0
330
1F
100
AcDbEntity
  8
0
  6
Continuous
 62
     7
370
    25
100
AcDbSpline
210
0.0
220
0.0
230
1.0
 70
     8
 71
     3
 72
    15
 73
    11
 74
     0
 42
0.00000001
 43
0.00000001
 40
0.0
 40
0.0
 40
0.0
 40
0.0
 40
0.1195027114365319
 40
0.2380939422658887
 40
0.3566476293726337
 40
0.4775806195769142
 40
0.6003630199241491
 40
0.727832734004141
 40
0.8606471500295816
 40
1.0
 40
1.0
 40
1.0
 40
1.0
 10
150.7115628889187
 20
81.93051093229116
 30
0.0
 10
150.6962514612249
 20
81.91602959915984
 30
0.0
 10
150.6657453903791
 20
81.88717738607573
 30
0.0
 10
150.6146232918066
 20
81.8502543170591
 30
0.0
 10
150.5593557256916
 20
81.81962575548566
 30
0.0
 10
150.5008960854708
 20
81.79366737773637
 30
0.0
 10
150.4382608390117
 20
81.77442978215538
 30
0.0
 10
150.3723204207414
 20
81.75964736516494
 30
0.0
 10
150.3022357300209
 20
81.7513720858054
 30
0.0
 10
150.254269091618
 20
81.75034290454107
 30
0.0
 10
150.2297096070654
 20
81.74981595159616
 30
0.0
  0
SPLINE
  5
C1
330
1F
100
AcDbEntity
  8
0
  6
Continuous
 62
     7
370
    25
100
AcDbSpline
210
0.0
220
0.0
230
1.0
 70
     8
 71
     3
 72
    15
 73
    11
 74
     0
 42
0.00000001
 43
0.00000001
 40
0.0
 40
0.0
 40
0.0
 40
0.0
 40
0.1342477572737634
 40
0.263461772575683
 40
0.3884666271730288
 40
0.511879051186958
 40
0.6324080741525895
 40
0.7535525248235476
 40
0.8755084805282752
 40
1.0
 40
1.0
 40
1.0
 40
1.0
 10
150.9073157846716
 20
82.42742212920234
 30
0.0
 10
150.9069125623379
 20
82.40284562440979
 30
0.0
 10
150.9061212368592
 20
82.35461413326347
 30
0.0
 10
150.8959885441889
 20
82.28414015640394
 30
0.0
 10
150.8813524135884
 20
82.21654516945031
 30
0.0
 10
150.8594148642869
 20
82.15256461056366
 30
0.0
 10
150.8318285695657
 20
82.09165775703413
 30
0.0
 10
150.7985192120019
 20
82.0339197219703
 30
0.0
 10
150.7578763787804
 20
81.98013362726593
 30
0.0
 10
150.7271062445866
 20
81.94716489638449
 30
0.0
 10
150.7115628889187
 20
81.93051093229116
 30
0.0
  0
LINE
  5
C2
330
1F
100
AcDbEntity
  8
0
  6
Continuous
 62
     7
370
    25
100
AcDbLine
 10
150.9073157847
 20
83.6420939439
 30
0.0
 11
150.9073157847
 21
82.4274221292
 31
0.0
  0
LINE
  5
C3
330
1F
100
AcDbEntity
  8
0
  6
Continuous
 62
     7
370
    25
100
AcDbLine
 10
148.3324123098
 20
86.0898416916
 30
0.0
 11
150.9073157847
 21
86.0898416916
 31
0.0
  0
LINE
  5
C4
330
1F
100
AcDbEntity
  8
0
  6
Continuous
 62
     7
370
    25
100
AcDbLine
 10
148.3324123098
 20
85.7334710353
 30
0.0
 11
148.3324123098
 21
86.0898416916
 31
0.0
  0
LINE
  5
C5
330
1F
100
AcDbEntity
  8
0
  6
Continuous
 62
     7
370
    25
100
AcDbLine
 10
150.3652308426
 20
85.7334710353
 30
0.0
 11
148.3324123098
 21
85.7334710353
 31
0.0
  0
LINE
  5
C6
330
1F
100
AcDbEntity
  8
0
  6
Continuous
 62
     7
370
    25
100
AcDbLine
 10
148.3324123098
 20
84.5288378306
 30
0.0
 11
150.3652308426
 21
85.7334710353
 31
0.0
  0
LINE
  5
C7
330
1F
100
AcDbEntity
  8
0
  6
Continuous
 62
     7
370
    25
100
AcDbLine
 10
148.3324123098
 20
84.1523899542
 30
0.0
 11
148.3324123098
 21
84.5288378306
 31
0.0
  0
LINE
  5
C8
330
1F
100
AcDbEntity
  8
0
  6
Continuous
 62
     7
370
    25
100
AcDbLine
 10
150.9073157847
 20
84.1523899542
 30
0.0
 11
148.3324123098
 21
84.1523899542
 31
0.0
  0
LINE
  5
C9
330
1F
100
AcDbEntity
  8
0
  6
Continuous
 62
     7
370
    25
100
AcDbLine
 10
150.9073157847
 20
84.5087606105
 30
0.0
 11
150.9073157847
 21
84.1523899542
 31
0.0
  0
LINE
  5
CA
330
1F
100
AcDbEntity
  8
0
  6
Continuous
 62
     7
370
    25
100
AcDbLine
 10
148.8744972519
 20
84.5087606105
 30
0.0
 11
150.9073157847
 21
84.5087606105
 31
0.0
  0
LINE
  5
CB
330
1F
100
AcDbEntity
  8
0
  6
Continuous
 62
     7
370
    25
100
AcDbLine
 10
150.9073157847
 20
85.7033552051
 30
0.0
 11
148.8744972519
 21
84.5087606105
 31
0.0
  0
LINE
  5
CC
330
1F
100
AcDbEntity
  8
0
  6
Continuous
 62
     7
370
    25
100
AcDbLine
 10
150.9073157847
 20
86.0898416916
 30
0.0
 11
150.9073157847
 21
85.7033552051
 31
0.0
  0
LINE
  5
CD
330
1F
100
AcDbEntity
  8
0
  6
Continuous
 62
     7
370
    25
100
AcDbLine
 10
150.9524895298
 20
78.4738828757
 30
0.0
 11
150.9524895298
 21
78.293187895
 31
0.0
  0
LINE
  5
CE
330
1F
100
AcDbEntity
  8
0
  6
Continuous
 62
     7
370
    25
100
AcDbLine
 10
148.3474702248
 20
71.1256203274
 30
0.0
 11
148.3474702248
 21
71.4819909838
 31
0.0
  0
LINE
  5
CF
330
1F
100
AcDbEntity
  8
0
  6
Continuous
 62
     7
370
    25
100
AcDbLine
 10
150.9374316148
 20
76.4260064278
 30
0.0
 11
150.9374316148
 21
76.0796743815
 31
0.0
  0
LINE
  5
D0
330
1F
100
AcDbEntity
  8
0
  6
Continuous
 62
     7
370
    25
100
AcDbLine
 10
149.2961188735
 20
77.4348867367
 30
0.0
 11
150.9374316148
 21
76.4260064278
 31
0.0
  0
SPLINE
  5
D1
330
1F
100
AcDbEntity
  8
0
  6
Continuous
 62
     7
370
    25
100
AcDbSpline
210
0.0
220
0.0
230
1.0
 70
     8
 71
     3
 72
    18
 73
    14
 74
     0
 42
0.00000001
 43
0.00000001
 40
0.0
 40
0.0
 40
0.0
 40
0.0
 40
0.2500000000000004
 40
0.2500000000000004
 40
0.5000000000000009
 40
0.5000000000000009
 40
0.562500000000001
 40
0.562500000000001
 40
0.625000000000001
 40
0.625000000000001
 40
0.7500000000000007
 40
0.7500000000000007
 40
1.0
 40
1.0
 40
1.0
 40
1.0
 10
145.7946130877398
 20
87.85084555262576
 30
0.0
 10
145.3183766378464
 20
88.67571128025733
 30
0.0
 10
144.9258716637986
 20
89.50659076023189
 30
0.0
 10
144.3821249339747
 20
91.18567769905039
 30
0.0
 10
144.2326767612101
 20
92.03401397640532
 30
0.0
 10
144.2313086633145
 20
93.10775312538577
 30
0.0
 10
144.2402333363876
 20
93.32358940655382
 30
0.0
 10
144.2761924727837
 20
93.75330408967172
 30
0.0
 10
144.3031853505597
 20
93.96741493789575
 30
0.0
 10
144.4100336786492
 20
94.60760492277359
 30
0.0
 10
144.5158193055309
 20
95.03153649045584
 30
0.0
 10
144.9243063773448
 20
96.29578367949257
 30
0.0
 10
145.3177829253855
 20
97.12858119566508
 30
0.0
 10
145.7946130877399
 20
97.95447526344422
 30
0.0
  0
LINE
  5
D2
330
1F
100
AcDbEntity
  8
0
  6
Continuous
 62
     7
370
    25
100
AcDbLine
 10
144.0872385646
 20
77.7472158418
 30
0.0
 11
144.0872385646
 21
94.9972158418
 31
0.0
  0
LINE
  5
D3
330
1F
100
AcDbEntity
  8
0
  6
Continuous
 62
     7
370
    25
100
AcDbLine
 10
144.0872385646
 20
60.4972158418
 30
0.0
 11
144.0872385646
 21
77.7472158418
 31
0.0
  0
SPLINE
  5
D4
330
1F
100
AcDbEntity
  8
0
  6
Continuous
 62
     7
370
    25
100
AcDbSpline
210
0.0
220
0.0
230
1.0
 70
     8
 71
     3
 72
    18
 73
    14
 74
     0
 42
0.00000001
 43
0.00000001
 40
0.0
 40
0.0
 40
0.0
 40
0.0
 40
0.2500000000000004
 40
0.2500000000000004
 40
0.5000000000000009
 40
0.5000000000000009
 40
0.562500000000001
 40
0.562500000000001
 40
0.625000000000001
 40
0.625000000000001
 40
0.7500000000000007
 40
0.7500000000000007
 40
1.0
 40
1.0
 40
1.0
 40
1.0
 10
153.379864041449
 20
87.85084555262576
 30
0.0
 10
153.8561004913423
 20
88.67571128025733
 30
0.0
 10
154.2486054653901
 20
89.50659076023189
 30
0.0
 10
154.7923521952141
 20
91.18567769905039
 30
0.0
 10
154.9418003679786
 20
92.03401397640532
 30
0.0
 10
154.9431684658742
 20
93.10775312538577
 30
0.0
 10
154.9342437928012
 20
93.32358940655382
 30
0.0
 10
154.8982846564051
 20
93.75330408967172
 30
0.0
 10
154.8712917786291
 20
93.96741493789575
 30
0.0
 10
154.7644434505395
 20
94.60760492277359
 30
0.0
 10
154.6586578236579
 20
95.03153649045584
 30
0.0
 10
154.2501707518439
 20
96.29578367949257
 30
0.0
 10
153.8566942038033
 20
97.12858119566508
 30
0.0
 10
153.3798640414489
 20
97.95447526344422
 30
0.0
  0
LINE
  5
D5
330
1F
100
AcDbEntity
  8
0
  6
Continuous
 62
     7
370
    25
100
AcDbLine
 10
155.0872385646
 20
77.7472158418
 30
0.0
 11
155.0872385646
 21
94.9972158418
 31
0.0
  0
LINE
  5
D6
330
1F
100
AcDbEntity
  8
0
  6
Continuous
 62
     7
370
    25
100
AcDbLine
 10
155.0872385646
 20
60.4972158418
 30
0.0
 11
155.0872385646
 21
77.7472158418
 31
0.0
  0
SPLINE
  5
D7
330
1F
100
AcDbEntity
  8
0
  6
Continuous
 62
     7
370
    25
100
AcDbSpline
210
0.0
220
0.0
230
1.0
 70
     8
 71
     3
 72
    15
 73
    11
 74
     0
 42
0.00000001
 43
0.00000001
 40
0.0
 40
0.0
 40
0.0
 40
0.0
 40
0.1380048591553922
 40
0.2688933811355684
 40
0.3953545540747318
 40
0.518591747074713
 40
0.6392559432757058
 40
0.7592039617243785
 40
0.8785285343285415
 40
1.0
 40
1.0
 40
1.0
 40
1.0
 10
149.5219875993434
 20
74.6792882810685
 30
0.0
 10
149.5217294774817
 20
74.69529357406435
 30
0.0
 10
149.5212265440301
 20
74.72647883359838
 30
0.0
 10
149.5154704704866
 20
74.77203123181133
 30
0.0
 10
149.5061074236124
 20
74.81521279801684
 30
0.0
 10
149.4925344320823
 20
74.85601199487061
 30
0.0
 10
149.4758790332135
 20
74.89483110571277
 30
0.0
 10
149.4552062831104
 20
74.9311698265225
 30
0.0
 10
149.4304997195309
 20
74.96506109478796
 30
0.0
 10
149.411239997806
 20
74.9852965579001
 30
0.0
 10
149.4015242788801
 20
74.99550449728471
 30
0.0
  0
SPLINE
  5
D8
330
1F
100
AcDbEntity
  8
0
  6
Continuous
 62
     7
370
    25
100
AcDbSpline
210
0.0
220
0.0
230
1.0
 70
     8
 71
     3
 72
    15
 73
    11
 74
     0
 42
0.00000001
 43
0.00000001
 40
0.0
 40
0.0
 40
0.0
 40
0.0
 40
0.1134144342832907
 40
0.2282264330862566
 40
0.3440192114958923
 40
0.4638726679659591
 40
0.5878409254964369
 40
0.7180827571090537
 40
0.8551689049579076
 40
0.9999999999999999
 40
0.9999999999999999
 40
0.9999999999999999
 40
0.9999999999999999
 10
149.416582193938
 20
74.3781299799102
 30
0.0
 10
149.4249525428188
 20
74.38726168359828
 30
0.0
 10
149.4417963853228
 20
74.40563761761322
 30
0.0
 10
149.4636932829
 20
74.4363271853711
 30
0.0
 10
149.4813434480197
 20
74.47034304588458
 30
0.0
 10
149.4967927748768
 20
74.50652216539079
 30
0.0
 10
149.5075274721272
 20
74.54601469253164
 30
0.0
 10
149.516052772754
 20
74.58789489005161
 30
0.0
 10
149.5210804014108
 20
74.63269226645407
 30
0.0
 10
149.5216797118643
 20
74.66347438978566
 30
0.0
 10
149.5219875993434
 20
74.6792882810685
 30
0.0
  0
SPLINE
  5
D9
330
1F
100
AcDbEntity
  8
0
  6
Continuous
 62
     7
370
    25
100
AcDbSpline
210
0.0
220
0.0
230
1.0
 70
     8
 71
     3
 72
    15
 73
    11
 74
     0
 42
0.00000001
 43
0.00000001
 40
0.0
 40
0.0
 40
0.0
 40
0.0
 40
0.1393810202816872
 40
0.2711199225959093
 40
0.3991411117306077
 40
0.5232616219685351
 40
0.6429586939517118
 40
0.7614343776763248
 40
0.8804849265728246
 40
1.0
 40
1.0
 40
1.0
 40
1.0
 10
149.0551922325481
 20
74.24260874438897
 30
0.0
 10
149.0736137290795
 20
74.24305817583621
 30
0.0
 10
149.1094466904368
 20
74.24393239686674
 30
0.0
 10
149.1619093541118
 20
74.25013527646101
 30
0.0
 10
149.2116349618905
 20
74.26058952004554
 30
0.0
 10
149.25846132055
 20
74.27572023092382
 30
0.0
 10
149.302563651895
 20
74.29463812220403
 30
0.0
 10
149.3433245811162
 20
74.3185668804887
 30
0.0
 10
149.3822928683027
 20
74.34541585790804
 30
0.0
 10
149.4051375913116
 20
74.36721112631214
 30
0.0
 10
149.416582193938
 20
74.3781299799102
 30
0.0
  0
SPLINE
  5
DA
330
1F
100
AcDbEntity
  8
0
  6
Continuous
 62
     7
370
    25
100
AcDbSpline
210
0.0
220
0.0
230
1.0
 70
     8
 71
     3
 72
    15
 73
    11
 74
     0
 42
0.00000001
 43
0.00000001
 40
0.0
 40
0.0
 40
0.0
 40
0.0
 40
0.1195207678016621
 40
0.2385769889400705
 40
0.3570583175167621
 40
0.4780520139443314
 40
0.6008398709279144
 40
0.7288671597165913
 40
0.8606123388176882
 40
1.0
 40
1.0
 40
1.0
 40
1.0
 10
148.6938022711581
 20
74.3781299799102
 30
0.0
 10
148.7052461318233
 20
74.3672093170381
 30
0.0
 10
148.7280893737935
 20
74.34541043711812
 30
0.0
 10
148.767068717871
 20
74.31858842195038
 30
0.0
 10
148.807934858976
 20
74.29447057889656
 30
0.0
 10
148.852207489797
 20
74.27597707807665
 30
0.0
 10
148.898891274626
 20
74.26046230452843
 30
0.0
 10
148.9484839504466
 20
74.25016065755766
 30
0.0
 10
149.0009353867123
 20
74.24392554026025
 30
0.0
 10
149.0367699252158
 20
74.24305584775189
 30
0.0
 10
149.0551922325481
 20
74.24260874438897
 30
0.0
  0
SPLINE
  5
DB
330
1F
100
AcDbEntity
  8
0
  6
Continuous
 62
     7
370
    25
100
AcDbSpline
210
0.0
220
0.0
230
1.0
 70
     8
 71
     3
 72
    15
 73
    11
 74
     0
 42
0.00000001
 43
0.00000001
 40
0.0
 40
0.0
 40
0.0
 40
0.0
 40
0.1267446033331903
 40
0.2489106882353086
 40
0.3705944913819335
 40
0.4919095548833495
 40
0.6141558350953015
 40
0.7392101381947347
 40
0.8677099866516849
 40
1.0
 40
1.0
 40
1.0
 40
1.0
 10
148.6938022711581
 20
74.9804465822268
 30
0.0
 10
148.6840403344451
 20
74.97026843279257
 30
0.0
 10
148.6648691009421
 20
74.95027980910355
 30
0.0
 10
148.6411669183436
 20
74.91651832532511
 30
0.0
 10
148.6192579189438
 20
74.8822767455632
 30
0.0
 10
148.603038504526
 20
74.84497914074423
 30
0.0
 10
148.5889565720623
 20
74.80642909486632
 30
0.0
 10
148.5808571057849
 20
74.76539414284186
 30
0.0
 10
148.5738886305128
 20
74.72302159120646
 30
0.0
 10
148.5735239440131
 20
74.6940066132641
 30
0.0
 10
148.5733389506948
 20
74.6792882810685
 30
0.0
  0
SPLINE
  5
DC
330
1F
100
AcDbEntity
  8
0
  6
Continuous
 62
     7
370
    25
100
AcDbSpline
210
0.0
220
0.0
230
1.0
 70
     8
 71
     3
 72
    15
 73
    11
 74
     0
 42
0.00000001
 43
0.00000001
 40
0.0
 40
0.0
 40
0.0
 40
0.0
 40
0.1393876611823119
 40
0.2711328402834089
 40
0.3991601290720857
 40
0.5219479860556686
 40
0.642941682483238
 40
0.7614230110599303
 40
0.8804792321983387
 40
1.0
 40
1.0
 40
1.0
 40
1.0
 10
149.0551922325481
 20
75.11596781774804
 30
0.0
 10
149.0367699252158
 20
75.11552071438511
 30
0.0
 10
149.0009353867123
 20
75.11465102187674
 30
0.0
 10
148.9484839504466
 20
75.10841590457935
 30
0.0
 10
148.898891274626
 20
75.09811425760859
 30
0.0
 10
148.852207489797
 20
75.08259948406035
 30
0.0
 10
148.807934858976
 20
75.06410598324042
 30
0.0
 10
148.767068717871
 20
75.03998814018661
 30
0.0
 10
148.7280893737935
 20
75.01316612501887
 30
0.0
 10
148.7052461318233
 20
74.99136724509889
 30
0.0
 10
148.6938022711581
 20
74.9804465822268
 30
0.0
  0
SPLINE
  5
DD
330
1F
100
AcDbEntity
  8
0
  6
Continuous
 62
     7
370
    25
100
AcDbSpline
210
0.0
220
0.0
230
1.0
 70
     8
 71
     3
 72
    15
 73
    11
 74
     0
 42
0.00000001
 43
0.00000001
 40
0.0
 40
0.0
 40
0.0
 40
0.0
 40
0.1322900133483164
 40
0.2607898618052654
 40
0.3858441649046986
 40
0.5080904451166506
 40
0.6294055086180665
 40
0.7510893117646914
 40
0.8732553966668096
 40
1.0
 40
1.0
 40
1.0
 40
1.0
 10
148.5733389506948
 20
74.6792882810685
 30
0.0
 10
148.5735239440131
 20
74.6645699488729
 30
0.0
 10
148.5738886305128
 20
74.63555497093054
 30
0.0
 10
148.5808571057849
 20
74.59318241929513
 30
0.0
 10
148.5889565720623
 20
74.55214746727069
 30
0.0
 10
148.603038504526
 20
74.51359742139277
 30
0.0
 10
148.6192579189438
 20
74.47629981657379
 30
0.0
 10
148.6411669183436
 20
74.44205823681187
 30
0.0
 10
148.6648691009421
 20
74.40829675303345
 30
0.0
 10
148.6840403344451
 20
74.38830812934445
 30
0.0
 10
148.6938022711581
 20
74.3781299799102
 30
0.0
  0
SPLINE
  5
DE
330
1F
100
AcDbEntity
  8
0
  6
Continuous
 62
     7
370
    25
100
AcDbSpline
210
0.0
220
0.0
230
1.0
 70
     8
 71
     3
 72
    15
 73
    11
 74
     0
 42
0.00000001
 43
0.00000001
 40
0.0
 40
0.0
 40
0.0
 40
0.0
 40
0.1132779201884352
 40
0.2270870976600616
 40
0.3430442578526537
 40
0.4613052417311966
 40
0.5864247941069358
 40
0.7162590429098971
 40
0.8547899065957144
 40
1.0
 40
1.0
 40
1.0
 40
1.0
 10
149.4015242788801
 20
74.99550449728471
 30
0.0
 10
149.3911596838322
 20
75.0052632837007
 30
0.0
 10
149.3703818852646
 20
75.02482662384857
 30
0.0
 10
149.3347741930384
 20
75.04931868680396
 30
0.0
 10
149.2961986779193
 20
75.06997286217896
 30
0.0
 10
149.2542716282649
 20
75.08682179450561
 30
0.0
 10
149.2092780992812
 20
75.1001114107889
 30
0.0
 10
149.1607438080811
 20
75.10959393193492
 30
0.0
 10
149.1090503102935
 20
75.11517130984393
 30
0.0
 10
149.0734244678835
 20
75.11569818095144
 30
0.0
 10
149.0551922325481
 20
75.11596781774804
 30
0.0
  0
SPLINE
  5
DF
330
1F
100
AcDbEntity
  8
0
  6
Continuous
 62
     7
370
    25
100
AcDbSpline
210
0.0
220
0.0
230
1.0
 70
     8
 71
     3
 72
    15
 73
    11
 74
     0
 42
0.00000001
 43
0.00000001
 40
0.0
 40
0.0
 40
0.0
 40
0.0
 40
0.113305929269617
 40
0.2263015370273197
 40
0.3429947497841048
 40
0.4612849748553937
 40
0.5864354642724742
 40
0.7160226876888954
 40
0.854754001970278
 40
1.0
 40
1.0
 40
1.0
 40
1.0
 10
149.8683196456755
 20
74.42330372508395
 30
0.0
 10
149.878646932529
 20
74.41348813111514
 30
0.0
 10
149.8992732219329
 20
74.39388382605983
 30
0.0
 10
149.9354151028443
 20
74.37024101865357
 30
0.0
 10
149.9734483050381
 20
74.34865830695077
 30
0.0
 10
150.0156146041021
 20
74.33210058469145
 30
0.0
 10
150.0604816395286
 20
74.31845612548206
 30
0.0
 10
150.109219244312
 20
74.31016267057248
 30
0.0
 10
150.1607386568642
 20
74.30338049833621
 30
0.0
 10
150.1964079191099
 20
74.30302316834491
 30
0.0
 10
150.2146516920075
 20
74.30284040462062
 30
0.0
  0
SPLINE
  5
E0
330
1F
100
AcDbEntity
  8
0
  6
Continuous
 62
     7
370
    25
100
AcDbSpline
210
0.0
220
0.0
230
1.0
 70
     8
 71
     3
 72
    15
 73
    11
 74
     0
 42
0.00000001
 43
0.00000001
 40
0.0
 40
0.0
 40
0.0
 40
0.0
 40
0.1417662078038663
 40
0.2766387327414355
 40
0.4056138818208841
 40
0.5283604514395148
 40
0.648489689300758
 40
0.7663666155685059
 40
0.882203590767786
 40
1.0
 40
1.0
 40
1.0
 40
1.0
 10
150.2146516920075
 20
75.05573615751638
 30
0.0
 10
150.1975319995685
 20
75.05547618210136
 30
0.0
 10
150.1641250960856
 20
75.05496887312788
 30
0.0
 10
150.1154258021697
 20
75.04923830087796
 30
0.0
 10
150.06960191509
 20
75.04002547246783
 30
0.0
 10
150.0268097726952
 20
75.02625779948472
 30
0.0
 10
149.9864464154464
 20
75.00975745869816
 30
0.0
 10
149.948943921329
 20
74.98910799395372
 30
0.0
 10
149.9143995881314
 20
74.96425166023597
 30
0.0
 10
149.8937758920658
 20
74.94498630294659
 30
0.0
 10
149.8833775607334
 20
74.93527283705305
 30
0.0
  0
SPLINE
  5
E1
330
1F
100
AcDbEntity
  8
0
  6
Continuous
 62
     7
370
    25
100
AcDbSpline
210
0.0
220
0.0
230
1.0
 70
     8
 71
     3
 72
    11
 73
     7
 74
     0
 42
0.00000001
 43
0.00000001
 40
0.0
 40
0.0
 40
0.0
 40
0.0
 40
0.2562600332085388
 40
0.5016208045865214
 40
0.744907856468726
 40
1.0
 40
1.0
 40
1.0
 40
1.0
 10
150.6663891437449
 20
74.6792882810685
 30
0.0
 10
150.6651287141511
 20
74.703597278179
 30
0.0
 10
150.6626614636046
 20
74.751181361177
 30
0.0
 10
150.6424331755669
 20
74.8194203147808
 30
0.0
 10
150.6089577819536
 20
74.88213810410876
 30
0.0
 10
150.5772256323398
 20
74.91728376139464
 30
0.0
 10
150.5609837383395
 20
74.93527283705305
 30
0.0
  0
SPLINE
  5
E2
330
1F
100
AcDbEntity
  8
0
  6
Continuous
 62
     7
370
    25
100
AcDbSpline
210
0.0
220
0.0
230
1.0
 70
     8
 71
     3
 72
    15
 73
    11
 74
     0
 42
0.00000001
 43
0.00000001
 40
0.0
 40
0.0
 40
0.0
 40
0.0
 40
0.145245998029722
 40
0.2839773123111046
 40
0.4135645357275258
 40
0.538715025144607
 40
0.6570052502158957
 40
0.7736984629726803
 40
0.8866940707303835
 40
1.0
 40
1.0
 40
1.0
 40
1.0
 10
150.2146516920075
 20
74.30284040462062
 30
0.0
 10
150.2328954649051
 20
74.30302316834492
 30
0.0
 10
150.2685647271508
 20
74.30338049833621
 30
0.0
 10
150.320084139703
 20
74.31016267057248
 30
0.0
 10
150.3688217444864
 20
74.31845612548206
 30
0.0
 10
150.4136887799129
 20
74.33210058469145
 30
0.0
 10
150.4558550789769
 20
74.34865830695077
 30
0.0
 10
150.4938882811707
 20
74.37024101865357
 30
0.0
 10
150.5300301620821
 20
74.39388382605983
 30
0.0
 10
150.550656451486
 20
74.41348813111514
 30
0.0
 10
150.5609837383395
 20
74.42330372508395
 30
0.0
  0
SPLINE
  5
E3
330
1F
100
AcDbEntity
  8
0
  6
Continuous
 62
     7
370
    25
100
AcDbSpline
210
0.0
220
0.0
230
1.0
 70
     8
 71
     3
 72
    11
 73
     7
 74
     0
 42
0.00000001
 43
0.00000001
 40
0.0
 40
0.0
 40
0.0
 40
0.0
 40
0.2901378045003197
 40
0.5465424887398707
 40
0.7801595488425206
 40
1.0
 40
1.0
 40
1.0
 40
1.0
 10
149.7779721553279
 20
74.69434619612642
 30
0.0
 10
149.778784925147
 20
74.665953024971
 30
0.0
 10
149.7803159674062
 20
74.61246783901524
 30
0.0
 10
149.7983996477778
 20
74.53819247985017
 30
0.0
 10
149.824959811743
 20
74.47322335615178
 30
0.0
 10
149.8541621017857
 20
74.43960312717357
 30
0.0
 10
149.8683196456755
 20
74.42330372508395
 30
0.0
  0
SPLINE
  5
E4
330
1F
100
AcDbEntity
  8
0
  6
Continuous
 62
     7
370
    25
100
AcDbSpline
210
0.0
220
0.0
230
1.0
 70
     8
 71
     3
 72
    11
 73
     7
 74
     0
 42
0.00000001
 43
0.00000001
 40
0.0
 40
0.0
 40
0.0
 40
0.0
 40
0.2653711544688509
 40
0.5124447543023571
 40
0.7549131194780974
 40
1.0
 40
1.0
 40
1.0
 40
1.0
 10
149.8833775607334
 20
74.93527283705305
 30
0.0
 10
149.8671972198939
 20
74.9176271728713
 30
0.0
 10
149.8359521857355
 20
74.88355252725196
 30
0.0
 10
149.802293576007
 20
74.82391941743987
 30
0.0
 10
149.7818863858845
 20
74.76036083886889
 30
0.0
 10
149.7792815620935
 20
74.7164297240584
 30
0.0
 10
149.7779721553279
 20
74.69434619612642
 30
0.0
  0
SPLINE
  5
E5
330
1F
100
AcDbEntity
  8
0
  6
Continuous
 62
     7
370
    25
100
AcDbSpline
210
0.0
220
0.0
230
1.0
 70
     8
 71
     3
 72
    15
 73
    11
 74
     0
 42
0.00000001
 43
0.00000001
 40
0.0
 40
0.0
 40
0.0
 40
0.0
 40
0.1132779201884348
 40
0.2270870976600616
 40
0.3430442578526531
 40
0.4613052417311961
 40
0.586424794106936
 40
0.7162590429098971
 40
0.8547899065957144
 40
1.0
 40
1.0
 40
1.0
 40
1.0
 10
150.5609837383395
 20
74.93527283705305
 30
0.0
 10
150.5506191432917
 20
74.94503162346903
 30
0.0
 10
150.5298413447241
 20
74.96459496361692
 30
0.0
 10
150.4942336524979
 20
74.98908702657229
 30
0.0
 10
150.4556581373788
 20
75.00974120194728
 30
0.0
 10
150.4137310877244
 20
75.02659013427395
 30
0.0
 10
150.3687375587407
 20
75.03987975055725
 30
0.0
 10
150.3202032675405
 20
75.04936227170326
 30
0.0
 10
150.2685097697529
 20
75.05493964961228
 30
0.0
 10
150.2328839273429
 20
75.05546652071979
 30
0.0
 10
150.2146516920075
 20
75.05573615751638
 30
0.0
  0
SPLINE
  5
E6
330
1F
100
AcDbEntity
  8
0
  6
Continuous
 62
     7
370
    25
100
AcDbSpline
210
0.0
220
0.0
230
1.0
 70
     8
 71
     3
 72
    11
 73
     7
 74
     0
 42
0.00000001
 43
0.00000001
 40
0.0
 40
0.0
 40
0.0
 40
0.0
 40
0.255092143531274
 40
0.4983791954134772
 40
0.7437399667914613
 40
1.0
 40
1.0
 40
1.0
 40
1.0
 10
150.5609837383395
 20
74.42330372508395
 30
0.0
 10
150.5772256323398
 20
74.44129280074236
 30
0.0
 10
150.6089577819536
 20
74.47643845802823
 30
0.0
 10
150.6424331755669
 20
74.53915624735622
 30
0.0
 10
150.6626614636046
 20
74.60739520095999
 30
0.0
 10
150.6651287141511
 20
74.654979283958
 30
0.0
 10
150.6663891437449
 20
74.6792882810685
 30
0.0
  0
SPLINE
  5
E7
330
1F
100
AcDbEntity
  8
0
  6
Continuous
 62
     7
370
    25
100
AcDbSpline
210
0.0
220
0.0
230
1.0
 70
     8
 71
     3
 72
    11
 73
     7
 74
     0
 42
0.00000001
 43
0.00000001
 40
0.0
 40
0.0
 40
0.0
 40
0.0
 40
0.2912484084677849
 40
0.5474762715831999
 40
0.7812177661650669
 40
1.0
 40
1.0
 40
1.0
 40
1.0
 10
149.6725667499226
 20
72.49589059767082
 30
0.0
 10
149.6885989572712
 20
72.5130685349759
 30
0.0
 10
149.7187356132985
 20
72.54535888505454
 30
0.0
 10
149.7526254728943
 20
72.59873502935599
 30
0.0
 10
149.7736352970022
 20
72.65257958743334
 30
0.0
 10
149.7765587498084
 20
72.68906281509204
 30
0.0
 10
149.7779721553279
 20
72.70670140848162
 30
0.0
  0
SPLINE
  5
E8
330
1F
100
AcDbEntity
  8
0
  6
Continuous
 62
     7
370
    25
100
AcDbSpline
210
0.0
220
0.0
230
1.0
 70
     8
 71
     3
 72
    15
 73
    11
 74
     0
 42
0.00000001
 43
0.00000001
 40
0.0
 40
0.0
 40
0.0
 40
0.0
 40
0.1621938662364104
 40
0.3128358862094928
 40
0.45149378481997
 40
0.5789754992164099
 40
0.695971397378458
 40
0.8040446570061008
 40
0.9042792524989222
 40
1.0
 40
1.0
 40
1.0
 40
1.0
 10
149.1907134680693
 20
72.36036936214958
 30
0.0
 10
149.2184237948108
 20
72.36081901733506
 30
0.0
 10
149.2718708506365
 20
72.36168630215722
 30
0.0
 10
149.3488267995054
 20
72.36767264011155
 30
0.0
 10
149.4193564259097
 20
72.37799841564294
 30
0.0
 10
149.4831108415389
 20
72.39309057245963
 30
0.0
 10
149.5405346942646
 20
72.41167410910327
 30
0.0
 10
149.5909482043625
 20
72.43527473089598
 30
0.0
 10
149.6355550683199
 20
72.46237956076607
 30
0.0
 10
149.660420448101
 20
72.48489311928095
 30
0.0
 10
149.6725667499226
 20
72.49589059767082
 30
0.0
  0
SPLINE
  5
E9
330
1F
100
AcDbEntity
  8
0
  6
Continuous
 62
     7
370
    25
100
AcDbSpline
210
0.0
220
0.0
230
1.0
 70
     8
 71
     3
 72
    15
 73
    11
 74
     0
 42
0.00000001
 43
0.00000001
 40
0.0
 40
0.0
 40
0.0
 40
0.0
 40
0.0889385933316048
 40
0.1846881048742355
 40
0.290639097524363
 40
0.4070025892724371
 40
0.5351860897525824
 40
0.6768017488293069
 40
0.8315571904058217
 40
1.0
 40
1.0
 40
1.0
 40
1.0
 10
148.6636864410422
 20
72.49589059767081
 30
0.0
 10
148.6759910328228
 20
72.48484471859406
 30
0.0
 10
148.7015425021241
 20
72.46190706692975
 30
0.0
 10
148.7486051219604
 20
72.43496293795258
 30
0.0
 10
148.8028258253813
 20
72.41153385504056
 30
0.0
 10
148.865266624381
 20
72.39300445239485
 30
0.0
 10
148.9353327084386
 20
72.37788843529715
 30
0.0
 10
149.0134818994874
 20
72.36766190901866
 30
0.0
 10
149.0995272075961
 20
72.36166170577576
 30
0.0
 10
149.1594718344136
 20
72.36081213637803
 30
0.0
 10
149.1907134680693
 20
72.36036936214958
 30
0.0
  0
SPLINE
  5
EA
330
1F
100
AcDbEntity
  8
0
  6
Continuous
 62
     7
370
    25
100
AcDbSpline
210
0.0
220
0.0
230
1.0
 70
     8
 71
     3
 72
    11
 73
     7
 74
     0
 42
0.00000001
 43
0.00000001
 40
0.0
 40
0.0
 40
0.0
 40
0.0
 40
0.2601257123120309
 40
0.5090133886864462
 40
0.750841722653233
 40
1.0
 40
1.0
 40
1.0
 40
1.0
 10
148.5733389506948
 20
72.72175932353954
 30
0.0
 10
148.5742835683041
 20
72.70005495975609
 30
0.0
 10
148.5761319938444
 20
72.65758391119844
 30
0.0
 10
148.5943525021275
 20
72.59730646536269
 30
0.0
 10
148.6221586287342
 20
72.5417330304801
 30
0.0
 10
148.6497067482346
 20
72.51132274043522
 30
0.0
 10
148.6636864410422
 20
72.49589059767081
 30
0.0
  0
SPLINE
  5
EB
330
1F
100
AcDbEntity
  8
0
  6
Continuous
 62
     7
370
    25
100
AcDbSpline
210
0.0
220
0.0
230
1.0
 70
     8
 71
     3
 72
    11
 73
     7
 74
     0
 42
0.00000001
 43
0.00000001
 40
0.0
 40
0.0
 40
0.0
 40
0.0
 40
0.2767994473675421
 40
0.5300473798609825
 40
0.7673216447737538
 40
1.0
 40
1.0
 40
1.0
 40
1.0
 10
148.6787443561002
 20
72.94762804940827
 30
0.0
 10
148.6625949833754
 20
72.93033892514113
 30
0.0
 10
148.6316703092818
 20
72.89723172386223
 30
0.0
 10
148.5983629243605
 20
72.84042920203827
 30
0.0
 10
148.5773768626637
 20
72.78175992020324
 30
0.0
 10
148.5746761173561
 20
72.74162870111294
 30
0.0
 10
148.5733389506948
 20
72.72175932353954
 30
0.0
  0
SPLINE
  5
EC
330
1F
100
AcDbEntity
  8
0
  6
Continuous
 62
     7
370
    25
100
AcDbSpline
210
0.0
220
0.0
230
1.0
 70
     8
 71
     3
 72
    15
 73
    11
 74
     0
 42
0.00000001
 43
0.00000001
 40
0.0
 40
0.0
 40
0.0
 40
0.0
 40
0.1493997748286759
 40
0.2899387608175544
 40
0.4216321191698547
 40
0.5469260282951607
 40
0.6656128117813249
 40
0.7800387407312268
 40
0.8908418859280356
 40
1.0
 40
1.0
 40
1.0
 40
1.0
 10
149.2208292981851
 20
73.12832303010325
 30
0.0
 10
149.191626965325
 20
73.12779648312515
 30
0.0
 10
149.1349542681129
 20
73.12677461827616
 30
0.0
 10
149.0528031663336
 20
73.11866771542311
 30
0.0
 10
148.9764920935933
 20
73.10374463190182
 30
0.0
 10
148.9053635614081
 20
73.08499041137723
 30
0.0
 10
148.8402921816437
 20
73.05868001196248
 30
0.0
 10
148.7801352117598
 20
73.02846958888959
 30
0.0
 10
148.7259264509575
 20
72.99144691771339
 30
0.0
 10
148.6943931112625
 20
72.9621613325037
 30
0.0
 10
148.6787443561002
 20
72.94762804940827
 30
0.0
  0
SPLINE
  5
ED
330
1F
100
AcDbEntity
  8
0
  6
Continuous
 62
     7
370
    25
100
AcDbSpline
210
0.0
220
0.0
230
1.0
 70
     8
 71
     3
 72
    15
 73
    11
 74
     0
 42
0.00000001
 43
0.00000001
 40
0.0
 40
0.0
 40
0.0
 40
0.0
 40
0.1182864595995966
 40
0.2347934213738273
 40
0.3525293820747455
 40
0.4728657235109868
 40
0.596754017728765
 40
0.7246940143624925
 40
0.8588073979132678
 40
1.0
 40
1.0
 40
1.0
 40
1.0
 10
149.6725667499226
 20
72.96268596446619
 30
0.0
 10
149.6583638570802
 20
72.9760522002505
 30
0.0
 10
149.6301717392743
 20
73.00258359058304
 30
0.0
 10
149.5825661697557
 20
73.03615025841461
 30
0.0
 10
149.5315455387041
 20
73.06473426200544
 30
0.0
 10
149.4766578780491
 20
73.0883502683936
 30
0.0
 10
149.4178211545814
 20
73.1059452614138
 30
0.0
 10
149.35549933717
 20
73.11878312470817
 30
0.0
 10
149.2894427392486
 20
73.12670238836719
 30
0.0
 10
149.2440891856551
 20
73.12777363418569
 30
0.0
 10
149.2208292981851
 20
73.12832303010325
 30
0.0
  0
SPLINE
  5
EE
330
1F
100
AcDbEntity
  8
0
  6
Continuous
 62
     7
370
    25
100
AcDbSpline
210
0.0
220
0.0
230
1.0
 70
     8
 71
     3
 72
    11
 73
     7
 74
     0
 42
0.00000001
 43
0.00000001
 40
0.0
 40
0.0
 40
0.0
 40
0.0
 40
0.2562600332085403
 40
0.5016208045865214
 40
0.7449078564687247
 40
1.0
 40
1.0
 40
1.0
 40
1.0
 10
149.7779721553279
 20
72.70670140848162
 30
0.0
 10
149.7767117257341
 20
72.73101040559214
 30
0.0
 10
149.7742444751876
 20
72.77859448859014
 30
0.0
 10
149.7540161871499
 20
72.84683344219393
 30
0.0
 10
149.7205407935366
 20
72.90955123152189
 30
0.0
 10
149.6888086439228
 20
72.94469688880777
 30
0.0
 10
149.6725667499226
 20
72.96268596446619
 30
0.0
  0
LINE
  5
EF
330
1F
100
AcDbEntity
  8
0
  6
Continuous
 62
     7
370
    25
100
AcDbLine
 10
150.6373887147
 20
71.1256203274
 30
0.0
 11
149.7478563252
 21
71.1256203274
 31
0.0
  0
LINE
  5
F0
330
1F
100
AcDbEntity
  8
0
  6
Continuous
 62
     7
370
    25
100
AcDbLine
 10
150.6373887147
 20
70.2823770842
 30
0.0
 11
150.6373887147
 21
71.1256203274
 31
0.0
  0
SPLINE
  5
F1
330
1F
100
AcDbEntity
  8
0
  6
Continuous
 62
     7
370
    25
100
AcDbSpline
210
0.0
220
0.0
230
1.0
 70
     8
 71
     3
 72
    15
 73
    11
 74
     0
 42
0.00000001
 43
0.00000001
 40
0.0
 40
0.0
 40
0.0
 40
0.0
 40
0.1309133268193489
 40
0.2579771534544052
 40
0.3819342897628126
 40
0.5044826360738938
 40
0.6264704025121994
 40
0.7488072761095267
 40
0.8724814751031165
 40
1.0
 40
1.0
 40
1.0
 40
1.0
 10
150.5158099931658
 20
69.99627669805692
 30
0.0
 10
150.5255250176886
 20
70.00629877669988
 30
0.0
 10
150.5446693968973
 20
70.02604823523725
 30
0.0
 10
150.5689747106835
 20
70.05877865761005
 30
0.0
 10
150.5905355726298
 20
70.0922557146332
 30
0.0
 10
150.6080630399392
 20
70.12750620083769
 30
0.0
 10
150.6206340001672
 20
70.16459812198907
 30
0.0
 10
150.6300893660451
 20
70.20264636887026
 30
0.0
 10
150.6367759015876
 20
70.24198976862158
 30
0.0
 10
150.6371823701216
 20
70.26877798743612
 30
0.0
 10
150.6373887147445
 20
70.2823770841573
 30
0.0
  0
SPLINE
  5
F2
330
1F
100
AcDbEntity
  8
0
  6
Continuous
 62
     7
370
    25
100
AcDbSpline
210
0.0
220
0.0
230
1.0
 70
     8
 71
     3
 72
    15
 73
    11
 74
     0
 42
0.00000001
 43
0.00000001
 40
0.0
 40
0.0
 40
0.0
 40
0.0
 40
0.1417962611116214
 40
0.2768819513476979
 40
0.4055805706087833
 40
0.5298229690785622
 40
0.6485572024501451
 40
0.7672114666371237
 40
0.8821786188665551
 40
1.0
 40
1.0
 40
1.0
 40
1.0
 10
150.1845358618917
 20
69.8758133775936
 30
0.0
 10
150.2016668745287
 20
69.8759894756456
 30
0.0
 10
150.2351181670404
 20
69.87633333783127
 30
0.0
 10
150.2836456531693
 20
69.88323106247192
 30
0.0
 10
150.3298170504024
 20
69.89140919227333
 30
0.0
 10
150.3726147837421
 20
69.90515291238661
 30
0.0
 10
150.4130583255371
 20
69.92178473449903
 30
0.0
 10
150.4499021313308
 20
69.94316261290585
 30
0.0
 10
150.4849805917452
 20
69.96720580913485
 30
0.0
 10
150.5054498678393
 20
69.98650751543555
 30
0.0
 10
150.5158099931658
 20
69.99627669805692
 30
0.0
  0
SPLINE
  5
F3
330
1F
100
AcDbEntity
  8
0
  6
Continuous
 62
     7
370
    25
100
AcDbSpline
210
0.0
220
0.0
230
1.0
 70
     8
 71
     3
 72
    15
 73
    11
 74
     0
 42
0.00000001
 43
0.00000001
 40
0.0
 40
0.0
 40
0.0
 40
0.0
 40
0.1053643999148123
 40
0.2134004501006515
 40
0.3253299308157708
 40
0.4441520831794061
 40
0.5701116073912004
 40
0.7035881731039103
 40
0.8466305078268433
 40
0.9999999999999999
 40
0.9999999999999999
 40
0.9999999999999999
 40
0.9999999999999999
 10
149.8532617306176
 20
69.981218782999
 30
0.0
 10
149.8625698221514
 20
69.97283288857231
 30
0.0
 10
149.8814220238865
 20
69.95584846454862
 30
0.0
 10
149.9134045027009
 20
69.93382574294834
 30
0.0
 10
149.9497213121865
 20
69.91625735211707
 30
0.0
 10
149.9892983340816
 20
69.90083718490497
 30
0.0
 10
150.0330794348477
 20
69.8902538608573
 30
0.0
 10
150.0801523832148
 20
69.88167219819182
 30
0.0
 10
150.1310774333701
 20
69.8767070924459
 30
0.0
 10
150.1663072434784
 20
69.87611812256017
 30
0.0
 10
150.1845358618917
 20
69.8758133775936
 30
0.0
  0
SPLINE
  5
F4
330
1F
100
AcDbEntity
  8
0
  6
Continuous
 62
     7
370
    25
100
AcDbSpline
210
0.0
220
0.0
230
1.0
 70
     8
 71
     3
 72
    11
 73
     7
 74
     0
 42
0.00000001
 43
0.00000001
 40
0.0
 40
0.0
 40
0.0
 40
0.0
 40
0.2562600332085404
 40
0.5016208045865214
 40
0.7449078564687247
 40
1.0
 40
1.0
 40
1.0
 40
1.0
 10
149.7478563252122
 20
70.23720333898356
 30
0.0
 10
149.749116754806
 20
70.21289434187304
 30
0.0
 10
149.7515840053525
 20
70.16531025887504
 30
0.0
 10
149.7718122933902
 20
70.09707130527126
 30
0.0
 10
149.8052876870035
 20
70.0343535159433
 30
0.0
 10
149.8370198366173
 20
69.99920785865741
 30
0.0
 10
149.8532617306176
 20
69.981218782999
 30
0.0
  0
LINE
  5
F5
330
1F
100
AcDbEntity
  8
0
  6
Continuous
 62
     7
370
    25
100
AcDbLine
 10
149.7478563252
 20
71.1256203274
 30
0.0
 11
149.7478563252
 21
70.237203339
 31
0.0
  0
LINE
  5
F6
330
1F
100
AcDbEntity
  8
0
  6
Continuous
 62
     7
370
    25
100
AcDbLine
 10
150.3802887576
 20
76.4360450378
 30
0.0
 11
149.2810609584
 21
77.1036126054
 31
0.0
  0
LINE
  5
F7
330
1F
100
AcDbEntity
  8
0
  6
Continuous
 62
     7
370
    25
100
AcDbLine
 10
149.2810609584
 20
76.4360450378
 30
0.0
 11
150.3802887576
 21
76.4360450378
 31
0.0
  0
LINE
  5
F8
330
1F
100
AcDbEntity
  8
0
  6
Continuous
 62
     7
370
    25
100
AcDbLine
 10
149.2810609584
 20
77.1036126054
 30
0.0
 11
149.2810609584
 21
76.4360450378
 31
0.0
  0
LINE
  5
F9
330
1F
100
AcDbEntity
  8
0
  6
Continuous
 62
     7
370
    25
100
AcDbLine
 10
149.5381609155
 20
83.2857232875
 30
0.0
 11
148.6185126959
 21
83.2857232875
 31
0.0
  0
SPLINE
  5
FA
330
1F
100
AcDbEntity
  8
0
  6
Continuous
 62
     7
370
    25
100
AcDbSpline
210
0.0
220
0.0
230
1.0
 70
     8
 71
     3
 72
    15
 73
    11
 74
     0
 42
0.00000001
 43
0.00000001
 40
0.0
 40
0.0
 40
0.0
 40
0.0
 40
0.1417962611116216
 40
0.2768819513476978
 40
0.4055805706087829
 40
0.5298229690785616
 40
0.6485572024501448
 40
0.7672114666371238
 40
0.8821786188665547
 40
0.9999999999999999
 40
0.9999999999999999
 40
0.9999999999999999
 40
0.9999999999999999
 10
149.070250147606
 20
82.03591633769655
 30
0.0
 10
149.087381160243
 20
82.03609243574856
 30
0.0
 10
149.1208324527547
 20
82.03643629793422
 30
0.0
 10
149.1693599388836
 20
82.04333402257488
 30
0.0
 10
149.2155313361167
 20
82.05151215237629
 30
0.0
 10
149.2583290694564
 20
82.06525587248957
 30
0.0
 10
149.2987726112514
 20
82.08188769460199
 30
0.0
 10
149.3356164170451
 20
82.10326557300881
 30
0.0
 10
149.3706948774594
 20
82.1273087692378
 30
0.0
 10
149.3911641535536
 20
82.14661047553851
 30
0.0
 10
149.4015242788801
 20
82.15637965815988
 30
0.0
  0
SPLINE
  5
FB
330
1F
100
AcDbEntity
  8
0
  6
Continuous
 62
     7
370
    25
100
AcDbSpline
210
0.0
220
0.0
230
1.0
 70
     8
 71
     3
 72
    15
 73
    11
 74
     0
 42
0.00000001
 43
0.00000001
 40
0.0
 40
0.0
 40
0.0
 40
0.0
 40
0.127711854033614
 40
0.2523621141955315
 40
0.3748537650566255
 40
0.4969693854038488
 40
0.619273165524218
 40
0.7424854443019966
 40
0.8694478780376609
 40
0.9999999999999999
 40
0.9999999999999999
 40
0.9999999999999999
 40
0.9999999999999999
 10
148.7389760163318
 20
82.17143757321779
 30
0.0
 10
148.750263628718
 20
82.16056141772204
 30
0.0
 10
148.7725682593065
 20
82.13906983719494
 30
0.0
 10
148.8098437460347
 20
82.11201591457917
 30
0.0
 10
148.8483440820877
 20
82.08807463828605
 30
0.0
 10
148.8893497295217
 20
82.06935569716133
 30
0.0
 10
148.931800525367
 20
82.05403930008056
 30
0.0
 10
148.9763075455684
 20
82.04341805485657
 30
0.0
 10
149.0226741866919
 20
82.03731016615704
 30
0.0
 10
149.0542447985016
 20
82.03638524490668
 30
0.0
 10
149.070250147606
 20
82.03591633769655
 30
0.0
  0
SPLINE
  5
FC
330
1F
100
AcDbEntity
  8
0
  6
Continuous
 62
     7
370
    25
100
AcDbSpline
210
0.0
220
0.0
230
1.0
 70
     8
 71
     3
 72
    15
 73
    11
 74
     0
 42
0.00000001
 43
0.00000001
 40
0.0
 40
0.0
 40
0.0
 40
0.0
 40
0.145245998029722
 40
0.2839773123111047
 40
0.4135645357275248
 40
0.5387150251446058
 40
0.6570052502158948
 40
0.7736984629726797
 40
0.8866940707303826
 40
1.0
 40
1.0
 40
1.0
 40
1.0
 10
148.6185126958685
 20
82.51776961954985
 30
0.0
 10
148.6186954595928
 20
82.49952584665225
 30
0.0
 10
148.6190527895841
 20
82.4638565844065
 30
0.0
 10
148.6258349618203
 20
82.41233717185432
 30
0.0
 10
148.6341284167299
 20
82.36359956707093
 30
0.0
 10
148.6477728759393
 20
82.31873253164444
 30
0.0
 10
148.6643305981986
 20
82.27656623258041
 30
0.0
 10
148.6859133099015
 20
82.23853303038662
 30
0.0
 10
148.7095561173077
 20
82.20239114947523
 30
0.0
 10
148.729160422363
 20
82.18176486007138
 30
0.0
 10
148.7389760163318
 20
82.17143757321779
 30
0.0
  0
SPLINE
  5
FD
330
1F
100
AcDbEntity
  8
0
  6
Continuous
 62
     7
370
    25
100
AcDbSpline
210
0.0
220
0.0
230
1.0
 70
     8
 71
     3
 72
    15
 73
    11
 74
     0
 42
0.00000001
 43
0.00000001
 40
0.0
 40
0.0
 40
0.0
 40
0.0
 40
0.1193556939378555
 40
0.2390663805212362
 40
0.3573840708360864
 40
0.4787728926029034
 40
0.601391163443813
 40
0.7292416297469773
 40
0.8608048514681803
 40
1.0
 40
1.0
 40
1.0
 40
1.0
 10
149.4015242788801
 20
82.15637965815988
 30
0.0
 10
149.4123982897022
 20
82.16785602735952
 30
0.0
 10
149.4341786532796
 20
82.1908428992511
 30
0.0
 10
149.4617419707963
 20
82.22944070594585
 30
0.0
 10
149.4855747372266
 20
82.27067575857417
 30
0.0
 10
149.5049507676073
 20
82.31463208273034
 30
0.0
 10
149.5202562119436
 20
82.36149177403777
 30
0.0
 10
149.530623304018
 20
82.4110548743302
 30
0.0
 10
149.5368402561038
 20
82.46351451970084
 30
0.0
 10
149.5377125003313
 20
82.49934790504797
 30
0.0
 10
149.5381609155167
 20
82.51776961954985
 30
0.0
  0
LINE
  5
FE
330
1F
100
AcDbEntity
  8
0
  6
Continuous
 62
     7
370
    25
100
AcDbLine
 10
149.5381609155
 20
82.5177696195
 30
0.0
 11
149.5381609155
 21
83.2857232875
 31
0.0
  0
LINE
  5
FF
330
1F
100
AcDbEntity
  8
0
  6
Continuous
 62
     7
370
    25
100
AcDbLine
 10
148.6185126959
 20
83.2857232875
 30
0.0
 11
148.6185126959
 21
82.5177696195
 31
0.0
  0
LINE
  5
100
330
1F
100
AcDbEntity
  8
0
  6
Continuous
 62
     7
370
    25
100
AcDbLine
 10
150.6223307997
 20
83.2857232875
 30
0.0
 11
149.8231459005
 21
83.2857232875
 31
0.0
  0
LINE
  5
101
330
1F
100
AcDbEntity
  8
0
  6
Continuous
 62
     7
370
    25
100
AcDbLine
 10
150.6223307997
 20
82.4424800443
 30
0.0
 11
150.6223307997
 21
83.2857232875
 31
0.0
  0
SPLINE
  5
102
330
1F
100
AcDbEntity
  8
0
  6
Continuous
 62
     7
370
    25
100
AcDbSpline
210
0.0
220
0.0
230
1.0
 70
     8
 71
     3
 72
    15
 73
    11
 74
     0
 42
0.00000001
 43
0.00000001
 40
0.0
 40
0.0
 40
0.0
 40
0.0
 40
0.121504244690736
 40
0.2399194382132705
 40
0.3607014484775901
 40
0.481398205856563
 40
0.6046686543565305
 40
0.7308278400410386
 40
0.8619579002966855
 40
1.0
 40
1.0
 40
1.0
 40
1.0
 10
149.9285513059071
 20
82.21661131839154
 30
0.0
 10
149.9387197816226
 20
82.2068383677123
 30
0.0
 10
149.9587982158152
 20
82.18754092800049
 30
0.0
 10
149.9932391959549
 20
82.16366428358465
 30
0.0
 10
150.0290234911475
 20
82.14209119516757
 30
0.0
 10
150.0680868216947
 20
82.12571385404887
 30
0.0
 10
150.1087503808391
 20
82.11178781775105
 30
0.0
 10
150.1521566826078
 20
82.10360669148444
 30
0.0
 10
150.1975150824381
 20
82.09665615992347
 30
0.0
 10
150.2287493551867
 20
82.09632026043413
 30
0.0
 10
150.2447675221233
 20
82.09614799792823
 30
0.0
  0
SPLINE
  5
103
330
1F
100
AcDbEntity
  8
0
  6
Continuous
 62
     7
370
    25
100
AcDbSpline
210
0.0
220
0.0
230
1.0
 70
     8
 71
     3
 72
    11
 73
     7
 74
     0
 42
0.00000001
 43
0.00000001
 40
0.0
 40
0.0
 40
0.0
 40
0.0
 40
0.2562600332085404
 40
0.5016208045865213
 40
0.7449078564687275
 40
1.0
 40
1.0
 40
1.0
 40
1.0
 10
149.8231459005017
 20
82.4725958743761
 30
0.0
 10
149.8244063300955
 20
82.44828687726559
 30
0.0
 10
149.8268735806421
 20
82.40070279426759
 30
0.0
 10
149.8471018686798
 20
82.33246384066379
 30
0.0
 10
149.8805772622931
 20
82.26974605133583
 30
0.0
 10
149.9123094119069
 20
82.23460039404995
 30
0.0
 10
149.9285513059071
 20
82.21661131839154
 30
0.0
  0
LINE
  5
104
330
1F
100
AcDbEntity
  8
0
  6
Continuous
 62
     7
370
    25
100
AcDbLine
 10
149.8231459005
 20
83.2857232875
 30
0.0
 11
149.8231459005
 21
82.4725958744
 31
0.0
  0
SPLINE
  5
105
330
1F
100
AcDbEntity
  8
0
  6
Continuous
 62
     7
370
    25
100
AcDbSpline
210
0.0
220
0.0
230
1.0
 70
     8
 71
     3
 72
    11
 73
     7
 74
     0
 42
0.00000001
 43
0.00000001
 40
0.0
 40
0.0
 40
0.0
 40
0.0
 40
0.251609517155849
 40
0.4964930798665581
 40
0.7426069856111293
 40
1.0
 40
1.0
 40
1.0
 40
1.0
 10
150.2447675221233
 20
82.09614799792823
 30
0.0
 10
150.2715096159505
 20
82.09769198712819
 30
0.0
 10
150.3242789415167
 20
82.10073869204552
 30
0.0
 10
150.4004392930613
 20
82.12379161693714
 30
0.0
 10
150.470682033117
 20
82.1624067607918
 30
0.0
 10
150.5105085638284
 20
82.19827530094534
 30
0.0
 10
150.5308679082237
 20
82.21661131839154
 30
0.0
  0
SPLINE
  5
106
330
1F
100
AcDbEntity
  8
0
  6
Continuous
 62
     7
370
    25
100
AcDbSpline
210
0.0
220
0.0
230
1.0
 70
     8
 71
     3
 72
    11
 73
     7
 74
     0
 42
0.00000001
 43
0.00000001
 40
0.0
 40
0.0
 40
0.0
 40
0.0
 40
0.2499695538886842
 40
0.4922399851273391
 40
0.7405148106355968
 40
1.0
 40
1.0
 40
1.0
 40
1.0
 10
150.5308679082237
 20
82.21661131839154
 30
0.0
 10
150.5450164785481
 20
82.23204231164057
 30
0.0
 10
150.5728778398127
 20
82.26242901981857
 30
0.0
 10
150.6014254977007
 20
82.31787994083115
 30
0.0
 10
150.6195022644157
 20
82.37832158009851
 30
0.0
 10
150.6213741785095
 20
82.42078141241427
 30
0.0
 10
150.6223307996866
 20
82.44248004426026
 30
0.0
  0
LINE
  5
107
330
1F
100
AcDbEntity
  8
0
  6
Continuous
 62
     7
370
    25
100
AcDbLine
 10
145.7946130877
 20
97.9544752634
 30
0.0
 11
153.3798640414
 21
97.9544752634
 31
0.0
  0
LINE
  5
108
330
1F
100
AcDbEntity
  8
0
  6
Continuous
 62
     7
370
    25
100
AcDbLine
 10
125.3769274759
 20
61.3479130633
 30
0.0
 11
125.3769274759
 21
94.1465186203
 31
0.0
  0
LINE
  5
109
330
1F
100
AcDbEntity
  8
0
  6
Continuous
 62
     7
370
    25
100
AcDbLine
 10
122.0872385646
 20
77.7472158418
 30
0.0
 11
122.0872385646
 21
92.2472158418
 31
0.0
  0
LINE
  5
10A
330
1F
100
AcDbEntity
  8
0
  6
Continuous
 62
     7
370
    25
100
AcDbLine
 10
122.0872385646
 20
63.2472158418
 30
0.0
 11
122.0872385646
 21
77.7472158418
 31
0.0
  0
LINE
  5
10B
330
1F
100
AcDbEntity
  8
0
  6
Continuous
 62
     7
370
    18
100
AcDbLine
 10
122.5344041041
 20
92.5053869864
 30
0.0
 11
141.7872385646
 21
93.1070380633
 31
0.0
  0
LINE
  5
10C
330
1F
100
AcDbEntity
  8
0
  6
Continuous
 62
     7
370
    18
100
AcDbLine
 10
122.5344041041
 20
62.9890446972
 30
0.0
 11
141.7872385646
 21
62.3873936203
 31
0.0
  0
LINE
  5
10D
330
1F
100
AcDbEntity
  8
0
  6
Continuous
 62
     7
370
    25
100
AcDbLine
 10
141.7872385646
 20
60.8350908418
 30
0.0
 11
141.7872385646
 21
94.6593408418
 31
0.0
  0
LINE
  5
10E
330
1F
100
AcDbEntity
  8
FORMAT
  6
CENTERX2
370
    18
100
AcDbLine
 10
157.1509232876
 20
77.7472158418
 30
0.0
 11
120.0872385646
 21
77.7472158418
 31
0.0
  0
SPLINE
  5
10F
330
1F
100
AcDbEntity
  8
0
  6
Continuous
 62
     7
370
    25
100
AcDbSpline
210
0.0
220
0.0
230
1.0
 70
    24
 71
     3
 72
    18
 73
    14
 74
     0
 42
0.00000001
 43
0.00000001
 40
0.0
 40
0.0
 40
0.0
 40
0.0
 40
0.2500000000000004
 40
0.2500000000000004
 40
0.5000000000000009
 40
0.5000000000000009
 40
0.562500000000001
 40
0.562500000000001
 40
0.625000000000001
 40
0.625000000000001
 40
0.7500000000000007
 40
0.7500000000000007
 40
1.0
 40
1.0
 40
1.0
 40
1.0
 10
169.502268007376
 20
87.85084555262576
 30
0.0
 10
170.9309773570562
 20
88.67571128025733
 30
0.0
 10
172.3701028313386
 20
89.50659076023189
 30
0.0
 10
175.2783667196975
 20
91.18567769905039
 30
0.0
 10
176.7477282539801
 20
92.03401397640532
 30
0.0
 10
178.60749901409
 20
93.10775312538577
 30
0.0
 10
178.9813384191897
 20
93.32358940655382
 30
0.0
 10
179.7256260831083
 20
93.75330408967172
 30
0.0
 10
180.096476950684
 20
93.96741493789575
 30
0.0
 10
181.2053185309892
 20
94.60760492277359
 30
0.0
 10
181.9395895451471
 20
95.03153649045584
 30
0.0
 10
184.1293299098849
 20
96.29578367949257
 30
0.0
 10
185.5717775203128
 20
97.12858119566508
 30
0.0
 10
187.0022680073761
 20
97.95447526344422
 30
0.0
  0
SPLINE
  5
110
330
1F
100
AcDbEntity
  8
0
  6
Continuous
 62
     7
370
    25
100
AcDbSpline
210
0.0
220
0.0
230
1.0
 70
    24
 71
     3
 72
    18
 73
    14
 74
     0
 42
0.00000001
 43
0.00000001
 40
0.0
 40
0.0
 40
0.0
 40
0.0
 40
0.2499999999999996
 40
0.2499999999999996
 40
0.4999999999999991
 40
0.4999999999999991
 40
0.5624999999999991
 40
0.5624999999999991
 40
0.6249999999999991
 40
0.6249999999999991
 40
0.7499999999999994
 40
0.7499999999999994
 40
1.0
 40
1.0
 40
1.0
 40
1.0
 10
187.002268007376
 20
97.95447526344424
 30
0.0
 10
188.4309773570562
 20
97.12960953581266
 30
0.0
 10
189.8701028313385
 20
96.29873005583809
 30
0.0
 10
192.7783667196975
 20
94.61964311701959
 30
0.0
 10
194.24772825398
 20
93.77130683966469
 30
0.0
 10
196.10749901409
 20
92.69756769068422
 30
0.0
 10
196.4813384191897
 20
92.48173140951619
 30
0.0
 10
197.2256260831083
 20
92.05201672639829
 30
0.0
 10
197.596476950684
 20
91.83790587817424
 30
0.0
 10
198.7053185309892
 20
91.19771589329639
 30
0.0
 10
199.4395895451471
 20
90.77378432561417
 30
0.0
 10
201.6293299098849
 20
89.50953713657744
 30
0.0
 10
203.0717775203128
 20
88.67673962040493
 30
0.0
 10
204.5022680073761
 20
87.85084555262576
 30
0.0
  0
SPLINE
  5
111
330
1F
100
AcDbEntity
  8
0
  6
Continuous
 62
     7
370
    25
100
AcDbSpline
210
0.0
220
0.0
230
1.0
 70
    24
 71
     3
 72
    14
 73
    10
 74
     0
 42
0.00000001
 43
0.00000001
 40
0.0
 40
0.0
 40
0.0
 40
0.0
 40
0.25
 40
0.25
 40
0.4999999999999999
 40
0.4999999999999999
 40
0.75
 40
0.75
 40
1.0
 40
1.0
 40
1.0
 40
1.0
 10
204.502268007376
 20
87.85084555262577
 30
0.0
 10
204.502268007376
 20
86.2060995822176
 30
0.0
 10
204.502268007376
 20
84.54617445356996
 30
0.0
 10
204.502268007376
 20
81.18193656750988
 30
0.0
 10
204.502268007376
 20
79.47571483106005
 30
0.0
 10
204.502268007376
 20
76.01391305523711
 30
0.0
 10
204.502268007376
 20
74.31038672349118
 30
0.0
 10
204.502268007376
 20
70.94767171524506
 30
0.0
 10
204.502268007376
 20
69.28815249391774
 30
0.0
 10
204.502268007376
 20
67.64358613098885
 30
0.0
  0
SPLINE
  5
112
330
1F
100
AcDbEntity
  8
0
  6
Continuous
 62
     7
370
    25
100
AcDbSpline
210
0.0
220
0.0
230
1.0
 70
    24
 71
     3
 72
    18
 73
    14
 74
     0
 42
0.00000001
 43
0.00000001
 40
0.0
 40
0.0
 40
0.0
 40
0.0
 40
0.2500000000000003
 40
0.2500000000000003
 40
0.5000000000000007
 40
0.5000000000000007
 40
0.5625000000000008
 40
0.5625000000000008
 40
0.6250000000000009
 40
0.6250000000000009
 40
0.7500000000000006
 40
0.7500000000000006
 40
1.0
 40
1.0
 40
1.0
 40
1.0
 10
204.5022680073761
 20
67.64358613098887
 30
0.0
 10
203.0735586576959
 20
66.8187204033573
 30
0.0
 10
201.6344331834136
 20
65.98784092338273
 30
0.0
 10
198.7261692950546
 20
64.30875398456422
 30
0.0
 10
197.2568077607721
 20
63.46041770720931
 30
0.0
 10
195.3970370006622
 20
62.38667855822885
 30
0.0
 10
195.0231975955624
 20
62.17084227706081
 30
0.0
 10
194.2789099316439
 20
61.74112759394291
 30
0.0
 10
193.9080590640681
 20
61.52701674571887
 30
0.0
 10
192.7992174837629
 20
60.88682676084102
 30
0.0
 10
192.064946469605
 20
60.4628951931588
 30
0.0
 10
189.8752061048672
 20
59.19864800412206
 30
0.0
 10
188.4327584944393
 20
58.36585048794955
 30
0.0
 10
187.002268007376
 20
57.5399564201704
 30
0.0
  0
SPLINE
  5
113
330
1F
100
AcDbEntity
  8
0
  6
Continuous
 62
     7
370
    25
100
AcDbSpline
210
0.0
220
0.0
230
1.0
 70
    24
 71
     3
 72
    18
 73
    14
 74
     0
 42
0.00000001
 43
0.00000001
 40
0.0
 40
0.0
 40
0.0
 40
0.0
 40
0.2499999999999999
 40
0.2499999999999999
 40
0.4999999999999998
 40
0.4999999999999998
 40
0.5624999999999998
 40
0.5624999999999998
 40
0.6249999999999998
 40
0.6249999999999998
 40
0.7499999999999998
 40
0.7499999999999998
 40
1.0
 40
1.0
 40
1.0
 40
1.0
 10
187.0022680073761
 20
57.53995642017039
 30
0.0
 10
185.5735586576959
 20
58.36482214780196
 30
0.0
 10
184.1344331834136
 20
59.19570162777653
 30
0.0
 10
181.2261692950546
 20
60.87478856659504
 30
0.0
 10
179.7568077607721
 20
61.72312484394994
 30
0.0
 10
177.8970370006622
 20
62.7968639929304
 30
0.0
 10
177.5231975955624
 20
63.01270027409844
 30
0.0
 10
176.7789099316438
 20
63.44241495721634
 30
0.0
 10
176.4080590640681
 20
63.65652580544039
 30
0.0
 10
175.2992174837629
 20
64.29671579031823
 30
0.0
 10
174.564946469605
 20
64.72064735800045
 30
0.0
 10
172.3752061048672
 20
65.9848945470372
 30
0.0
 10
170.9327584944393
 20
66.8176920632097
 30
0.0
 10
169.502268007376
 20
67.64358613098887
 30
0.0
  0
SPLINE
  5
114
330
1F
100
AcDbEntity
  8
0
  6
Continuous
 62
     7
370
    25
100
AcDbSpline
210
0.0
220
0.0
230
1.0
 70
    24
 71
     3
 72
    14
 73
    10
 74
     0
 42
0.00000001
 43
0.00000001
 40
0.0
 40
0.0
 40
0.0
 40
0.0
 40
0.25
 40
0.25
 40
0.5
 40
0.5
 40
0.75
 40
0.75
 40
1.0
 40
1.0
 40
1.0
 40
1.0
 10
169.502268007376
 20
67.64358613098885
 30
0.0
 10
169.502268007376
 20
69.28833210139702
 30
0.0
 10
169.502268007376
 20
70.94825723004466
 30
0.0
 10
169.502268007376
 20
74.31249511610474
 30
0.0
 10
169.502268007376
 20
76.01871685255458
 30
0.0
 10
169.502268007376
 20
79.4805186283775
 30
0.0
 10
169.502268007376
 20
81.18404496012344
 30
0.0
 10
169.502268007376
 20
84.54675996836956
 30
0.0
 10
169.502268007376
 20
86.2062791896969
 30
0.0
 10
169.502268007376
 20
87.85084555262576
 30
0.0
  0
CIRCLE
  5
115
330
1F
100
AcDbEntity
  8
0
  6
Continuous
 62
     7
370
    25
100
AcDbCircle
 10
187.0022680074
 20
77.7472158418
 30
0.0
 40
17.25000000000003
  0
CIRCLE
  5
116
330
1F
100
AcDbEntity
  8
0
  6
Continuous
 62
     7
370
    25
100
AcDbCircle
 10
187.0022680074
 20
77.7472158418
 30
0.0
 40
13.49999999999997
  0
CIRCLE
  5
117
330
1F
100
AcDbEntity
  8
0
  6
Continuous
 62
     7
370
    25
100
AcDbCircle
 10
187.0022680074
 20
77.7472158418
 30
0.0
 40
12.14059949999998
  0
CIRCLE
  5
118
330
1F
100
AcDbEntity
  8
0
  6
Continuous
 62
     7
370
    25
100
AcDbCircle
 10
187.0022680074
 20
77.7472158418
 30
0.0
 40
11.62098481779623
  0
CIRCLE
  5
119
330
1F
100
AcDbEntity
  8
0
  6
Continuous
 62
     7
370
    25
100
AcDbCircle
 10
187.0022680074
 20
77.7472158418
 30
0.0
 40
11.49999999999997
  0
INSERT
  5
125
330
1F
100
AcDbEntity
  8
FORMAT
100
AcDbBlockReference
  2
SW_CENTERMARKSYMBOL_0
 10
187.0022680074
 20
77.7472158418
 30
0.0
  0
ARC
  5
126
330
1F
100
AcDbEntity
  8
0
  6
Continuous
 62
     7
370
    18
100
AcDbCircle
 10
187.0022680074
 20
77.7472158418
 30
0.0
 40
13.30146825959376
100
AcDbArc
 50
75.0
 51
345.0
  0
LINE
  5
127
330
1F
100
AcDbEntity
  8
0
  6
Continuous
 62
     7
370
    25
100
AcDbLine
 10
144.2315761319
 20
147.8875569451
 30
0.0
 11
144.0872385646
 21
147.637556945
 31
0.0
  0
LINE
  5
128
330
1F
100
AcDbEntity
  8
0
  6
Continuous
 62
     7
370
    25
100
AcDbLine
 10
144.0872385646
 20
113.137556945
 30
0.0
 11
144.2315761319
 21
112.887556945
 31
0.0
  0
LINE
  5
129
330
1F
100
AcDbEntity
  8
0
  6
Continuous
 62
     7
370
    25
100
AcDbLine
 10
154.9429009973
 20
112.887556945
 30
0.0
 11
155.0872385646
 21
113.137556945
 31
0.0
  0
LINE
  5
12A
330
1F
100
AcDbEntity
  8
0
  6
Continuous
 62
     7
370
    25
100
AcDbLine
 10
155.0872385646
 20
147.637556945
 30
0.0
 11
154.9429009973
 21
147.8875569451
 31
0.0
  0
LINE
  5
12B
330
1F
100
AcDbEntity
  8
0
  6
Continuous
 62
     7
370
    25
100
AcDbLine
 10
144.0872385646
 20
147.3715569451
 30
0.0
 11
125.3769274759
 21
146.7868597235
 31
0.0
  0
LINE
  5
12C
330
1F
100
AcDbEntity
  8
0
  6
Continuous
 62
     7
370
    25
100
AcDbLine
 10
125.3769274759
 20
113.9882541666
 30
0.0
 11
144.0872385646
 21
113.403556945
 31
0.0
  0
LINE
  5
12D
330
1F
100
AcDbEntity
  8
0
  6
Continuous
 62
     7
370
    25
100
AcDbLine
 10
125.3769274759
 20
146.7868597235
 30
0.0
 11
122.0872385646
 21
144.8875569451
 31
0.0
  0
LINE
  5
12E
330
1F
100
AcDbEntity
  8
0
  6
Continuous
 62
     7
370
    25
100
AcDbLine
 10
122.0872385646
 20
115.887556945
 30
0.0
 11
125.3769274759
 21
113.9882541666
 31
0.0
  0
SPLINE
  5
12F
330
1F
100
AcDbEntity
  8
0
  6
Continuous
 62
     7
370
    25
100
AcDbSpline
210
0.0
220
0.0
230
1.0
 70
     8
 71
     3
 72
    18
 73
    14
 74
     0
 42
0.00000001
 43
0.00000001
 40
0.0
 40
0.0
 40
0.0
 40
0.0
 40
0.2499999999999996
 40
0.2499999999999996
 40
0.4999999999999991
 40
0.4999999999999991
 40
0.5624999999999991
 40
0.5624999999999991
 40
0.6249999999999991
 40
0.6249999999999991
 40
0.7499999999999994
 40
0.7499999999999994
 40
1.0
 40
1.0
 40
1.0
 40
1.0
 10
145.7946130877398
 20
130.38755694505
 30
0.0
 10
145.3183766378464
 20
131.8162662947302
 30
0.0
 10
144.9258716637986
 20
133.2553917690125
 30
0.0
 10
144.3821249339747
 20
136.1636556573714
 30
0.0
 10
144.2326767612101
 20
137.633017191654
 30
0.0
 10
144.2313086633145
 20
139.4927879517639
 30
0.0
 10
144.2402333363876
 20
139.8666273568637
 30
0.0
 10
144.2761924727837
 20
140.6109150207822
 30
0.0
 10
144.3031853505597
 20
140.981765888358
 30
0.0
 10
144.4100336786492
 20
142.0906074686631
 30
0.0
 10
144.5158193055309
 20
142.8248784828211
 30
0.0
 10
144.9243063773448
 20
145.0146188475588
 30
0.0
 10
145.3177829253855
 20
146.4570664579868
 30
0.0
 10
145.7946130877399
 20
147.88755694505
 30
0.0
  0
LINE
  5
130
330
1F
100
AcDbEntity
  8
0
  6
Continuous
 62
     7
370
    25
100
AcDbLine
 10
145.7946130877
 20
147.8875569451
 30
0.0
 11
153.3798640414
 21
147.8875569451
 31
0.0
  0
SPLINE
  5
131
330
1F
100
AcDbEntity
  8
0
  6
Continuous
 62
     7
370
    25
100
AcDbSpline
210
0.0
220
0.0
230
1.0
 70
     8
 71
     3
 72
    18
 73
    14
 74
     0
 42
0.00000001
 43
0.00000001
 40
0.0
 40
0.0
 40
0.0
 40
0.0
 40
0.2499999999999996
 40
0.2499999999999996
 40
0.4999999999999991
 40
0.4999999999999991
 40
0.5624999999999991
 40
0.5624999999999991
 40
0.6249999999999991
 40
0.6249999999999991
 40
0.7499999999999994
 40
0.7499999999999994
 40
1.0
 40
1.0
 40
1.0
 40
1.0
 10
153.379864041449
 20
130.38755694505
 30
0.0
 10
153.8561004913423
 20
131.8162662947302
 30
0.0
 10
154.2486054653901
 20
133.2553917690125
 30
0.0
 10
154.7923521952141
 20
136.1636556573714
 30
0.0
 10
154.9418003679786
 20
137.633017191654
 30
0.0
 10
154.9431684658742
 20
139.4927879517639
 30
0.0
 10
154.9342437928012
 20
139.8666273568637
 30
0.0
 10
154.8982846564051
 20
140.6109150207822
 30
0.0
 10
154.8712917786291
 20
140.981765888358
 30
0.0
 10
154.7644434505395
 20
142.0906074686631
 30
0.0
 10
154.6586578236579
 20
142.8248784828211
 30
0.0
 10
154.2501707518439
 20
145.0146188475588
 30
0.0
 10
153.8566942038033
 20
146.4570664579868
 30
0.0
 10
153.3798640414489
 20
147.88755694505
 30
0.0
  0
LINE
  5
132
330
1F
100
AcDbEntity
  8
0
  6
Continuous
 62
     7
370
    25
100
AcDbLine
 10
145.7946130877
 20
130.387556945
 30
0.0
 11
153.3798640414
 21
130.387556945
 31
0.0
  0
SPLINE
  5
133
330
1F
100
AcDbEntity
  8
0
  6
Continuous
 62
     7
370
    25
100
AcDbSpline
210
0.0
220
0.0
230
1.0
 70
    24
 71
     3
 72
    13
 73
     9
 74
     0
 42
0.00000001
 43
0.00000001
 40
0.0
 40
0.0
 40
0.0
 40
0.0
 40
0.1587427395074892
 40
0.3248499032264132
 40
0.4908526096830553
 40
0.6605220556109567
 40
0.8302864759863259
 40
1.0
 40
1.0
 40
1.0
 40
1.0
 10
144.2335900206931
 20
112.88755694505
 30
0.0
 10
144.2414548630525
 20
112.88755694505
 30
0.0
 10
144.2575494150759
 20
112.88755694505
 30
0.0
 10
144.3996496789094
 20
112.88755694505
 30
0.0
 10
144.6254846888396
 20
112.88755694505
 30
0.0
 10
144.9405493374138
 20
112.88755694505
 30
0.0
 10
145.3276742969117
 20
112.88755694505
 30
0.0
 10
145.6389823817921
 20
112.88755694505
 30
0.0
 10
145.79461308774
 20
112.88755694505
 30
0.0
  0
SPLINE
  5
134
330
1F
100
AcDbEntity
  8
0
  6
Continuous
 62
     7
370
    25
100
AcDbSpline
210
0.0
220
0.0
230
1.0
 70
    24
 71
     3
 72
    14
 73
    10
 74
     0
 42
0.00000001
 43
0.00000001
 40
0.0
 40
0.0
 40
0.0
 40
0.0
 40
0.1639469055449046
 40
0.3279395409926725
 40
0.4918482763620393
 40
0.6587971852996386
 40
0.8258503269467583
 40
0.9927684684310456
 40
1.0
 40
1.0
 40
1.0
 40
1.0
 10
145.79461308774
 20
147.88755694505
 30
0.0
 10
145.6441160415792
 20
147.88755694505
 30
0.0
 10
145.3430799709398
 20
147.88755694505
 30
0.0
 10
144.9653859642558
 20
147.88755694505
 30
0.0
 10
144.651577086843
 20
147.88755694505
 30
0.0
 10
144.4148520417178
 20
147.88755694505
 30
0.0
 10
144.2760262962873
 20
147.88755694505
 30
0.0
 10
144.2168474575344
 20
147.88755694505
 30
0.0
 10
144.2329225073514
 20
147.88755694505
 30
0.0
 10
144.2335900206931
 20
147.88755694505
 30
0.0
  0
SPLINE
  5
135
330
1F
100
AcDbEntity
  8
0
  6
Continuous
 62
     7
370
    25
100
AcDbSpline
210
0.0
220
0.0
230
1.0
 70
     8
 71
     3
 72
    18
 73
    14
 74
     0
 42
0.00000001
 43
0.00000001
 40
0.0
 40
0.0
 40
0.0
 40
0.0
 40
0.2500000000000004
 40
0.2500000000000004
 40
0.5000000000000009
 40
0.5000000000000009
 40
0.562500000000001
 40
0.562500000000001
 40
0.625000000000001
 40
0.625000000000001
 40
0.7500000000000007
 40
0.7500000000000007
 40
1.0
 40
1.0
 40
1.0
 40
1.0
 10
145.7946130877398
 20
112.88755694505
 30
0.0
 10
145.3183766378464
 20
114.3162662947301
 30
0.0
 10
144.9258716637986
 20
115.7553917690125
 30
0.0
 10
144.3821249339747
 20
118.6636556573714
 30
0.0
 10
144.2326767612101
 20
120.133017191654
 30
0.0
 10
144.2313086633145
 20
121.9927879517639
 30
0.0
 10
144.2402333363876
 20
122.3666273568637
 30
0.0
 10
144.2761924727837
 20
123.1109150207822
 30
0.0
 10
144.3031853505597
 20
123.481765888358
 30
0.0
 10
144.4100336786492
 20
124.5906074686631
 30
0.0
 10
144.5158193055309
 20
125.3248784828211
 30
0.0
 10
144.9243063773448
 20
127.5146188475588
 30
0.0
 10
145.3177829253855
 20
128.9570664579868
 30
0.0
 10
145.7946130877399
 20
130.38755694505
 30
0.0
  0
LINE
  5
136
330
1F
100
AcDbEntity
  8
0
  6
Continuous
 62
     7
370
    25
100
AcDbLine
 10
144.0872385646
 20
113.137556945
 30
0.0
 11
144.0872385646
 21
147.637556945
 31
0.0
  0
SPLINE
  5
137
330
1F
100
AcDbEntity
  8
0
  6
Continuous
 62
     7
370
    25
100
AcDbSpline
210
0.0
220
0.0
230
1.0
 70
     8
 71
     3
 72
    18
 73
    14
 74
     0
 42
0.00000001
 43
0.00000001
 40
0.0
 40
0.0
 40
0.0
 40
0.0
 40
0.2500000000000004
 40
0.2500000000000004
 40
0.5000000000000009
 40
0.5000000000000009
 40
0.562500000000001
 40
0.562500000000001
 40
0.625000000000001
 40
0.625000000000001
 40
0.7500000000000007
 40
0.7500000000000007
 40
1.0
 40
1.0
 40
1.0
 40
1.0
 10
153.379864041449
 20
112.88755694505
 30
0.0
 10
153.8561004913423
 20
114.3162662947301
 30
0.0
 10
154.2486054653901
 20
115.7553917690125
 30
0.0
 10
154.7923521952141
 20
118.6636556573714
 30
0.0
 10
154.9418003679786
 20
120.133017191654
 30
0.0
 10
154.9431684658742
 20
121.9927879517639
 30
0.0
 10
154.9342437928012
 20
122.3666273568637
 30
0.0
 10
154.8982846564051
 20
123.1109150207822
 30
0.0
 10
154.8712917786291
 20
123.481765888358
 30
0.0
 10
154.7644434505395
 20
124.5906074686631
 30
0.0
 10
154.6586578236579
 20
125.3248784828211
 30
0.0
 10
154.2501707518439
 20
127.5146188475588
 30
0.0
 10
153.8566942038033
 20
128.9570664579868
 30
0.0
 10
153.3798640414489
 20
130.38755694505
 30
0.0
  0
SPLINE
  5
138
330
1F
100
AcDbEntity
  8
0
  6
Continuous
 62
     7
370
    25
100
AcDbSpline
210
0.0
220
0.0
230
1.0
 70
    24
 71
     3
 72
    14
 73
    10
 74
     0
 42
0.00000001
 43
0.00000001
 40
0.0
 40
0.0
 40
0.0
 40
0.0
 40
0.1639469055449046
 40
0.3279395409926725
 40
0.4918482763620393
 40
0.6587971852996386
 40
0.8258503269467583
 40
0.9927684684310456
 40
1.0
 40
1.0
 40
1.0
 40
1.0
 10
153.3798640414488
 20
147.88755694505
 30
0.0
 10
153.5303610876095
 20
147.88755694505
 30
0.0
 10
153.8313971582489
 20
147.88755694505
 30
0.0
 10
154.2090911649329
 20
147.88755694505
 30
0.0
 10
154.5229000423457
 20
147.88755694505
 30
0.0
 10
154.759625087471
 20
147.88755694505
 30
0.0
 10
154.8984508329015
 20
147.88755694505
 30
0.0
 10
154.9576296716543
 20
147.88755694505
 30
0.0
 10
154.9415546218374
 20
147.88755694505
 30
0.0
 10
154.9408871084956
 20
147.88755694505
 30
0.0
  0
SPLINE
  5
139
330
1F
100
AcDbEntity
  8
0
  6
Continuous
 62
     7
370
    25
100
AcDbSpline
210
0.0
220
0.0
230
1.0
 70
    24
 71
     3
 72
    13
 73
     9
 74
     0
 42
0.00000001
 43
0.00000001
 40
0.0
 40
0.0
 40
0.0
 40
0.0
 40
0.1587427395074892
 40
0.3248499032264132
 40
0.4908526096830553
 40
0.6605220556109567
 40
0.8302864759863259
 40
1.0
 40
1.0
 40
1.0
 40
1.0
 10
154.9408871084956
 20
112.88755694505
 30
0.0
 10
154.9330222661362
 20
112.88755694505
 30
0.0
 10
154.9169277141129
 20
112.88755694505
 30
0.0
 10
154.7748274502793
 20
112.88755694505
 30
0.0
 10
154.5489924403492
 20
112.88755694505
 30
0.0
 10
154.2339277917749
 20
112.88755694505
 30
0.0
 10
153.8468028322771
 20
112.88755694505
 30
0.0
 10
153.5354947473966
 20
112.88755694505
 30
0.0
 10
153.3798640414488
 20
112.88755694505
 30
0.0
  0
LINE
  5
13A
330
1F
100
AcDbEntity
  8
0
  6
Continuous
 62
     7
370
    25
100
AcDbLine
 10
155.0872385646
 20
113.137556945
 30
0.0
 11
155.0872385646
 21
147.637556945
 31
0.0
  0
LINE
  5
13B
330
1F
100
AcDbEntity
  8
0
  6
Continuous
 62
     7
370
    25
100
AcDbLine
 10
145.7946130877
 20
112.887556945
 30
0.0
 11
153.3798640414
 21
112.887556945
 31
0.0
  0
LINE
  5
13C
330
1F
100
AcDbEntity
  8
0
  6
Continuous
 62
     7
370
    25
100
AcDbLine
 10
125.3769274759
 20
130.387556945
 30
0.0
 11
125.3769274759
 21
146.7868597235
 31
0.0
  0
LINE
  5
13D
330
1F
100
AcDbEntity
  8
0
  6
Continuous
 62
     7
370
    25
100
AcDbLine
 10
125.3769274759
 20
113.9882541666
 30
0.0
 11
125.3769274759
 21
130.387556945
 31
0.0
  0
LINE
  5
13E
330
1F
100
AcDbEntity
  8
0
  6
Continuous
 62
     7
370
    25
100
AcDbLine
 10
122.0872385646
 20
115.887556945
 30
0.0
 11
122.0872385646
 21
144.8875569451
 31
0.0
  0
LINE
  5
13F
330
1F
100
AcDbEntity
  8
0
  6
Continuous
 62
     7
370
    18
100
AcDbLine
 10
122.5344041041
 20
145.1457280897
 30
0.0
 11
141.7872385646
 21
145.7473791666
 31
0.0
  0
LINE
  5
140
330
1F
100
AcDbEntity
  8
0
  6
Continuous
 62
     7
370
    18
100
AcDbLine
 10
122.5344041041
 20
115.6293858004
 30
0.0
 11
141.7872385646
 21
115.0277347235
 31
0.0
  0
LINE
  5
141
330
1F
100
AcDbEntity
  8
0
  6
Continuous
 62
     7
370
    25
100
AcDbLine
 10
141.7872385646
 20
113.4754319451
 30
0.0
 11
141.7872385646
 21
147.299681945
 31
0.0
  0
LINE
  5
142
330
1F
100
AcDbEntity
  8
FORMAT
  6
CENTERX2
370
    18
100
AcDbLine
 10
156.6759074696
 20
130.387556945
 30
0.0
 11
120.0872385646
 21
130.387556945
 31
0.0
  0
ENDSEC
  0
SECTION
  2
OBJECTS
  0
DICTIONARY
  5
C
330
0
100
AcDbDictionary
281
     1
  3
ACAD_GROUP
350
D
  3
ACAD_LAYOUT
350
1A
  3
ACAD_MLINESTYLE
350
17
  3
ACAD_PLOTSETTINGS
350
19
  3
ACAD_PLOTSTYLENAME
350
E
  3
ACAD_SCALELIST
350
47
  3
DWGPROPS
350
143
  0
DICTIONARY
  5
D
102
{ACAD_REACTORS
330
C
102
}
330
C
100
AcDbDictionary
281
     1
  0
DICTIONARY
  5
1A
102
{ACAD_REACTORS
330
C
102
}
330
C
100
AcDbDictionary
281
     1
  3
Layout1
350
1E
  3
Layout2
350
26
  3
Model
350
22
  0
DICTIONARY
  5
17
102
{ACAD_REACTORS
330
C
102
}
330
C
100
AcDbDictionary
281
     1
  3
Standard
350
18
  0
DICTIONARY
  5
19
102
{ACAD_REACTORS
330
C
102
}
330
C
100
AcDbDictionary
281
     1
  0
ACDBDICTIONARYWDFLT
  5
E
102
{ACAD_REACTORS
330
C
102
}
330
C
100
AcDbDictionary
281
     1
  3
Normal
350
F
100
AcDbDictionaryWithDefault
340
F
  0
DICTIONARY
  5
47
102
{ACAD_REACTORS
330
C
102
}
330
C
100
AcDbDictionary
281
     1
  3
A0
350
48
  3
A1
350
49
  3
A2
350
4A
  3
A3
350
4B
  3
A4
350
4C
  3
A5
350
4D
  3
A6
350
4E
  3
A7
350
4F
  3
A8
350
50
  3
A9
350
51
  3
B0
350
52
  3
B1
350
53
  3
B2
350
54
  3
B3
350
55
  3
B4
350
56
  3
B5
350
57
  3
B6
350
58
  0
XRECORD
  5
143
102
{ACAD_REACTORS
330
C
102
}
330
C
100
AcDbXrecord
280
     1
  1
DWGPROPS COOKIE
  2

  3

  4

  6

  7

  8
user28
  9

300
=
301
=
302
=
303
=
304
=
305
=
306
=
307
=
308
=
309
=
 40
0.0
 41
2460406.315187905
 42
2460406.315188449
  1

 90
        0
  0
LAYOUT
  5
1E
102
{ACAD_REACTORS
330
1A
102
}
330
1A
100
AcDbPlotSettings
  1

  2
none_device
  4

  6

 40
0.0
 41
0.0
 42
0.0
 43
0.0
 44
0.0
 45
0.0
 46
0.0
 47
0.0
 48
0.0
 49
0.0
140
0.0
141
0.0
142
1.0
143
1.0
 70
   688
 72
     1
 73
     0
 74
     5
  7

 75
    16
147
1.0
148
0.0
149
0.0
100
AcDbLayout
  1
Layout1
 70
     1
 71
     1
 10
0.0
 20
0.0
 11
420.0
 21
297.0
 12
0.0
 22
0.0
 32
0.0
 14
1.0000000000E+20
 24
1.0000000000E+20
 34
1.0000000000E+20
 15
-1.0000000000E+20
 25
-1.0000000000E+20
 35
-1.0000000000E+20
146
0.0
 13
0.0
 23
0.0
 33
0.0
 16
1.0
 26
0.0
 36
0.0
 17
0.0
 27
1.0
 37
0.0
 76
     0
330
1B
  0
LAYOUT
  5
26
102
{ACAD_REACTORS
330
1A
102
}
330
1A
100
AcDbPlotSettings
  1

  2
none_device
  4

  6

 40
0.0
 41
0.0
 42
0.0
 43
0.0
 44
0.0
 45
0.0
 46
0.0
 47
0.0
 48
0.0
 49
0.0
140
0.0
141
0.0
142
1.0
143
1.0
 70
   688
 72
     1
 73
     0
 74
     5
  7

 75
    16
147
1.0
148
0.0
149
0.0
100
AcDbLayout
  1
Layout2
 70
     1
 71
     2
 10
0.0
 20
0.0
 11
0.0
 21
0.0
 12
0.0
 22
0.0
 32
0.0
 14
0.0
 24
0.0
 34
0.0
 15
0.0
 25
0.0
 35
0.0
146
0.0
 13
0.0
 23
0.0
 33
0.0
 16
1.0
 26
0.0
 36
0.0
 17
0.0
 27
1.0
 37
0.0
 76
     0
330
23
  0
LAYOUT
  5
22
102
{ACAD_REACTORS
330
1A
102
}
330
1A
100
AcDbPlotSettings
  1

  2
none_device
  4
Letter_(8.50_x_11.00_Inches)
  6

 40
6.35
 41
6.35
 42
6.35000508
 43
6.35000508
 44
215.9
 45
279.4
 46
0.0
 47
0.0
 48
0.0
 49
0.0
140
0.0
141
0.0
142
1.0
143
1.0
 70
  1712
 72
     1
 73
     0
 74
     0
  7

 75
     0
147
1.0
148
0.0
149
0.0
100
AcDbLayout
  1
Model
 70
     1
 71
     0
 10
0.0
 20
0.0
 11
297.0
 21
210.0
 12
0.0
 22
0.0
 32
0.0
 14
0.0
 24
0.0
 34
0.0
 15
297.0
 25
210.0
 35
0.0
146
0.0
 13
0.0
 23
0.0
 33
0.0
 16
1.0
 26
0.0
 36
0.0
 17
0.0
 27
1.0
 37
0.0
 76
     0
330
1F
331
29
  0
MLINESTYLE
  5
18
102
{ACAD_REACTORS
330
17
102
}
330
17
100
AcDbMlineStyle
  2
Standard
 70
     0
  3

 62
   256
 51
90.0
 52
90.0
 71
     2
 49
0.5
 62
   256
  6
BYLAYER
 49
-0.5
 62
   256
  6
BYLAYER
  0
ACDBPLACEHOLDER
  5
F
102
{ACAD_REACTORS
330
E
102
}
330
E
  0
SCALE
  5
48
102
{ACAD_REACTORS
330
47
102
}
330
47
100
AcDbScale
 70
     0
300
1:1
140
1.0
141
1.0
290
     1
  0
SCALE
  5
49
102
{ACAD_REACTORS
330
47
102
}
330
47
100
AcDbScale
 70
     0
300
1:2
140
1.0
141
2.0
290
     0
  0
SCALE
  5
4A
102
{ACAD_REACTORS
330
47
102
}
330
47
100
AcDbScale
 70
     0
300
1:4
140
1.0
141
4.0
290
     0
  0
SCALE
  5
4B
102
{ACAD_REACTORS
330
47
102
}
330
47
100
AcDbScale
 70
     0
300
1:5
140
1.0
141
5.0
290
     0
  0
SCALE
  5
4C
102
{ACAD_REACTORS
330
47
102
}
330
47
100
AcDbScale
 70
     0
300
1:8
140
1.0
141
8.0
290
     0
  0
SCALE
  5
4D
102
{ACAD_REACTORS
330
47
102
}
330
47
100
AcDbScale
 70
     0
300
1:10
140
1.0
141
10.0
290
     0
  0
SCALE
  5
4E
102
{ACAD_REACTORS
330
47
102
}
330
47
100
AcDbScale
 70
     0
300
1:16
140
1.0
141
16.0
290
     0
  0
SCALE
  5
4F
102
{ACAD_REACTORS
330
47
102
}
330
47
100
AcDbScale
 70
     0
300
1:20
140
1.0
141
20.0
290
     0
  0
SCALE
  5
50
102
{ACAD_REACTORS
330
47
102
}
330
47
100
AcDbScale
 70
     0
300
1:30
140
1.0
141
30.0
290
     0
  0
SCALE
  5
51
102
{ACAD_REACTORS
330
47
102
}
330
47
100
AcDbScale
 70
     0
300
1:40
140
1.0
141
40.0
290
     0
  0
SCALE
  5
52
102
{ACAD_REACTORS
330
47
102
}
330
47
100
AcDbScale
 70
     0
300
1:50
140
1.0
141
50.0
290
     0
  0
SCALE
  5
53
102
{ACAD_REACTORS
330
47
102
}
330
47
100
AcDbScale
 70
     0
300
1:100
140
1.0
141
100.0
290
     0
  0
SCALE
  5
54
102
{ACAD_REACTORS
330
47
102
}
330
47
100
AcDbScale
 70
     0
300
2:1
140
2.0
141
1.0
290
     0
  0
SCALE
  5
55
102
{ACAD_REACTORS
330
47
102
}
330
47
100
AcDbScale
 70
     0
300
4:1
140
4.0
141
1.0
290
     0
  0
SCALE
  5
56
102
{ACAD_REACTORS
330
47
102
}
330
47
100
AcDbScale
 70
     0
300
8:1
140
8.0
141
1.0
290
     0
  0
SCALE
  5
57
102
{ACAD_REACTORS
330
47
102
}
330
47
100
AcDbScale
 70
     0
300
10:1
140
10.0
141
1.0
290
     0
  0
SCALE
  5
58
102
{ACAD_REACTORS
330
47
102
}
330
47
100
AcDbScale
 70
     0
300
100:1
140
100.0
141
1.0
290
     0
  0
ENDSEC
  0
EOF
