  0
SECTION
  2
HEADER
  9
$ACADVER
  1
AC1015
  9
$ACADMAINTVER
 70
     6
  9
$DWGCODEPAGE
  3
DOS932
  9
$INSBASE
 10
0.0
 20
0.0
 30
0.0
  9
$EXTMIN
 10
0.0
 20
0.0
 30
0.0
  9
$EXTMAX
 10
297.0
 20
210.0
 30
0.0
  9
$LIMMIN
 10
0.0
 20
0.0
  9
$LIMMAX
 10
297.0
 20
210.0
  9
$ORTHOMODE
 70
     0
  9
$REGENMODE
 70
     1
  9
$FILLMODE
 70
     1
  9
$QTEXTMODE
 70
     0
  9
$MIRRTEXT
 70
     1
  9
$LTSCALE
 40
1.0
  9
$ATTMODE
 70
     1
  9
$TEXTSIZE
 40
3.5277777778
  9
$TRACEWID
 40
1.0
  9
$TEXTSTYLE
  7
Standard
  9
$CLAYER
  8
0
  9
$CELTYPE
  6
ByLayer
  9
$CECOLOR
 62
   256
  9
$CELTSCALE
 40
1.0
  9
$DISPSILH
 70
     0
  9
$DIMSCALE
 40
1.0
  9
$DIMASZ
 40
2.728515625
  9
$DIMEXO
 40
1.0
  9
$DIMDLI
 40
3.75
  9
$DIMRND
 40
0.0
  9
$DIMDLE
 40
0.0
  9
$DIMEXE
 40
1.0
  9
$DIMTP
 40
0.0
  9
$DIMTM
 40
0.0
  9
$DIMTXT
 40
3.5277777778
  9
$DIMCEN
 40
2.5
  9
$DIMTSZ
 40
0.0
  9
$DIMTOL
 70
     0
  9
$DIMLIM
 70
     0
  9
$DIMTIH
 70
     1
  9
$DIMTOH
 70
     1
  9
$DIMSE1
 70
     0
  9
$DIMSE2
 70
     0
  9
$DIMTAD
 70
     1
  9
$DIMZIN
 70
     0
  9
$DIMBLK
  1

  9
$DIMASO
 70
     1
  9
$DIMSHO
 70
     1
  9
$DIMPOST
  1

  9
$DIMAPOST
  1

  9
$DIMALT
 70
     0
  9
$DIMALTD
 70
     3
  9
$DIMALTF
 40
0.0393700787
  9
$DIMLFAC
 40
1.0
  9
$DIMTOFL
 70
     1
  9
$DIMTVP
 40
0.0
  9
$DIMTIX
 70
     0
  9
$DIMSOXD
 70
     0
  9
$DIMSAH
 70
     0
  9
$DIMBLK1
  1

  9
$DIMBLK2
  1

  9
$DIMSTYLE
  2
ISO-25
  9
$DIMCLRD
 70
     0
  9
$DIMCLRE
 70
     0
  9
$DIMCLRT
 70
     0
  9
$DIMTFAC
 40
1.0
  9
$DIMGAP
 40
1.524
  9
$DIMJUST
 70
     0
  9
$DIMSD1
 70
     0
  9
$DIMSD2
 70
     0
  9
$DIMTOLJ
 70
     0
  9
$DIMTZIN
 70
     0
  9
$DIMALTZ
 70
     0
  9
$DIMALTTZ
 70
     0
  9
$DIMUPT
 70
     0
  9
$DIMDEC
 70
     2
  9
$DIMTDEC
 70
     2
  9
$DIMALTU
 70
     2
  9
$DIMALTTD
 70
     3
  9
$DIMTXSTY
  7
Standard
  9
$DIMAUNIT
 70
     0
  9
$DIMADEC
 70
     2
  9
$DIMALTRND
 40
0.0
  9
$DIMAZIN
 70
     0
  9
$DIMDSEP
 70
    44
  9
$DIMATFIT
 70
     3
  9
$DIMFRAC
 70
     0
  9
$DIMLDRBLK
  1

  9
$DIMLUNIT
 70
     2
  9
$DIMLWD
 70
    -2
  9
$DIMLWE
 70
    -2
  9
$DIMTMOVE
 70
     0
  9
$LUNITS
 70
     2
  9
$LUPREC
 70
     2
  9
$SKETCHINC
 40
1.0
  9
$FILLETRAD
 40
0.0
  9
$AUNITS
 70
     0
  9
$AUPREC
 70
     2
  9
$MENU
  1
.
  9
$ELEVATION
 40
0.0
  9
$PELEVATION
 40
0.0
  9
$THICKNESS
 40
0.0
  9
$LIMCHECK
 70
     0
  9
$CHAMFERA
 40
0.0
  9
$CHAMFERB
 40
0.0
  9
$CHAMFERC
 40
0.0
  9
$CHAMFERD
 40
0.0
  9
$SKPOLY
 70
     0
  9
$TDCREATE
 40
2460406.689348461
  9
$TDUCREATE
 40
2460406.314348461
  9
$TDUPDATE
 40
2460406.689349005
  9
$TDUUPDATE
 40
2460406.314349005
  9
$TDINDWG
 40
0.0000000116
  9
$TDUSRTIMER
 40
0.0000000116
  9
$USRTIMER
 70
     1
  9
$ANGBASE
 50
0.0
  9
$ANGDIR
 70
     0
  9
$PDMODE
 70
     0
  9
$PDSIZE
 40
-1.0
  9
$PLINEWID
 40
0.0
  9
$SPLFRAME
 70
     0
  9
$SPLINETYPE
 70
     6
  9
$SPLINESEGS
 70
     8
  9
$HANDSEED
  5
12F
  9
$SURFTAB1
 70
     6
  9
$SURFTAB2
 70
     6
  9
$SURFTYPE
 70
     6
  9
$SURFU
 70
     6
  9
$SURFV
 70
     6
  9
$UCSBASE
  2

  9
$UCSNAME
  2

  9
$UCSORG
 10
0.0
 20
0.0
 30
0.0
  9
$UCSXDIR
 10
1.0
 20
0.0
 30
0.0
  9
$UCSYDIR
 10
0.0
 20
1.0
 30
0.0
  9
$UCSORTHOREF
  2

  9
$UCSORTHOVIEW
 70
     0
  9
$UCSORGTOP
 10
0.0
 20
0.0
 30
0.0
  9
$UCSORGBOTTOM
 10
0.0
 20
0.0
 30
0.0
  9
$UCSORGLEFT
 10
0.0
 20
0.0
 30
0.0
  9
$UCSORGRIGHT
 10
0.0
 20
0.0
 30
0.0
  9
$UCSORGFRONT
 10
0.0
 20
0.0
 30
0.0
  9
$UCSORGBACK
 10
0.0
 20
0.0
 30
0.0
  9
$PUCSBASE
  2

  9
$PUCSNAME
  2

  9
$PUCSORG
 10
0.0
 20
0.0
 30
0.0
  9
$PUCSXDIR
 10
1.0
 20
0.0
 30
0.0
  9
$PUCSYDIR
 10
0.0
 20
1.0
 30
0.0
  9
$PUCSORTHOREF
  2

  9
$PUCSORTHOVIEW
 70
     0
  9
$PUCSORGTOP
 10
0.0
 20
0.0
 30
0.0
  9
$PUCSORGBOTTOM
 10
0.0
 20
0.0
 30
0.0
  9
$PUCSORGLEFT
 10
0.0
 20
0.0
 30
0.0
  9
$PUCSORGRIGHT
 10
0.0
 20
0.0
 30
0.0
  9
$PUCSORGFRONT
 10
0.0
 20
0.0
 30
0.0
  9
$PUCSORGBACK
 10
0.0
 20
0.0
 30
0.0
  9
$USERI1
 70
     0
  9
$USERI2
 70
     0
  9
$USERI3
 70
     0
  9
$USERI4
 70
     0
  9
$USERI5
 70
     0
  9
$USERR1
 40
0.0
  9
$USERR2
 40
0.0
  9
$USERR3
 40
0.0
  9
$USERR4
 40
0.0
  9
$USERR5
 40
0.0
  9
$WORLDVIEW
 70
     1
  9
$SHADEDGE
 70
     3
  9
$SHADEDIF
 70
    70
  9
$TILEMODE
 70
     1
  9
$MAXACTVP
 70
    64
  9
$PINSBASE
 10
0.0
 20
0.0
 30
0.0
  9
$PLIMCHECK
 70
     0
  9
$PEXTMIN
 10
1.0000000000E+20
 20
1.0000000000E+20
 30
1.0000000000E+20
  9
$PEXTMAX
 10
-1.0000000000E+20
 20
-1.0000000000E+20
 30
-1.0000000000E+20
  9
$PLIMMIN
 10
0.0
 20
0.0
  9
$PLIMMAX
 10
420.0
 20
297.0
  9
$UNITMODE
 70
     0
  9
$VISRETAIN
 70
     1
  9
$PLINEGEN
 70
     0
  9
$PSLTSCALE
 70
     1
  9
$TREEDEPTH
 70
  3020
  9
$CMLSTYLE
  2
Standard
  9
$CMLJUST
 70
     0
  9
$CMLSCALE
 40
20.0
  9
$PROXYGRAPHICS
 70
     1
  9
$MEASUREMENT
 70
     1
  9
$CELWEIGHT
370
    -1
  9
$ENDCAPS
280
     0
  9
$JOINSTYLE
280
     0
  9
$LWDISPLAY
290
     1
  9
$INSUNITS
 70
     4
  9
$HYPERLINKBASE
  1

  9
$STYLESHEET
  1

  9
$XEDIT
290
     1
  9
$CEPSNTYPE
380
     0
  9
$PSTYLEMODE
290
     1
  9
$FINGERPRINTGUID
  2
{5c7db877-659d-408e-bf7a-3bc5f7eaa60c}
  9
$VERSIONGUID
  2
{FAEB1C32-E019-11D5-929B-00C0DF256EC4}
  9
$EXTNAMES
290
     1
  9
$PSVPSCALE
 40
0.0
  9
$OLESTARTUP
290
     0
  0
ENDSEC
  0
SECTION
  2
CLASSES
  0
CLASS
  1
ACDBDICTIONARYWDFLT
  2
AcDbDictionaryWithDefault
  3
ObjectDBX Classes
 90
        0
280
     0
281
     0
  0
CLASS
  1
VISUALSTYLE
  2
AcDbVisualStyle
  3
ObjectDBX Classes
 90
     4095
280
     0
281
     0
  0
CLASS
  1
MATERIAL
  2
AcDbMaterial
  3
ObjectDBX Classes
 90
     1153
280
     0
281
     0
  0
CLASS
  1
SCALE
  2
AcDbScale
  3
ObjectDBX Classes
 90
     1153
280
     0
281
     0
  0
CLASS
  1
TABLESTYLE
  2
AcDbTableStyle
  3
ObjectDBX Classes
 90
     4095
280
     0
281
     0
  0
CLASS
  1
MLEADERSTYLE
  2
AcDbMLeaderStyle
  3
ACDB_MLEADERSTYLE_CLASS
 90
     4095
280
     0
281
     0
  0
CLASS
  1
SUN
  2
AcDbSun
  3
SCENEOE
 90
     1153
280
     0
281
     0
  0
CLASS
  1
ACDBPLACEHOLDER
  2
AcDbPlaceHolder
  3
ObjectDBX Classes
 90
        0
280
     0
281
     0
  0
CLASS
  1
LAYOUT
  2
AcDbLayout
  3
ObjectDBX Classes
 90
        0
280
     0
281
     0
  0
ENDSEC
  0
SECTION
  2
TABLES
  0
TABLE
  2
VPORT
  5
8
330
0
100
AcDbSymbolTable
 70
     1
  0
VPORT
  5
29
330
8
100
AcDbSymbolTableRecord
100
AcDbViewportTableRecord
  2
*Active
 70
     0
 10
0.0
 20
0.0
 11
1.0
 21
1.0
 12
148.5
 22
105.0
 13
0.0
 23
0.0
 14
10.0
 24
10.0
 15
10.0
 25
10.0
 16
0.0
 26
0.0
 36
1.0
 17
0.0
 27
0.0
 37
0.0
 40
210.0
 41
1.4142857143
 42
50.0
 43
0.0
 44
0.0
 50
0.0
 51
0.0
 71
     0
 72
  2000
 73
     1
 74
     3
 75
     0
 76
     0
 77
     0
 78
     0
281
     0
 65
     1
110
0.0
120
0.0
130
0.0
111
1.0
121
0.0
131
0.0
112
0.0
122
1.0
132
0.0
 79
     0
146
0.0
  0
ENDTAB
  0
TABLE
  2
LTYPE
  5
5
330
0
100
AcDbSymbolTable
 70
     6
  0
LTYPE
  5
14
330
5
100
AcDbSymbolTableRecord
100
AcDbLinetypeTableRecord
  2
ByBlock
 70
     0
  3

 72
    65
 73
     0
 40
0.0
  0
LTYPE
  5
15
330
5
100
AcDbSymbolTableRecord
100
AcDbLinetypeTableRecord
  2
ByLayer
 70
     0
  3

 72
    65
 73
     0
 40
0.0
  0
LTYPE
  5
16
330
5
100
AcDbSymbolTableRecord
100
AcDbLinetypeTableRecord
  2
Continuous
 70
     0
  3
Solid line
 72
    65
 73
     0
 40
0.0
  0
LTYPE
  5
5E
330
5
100
AcDbSymbolTableRecord
100
AcDbLinetypeTableRecord
  2
HIDDEN
 70
     0
  3
Hidden __ __ __ __ __ __ __ __ __ __ __ __ __ __
 72
    65
 73
     2
 40
1.905
 49
1.27
 74
     0
 49
-0.635
 74
     0
  0
LTYPE
  5
5F
330
5
100
AcDbSymbolTableRecord
100
AcDbLinetypeTableRecord
  2
PHANTOM
 70
     0
  3
Phantom ______  __  __  ______  __  __  ______
 72
    65
 73
     6
 40
12.7
 49
6.35
 74
     0
 49
-1.27
 74
     0
 49
1.27
 74
     0
 49
-1.27
 74
     0
 49
1.27
 74
     0
 49
-1.27
 74
     0
  0
LTYPE
  5
60
330
5
100
AcDbSymbolTableRecord
100
AcDbLinetypeTableRecord
  2
CENTER
 70
     0
  3
Center ____ _ ____ _ ____ _ ____ _ ____ _ ____
 72
    65
 73
     4
 40
10.16
 49
6.35
 74
     0
 49
-1.27
 74
     0
 49
1.27
 74
     0
 49
-1.27
 74
     0
  0
LTYPE
  5
61
330
5
100
AcDbSymbolTableRecord
100
AcDbLinetypeTableRecord
  2
CENTERX2
 70
     0
  3
Center (2x) ________  __  ________  __  _____
 72
    65
 73
     4
 40
20.32
 49
12.7
 74
     0
 49
-2.54
 74
     0
 49
2.54
 74
     0
 49
-2.54
 74
     0
  0
LTYPE
  5
62
330
5
100
AcDbSymbolTableRecord
100
AcDbLinetypeTableRecord
  2
DOT2
 70
     0
  3
Dot (.5x) ........................................
 72
    65
 73
     2
 40
0.635
 49
0.0
 74
     0
 49
-0.635
 74
     0
  0
ENDTAB
  0
TABLE
  2
LAYER
  5
2
330
0
100
AcDbSymbolTable
 70
     2
  0
LAYER
  5
10
330
2
100
AcDbSymbolTableRecord
100
AcDbLayerTableRecord
  2
0
 70
     0
 62
     7
  6
Continuous
370
    -3
390
F
  0
LAYER
  5
63
330
2
100
AcDbSymbolTableRecord
100
AcDbLayerTableRecord
  2
FORMAT
 70
     0
 62
     7
  6
Continuous
370
    -3
390
F
  0
ENDTAB
  0
TABLE
  2
STYLE
  5
3
330
0
100
AcDbSymbolTable
 70
     2
  0
STYLE
  5
11
330
3
100
AcDbSymbolTableRecord
100
AcDbTextStyleTableRecord
  2
Standard
 70
     0
 40
0.0
 41
1.0
 50
0.0
 71
     0
 42
3.5277777778
  3
txt
  4
bigfont
  0
STYLE
  5
64
330
3
100
AcDbSymbolTableRecord
100
AcDbTextStyleTableRecord
  2
SLDTEXTSTYLE0
 70
     0
 40
0.0
 41
0.7
 50
0.0
 71
     0
 42
3.5277777778
  3
TXT
  4
bigfont
  0
ENDTAB
  0
TABLE
  2
VIEW
  5
6
330
0
100
AcDbSymbolTable
 70
     0
  0
ENDTAB
  0
TABLE
  2
UCS
  5
7
330
0
100
AcDbSymbolTable
 70
     0
  0
ENDTAB
  0
TABLE
  2
APPID
  5
9
330
0
100
AcDbSymbolTable
 70
     1
  0
APPID
  5
12
330
9
100
AcDbSymbolTableRecord
100
AcDbRegAppTableRecord
  2
ACAD
 70
     0
  0
ENDTAB
  0
TABLE
  2
DIMSTYLE
  5
A
330
0
100
AcDbSymbolTable
 70
     1
100
AcDbDimStyleTable
  0
DIMSTYLE
105
27
330
A
100
AcDbSymbolTableRecord
100
AcDbDimStyleTableRecord
  2
ISO-25
 70
     0
 41
2.5
 42
0.625
 43
3.75
 44
1.25
 73
     0
 74
     0
 77
     1
 78
     8
140
2.5
141
2.5
143
0.0393700787
147
0.625
171
     3
172
     1
178
     0
271
     2
272
     2
274
     3
278
    44
283
     0
284
     8
340
11
  0
ENDTAB
  0
TABLE
  2
BLOCK_RECORD
  5
1
330
0
100
AcDbSymbolTable
 70
     2
  0
BLOCK_RECORD
  5
1F
330
1
100
AcDbSymbolTableRecord
100
AcDbBlockTableRecord
  2
*Model_Space
340
22
  0
BLOCK_RECORD
  5
1B
330
1
100
AcDbSymbolTableRecord
100
AcDbBlockTableRecord
  2
*Paper_Space
340
1E
  0
BLOCK_RECORD
  5
23
330
1
100
AcDbSymbolTableRecord
100
AcDbBlockTableRecord
  2
*Paper_Space0
340
26
  0
BLOCK_RECORD
  5
105
330
1
100
AcDbSymbolTableRecord
100
AcDbBlockTableRecord
  2
SW_CENTERMARKSYMBOL_0
340
0
102
{BLKREFS
331
110
102
}
  0
ENDTAB
  0
ENDSEC
  0
SECTION
  2
BLOCKS
  0
BLOCK
  5
20
330
1F
100
AcDbEntity
  8
0
100
AcDbBlockBegin
  2
*Model_Space
 70
     0
 10
0.0
 20
0.0
 30
0.0
  3
*Model_Space
  1

  0
ENDBLK
  5
21
330
1F
100
AcDbEntity
  8
0
100
AcDbBlockEnd
  0
BLOCK
  5
1C
330
1B
100
AcDbEntity
 67
     1
  8
0
100
AcDbBlockBegin
  2
*Paper_Space
 70
     0
 10
0.0
 20
0.0
 30
0.0
  3
*Paper_Space
  1

  0
ENDBLK
  5
1D
330
1B
100
AcDbEntity
 67
     1
  8
0
100
AcDbBlockEnd
  0
BLOCK
  5
24
330
23
100
AcDbEntity
  8
0
100
AcDbBlockBegin
  2
*Paper_Space0
 70
     0
 10
0.0
 20
0.0
 30
0.0
  3
*Paper_Space0
  1

  0
ENDBLK
  5
25
330
23
100
AcDbEntity
  8
0
100
AcDbBlockEnd
  0
BLOCK
  5
106
330
105
100
AcDbEntity
  8
0
100
AcDbBlockBegin
  2
SW_CENTERMARKSYMBOL_0
 70
     0
 10
0.0
 20
0.0
 30
0.0
  3
SW_CENTERMARKSYMBOL_0
  1

  0
LINE
  5
108
330
105
100
AcDbEntity
  8
FORMAT
 62
     0
100
AcDbLine
 10
0.0
 20
0.0
 30
0.0
 11
0.0
 21
2.5
 31
0.0
  0
LINE
  5
109
330
105
100
AcDbEntity
  8
FORMAT
 62
     0
100
AcDbLine
 10
0.0
 20
0.0
 30
0.0
 11
-2.5
 21
0.0
 31
0.0
  0
LINE
  5
10A
330
105
100
AcDbEntity
  8
FORMAT
 62
     0
100
AcDbLine
 10
0.0
 20
0.0
 30
0.0
 11
0.0
 21
-2.5
 31
0.0
  0
LINE
  5
10B
330
105
100
AcDbEntity
  8
FORMAT
 62
     0
100
AcDbLine
 10
0.0
 20
0.0
 30
0.0
 11
2.5
 21
0.0
 31
0.0
  0
LINE
  5
10C
330
105
100
AcDbEntity
  8
FORMAT
 62
     0
100
AcDbLine
 10
0.0
 20
5.0
 30
0.0
 11
0.0
 21
19.389857751
 31
0.0
  0
LINE
  5
10D
330
105
100
AcDbEntity
  8
FORMAT
 62
     0
100
AcDbLine
 10
-5.0
 20
0.0
 30
0.0
 11
-16.07790625
 21
0.0
 31
0.0
  0
LINE
  5
10E
330
105
100
AcDbEntity
  8
FORMAT
 62
     0
100
AcDbLine
 10
0.0
 20
-5.0
 30
0.0
 11
0.0
 21
-19.3466569933
 31
0.0
  0
LINE
  5
10F
330
105
100
AcDbEntity
  8
FORMAT
 62
     0
100
AcDbLine
 10
5.0
 20
0.0
 30
0.0
 11
16.07790625
 21
0.0
 31
0.0
  0
ENDBLK
  5
107
330
105
100
AcDbEntity
  8
0
100
AcDbBlockEnd
  0
ENDSEC
  0
SECTION
  2
ENTITIES
  0
MTEXT
  5
65
330
1F
100
AcDbEntity
  8
FORMAT
100
AcDbMText
 10
162.6507689541
 20
112.6701096331
 30
0.0
 40
4.2333333333
 41
0.0
 71
     1
 72
     1
  1
5R-NB1464
  7
SLDTEXTSTYLE0
 73
     1
 44
1.0
  0
LINE
  5
66
330
1F
100
AcDbEntity
  8
0
  6
Continuous
 62
     7
370
    25
100
AcDbLine
 10
140.6381524217
 20
99.0752883668
 30
0.0
 11
139.1540688923
 21
96.5047802912
 31
0.0
  0
LINE
  5
67
330
1F
100
AcDbEntity
  8
0
  6
Continuous
 62
     7
370
    25
100
AcDbLine
 10
139.1540688923
 20
67.0047802912
 30
0.0
 11
140.6381524217
 21
64.4342722155
 31
0.0
  0
LINE
  5
68
330
1F
100
AcDbEntity
  8
0
  6
Continuous
 62
     7
370
    25
100
AcDbLine
 10
144.6699853628
 20
64.4342722155
 30
0.0
 11
146.1540688923
 21
67.0047802912
 31
0.0
  0
LINE
  5
69
330
1F
100
AcDbEntity
  8
0
  6
Continuous
 62
     7
370
    25
100
AcDbLine
 10
146.1540688923
 20
96.5047802912
 30
0.0
 11
144.6699853628
 21
99.0752883668
 31
0.0
  0
LINE
  5
6A
330
1F
100
AcDbEntity
  8
0
  6
Continuous
 62
     7
370
    25
100
AcDbLine
 10
139.1540688923
 20
95.3326865412
 30
0.0
 11
123.9290286121
 21
94.8569040324
 31
0.0
  0
LINE
  5
6B
330
1F
100
AcDbEntity
  8
0
  6
Continuous
 62
     7
370
    25
100
AcDbLine
 10
123.9290286121
 20
68.6526565499
 30
0.0
 11
139.1540688923
 21
68.1768740412
 31
0.0
  0
LINE
  5
6C
330
1F
100
AcDbEntity
  8
0
  6
Continuous
 62
     7
370
    25
100
AcDbLine
 10
123.9290286121
 20
94.8569040324
 30
0.0
 11
121.1540688923
 21
93.2547802912
 31
0.0
  0
LINE
  5
6D
330
1F
100
AcDbEntity
  8
0
  6
Continuous
 62
     7
370
    25
100
AcDbLine
 10
121.1540688923
 20
70.2547802912
 30
0.0
 11
123.9290286121
 21
68.6526565499
 31
0.0
  0
SPLINE
  5
6E
330
1F
100
AcDbEntity
  8
0
  6
Continuous
 62
     7
370
    25
100
AcDbSpline
210
0.0
220
0.0
230
1.0
 70
     8
 71
     3
 72
    16
 73
    12
 74
     0
 42
0.00000001
 43
0.00000001
 40
0.0
 40
0.0
 40
0.0
 40
0.0
 40
0.2500000000000001
 40
0.2500000000000001
 40
0.5000000000000001
 40
0.5000000000000001
 40
0.625
 40
0.625
 40
0.7499999999999999
 40
0.7499999999999999
 40
1.0
 40
1.0
 40
1.0
 40
1.0
 10
140.6381524217325
 20
90.41503432900235
 30
0.0
 10
140.229949776344
 20
91.12206205059927
 30
0.0
 10
139.8935169358299
 20
91.83424444993469
 30
0.0
 10
139.4274482819551
 20
93.27346190194802
 30
0.0
 10
139.2993498262591
 20
94.00060737130251
 30
0.0
 10
139.2979426841657
 20
95.10502501376195
 30
0.0
 10
139.3292577313943
 20
95.47489696329957
 30
0.0
 10
139.4513701260902
 20
96.20654260171386
 30
0.0
 10
139.5420435249664
 20
96.56991248726902
 30
0.0
 10
139.8921752987034
 20
97.65355284547911
 30
0.0
 10
140.2294408894288
 20
98.36737922725733
 30
0.0
 10
140.6381524217326
 20
99.07528836684678
 30
0.0
  0
LINE
  5
6F
330
1F
100
AcDbEntity
  8
0
  6
Continuous
 62
     7
370
    25
100
AcDbLine
 10
140.6381524217
 20
99.0752883668
 30
0.0
 11
144.6699853628
 21
99.0752883668
 31
0.0
  0
SPLINE
  5
70
330
1F
100
AcDbEntity
  8
0
  6
Continuous
 62
     7
370
    25
100
AcDbSpline
210
0.0
220
0.0
230
1.0
 70
     8
 71
     3
 72
    16
 73
    12
 74
     0
 42
0.00000001
 43
0.00000001
 40
0.0
 40
0.0
 40
0.0
 40
0.0
 40
0.2500000000000001
 40
0.2500000000000001
 40
0.5000000000000001
 40
0.5000000000000001
 40
0.625
 40
0.625
 40
0.7499999999999999
 40
0.7499999999999999
 40
1.0
 40
1.0
 40
1.0
 40
1.0
 10
144.6699853628269
 20
90.41503432900235
 30
0.0
 10
145.0781880082154
 20
91.12206205059927
 30
0.0
 10
145.4146208487296
 20
91.83424444993469
 30
0.0
 10
145.8806895026044
 20
93.27346190194802
 30
0.0
 10
146.0087879583003
 20
94.00060737130251
 30
0.0
 10
146.0101951003937
 20
95.10502501376195
 30
0.0
 10
145.9788800531652
 20
95.47489696329957
 30
0.0
 10
145.8567676584692
 20
96.20654260171386
 30
0.0
 10
145.766094259593
 20
96.56991248726902
 30
0.0
 10
145.415962485856
 20
97.65355284547911
 30
0.0
 10
145.0786968951306
 20
98.36737922725733
 30
0.0
 10
144.6699853628268
 20
99.07528836684678
 30
0.0
  0
LINE
  5
71
330
1F
100
AcDbEntity
  8
0
  6
Continuous
 62
     7
370
    25
100
AcDbLine
 10
140.6381524217
 20
90.415034329
 30
0.0
 11
144.6699853628
 21
90.415034329
 31
0.0
  0
SPLINE
  5
72
330
1F
100
AcDbEntity
  8
0
  6
Continuous
 62
     7
370
    25
100
AcDbSpline
210
0.0
220
0.0
230
1.0
 70
     8
 71
     3
 72
    16
 73
    12
 74
     0
 42
0.00000001
 43
0.00000001
 40
0.0
 40
0.0
 40
0.0
 40
0.0
 40
0.25
 40
0.25
 40
0.5
 40
0.5
 40
0.6249999999999999
 40
0.6249999999999999
 40
0.7499999999999998
 40
0.7499999999999998
 40
1.0
 40
1.0
 40
1.0
 40
1.0
 10
140.6381524217325
 20
64.43427221546918
 30
0.0
 10
140.229949776344
 20
65.1412999370661
 30
0.0
 10
139.8935169358299
 20
65.85348233640151
 30
0.0
 10
139.4274482819551
 20
67.29269978841485
 30
0.0
 10
139.2993498262591
 20
68.01984525776932
 30
0.0
 10
139.2979426841657
 20
69.12426290022877
 30
0.0
 10
139.3292577313943
 20
69.49413484976638
 30
0.0
 10
139.4513701260902
 20
70.22578048818067
 30
0.0
 10
139.5420435249664
 20
70.58915037373583
 30
0.0
 10
139.8921752987034
 20
71.67279073194594
 30
0.0
 10
140.2294408894288
 20
72.38661711372414
 30
0.0
 10
140.6381524217326
 20
73.0945262533136
 30
0.0
  0
LINE
  5
73
330
1F
100
AcDbEntity
  8
0
  6
Continuous
 62
     7
370
    25
100
AcDbLine
 10
140.6381524217
 20
73.0945262533
 30
0.0
 11
144.6699853628
 21
73.0945262533
 31
0.0
  0
SPLINE
  5
74
330
1F
100
AcDbEntity
  8
0
  6
Continuous
 62
     7
370
    25
100
AcDbSpline
210
0.0
220
0.0
230
1.0
 70
     8
 71
     3
 72
    16
 73
    12
 74
     0
 42
0.00000001
 43
0.00000001
 40
0.0
 40
0.0
 40
0.0
 40
0.0
 40
0.25
 40
0.25
 40
0.5
 40
0.5
 40
0.6249999999999999
 40
0.6249999999999999
 40
0.7499999999999998
 40
0.7499999999999998
 40
1.0
 40
1.0
 40
1.0
 40
1.0
 10
144.6699853628269
 20
64.43427221546918
 30
0.0
 10
145.0781880082154
 20
65.1412999370661
 30
0.0
 10
145.4146208487296
 20
65.85348233640151
 30
0.0
 10
145.8806895026044
 20
67.29269978841485
 30
0.0
 10
146.0087879583003
 20
68.01984525776932
 30
0.0
 10
146.0101951003937
 20
69.12426290022877
 30
0.0
 10
145.9788800531652
 20
69.49413484976638
 30
0.0
 10
145.8567676584692
 20
70.22578048818067
 30
0.0
 10
145.766094259593
 20
70.58915037373583
 30
0.0
 10
145.415962485856
 20
71.67279073194594
 30
0.0
 10
145.0786968951306
 20
72.38661711372414
 30
0.0
 10
144.6699853628268
 20
73.0945262533136
 30
0.0
  0
LINE
  5
75
330
1F
100
AcDbEntity
  8
0
  6
Continuous
 62
     7
370
    25
100
AcDbLine
 10
140.6381524217
 20
64.4342722155
 30
0.0
 11
144.6699853628
 21
64.4342722155
 31
0.0
  0
SPLINE
  5
76
330
1F
100
AcDbEntity
  8
0
  6
Continuous
 62
     7
370
    25
100
AcDbSpline
210
0.0
220
0.0
230
1.0
 70
     8
 71
     3
 72
    14
 73
    10
 74
     0
 42
0.00000001
 43
0.00000001
 40
0.0
 40
0.0
 40
0.0
 40
0.0
 40
0.2500000000000001
 40
0.2500000000000001
 40
0.5000000000000001
 40
0.5000000000000001
 40
0.75
 40
0.75
 40
1.0
 40
1.0
 40
1.0
 40
1.0
 10
140.6381524217327
 20
73.09452625331359
 30
0.0
 10
140.2311841418342
 20
74.5043057290199
 30
0.0
 10
139.8946232962281
 20
75.92709842626864
 30
0.0
 10
139.427393321642
 20
78.81073824710813
 30
0.0
 10
139.2982876066425
 20
80.27324419503508
 30
0.0
 10
139.2985254794811
 20
83.24048195687052
 30
0.0
 10
139.4276311710632
 20
84.70064083802042
 30
0.0
 10
139.8947609199271
 20
87.58296070817521
 30
0.0
 10
140.2312274778944
 20
89.00540497381199
 30
0.0
 10
140.6381524217327
 20
90.41503432900238
 30
0.0
  0
SPLINE
  5
77
330
1F
100
AcDbEntity
  8
0
  6
Continuous
 62
     7
370
    25
100
AcDbSpline
210
0.0
220
0.0
230
1.0
 70
     8
 71
     3
 72
    14
 73
    10
 74
     0
 42
0.00000001
 43
0.00000001
 40
0.0
 40
0.0
 40
0.0
 40
0.0
 40
0.2500000000000001
 40
0.2500000000000001
 40
0.5000000000000001
 40
0.5000000000000001
 40
0.75
 40
0.75
 40
1.0
 40
1.0
 40
1.0
 40
1.0
 10
144.6699853628267
 20
73.09452625331359
 30
0.0
 10
145.0769536427252
 20
74.5043057290199
 30
0.0
 10
145.4135144883314
 20
75.92709842626864
 30
0.0
 10
145.8807444629174
 20
78.81073824710813
 30
0.0
 10
146.0098501779169
 20
80.27324419503508
 30
0.0
 10
146.0096123050783
 20
83.24048195687052
 30
0.0
 10
145.8805066134963
 20
84.70064083802042
 30
0.0
 10
145.4133768646323
 20
87.58296070817521
 30
0.0
 10
145.0769103066651
 20
89.00540497381199
 30
0.0
 10
144.6699853628267
 20
90.41503432900238
 30
0.0
  0
LINE
  5
78
330
1F
100
AcDbEntity
  8
0
  6
Continuous
 62
     7
370
    25
100
AcDbLine
 10
141.7050341432
 20
76.3336958477
 30
0.0
 11
143.883798622
 21
76.3336958477
 31
0.0
  0
LINE
  5
79
330
1F
100
AcDbEntity
  8
0
  6
Continuous
 62
     7
370
    25
100
AcDbLine
 10
141.7050341432
 20
76.0321514461
 30
0.0
 11
141.7050341432
 21
76.3336958477
 31
0.0
  0
LINE
  5
7A
330
1F
100
AcDbEntity
  8
0
  6
Continuous
 62
     7
370
    25
100
AcDbLine
 10
142.648835087
 20
76.0321514461
 30
0.0
 11
141.7050341432
 21
76.0321514461
 31
0.0
  0
LINE
  5
7B
330
1F
100
AcDbEntity
  8
0
  6
Continuous
 62
     7
370
    25
100
AcDbLine
 10
142.648835087
 20
75.3696031836
 30
0.0
 11
142.648835087
 21
76.0321514461
 31
0.0
  0
LINE
  5
7C
330
1F
100
AcDbEntity
  8
0
  6
Continuous
 62
     7
370
    25
100
AcDbLine
 10
141.7050341432
 20
74.9109159249
 30
0.0
 11
142.648835087
 21
75.3696031836
 31
0.0
  0
LINE
  5
7D
330
1F
100
AcDbEntity
  8
0
  6
Continuous
 62
     7
370
    25
100
AcDbLine
 10
141.7050341432
 20
74.5923831064
 30
0.0
 11
141.7050341432
 21
74.9109159249
 31
0.0
  0
LINE
  5
7E
330
1F
100
AcDbEntity
  8
0
  6
Continuous
 62
     7
370
    25
100
AcDbLine
 10
142.6861152243
 20
75.0892943033
 30
0.0
 11
141.7050341432
 21
74.5923831064
 31
0.0
  0
SPLINE
  5
7F
330
1F
100
AcDbEntity
  8
0
  6
Continuous
 62
     7
370
    25
100
AcDbSpline
210
0.0
220
0.0
230
1.0
 70
     8
 71
     3
 72
    11
 73
     7
 74
     0
 42
0.00000001
 43
0.00000001
 40
0.0
 40
0.0
 40
0.0
 40
0.0
 40
0.22562098369667
 40
0.4629707984282284
 40
0.7196090303667906
 40
1.0
 40
1.0
 40
1.0
 40
1.0
 10
142.8007870389979
 20
74.83446804843611
 30
0.0
 10
142.7865752970398
 20
74.8504951342329
 30
0.0
 10
142.7574130204929
 20
74.883382468497
 30
0.0
 10
142.7255136075881
 20
74.94410977693573
 30
0.0
 10
142.6998360296147
 20
75.01301122939319
 30
0.0
 10
142.6908217266055
 20
75.06312772969072
 30
0.0
 10
142.6861152243261
 20
75.08929430326236
 30
0.0
  0
SPLINE
  5
80
330
1F
100
AcDbEntity
  8
0
  6
Continuous
 62
     7
370
    25
100
AcDbSpline
210
0.0
220
0.0
230
1.0
 70
     8
 71
     3
 72
    15
 73
    11
 74
     0
 42
0.00000001
 43
0.00000001
 40
0.0
 40
0.0
 40
0.0
 40
0.0
 40
0.1423455204062213
 40
0.2780244263979217
 40
0.4068124412900596
 40
0.5301826523562202
 40
0.6505629722368663
 40
0.7677901753368308
 40
0.8838874421453788
 40
1.0
 40
1.0
 40
1.0
 40
1.0
 10
143.2594742976851
 20
74.66883098279904
 30
0.0
 10
143.2356930210898
 20
74.66916535196005
 30
0.0
 10
143.1892442409277
 20
74.66981843042663
 30
0.0
 10
143.1217640435352
 20
74.67834542315896
 30
0.0
 10
143.058069607269
 20
74.69050272990685
 30
0.0
 10
142.9987059783737
 20
74.70943866645881
 30
0.0
 10
142.9428251772417
 20
74.73222439657822
 30
0.0
 10
142.8909237180979
 20
74.76068643755364
 30
0.0
 10
142.8434100877631
 20
74.79484490937249
 30
0.0
 10
142.8149953456244
 20
74.82125975560791
 30
0.0
 10
142.8007870389979
 20
74.83446804843611
 30
0.0
  0
SPLINE
  5
81
330
1F
100
AcDbEntity
  8
0
  6
Continuous
 62
     7
370
    25
100
AcDbSpline
210
0.0
220
0.0
230
1.0
 70
     8
 71
     3
 72
    15
 73
    11
 74
     0
 42
0.00000001
 43
0.00000001
 40
0.0
 40
0.0
 40
0.0
 40
0.0
 40
0.1161090580639841
 40
0.232202825542787
 40
0.3494264952551886
 40
0.4689336287943347
 40
0.5931998205909935
 40
0.7219839536369556
 40
0.857658770081636
 40
1.0
 40
1.0
 40
1.0
 40
1.0
 10
143.7181615563724
 20
74.83446804843611
 30
0.0
 10
143.7039526792472
 20
74.82126119386271
 30
0.0
 10
143.6755367961863
 20
74.79484922394747
 30
0.0
 10
143.6280317496606
 20
74.76066911192966
 30
0.0
 10
143.5762247517015
 20
74.73236058918536
 30
0.0
 10
143.5204780557004
 20
74.7092270604526
 30
0.0
 10
143.4610014803898
 20
74.69060650311401
 30
0.0
 10
143.3971917898431
 20
74.67832377757442
 30
0.0
 10
143.3297023996888
 20
74.66982427620431
 30
0.0
 10
143.2832549123624
 20
74.66916733145517
 30
0.0
 10
143.2594742976851
 20
74.66883098279904
 30
0.0
  0
SPLINE
  5
82
330
1F
100
AcDbEntity
  8
0
  6
Continuous
 62
     7
370
    25
100
AcDbSpline
210
0.0
220
0.0
230
1.0
 70
     8
 71
     3
 72
    15
 73
    11
 74
     0
 42
0.00000001
 43
0.00000001
 40
0.0
 40
0.0
 40
0.0
 40
0.0
 40
0.1342477572737634
 40
0.2634617725756844
 40
0.3884666271730277
 40
0.5118790511869562
 40
0.6324080741525882
 40
0.7535525248235464
 40
0.8755084805282737
 40
1.0
 40
1.0
 40
1.0
 40
1.0
 10
143.8837986220095
 20
75.25493136889942
 30
0.0
 10
143.8834574338809
 20
75.23413586484418
 30
0.0
 10
143.8827878507835
 20
75.19332460310498
 30
0.0
 10
143.8742140339087
 20
75.13369277653153
 30
0.0
 10
143.8618296157083
 20
75.07649701834002
 30
0.0
 10
143.8432670739917
 20
75.02235962235898
 30
0.0
 10
143.8199248246122
 20
74.97082305398784
 30
0.0
 10
143.7917399835966
 20
74.92196779354923
 30
0.0
 10
143.7573498939476
 20
74.87645648264552
 30
0.0
 10
143.7313136265529
 20
74.84855986420739
 30
0.0
 10
143.7181615563724
 20
74.83446804843611
 30
0.0
  0
LINE
  5
83
330
1F
100
AcDbEntity
  8
0
  6
Continuous
 62
     7
370
    25
100
AcDbLine
 10
143.883798622
 20
76.3336958477
 30
0.0
 11
143.883798622
 21
75.2549313689
 31
0.0
  0
LINE
  5
84
330
1F
100
AcDbEntity
  8
0
  6
Continuous
 62
     7
370
    25
100
AcDbLine
 10
142.5077368459
 20
78.108985423
 30
0.0
 11
143.8965399348
 21
77.2553174693
 31
0.0
  0
LINE
  5
85
330
1F
100
AcDbEntity
  8
0
  6
Continuous
 62
     7
370
    25
100
AcDbLine
 10
142.2538543921
 20
78.108985423
 30
0.0
 11
142.5077368459
 21
78.108985423
 31
0.0
  0
LINE
  5
86
330
1F
100
AcDbEntity
  8
0
  6
Continuous
 62
     7
370
    25
100
AcDbLine
 10
142.2538543921
 20
77.2638116778
 30
0.0
 11
142.2538543921
 21
78.108985423
 31
0.0
  0
LINE
  5
87
330
1F
100
AcDbEntity
  8
0
  6
Continuous
 62
     7
370
    25
100
AcDbLine
 10
141.6922928305
 20
77.2638116778
 30
0.0
 11
142.2538543921
 21
77.2638116778
 31
0.0
  0
LINE
  5
88
330
1F
100
AcDbEntity
  8
0
  6
Continuous
 62
     7
370
    25
100
AcDbLine
 10
141.6922928305
 20
76.9622672762
 30
0.0
 11
141.6922928305
 21
77.2638116778
 31
0.0
  0
LINE
  5
89
330
1F
100
AcDbEntity
  8
0
  6
Continuous
 62
     7
370
    25
100
AcDbLine
 10
142.2538543921
 20
76.9622672762
 30
0.0
 11
141.6922928305
 21
76.9622672762
 31
0.0
  0
LINE
  5
8A
330
1F
100
AcDbEntity
  8
0
  6
Continuous
 62
     7
370
    25
100
AcDbLine
 10
142.2538543921
 20
76.6946997087
 30
0.0
 11
142.2538543921
 21
76.9622672762
 31
0.0
  0
LINE
  5
8B
330
1F
100
AcDbEntity
  8
0
  6
Continuous
 62
     7
370
    25
100
AcDbLine
 10
142.4949955332
 20
76.6946997087
 30
0.0
 11
142.2538543921
 21
76.6946997087
 31
0.0
  0
LINE
  5
8C
330
1F
100
AcDbEntity
  8
0
  6
Continuous
 62
     7
370
    25
100
AcDbLine
 10
142.4949955332
 20
76.9622672762
 30
0.0
 11
142.4949955332
 21
76.6946997087
 31
0.0
  0
LINE
  5
8D
330
1F
100
AcDbEntity
  8
0
  6
Continuous
 62
     7
370
    25
100
AcDbLine
 10
143.8965399348
 20
76.9622672762
 30
0.0
 11
142.4949955332
 21
76.9622672762
 31
0.0
  0
LINE
  5
8E
330
1F
100
AcDbEntity
  8
0
  6
Continuous
 62
     7
370
    25
100
AcDbLine
 10
143.8965399348
 20
77.2553174693
 30
0.0
 11
143.8965399348
 21
76.9622672762
 31
0.0
  0
SPLINE
  5
8F
330
1F
100
AcDbEntity
  8
0
  6
Continuous
 62
     7
370
    25
100
AcDbSpline
210
0.0
220
0.0
230
1.0
 70
     8
 71
     3
 72
    23
 73
    19
 74
     0
 42
0.00000001
 43
0.00000001
 40
0.0
 40
0.0
 40
0.0
 40
0.0
 40
0.0441906106282863
 40
0.0897849017527574
 40
0.1375220657281902
 40
0.1870790674012529
 40
0.238634432644744
 40
0.2928411155263979
 40
0.3496729339480911
 40
0.409435830382087
 40
0.4719926205430653
 40
0.5377040045925529
 40
0.6060605743707039
 40
0.678160415571394
 40
0.7535848462545454
 40
0.8324062082865284
 40
0.9141977901571283
 40
1.0
 40
1.0
 40
1.0
 40
1.0
 10
141.8579298961407
 20
79.44682326079132
 30
0.0
 10
141.867838751179
 20
79.45628262151108
 30
0.0
 10
141.8879712083558
 20
79.4755018122123
 30
0.0
 10
141.921811548532
 20
79.50155075159353
 30
0.0
 10
141.9592318902555
 20
79.52524861399722
 30
0.0
 10
141.999238390755
 20
79.54828306092331
 30
0.0
 10
142.0430738117552
 20
79.56825322619889
 30
0.0
 10
142.0897222329052
 20
79.58733072193921
 30
0.0
 10
142.1399649826712
 20
79.60403486418936
 30
0.0
 10
142.1931800562685
 20
79.619913023067
 30
0.0
 10
142.2500448404535
 20
79.63272424858918
 30
0.0
 10
142.3097957632765
 20
79.64464404991494
 30
0.0
 10
142.3729255413791
 20
79.65454323927756
 30
0.0
 10
142.439355142849
 20
79.6624692474065
 30
0.0
 10
142.5092320236343
 20
79.66861278048118
 30
0.0
 10
142.5822635693825
 20
79.6726130375552
 30
0.0
 10
142.6585618486187
 20
79.67569976661098
 30
0.0
 10
142.7104933482611
 20
79.67600871782606
 30
0.0
 10
142.7370804752913
 20
79.67616689013495
 30
0.0
  0
SPLINE
  5
90
330
1F
100
AcDbEntity
  8
0
  6
Continuous
 62
     7
370
    25
100
AcDbSpline
210
0.0
220
0.0
230
1.0
 70
     8
 71
     3
 72
    15
 73
    11
 74
     0
 42
0.00000001
 43
0.00000001
 40
0.0
 40
0.0
 40
0.0
 40
0.0
 40
0.1195040863107423
 40
0.2383815255843708
 40
0.3571090773014075
 40
0.4777214423508235
 40
0.6009465942306373
 40
0.7281225224148411
 40
0.8606317931271519
 40
1.0
 40
1.0
 40
1.0
 40
1.0
 10
141.666810205021
 20
79.02635994032799
 30
0.0
 10
141.6673221153388
 20
79.04526993596187
 30
0.0
 10
141.6683432516555
 20
79.08299076833804
 30
0.0
 10
141.6775962737039
 20
79.13889112890192
 30
0.0
 10
141.6929464088542
 20
79.19350539892872
 30
0.0
 10
141.7136716745712
 20
79.24707589478406
 30
0.0
 10
141.7407866914091
 20
79.29925613381859
 30
0.0
 10
141.7742806830439
 20
79.34978897974277
 30
0.0
 10
141.8129628170904
 20
79.39977931653205
 30
0.0
 10
141.8426908762254
 20
79.43088040618294
 30
0.0
 10
141.8579298961407
 20
79.44682326079132
 30
0.0
  0
SPLINE
  5
91
330
1F
100
AcDbEntity
  8
0
  6
Continuous
 62
     7
370
    25
100
AcDbSpline
210
0.0
220
0.0
230
1.0
 70
     8
 71
     3
 72
    15
 73
    11
 74
     0
 42
0.00000001
 43
0.00000001
 40
0.0
 40
0.0
 40
0.0
 40
0.0
 40
0.1171086905579871
 40
0.2333993299620628
 40
0.350616062696232
 40
0.4711822020542317
 40
0.5946445890795221
 40
0.7237659205994506
 40
0.858171109599614
 40
1.0
 40
1.0
 40
1.0
 40
1.0
 10
141.8197059579168
 20
78.60589661986467
 30
0.0
 10
141.807454800286
 20
78.61901371750912
 30
0.0
 10
141.7830380642722
 20
78.64515628461216
 30
0.0
 10
141.7516637167851
 20
78.68896441582422
 30
0.0
 10
141.7257849729746
 20
78.73671563925537
 30
0.0
 10
141.7038319990858
 20
78.7876166859981
 30
0.0
 10
141.6875836273568
 20
78.84251111819316
 30
0.0
 10
141.6751418765917
 20
78.90052022112026
 30
0.0
 10
141.6681096785115
 20
78.9623231859152
 30
0.0
 10
141.6672510545977
 20
79.00463531394567
 30
0.0
 10
141.666810205021
 20
79.02635994032799
 30
0.0
  0
SPLINE
  5
92
330
1F
100
AcDbEntity
  8
0
  6
Continuous
 62
     7
370
    25
100
AcDbSpline
210
0.0
220
0.0
230
1.0
 70
     8
 71
     3
 72
    15
 73
    11
 74
     0
 42
0.00000001
 43
0.00000001
 40
0.0
 40
0.0
 40
0.0
 40
0.0
 40
0.1476270724396861
 40
0.2864810592714898
 40
0.418189465926807
 40
0.5428808841137349
 40
0.6619178330920034
 40
0.7770087505932006
 40
0.8893050437597241
 40
1.0
 40
1.0
 40
1.0
 40
1.0
 10
142.4185476567585
 20
78.40203561600367
 30
0.0
 10
142.3865931259054
 20
78.40267523933048
 30
0.0
 10
142.3245830372677
 20
78.40391647486521
 30
0.0
 10
142.2344367716491
 20
78.41333879010547
 30
0.0
 10
142.1503124261188
 20
78.42932812142641
 30
0.0
 10
142.0719237321996
 20
78.45122784993875
 30
0.0
 10
141.99973715622
 20
78.48027591177298
 30
0.0
 10
141.9332309536094
 20
78.51514027358515
 30
0.0
 10
141.8726182475414
 20
78.55662811511921
 30
0.0
 10
141.8372587469906
 20
78.5895525969937
 30
0.0
 10
141.8197059579168
 20
78.60589661986467
 30
0.0
  0
SPLINE
  5
93
330
1F
100
AcDbEntity
  8
0
  6
Continuous
 62
     7
370
    25
100
AcDbSpline
210
0.0
220
0.0
230
1.0
 70
     8
 71
     3
 72
    15
 73
    11
 74
     0
 42
0.00000001
 43
0.00000001
 40
0.0
 40
0.0
 40
0.0
 40
0.0
 40
0.1094376231375991
 40
0.2200197609697447
 40
0.334372192853603
 40
0.4529129170384314
 40
0.5777009796868829
 40
0.7100641746072385
 40
0.8508042784674904
 40
1.0
 40
1.0
 40
1.0
 40
1.0
 10
142.9919067301176
 20
78.59315530712335
 30
0.0
 10
142.975290937575
 20
78.57775489116608
 30
0.0
 10
142.9418855820973
 20
78.54679299944539
 30
0.0
 10
142.8842514757246
 20
78.50815886668431
 30
0.0
 10
142.8213338127477
 20
78.47500849166907
 30
0.0
 10
142.7523079216456
 20
78.44802420795892
 30
0.0
 10
142.6772791569467
 20
78.42750121011959
 30
0.0
 10
142.5963244354165
 20
78.41246049995308
 30
0.0
 10
142.5093573417361
 20
78.4034484366919
 30
0.0
 10
142.4494004082113
 20
78.40251562433706
 30
0.0
 10
142.4185476567585
 20
78.40203561600367
 30
0.0
  0
SPLINE
  5
94
330
1F
100
AcDbEntity
  8
0
  6
Continuous
 62
     7
370
    25
100
AcDbSpline
210
0.0
220
0.0
230
1.0
 70
     8
 71
     3
 72
    15
 73
    11
 74
     0
 42
0.00000001
 43
0.00000001
 40
0.0
 40
0.0
 40
0.0
 40
0.0
 40
0.1328879382642812
 40
0.2611764415433321
 40
0.3862019221938189
 40
0.5075747214113129
 40
0.6293724124715366
 40
0.7508835925620001
 40
0.8736128964297315
 40
1.0
 40
1.0
 40
1.0
 40
1.0
 10
143.1448024830133
 20
78.97539468936274
 30
0.0
 10
143.1443524613095
 20
78.95665625830391
 30
0.0
 10
143.1434679937742
 20
78.91982795915219
 30
0.0
 10
143.1363943696274
 20
78.86570769053073
 30
0.0
 10
143.12393688286
 20
78.81430519735395
 30
0.0
 10
143.1075142007563
 20
78.76495762582805
 30
0.0
 10
143.0855017212739
 20
78.71839511447278
 30
0.0
 10
143.0597253761515
 20
78.67359433956118
 30
0.0
 10
143.0281414096747
 20
78.63178014619801
 30
0.0
 10
143.0041026112845
 20
78.60615566901986
 30
0.0
 10
142.9919067301176
 20
78.59315530712335
 30
0.0
  0
SPLINE
  5
95
330
1F
100
AcDbEntity
  8
0
  6
Continuous
 62
     7
370
    25
100
AcDbSpline
210
0.0
220
0.0
230
1.0
 70
     8
 71
     3
 72
    15
 73
    11
 74
     0
 42
0.00000001
 43
0.00000001
 40
0.0
 40
0.0
 40
0.0
 40
0.0
 40
0.1277118540336143
 40
0.2523621141955307
 40
0.3748537650566254
 40
0.4969693854038494
 40
0.6192731655242184
 40
0.7424854443019965
 40
0.8694478780376609
 40
1.0
 40
1.0
 40
1.0
 40
1.0
 10
143.0301306683415
 20
79.25570356967162
 30
0.0
 10
143.0393335691456
 20
79.24615251303719
 30
0.0
 10
143.0575187526685
 20
79.22727936407769
 30
0.0
 10
143.0804105333434
 20
79.19573856761535
 30
0.0
 10
143.1006685363607
 20
79.16316136018584
 30
0.0
 10
143.1165076403893
 20
79.12846427389559
 30
0.0
 10
143.1294676686884
 20
79.09254436971878
 30
0.0
 10
143.1384548761856
 20
79.05488458339451
 30
0.0
 10
143.1436230897006
 20
79.01565127167466
 30
0.0
 10
143.1444057153739
 20
78.98893767706646
 30
0.0
 10
143.1448024830133
 20
78.97539468936274
 30
0.0
  0
SPLINE
  5
96
330
1F
100
AcDbEntity
  8
0
  6
Continuous
 62
     7
370
    25
100
AcDbSpline
210
0.0
220
0.0
230
1.0
 70
     8
 71
     3
 72
    11
 73
     7
 74
     0
 42
0.00000001
 43
0.00000001
 40
0.0
 40
0.0
 40
0.0
 40
0.0
 40
0.2456044615709275
 40
0.4924340960494094
 40
0.7435400941223406
 40
1.0
 40
1.0
 40
1.0
 40
1.0
 10
142.8644936027044
 20
79.38311669708476
 30
0.0
 10
142.8792724999578
 20
79.37438175911325
 30
0.0
 10
142.9089040174923
 20
79.35686830981952
 30
0.0
 10
142.9509143504091
 20
79.32621472045457
 30
0.0
 10
142.9917299765551
 20
79.29280592422661
 30
0.0
 10
143.0172407401814
 20
79.26815768605698
 30
0.0
 10
143.0301306683415
 20
79.25570356967162
 30
0.0
  0
SPLINE
  5
97
330
1F
100
AcDbEntity
  8
0
  6
Continuous
 62
     7
370
    25
100
AcDbSpline
210
0.0
220
0.0
230
1.0
 70
     8
 71
     3
 72
    15
 73
    11
 74
     0
 42
0.00000001
 43
0.00000001
 40
0.0
 40
0.0
 40
0.0
 40
0.0
 40
0.0964433484801641
 40
0.1980702687146754
 40
0.3069659373397293
 40
0.4243879496894927
 40
0.551351396246796
 40
0.6889628351337205
 40
0.8385011961339891
 40
1.0
 40
1.0
 40
1.0
 40
1.0
 10
143.5780071162179
 20
79.17925569322375
 30
0.0
 10
143.5598871773034
 20
79.19570350015928
 30
0.0
 10
143.5226734012737
 20
79.22948313961426
 30
0.0
 10
143.4563425365678
 20
79.27084280441133
 30
0.0
 10
143.3807148956138
 20
79.30554647724406
 30
0.0
 10
143.2957872210038
 20
79.33430982125725
 30
0.0
 10
143.2013650950536
 20
79.35605713444382
 30
0.0
 10
143.0975972954608
 20
79.37201917995621
 30
0.0
 10
142.9842090691658
 20
79.38125706214176
 30
0.0
 10
142.905408804757
 20
79.38248112891895
 30
0.0
 10
142.8644936027044
 20
79.38311669708476
 30
0.0
  0
SPLINE
  5
98
330
1F
100
AcDbEntity
  8
0
  6
Continuous
 62
     7
370
    25
100
AcDbSpline
210
0.0
220
0.0
230
1.0
 70
     8
 71
     3
 72
    11
 73
     7
 74
     0
 42
0.00000001
 43
0.00000001
 40
0.0
 40
0.0
 40
0.0
 40
0.0
 40
0.2600145085164581
 40
0.5081836035516303
 40
0.7509482378681004
 40
1.0
 40
1.0
 40
1.0
 40
1.0
 10
143.6544549926658
 20
78.98813600210406
 30
0.0
 10
143.6535920331466
 20
79.00648013160514
 30
0.0
 10
143.651905427731
 20
79.04233269186062
 30
0.0
 10
143.6373893389775
 20
79.09366453785962
 30
0.0
 10
143.6130227308768
 20
79.14032939567348
 30
0.0
 10
143.5897780371732
 20
79.1661701490741
 30
0.0
 10
143.5780071162179
 20
79.17925569322375
 30
0.0
  0
SPLINE
  5
99
330
1F
100
AcDbEntity
  8
0
  6
Continuous
 62
     7
370
    25
100
AcDbSpline
210
0.0
220
0.0
230
1.0
 70
     8
 71
     3
 72
    11
 73
     7
 74
     0
 42
0.00000001
 43
0.00000001
 40
0.0
 40
0.0
 40
0.0
 40
0.0
 40
0.249051762131899
 40
0.4918163964483687
 40
0.7399854914835404
 40
1.0
 40
1.0
 40
1.0
 40
1.0
 10
143.5780071162179
 20
78.79701631098436
 30
0.0
 10
143.5897780371732
 20
78.810101855134
 30
0.0
 10
143.6130227308768
 20
78.83594260853464
 30
0.0
 10
143.6373893389775
 20
78.88260746634847
 30
0.0
 10
143.651905427731
 20
78.93393931234749
 30
0.0
 10
143.6535920331466
 20
78.96979187260295
 30
0.0
 10
143.6544549926658
 20
78.98813600210406
 30
0.0
  0
SPLINE
  5
9A
330
1F
100
AcDbEntity
  8
0
  6
Continuous
 62
     7
370
    25
100
AcDbSpline
210
0.0
220
0.0
230
1.0
 70
     8
 71
     3
 72
    15
 73
    11
 74
     0
 42
0.00000001
 43
0.00000001
 40
0.0
 40
0.0
 40
0.0
 40
0.0
 40
0.1575795759530236
 40
0.3051873770201197
 40
0.4403374772752369
 40
0.5671048604317454
 40
0.684231423914511
 40
0.7956973262442265
 40
0.8993807647161665
 40
1.0
 40
1.0
 40
1.0
 40
1.0
 10
143.3231808613917
 20
78.72056843453647
 30
0.0
 10
143.3374985402083
 20
78.72091954309766
 30
0.0
 10
143.3652278624675
 20
78.72159954175986
 30
0.0
 10
143.4051822962112
 20
78.72454182604332
 30
0.0
 10
143.4419300635595
 20
78.73079852137221
 30
0.0
 10
143.4753416064538
 20
78.73928299579065
 30
0.0
 10
143.5060463103152
 20
78.74948934679718
 30
0.0
 10
143.5333325722023
 20
78.76261070983301
 30
0.0
 10
143.5574960717535
 20
78.77832458197028
 30
0.0
 10
143.5712388075209
 20
78.79084834658504
 30
0.0
 10
143.5780071162179
 20
78.79701631098436
 30
0.0
  0
LINE
  5
9B
330
1F
100
AcDbEntity
  8
0
  6
Continuous
 62
     7
370
    25
100
AcDbLine
 10
143.3231808614
 20
78.4275182415
 30
0.0
 11
143.3231808614
 21
78.7205684345
 31
0.0
  0
SPLINE
  5
9C
330
1F
100
AcDbEntity
  8
0
  6
Continuous
 62
     7
370
    25
100
AcDbSpline
210
0.0
220
0.0
230
1.0
 70
     8
 71
     3
 72
    15
 73
    11
 74
     0
 42
0.00000001
 43
0.00000001
 40
0.0
 40
0.0
 40
0.0
 40
0.0
 40
0.1244915194717264
 40
0.246447475176453
 40
0.3675919258474109
 40
0.488120948813043
 40
0.6115333728269708
 40
0.7365382274243162
 40
0.8657522427262369
 40
1.0
 40
1.0
 40
1.0
 40
1.0
 10
143.743644181855
 20
78.59315530712335
 30
0.0
 10
143.7295523660837
 20
78.58000323694282
 30
0.0
 10
143.7016557476456
 20
78.55396696954811
 30
0.0
 10
143.6561444367419
 20
78.51957687989913
 30
0.0
 10
143.6072891763033
 20
78.49139203888359
 30
0.0
 10
143.5557526079321
 20
78.46804978950408
 30
0.0
 10
143.5016152119511
 20
78.44948724778745
 30
0.0
 10
143.4444194537596
 20
78.43710282958703
 30
0.0
 10
143.3847876271861
 20
78.42852901271219
 30
0.0
 10
143.3439763654469
 20
78.42785942961483
 30
0.0
 10
143.3231808613917
 20
78.4275182414863
 30
0.0
  0
SPLINE
  5
9D
330
1F
100
AcDbEntity
  8
0
  6
Continuous
 62
     7
370
    25
100
AcDbSpline
210
0.0
220
0.0
230
1.0
 70
     8
 71
     3
 72
    15
 73
    11
 74
     0
 42
0.00000001
 43
0.00000001
 40
0.0
 40
0.0
 40
0.0
 40
0.0
 40
0.1356800108501694
 40
0.2668415897771103
 40
0.3926005974967501
 40
0.5157318537894212
 40
0.6360998884170286
 40
0.756095992954333
 40
0.8771413117267556
 40
1.0
 40
1.0
 40
1.0
 40
1.0
 10
143.8965399347508
 20
78.98813600210406
 30
0.0
 10
143.8960811665074
 20
78.96845669384633
 30
0.0
 10
143.8951789079756
 20
78.92975344000448
 30
0.0
 10
143.8882562530934
 20
78.87309646186051
 30
0.0
 10
143.8755438064408
 20
78.81940590547794
 30
0.0
 10
143.8595697592812
 20
78.76817549726483
 30
0.0
 10
143.8372234636827
 20
78.72030310980618
 30
0.0
 10
143.8114557481318
 20
78.67458996703259
 30
0.0
 10
143.7801710297139
 20
78.63187149128193
 30
0.0
 10
143.7558799971982
 20
78.60612450944784
 30
0.0
 10
143.743644181855
 20
78.59315530712335
 30
0.0
  0
SPLINE
  5
9E
330
1F
100
AcDbEntity
  8
0
  6
Continuous
 62
     7
370
    25
100
AcDbSpline
210
0.0
220
0.0
230
1.0
 70
     8
 71
     3
 72
    15
 73
    11
 74
     0
 42
0.00000001
 43
0.00000001
 40
0.0
 40
0.0
 40
0.0
 40
0.0
 40
0.1263812889588906
 40
0.2491049464973165
 40
0.3706105362999225
 40
0.4913917559424305
 40
0.6138158455532666
 40
0.7388355742356978
 40
0.8671181754268791
 40
1.0
 40
1.0
 40
1.0
 40
1.0
 10
143.743644181855
 20
79.37037538434343
 30
0.0
 10
143.7558382894395
 20
79.3573742355602
 30
0.0
 10
143.7798735919944
 20
79.33174820738208
 30
0.0
 10
143.8114831118727
 20
79.28994535131656
 30
0.0
 10
143.8370928783811
 20
79.24522598414754
 30
0.0
 10
143.8594787327418
 20
79.19882326940132
 30
0.0
 10
143.875561447816
 20
79.14934183003453
 30
0.0
 10
143.8881533222429
 20
79.09783092720016
 30
0.0
 10
143.8951997851165
 20
79.04370064561904
 30
0.0
 10
143.8960880042262
 20
79.00687372947922
 30
0.0
 10
143.8965399347508
 20
78.98813600210406
 30
0.0
  0
SPLINE
  5
9F
330
1F
100
AcDbEntity
  8
0
  6
Continuous
 62
     7
370
    25
100
AcDbSpline
210
0.0
220
0.0
230
1.0
 70
     8
 71
     3
 72
    23
 73
    19
 74
     0
 42
0.00000001
 43
0.00000001
 40
0.0
 40
0.0
 40
0.0
 40
0.0
 40
0.0796294701120216
 40
0.1566842067799501
 40
0.2308342243899714
 40
0.3025278065272981
 40
0.371510107611198
 40
0.4382633308465719
 40
0.5024649722906295
 40
0.5646604536693954
 40
0.6245612367645358
 40
0.6823215461207703
 40
0.7385115542781732
 40
0.7932995870703853
 40
0.846720510756645
 40
0.8985430522702743
 40
0.9498534420925909
 40
1.0
 40
1.0
 40
1.0
 40
1.0
 10
142.7370804752913
 20
79.67616689013495
 30
0.0
 10
142.7657103920826
 20
79.6758079593992
 30
0.0
 10
142.8220445080362
 20
79.6751017035678
 30
0.0
 10
142.9050164198059
 20
79.67212808533942
 30
0.0
 10
142.9849107081613
 20
79.66560800945469
 30
0.0
 10
143.0618024187168
 20
79.65805346014106
 30
0.0
 10
143.1355864668876
 20
79.64697099424062
 30
0.0
 10
143.2063001336366
 20
79.63392350228467
 30
0.0
 10
143.2739934069151
 20
79.6182931354317
 30
0.0
 10
143.3385916172894
 20
79.60047764346031
 30
0.0
 10
143.4000376849611
 20
79.58021720405318
 30
0.0
 10
143.45831229401
 20
79.55750465090406
 30
0.0
 10
143.5135915948923
 20
79.53244336758233
 30
0.0
 10
143.5661651032104
 20
79.50531182959304
 30
0.0
 10
143.6150765202989
 20
79.47491420275466
 30
0.0
 10
143.6613212331851
 20
79.44276900501775
 30
0.0
 10
143.7041799224508
 20
79.408002212694
 30
0.0
 10
143.7305904153133
 20
79.38282137573938
 30
0.0
 10
143.743644181855
 20
79.37037538434343
 30
0.0
  0
LINE
  5
A0
330
1F
100
AcDbEntity
  8
0
  6
Continuous
 62
     7
370
    25
100
AcDbLine
 10
142.5077368459
 20
81.3707614847
 30
0.0
 11
143.8965399348
 21
80.5170935311
 31
0.0
  0
LINE
  5
A1
330
1F
100
AcDbEntity
  8
0
  6
Continuous
 62
     7
370
    25
100
AcDbLine
 10
142.2538543921
 20
81.3707614847
 30
0.0
 11
142.5077368459
 21
81.3707614847
 31
0.0
  0
LINE
  5
A2
330
1F
100
AcDbEntity
  8
0
  6
Continuous
 62
     7
370
    25
100
AcDbLine
 10
142.2538543921
 20
80.5255877396
 30
0.0
 11
142.2538543921
 21
81.3707614847
 31
0.0
  0
LINE
  5
A3
330
1F
100
AcDbEntity
  8
0
  6
Continuous
 62
     7
370
    25
100
AcDbLine
 10
141.6922928305
 20
80.5255877396
 30
0.0
 11
142.2538543921
 21
80.5255877396
 31
0.0
  0
LINE
  5
A4
330
1F
100
AcDbEntity
  8
0
  6
Continuous
 62
     7
370
    25
100
AcDbLine
 10
141.6922928305
 20
80.224043338
 30
0.0
 11
141.6922928305
 21
80.5255877396
 31
0.0
  0
LINE
  5
A5
330
1F
100
AcDbEntity
  8
0
  6
Continuous
 62
     7
370
    25
100
AcDbLine
 10
142.2538543921
 20
80.224043338
 30
0.0
 11
141.6922928305
 21
80.224043338
 31
0.0
  0
LINE
  5
A6
330
1F
100
AcDbEntity
  8
0
  6
Continuous
 62
     7
370
    25
100
AcDbLine
 10
142.2538543921
 20
79.9564757704
 30
0.0
 11
142.2538543921
 21
80.224043338
 31
0.0
  0
LINE
  5
A7
330
1F
100
AcDbEntity
  8
0
  6
Continuous
 62
     7
370
    25
100
AcDbLine
 10
142.4949955332
 20
79.9564757704
 30
0.0
 11
142.2538543921
 21
79.9564757704
 31
0.0
  0
LINE
  5
A8
330
1F
100
AcDbEntity
  8
0
  6
Continuous
 62
     7
370
    25
100
AcDbLine
 10
142.4949955332
 20
80.224043338
 30
0.0
 11
142.4949955332
 21
79.9564757704
 31
0.0
  0
LINE
  5
A9
330
1F
100
AcDbEntity
  8
0
  6
Continuous
 62
     7
370
    25
100
AcDbLine
 10
143.8965399348
 20
80.224043338
 30
0.0
 11
142.4949955332
 21
80.224043338
 31
0.0
  0
LINE
  5
AA
330
1F
100
AcDbEntity
  8
0
  6
Continuous
 62
     7
370
    25
100
AcDbLine
 10
143.8965399348
 20
80.5170935311
 30
0.0
 11
143.8965399348
 21
80.224043338
 31
0.0
  0
LINE
  5
AB
330
1F
100
AcDbEntity
  8
0
  6
Continuous
 62
     7
370
    25
100
AcDbLine
 10
143.4019882402
 20
82.3985607125
 30
0.0
 11
143.4019882402
 21
82.7723058863
 31
0.0
  0
LINE
  5
AC
330
1F
100
AcDbEntity
  8
0
  6
Continuous
 62
     7
370
    25
100
AcDbLine
 10
141.7050341432
 20
82.3985607125
 30
0.0
 11
143.4019882402
 21
82.3985607125
 31
0.0
  0
LINE
  5
AD
330
1F
100
AcDbEntity
  8
0
  6
Continuous
 62
     7
370
    25
100
AcDbLine
 10
141.7050341432
 20
82.097016311
 30
0.0
 11
141.7050341432
 21
82.3985607125
 31
0.0
  0
LINE
  5
AE
330
1F
100
AcDbEntity
  8
0
  6
Continuous
 62
     7
370
    25
100
AcDbLine
 10
143.9092812475
 20
82.097016311
 30
0.0
 11
141.7050341432
 21
82.097016311
 31
0.0
  0
LINE
  5
AF
330
1F
100
AcDbEntity
  8
0
  6
Continuous
 62
     7
370
    25
100
AcDbLine
 10
143.9092812475
 20
82.2499120639
 30
0.0
 11
143.9092812475
 21
82.097016311
 31
0.0
  0
SPLINE
  5
B0
330
1F
100
AcDbEntity
  8
0
  6
Continuous
 62
     7
370
    25
100
AcDbSpline
210
0.0
220
0.0
230
1.0
 70
     8
 71
     3
 72
    11
 73
     7
 74
     0
 42
0.00000001
 43
0.00000001
 40
0.0
 40
0.0
 40
0.0
 40
0.0
 40
0.2682823389612927
 40
0.519799796734137
 40
0.7604656312619593
 40
1.0
 40
1.0
 40
1.0
 40
1.0
 10
143.6544549926658
 20
82.37732519129325
 30
0.0
 10
143.6735598012278
 20
82.35961923850915
 30
0.0
 10
143.7105755647164
 20
82.32531377250723
 30
0.0
 10
143.7739183911725
 20
82.2869471198428
 30
0.0
 10
143.840053691984
 20
82.2599158016127
 30
0.0
 10
143.8862416722752
 20
82.25324140096632
 30
0.0
 10
143.9092812474921
 20
82.24991206388012
 30
0.0
  0
LINE
  5
B1
330
1F
100
AcDbEntity
  8
0
  6
Continuous
 62
     7
370
    25
100
AcDbLine
 10
142.7045193427
 20
84.658020172
 30
0.0
 11
142.9154588537
 21
84.658020172
 31
0.0
  0
LINE
  5
B2
330
1F
100
AcDbEntity
  8
0
  6
Continuous
 62
     7
370
    25
100
AcDbLine
 10
142.9154588537
 20
84.658020172
 30
0.0
 11
142.9154588537
 21
83.2055105195
 31
0.0
  0
LINE
  5
B3
330
1F
100
AcDbEntity
  8
0
  6
Continuous
 62
     7
370
    25
100
AcDbLine
 10
141.6932366314
 20
86.623013737
 30
0.0
 11
143.8710573093
 21
86.623013737
 31
0.0
  0
LINE
  5
B4
330
1F
100
AcDbEntity
  8
0
  6
Continuous
 62
     7
370
    25
100
AcDbLine
 10
141.6932366314
 20
85.6079558219
 30
0.0
 11
141.6932366314
 21
86.623013737
 31
0.0
  0
SPLINE
  5
B5
330
1F
100
AcDbEntity
  8
0
  6
Continuous
 62
     7
370
    25
100
AcDbSpline
210
0.0
220
0.0
230
1.0
 70
     8
 71
     3
 72
    15
 73
    11
 74
     0
 42
0.00000001
 43
0.00000001
 40
0.0
 40
0.0
 40
0.0
 40
0.0
 40
0.1086277469152493
 40
0.219530040467935
 40
0.3340583594962496
 40
0.4525037346025801
 40
0.578166032102879
 40
0.7098017975268048
 40
0.8504665399585418
 40
1.0
 40
1.0
 40
1.0
 40
1.0
 10
141.8451885833994
 20
85.1492685632366
 30
0.0
 10
141.8330709682089
 20
85.16253144639853
 30
0.0
 10
141.8085820081716
 20
85.18933492304181
 30
0.0
 10
141.7772854539562
 20
85.23506126618955
 30
0.0
 10
141.7515323697446
 20
85.28584707461481
 30
0.0
 10
141.7302181025832
 20
85.34122834756167
 30
0.0
 10
141.7132060337483
 20
85.40104510490968
 30
0.0
 10
141.7016442488379
 20
85.4658610616453
 30
0.0
 10
141.6944804719101
 20
85.53527791048043
 30
0.0
 10
141.6936596070573
 20
85.58324125053146
 30
0.0
 10
141.6932366314475
 20
85.60795582192388
 30
0.0
  0
SPLINE
  5
B6
330
1F
100
AcDbEntity
  8
0
  6
Continuous
 62
     7
370
    25
100
AcDbSpline
210
0.0
220
0.0
230
1.0
 70
     8
 71
     3
 72
    15
 73
    11
 74
     0
 42
0.00000001
 43
0.00000001
 40
0.0
 40
0.0
 40
0.0
 40
0.0
 40
0.1319114978615549
 40
0.2585593955794498
 40
0.3829282045992121
 40
0.5051155152535453
 40
0.6266776175559875
 40
0.7489849223246636
 40
0.8728415720964464
 40
1.0
 40
1.0
 40
1.0
 40
1.0
 10
142.316617154828
 20
84.95814887211694
 30
0.0
 10
142.2936207874595
 20
84.95863152251262
 30
0.0
 10
142.2485456655505
 20
84.95957756434075
 30
0.0
 10
142.1823104997946
 20
84.96885050049245
 30
0.0
 10
142.1189793736121
 20
84.98396616758845
 30
0.0
 10
142.0581641128734
 20
85.00470073371802
 30
0.0
 10
142.0002399844618
 20
85.03174304236103
 30
0.0
 10
141.9454369569361
 20
85.06510561389325
 30
0.0
 10
141.8929171756383
 20
85.10375010304755
 30
0.0
 10
141.8612370179555
 20
85.13396327147808
 30
0.0
 10
141.8451885833994
 20
85.1492685632366
 30
0.0
  0
SPLINE
  5
B7
330
1F
100
AcDbEntity
  8
0
  6
Continuous
 62
     7
370
    25
100
AcDbSpline
210
0.0
220
0.0
230
1.0
 70
     8
 71
     3
 72
    15
 73
    11
 74
     0
 42
0.00000001
 43
0.00000001
 40
0.0
 40
0.0
 40
0.0
 40
0.0
 40
0.1263812889588905
 40
0.249104946497316
 40
0.3706105362999225
 40
0.4913917559424302
 40
0.6138158455532662
 40
0.7388355742356973
 40
0.8671181754268791
 40
0.9999999999999999
 40
0.9999999999999999
 40
0.9999999999999999
 40
0.9999999999999999
 10
142.6988565370673
 20
85.11104462501268
 30
0.0
 10
142.6858553882841
 20
85.09885051742822
 30
0.0
 10
142.660229360106
 20
85.07481521487327
 30
0.0
 10
142.6184265040405
 20
85.04320569499492
 30
0.0
 10
142.5737071368715
 20
85.01759592848659
 30
0.0
 10
142.5273044221252
 20
84.99521007412588
 30
0.0
 10
142.4778229827585
 20
84.9791273590517
 30
0.0
 10
142.4263120799241
 20
84.96653548462474
 30
0.0
 10
142.372181798343
 20
84.95948902175118
 30
0.0
 10
142.3353548822031
 20
84.95860080264144
 30
0.0
 10
142.316617154828
 20
84.95814887211694
 30
0.0
  0
SPLINE
  5
B8
330
1F
100
AcDbEntity
  8
0
  6
Continuous
 62
     7
370
    25
100
AcDbSpline
210
0.0
220
0.0
230
1.0
 70
     8
 71
     3
 72
    11
 73
     7
 74
     0
 42
0.00000001
 43
0.00000001
 40
0.0
 40
0.0
 40
0.0
 40
0.0
 40
0.2758864184465412
 40
0.5310076877713112
 40
0.7722766677115253
 40
1.0
 40
1.0
 40
1.0
 40
1.0
 10
142.8390109772218
 20
85.35312956709762
 30
0.0
 10
142.8302615915526
 20
85.32868196057075
 30
0.0
 10
142.8134213604177
 20
85.2816268460549
 30
0.0
 10
142.7803415635114
 20
85.21680237166882
 30
0.0
 10
142.7430263886534
 20
85.15954852665081
 30
0.0
 10
142.7132935686871
 20
85.12689825223771
 30
0.0
 10
142.6988565370673
 20
85.11104462501268
 30
0.0
  0
SPLINE
  5
B9
330
1F
100
AcDbEntity
  8
0
  6
Continuous
 62
     7
370
    25
100
AcDbSpline
210
0.0
220
0.0
230
1.0
 70
     8
 71
     3
 72
    11
 73
     7
 74
     0
 42
0.00000001
 43
0.00000001
 40
0.0
 40
0.0
 40
0.0
 40
0.0
 40
0.2409277974217337
 40
0.4854864172424148
 40
0.7380410464993908
 40
1.0
 40
1.0
 40
1.0
 40
1.0
 10
142.9536827918936
 20
85.16200987597793
 30
0.0
 10
142.9413793808934
 20
85.17524913752445
 30
0.0
 10
142.9165871444214
 20
85.20192717851404
 30
0.0
 10
142.885353271833
 20
85.24782692929598
 30
0.0
 10
142.8594203149493
 20
85.29860635329662
 30
0.0
 10
142.8458964863713
 20
85.33473504139086
 30
0.0
 10
142.8390109772218
 20
85.35312956709762
 30
0.0
  0
SPLINE
  5
BA
330
1F
100
AcDbEntity
  8
0
  6
Continuous
 62
     7
370
    25
100
AcDbSpline
210
0.0
220
0.0
230
1.0
 70
     8
 71
     3
 72
    15
 73
    11
 74
     0
 42
0.00000001
 43
0.00000001
 40
0.0
 40
0.0
 40
0.0
 40
0.0
 40
0.1312072932871418
 40
0.2585055422472042
 40
0.3817646425439864
 40
0.5033692670500668
 40
0.6250492974901231
 40
0.7476118725723038
 40
0.8722462138971595
 40
1.0
 40
1.0
 40
1.0
 40
1.0
 10
143.2976982359091
 20
85.0218554358235
 30
0.0
 10
143.2810028018475
 20
85.02233131216184
 30
0.0
 10
143.2481093389384
 20
85.0232688871076
 30
0.0
 10
143.199903577258
 20
85.02999554321629
 30
0.0
 10
143.1537699765535
 20
85.04089654977915
 30
0.0
 10
143.1095362334055
 20
85.05594699776088
 30
0.0
 10
143.0674119815807
 20
85.07597755666767
 30
0.0
 10
143.0271849178148
 20
85.10023062200545
 30
0.0
 10
142.9885187287568
 20
85.12839023551663
 30
0.0
 10
142.9653900587545
 20
85.15071136822735
 30
0.0
 10
142.9536827918936
 20
85.16200987597793
 30
0.0
  0
SPLINE
  5
BB
330
1F
100
AcDbEntity
  8
0
  6
Continuous
 62
     7
370
    25
100
AcDbSpline
210
0.0
220
0.0
230
1.0
 70
     8
 71
     3
 72
    15
 73
    11
 74
     0
 42
0.00000001
 43
0.00000001
 40
0.0
 40
0.0
 40
0.0
 40
0.0
 40
0.1195027114365308
 40
0.2380939422658887
 40
0.3566476293726336
 40
0.4775806195769138
 40
0.6003630199241493
 40
0.727832734004141
 40
0.8606471500295813
 40
1.0
 40
1.0
 40
1.0
 40
1.0
 10
143.7054202436311
 20
85.17475118871924
 30
0.0
 10
143.6924644201978
 20
85.16249775299275
 30
0.0
 10
143.6666515910207
 20
85.13808434192158
 30
0.0
 10
143.62339443069
 20
85.10684174506135
 30
0.0
 10
143.5766295670543
 20
85.08092526988382
 30
0.0
 10
143.5271637176367
 20
85.05896048871135
 30
0.0
 10
143.4741646629405
 20
85.04268252321974
 30
0.0
 10
143.4183689244041
 20
85.03017432422783
 30
0.0
 10
143.3590664937944
 20
85.02317216476976
 30
0.0
 10
143.3184793382228
 20
85.02230131908456
 30
0.0
 10
143.2976982359091
 20
85.0218554358235
 30
0.0
  0
SPLINE
  5
BC
330
1F
100
AcDbEntity
  8
0
  6
Continuous
 62
     7
370
    25
100
AcDbSpline
210
0.0
220
0.0
230
1.0
 70
     8
 71
     3
 72
    15
 73
    11
 74
     0
 42
0.00000001
 43
0.00000001
 40
0.0
 40
0.0
 40
0.0
 40
0.0
 40
0.1342477572737627
 40
0.263461772575683
 40
0.3884666271730283
 40
0.5118790511869571
 40
0.6324080741525893
 40
0.7535525248235474
 40
0.875508480528274
 40
1.0
 40
1.0
 40
1.0
 40
1.0
 10
143.8710573092681
 20
85.59521450918255
 30
0.0
 10
143.8707161211396
 20
85.57441900512731
 30
0.0
 10
143.8700465380423
 20
85.53360774338813
 30
0.0
 10
143.8614727211674
 20
85.47397591681468
 30
0.0
 10
143.849088302967
 20
85.41678015862315
 30
0.0
 10
143.8305257612504
 20
85.36264276264212
 30
0.0
 10
143.8071835118708
 20
85.31110619427099
 30
0.0
 10
143.7789986708553
 20
85.26225093383238
 30
0.0
 10
143.7446085812063
 20
85.21673962292867
 30
0.0
 10
143.7185723138116
 20
85.18884300449054
 30
0.0
 10
143.7054202436311
 20
85.17475118871924
 30
0.0
  0
LINE
  5
BD
330
1F
100
AcDbEntity
  8
0
  6
Continuous
 62
     7
370
    25
100
AcDbLine
 10
143.8710573093
 20
86.623013737
 30
0.0
 11
143.8710573093
 21
85.5952145092
 31
0.0
  0
LINE
  5
BE
330
1F
100
AcDbEntity
  8
0
  6
Continuous
 62
     7
370
    25
100
AcDbLine
 10
141.6922928305
 20
88.6941849082
 30
0.0
 11
143.8710573093
 21
88.6941849082
 31
0.0
  0
LINE
  5
BF
330
1F
100
AcDbEntity
  8
0
  6
Continuous
 62
     7
370
    25
100
AcDbLine
 10
141.6922928305
 20
88.3926405066
 30
0.0
 11
141.6922928305
 21
88.6941849082
 31
0.0
  0
LINE
  5
C0
330
1F
100
AcDbEntity
  8
0
  6
Continuous
 62
     7
370
    25
100
AcDbLine
 10
143.4123700506
 20
88.3926405066
 30
0.0
 11
141.6922928305
 21
88.3926405066
 31
0.0
  0
LINE
  5
C1
330
1F
100
AcDbEntity
  8
0
  6
Continuous
 62
     7
370
    25
100
AcDbLine
 10
141.6922928305
 20
87.3733354873
 30
0.0
 11
143.4123700506
 21
88.3926405066
 31
0.0
  0
LINE
  5
C2
330
1F
100
AcDbEntity
  8
0
  6
Continuous
 62
     7
370
    25
100
AcDbLine
 10
141.6922928305
 20
87.0548026688
 30
0.0
 11
141.6922928305
 21
87.3733354873
 31
0.0
  0
LINE
  5
C3
330
1F
100
AcDbEntity
  8
0
  6
Continuous
 62
     7
370
    25
100
AcDbLine
 10
143.8710573093
 20
87.0548026688
 30
0.0
 11
141.6922928305
 21
87.0548026688
 31
0.0
  0
LINE
  5
C4
330
1F
100
AcDbEntity
  8
0
  6
Continuous
 62
     7
370
    25
100
AcDbLine
 10
143.8710573093
 20
87.3563470703
 30
0.0
 11
143.8710573093
 21
87.0548026688
 31
0.0
  0
LINE
  5
C5
330
1F
100
AcDbEntity
  8
0
  6
Continuous
 62
     7
370
    25
100
AcDbLine
 10
142.1509800892
 20
87.3563470703
 30
0.0
 11
143.8710573093
 21
87.3563470703
 31
0.0
  0
LINE
  5
C6
330
1F
100
AcDbEntity
  8
0
  6
Continuous
 62
     7
370
    25
100
AcDbLine
 10
143.8710573093
 20
88.3671578811
 30
0.0
 11
142.1509800892
 21
87.3563470703
 31
0.0
  0
LINE
  5
C7
330
1F
100
AcDbEntity
  8
0
  6
Continuous
 62
     7
370
    25
100
AcDbLine
 10
143.8710573093
 20
88.6941849082
 30
0.0
 11
143.8710573093
 21
88.3671578811
 31
0.0
  0
LINE
  5
C8
330
1F
100
AcDbEntity
  8
0
  6
Continuous
 62
     7
370
    25
100
AcDbLine
 10
142.7045193427
 20
83.2055105195
 30
0.0
 11
142.7045193427
 21
84.658020172
 31
0.0
  0
LINE
  5
C9
330
1F
100
AcDbEntity
  8
0
  6
Continuous
 62
     7
370
    25
100
AcDbLine
 10
142.9154588537
 20
83.2055105195
 30
0.0
 11
142.7045193427
 21
83.2055105195
 31
0.0
  0
SPLINE
  5
CA
330
1F
100
AcDbEntity
  8
0
  6
Continuous
 62
     7
370
    25
100
AcDbSpline
210
0.0
220
0.0
230
1.0
 70
     8
 71
     3
 72
    15
 73
    11
 74
     0
 42
0.00000001
 43
0.00000001
 40
0.0
 40
0.0
 40
0.0
 40
0.0
 40
0.1418032572055075
 40
0.2768956124422273
 40
0.4056005815718942
 40
0.5283792299702866
 40
0.6485398625937333
 40
0.7671999810702803
 40
0.882172805670652
 40
1.0
 40
1.0
 40
1.0
 40
1.0
 10
143.5525244907353
 20
82.65763407160212
 30
0.0
 10
143.5526714899139
 20
82.64313792538314
 30
0.0
 10
143.5529585314699
 20
82.61483166948703
 30
0.0
 10
143.5588229539616
 20
82.57377931580298
 30
0.0
 10
143.5656181097234
 20
82.53482608672255
 30
0.0
 10
143.5775629045507
 20
82.49872663886839
 30
0.0
 10
143.5912831355074
 20
82.46436788149752
 30
0.0
 10
143.6095295165624
 20
82.4331002152255
 30
0.0
 10
143.629852178759
 20
82.40340987315108
 30
0.0
 10
143.646187292882
 20
82.38609086823462
 30
0.0
 10
143.6544549926658
 20
82.37732519129325
 30
0.0
  0
LINE
  5
CB
330
1F
100
AcDbEntity
  8
0
  6
Continuous
 62
     7
370
    25
100
AcDbLine
 10
143.5525244907
 20
82.7723058863
 30
0.0
 11
143.5525244907
 21
82.6576340716
 31
0.0
  0
LINE
  5
CC
330
1F
100
AcDbEntity
  8
0
  6
Continuous
 62
     7
370
    25
100
AcDbLine
 10
143.4019882402
 20
82.7723058863
 30
0.0
 11
143.5525244907
 21
82.7723058863
 31
0.0
  0
LINE
  5
CD
330
1F
100
AcDbEntity
  8
0
  6
Continuous
 62
     7
370
    25
100
AcDbLine
 10
139.1540688923
 20
81.7547802912
 30
0.0
 11
139.1540688923
 21
96.5047802912
 31
0.0
  0
LINE
  5
CE
330
1F
100
AcDbEntity
  8
0
  6
Continuous
 62
     7
370
    25
100
AcDbLine
 10
139.1540688923
 20
67.0047802912
 30
0.0
 11
139.1540688923
 21
81.7547802912
 31
0.0
  0
LINE
  5
CF
330
1F
100
AcDbEntity
  8
0
  6
Continuous
 62
     7
370
    25
100
AcDbLine
 10
146.1540688923
 20
81.7547802912
 30
0.0
 11
146.1540688923
 21
96.5047802912
 31
0.0
  0
LINE
  5
D0
330
1F
100
AcDbEntity
  8
0
  6
Continuous
 62
     7
370
    25
100
AcDbLine
 10
146.1540688923
 20
67.0047802912
 30
0.0
 11
146.1540688923
 21
81.7547802912
 31
0.0
  0
LINE
  5
D1
330
1F
100
AcDbEntity
  8
0
  6
Continuous
 62
     7
370
    25
100
AcDbLine
 10
143.4251113633
 20
80.5255877396
 30
0.0
 11
142.4949955332
 21
81.0904526044
 31
0.0
  0
LINE
  5
D2
330
1F
100
AcDbEntity
  8
0
  6
Continuous
 62
     7
370
    25
100
AcDbLine
 10
142.4949955332
 20
80.5255877396
 30
0.0
 11
143.4251113633
 21
80.5255877396
 31
0.0
  0
LINE
  5
D3
330
1F
100
AcDbEntity
  8
0
  6
Continuous
 62
     7
370
    25
100
AcDbLine
 10
142.4949955332
 20
81.0904526044
 30
0.0
 11
142.4949955332
 21
80.5255877396
 31
0.0
  0
SPLINE
  5
D4
330
1F
100
AcDbEntity
  8
0
  6
Continuous
 62
     7
370
    25
100
AcDbSpline
210
0.0
220
0.0
230
1.0
 70
     8
 71
     3
 72
    11
 73
     7
 74
     0
 42
0.00000001
 43
0.00000001
 40
0.0
 40
0.0
 40
0.0
 40
0.0
 40
0.2562600332085391
 40
0.5016208045865226
 40
0.7449078564687253
 40
1.0
 40
1.0
 40
1.0
 40
1.0
 10
142.9154588536697
 20
79.00087731484537
 30
0.0
 10
142.914392336321
 20
79.02144646624656
 30
0.0
 10
142.9123046627817
 20
79.06170992109104
 30
0.0
 10
142.8951884190574
 20
79.11945057414039
 30
0.0
 10
142.8668630860001
 20
79.17251947280252
 30
0.0
 10
142.8400128055576
 20
79.20225810589058
 30
0.0
 10
142.8262696644805
 20
79.21747963144767
 30
0.0
  0
SPLINE
  5
D5
330
1F
100
AcDbEntity
  8
0
  6
Continuous
 62
     7
370
    25
100
AcDbSpline
210
0.0
220
0.0
230
1.0
 70
     8
 71
     3
 72
    11
 73
     7
 74
     0
 42
0.00000001
 43
0.00000001
 40
0.0
 40
0.0
 40
0.0
 40
0.0
 40
0.2912484084677862
 40
0.5474762715832002
 40
0.7812177661650653
 40
1.0
 40
1.0
 40
1.0
 40
1.0
 10
142.8262696644805
 20
78.82249893646699
 30
0.0
 10
142.8398353783909
 20
78.83703411418668
 30
0.0
 10
142.8653356257985
 20
78.86435671809937
 30
0.0
 10
142.8940116608412
 20
78.9095211478929
 30
0.0
 10
142.9117892043171
 20
78.95508192780451
 30
0.0
 10
142.9142628951532
 20
78.98595235120803
 30
0.0
 10
142.9154588536697
 20
79.00087731484537
 30
0.0
  0
SPLINE
  5
D6
330
1F
100
AcDbEntity
  8
0
  6
Continuous
 62
     7
370
    25
100
AcDbSpline
210
0.0
220
0.0
230
1.0
 70
     8
 71
     3
 72
    15
 73
    11
 74
     0
 42
0.00000001
 43
0.00000001
 40
0.0
 40
0.0
 40
0.0
 40
0.0
 40
0.1621938662364101
 40
0.3128358862094927
 40
0.4514937848199699
 40
0.5789754992164103
 40
0.6959713973784581
 40
0.8040446570061012
 40
0.9042792524989225
 40
1.0
 40
1.0
 40
1.0
 40
1.0
 10
142.4185476567585
 20
78.70782712179518
 30
0.0
 10
142.441994856309
 20
78.70820759925981
 30
0.0
 10
142.4872192881615
 20
78.7089414556478
 30
0.0
 10
142.5523358602813
 20
78.71400681853223
 30
0.0
 10
142.6120147749312
 20
78.72274401321262
 30
0.0
 10
142.6659608189251
 20
78.73551429974982
 30
0.0
 10
142.7145502327699
 20
78.751238830756
 30
0.0
 10
142.7572078182374
 20
78.77120858765751
 30
0.0
 10
142.7949520877398
 20
78.79414344370143
 30
0.0
 10
142.8159920244777
 20
78.8131933778294
 30
0.0
 10
142.8262696644805
 20
78.82249893646699
 30
0.0
  0
SPLINE
  5
D7
330
1F
100
AcDbEntity
  8
0
  6
Continuous
 62
     7
370
    25
100
AcDbSpline
210
0.0
220
0.0
230
1.0
 70
     8
 71
     3
 72
    15
 73
    11
 74
     0
 42
0.00000001
 43
0.00000001
 40
0.0
 40
0.0
 40
0.0
 40
0.0
 40
0.0889385933316046
 40
0.1846881048742354
 40
0.2906390975243629
 40
0.4070025892724368
 40
0.5351860897525823
 40
0.6768017488293069
 40
0.8315571904058214
 40
1.0
 40
1.0
 40
1.0
 40
1.0
 10
141.9726017108125
 20
78.82249893646699
 30
0.0
 10
141.983013288473
 20
78.81315242340204
 30
0.0
 10
142.0046337624972
 20
78.79374364122455
 30
0.0
 10
142.0444559792818
 20
78.77094476285924
 30
0.0
 10
142.0903350360225
 20
78.75112015424139
 30
0.0
 10
142.143169558253
 20
78.73544142892578
 30
0.0
 10
142.2024562447633
 20
78.72265095292003
 30
0.0
 10
142.2685824833431
 20
78.71399773837672
 30
0.0
 10
142.3413900517427
 20
78.70892064332502
 30
0.0
 10
142.3921124282806
 20
78.70820177691155
 30
0.0
 10
142.4185476567585
 20
78.70782712179518
 30
0.0
  0
SPLINE
  5
D8
330
1F
100
AcDbEntity
  8
0
  6
Continuous
 62
     7
370
    25
100
AcDbSpline
210
0.0
220
0.0
230
1.0
 70
     8
 71
     3
 72
    11
 73
     7
 74
     0
 42
0.00000001
 43
0.00000001
 40
0.0
 40
0.0
 40
0.0
 40
0.0
 40
0.2601257123120325
 40
0.5090133886864469
 40
0.7508417226532316
 40
0.9999999999999999
 40
0.9999999999999999
 40
0.9999999999999999
 40
0.9999999999999999
 10
141.8961538343647
 20
79.01361862758668
 30
0.0
 10
141.8969531261879
 20
78.995253396693
 30
0.0
 10
141.8985171785682
 20
78.95931635560575
 30
0.0
 10
141.9139345317308
 20
78.90831236297551
 30
0.0
 10
141.9374627927057
 20
78.86128868730562
 30
0.0
 10
141.9607727399753
 20
78.83555690342148
 30
0.0
 10
141.9726017108125
 20
78.82249893646699
 30
0.0
  0
SPLINE
  5
D9
330
1F
100
AcDbEntity
  8
0
  6
Continuous
 62
     7
370
    25
100
AcDbSpline
210
0.0
220
0.0
230
1.0
 70
     8
 71
     3
 72
    11
 73
     7
 74
     0
 42
0.00000001
 43
0.00000001
 40
0.0
 40
0.0
 40
0.0
 40
0.0
 40
0.2767994473675437
 40
0.5300473798609833
 40
0.7673216447737539
 40
1.0
 40
1.0
 40
1.0
 40
1.0
 10
141.9853430235538
 20
79.20473831870636
 30
0.0
 10
141.9716781697099
 20
79.1901090597111
 30
0.0
 10
141.9455111377845
 20
79.16209527401358
 30
0.0
 10
141.917327965928
 20
79.11403160170099
 30
0.0
 10
141.8995705291076
 20
79.0643883632252
 30
0.0
 10
141.8972852830781
 20
79.0304311778411
 30
0.0
 10
141.8961538343647
 20
79.01361862758668
 30
0.0
  0
SPLINE
  5
DA
330
1F
100
AcDbEntity
  8
0
  6
Continuous
 62
     7
370
    25
100
AcDbSpline
210
0.0
220
0.0
230
1.0
 70
     8
 71
     3
 72
    15
 73
    11
 74
     0
 42
0.00000001
 43
0.00000001
 40
0.0
 40
0.0
 40
0.0
 40
0.0
 40
0.1493997748286759
 40
0.2899387608175545
 40
0.4216321191698547
 40
0.5469260282951607
 40
0.665612811781325
 40
0.7800387407312266
 40
0.8908418859280358
 40
1.0
 40
1.0
 40
1.0
 40
1.0
 10
142.4440302822411
 20
79.35763407160212
 30
0.0
 10
142.4193206159749
 20
79.35718853185142
 30
0.0
 10
142.3713667952569
 20
79.35632387697919
 30
0.0
 10
142.3018543245206
 20
79.3494641899497
 30
0.0
 10
142.2372834168173
 20
79.33683696543169
 30
0.0
 10
142.1770977357374
 20
79.32096800960319
 30
0.0
 10
142.1220373374753
 20
79.29870536394453
 30
0.0
 10
142.0711352860351
 20
79.27314269826749
 30
0.0
 10
142.0252663345869
 20
79.24181582265685
 30
0.0
 10
141.998584277922
 20
79.21703571209481
 30
0.0
 10
141.9853430235538
 20
79.20473831870636
 30
0.0
  0
SPLINE
  5
DB
330
1F
100
AcDbEntity
  8
0
  6
Continuous
 62
     7
370
    25
100
AcDbSpline
210
0.0
220
0.0
230
1.0
 70
     8
 71
     3
 72
    15
 73
    11
 74
     0
 42
0.00000001
 43
0.00000001
 40
0.0
 40
0.0
 40
0.0
 40
0.0
 40
0.1182864595995968
 40
0.2347934213738277
 40
0.3525293820747453
 40
0.4728657235109873
 40
0.5967540177287655
 40
0.7246940143624926
 40
0.8588073979132678
 40
1.0
 40
1.0
 40
1.0
 40
1.0
 10
142.8262696644805
 20
79.21747963144767
 30
0.0
 10
142.8142518320754
 20
79.22878952326519
 30
0.0
 10
142.7903969631627
 20
79.25123916123887
 30
0.0
 10
142.7501153274162
 20
79.27964172632711
 30
0.0
 10
142.7069440242187
 20
79.303828190904
 30
0.0
 10
142.6605006190491
 20
79.32381096554012
 30
0.0
 10
142.6107156991918
 20
79.3386990365572
 30
0.0
 10
142.5579818536899
 20
79.34956184396013
 30
0.0
 10
142.5020878092948
 20
79.35626275936391
 30
0.0
 10
142.463711725485
 20
79.35716919813342
 30
0.0
 10
142.4440302822411
 20
79.35763407160212
 30
0.0
  0
LINE
  5
DC
330
1F
100
AcDbEntity
  8
0
  6
Continuous
 62
     7
370
    25
100
AcDbLine
 10
143.6299161681
 20
86.3214693354
 30
0.0
 11
142.9536827919
 21
86.3214693354
 31
0.0
  0
LINE
  5
DD
330
1F
100
AcDbEntity
  8
0
  6
Continuous
 62
     7
370
    25
100
AcDbLine
 10
143.6299161681
 20
85.6079558219
 30
0.0
 11
143.6299161681
 21
86.3214693354
 31
0.0
  0
SPLINE
  5
DE
330
1F
100
AcDbEntity
  8
0
  6
Continuous
 62
     7
370
    25
100
AcDbSpline
210
0.0
220
0.0
230
1.0
 70
     8
 71
     3
 72
    11
 73
     7
 74
     0
 42
0.00000001
 43
0.00000001
 40
0.0
 40
0.0
 40
0.0
 40
0.0
 40
0.2499695538886859
 40
0.4922399851273401
 40
0.7405148106355975
 40
1.0
 40
1.0
 40
1.0
 40
1.0
 10
143.5525244907353
 20
85.41683613080419
 30
0.0
 10
143.5644963579329
 20
85.42989312509182
 30
0.0
 10
143.588071355926
 20
85.4556049550886
 30
0.0
 10
143.6122270664466
 20
85.50252496517616
 30
0.0
 10
143.6275227921286
 20
85.55366789071007
 30
0.0
 10
143.6291067194387
 20
85.58959544113111
 30
0.0
 10
143.629916168127
 20
85.60795582192388
 30
0.0
  0
SPLINE
  5
DF
330
1F
100
AcDbEntity
  8
0
  6
Continuous
 62
     7
370
    25
100
AcDbSpline
210
0.0
220
0.0
230
1.0
 70
     8
 71
     3
 72
    15
 73
    11
 74
     0
 42
0.00000001
 43
0.00000001
 40
0.0
 40
0.0
 40
0.0
 40
0.0
 40
0.1215042446907354
 40
0.2399194382132708
 40
0.3607014484775902
 40
0.4813982058565628
 40
0.6046686543565303
 40
0.7308278400410383
 40
0.861957900296685
 40
1.0
 40
1.0
 40
1.0
 40
1.0
 10
143.0428719810828
 20
85.41683613080419
 30
0.0
 10
143.051476075919
 20
85.40856671099867
 30
0.0
 10
143.0684655202358
 20
85.3922381081656
 30
0.0
 10
143.0976078880464
 20
85.37203479365989
 30
0.0
 10
143.1278869070554
 20
85.35378064192236
 30
0.0
 10
143.1609404944416
 20
85.33992289174499
 30
0.0
 10
143.1953481214099
 20
85.32813932256992
 30
0.0
 10
143.2320765305987
 20
85.32121683111357
 30
0.0
 10
143.2704567150705
 20
85.31533561210043
 30
0.0
 10
143.2968857150886
 20
85.3150513894556
 30
0.0
 10
143.3104395486504
 20
85.31490562887369
 30
0.0
  0
SPLINE
  5
E0
330
1F
100
AcDbEntity
  8
0
  6
Continuous
 62
     7
370
    25
100
AcDbSpline
210
0.0
220
0.0
230
1.0
 70
     8
 71
     3
 72
    11
 73
     7
 74
     0
 42
0.00000001
 43
0.00000001
 40
0.0
 40
0.0
 40
0.0
 40
0.0
 40
0.2562600332085377
 40
0.5016208045865217
 40
0.7449078564687268
 40
1.0
 40
1.0
 40
1.0
 40
1.0
 10
142.9536827918936
 20
85.6334384474065
 30
0.0
 10
142.9547493092422
 20
85.6128692960053
 30
0.0
 10
142.9568369827816
 20
85.57260584116084
 30
0.0
 10
142.9739532265059
 20
85.51486518811149
 30
0.0
 10
143.0022785595633
 20
85.46179628944935
 30
0.0
 10
143.0291288400057
 20
85.43205765636131
 30
0.0
 10
143.0428719810828
 20
85.41683613080419
 30
0.0
  0
LINE
  5
E1
330
1F
100
AcDbEntity
  8
0
  6
Continuous
 62
     7
370
    25
100
AcDbLine
 10
142.9536827919
 20
86.3214693354
 30
0.0
 11
142.9536827919
 21
85.6334384474
 31
0.0
  0
SPLINE
  5
E2
330
1F
100
AcDbEntity
  8
0
  6
Continuous
 62
     7
370
    25
100
AcDbSpline
210
0.0
220
0.0
230
1.0
 70
     8
 71
     3
 72
    11
 73
     7
 74
     0
 42
0.00000001
 43
0.00000001
 40
0.0
 40
0.0
 40
0.0
 40
0.0
 40
0.2516095171558483
 40
0.4964930798665574
 40
0.7426069856111283
 40
0.9999999999999999
 40
0.9999999999999999
 40
0.9999999999999999
 40
0.9999999999999999
 10
143.3104395486504
 20
85.31490562887369
 30
0.0
 10
143.3330674741965
 20
85.31621208127366
 30
0.0
 10
143.3777184419833
 20
85.31879006235755
 30
0.0
 10
143.4421618163672
 20
85.33829638341969
 30
0.0
 10
143.5015979810296
 20
85.3709707359121
 30
0.0
 10
143.53529735317
 20
85.40132103911894
 30
0.0
 10
143.5525244907353
 20
85.41683613080419
 30
0.0
  0
LINE
  5
E3
330
1F
100
AcDbEntity
  8
0
  6
Continuous
 62
     7
370
    25
100
AcDbLine
 10
142.4949955332
 20
77.2638116778
 30
0.0
 11
143.4251113633
 21
77.2638116778
 31
0.0
  0
LINE
  5
E4
330
1F
100
AcDbEntity
  8
0
  6
Continuous
 62
     7
370
    25
100
AcDbLine
 10
142.4949955332
 20
77.8286765426
 30
0.0
 11
142.4949955332
 21
77.2638116778
 31
0.0
  0
LINE
  5
E5
330
1F
100
AcDbEntity
  8
0
  6
Continuous
 62
     7
370
    25
100
AcDbLine
 10
143.4251113633
 20
77.2638116778
 30
0.0
 11
142.4949955332
 21
77.8286765426
 31
0.0
  0
LINE
  5
E6
330
1F
100
AcDbEntity
  8
0
  6
Continuous
 62
     7
370
    25
100
AcDbLine
 10
142.7125416508
 20
85.6716623856
 30
0.0
 11
142.7125416508
 21
86.3214693354
 31
0.0
  0
SPLINE
  5
E7
330
1F
100
AcDbEntity
  8
0
  6
Continuous
 62
     7
370
    25
100
AcDbSpline
210
0.0
220
0.0
230
1.0
 70
     8
 71
     3
 72
    15
 73
    11
 74
     0
 42
0.00000001
 43
0.00000001
 40
0.0
 40
0.0
 40
0.0
 40
0.0
 40
0.1277118540336137
 40
0.2523621141955313
 40
0.3748537650566264
 40
0.4969693854038494
 40
0.6192731655242182
 40
0.742485444301997
 40
0.869447878037661
 40
1.0
 40
1.0
 40
1.0
 40
1.0
 10
142.0363082745191
 20
85.37861219258025
 30
0.0
 10
142.0458593311535
 20
85.36940929177614
 30
0.0
 10
142.064732480113
 20
85.3512241082532
 30
0.0
 10
142.0962732765754
 20
85.32833232757834
 30
0.0
 10
142.1288504840049
 20
85.30807432456109
 30
0.0
 10
142.1635475702952
 20
85.29223522053246
 30
0.0
 10
142.1994674744719
 20
85.27927519223337
 30
0.0
 10
142.2371272607962
 20
85.27028798473613
 30
0.0
 10
142.276360572516
 20
85.26511977122112
 30
0.0
 10
142.3030741671243
 20
85.26433714554778
 30
0.0
 10
142.316617154828
 20
85.26394037790844
 30
0.0
  0
SPLINE
  5
E8
330
1F
100
AcDbEntity
  8
0
  6
Continuous
 62
     7
370
    25
100
AcDbSpline
210
0.0
220
0.0
230
1.0
 70
     8
 71
     3
 72
    15
 73
    11
 74
     0
 42
0.00000001
 43
0.00000001
 40
0.0
 40
0.0
 40
0.0
 40
0.0
 40
0.145245998029721
 40
0.2839773123111049
 40
0.4135645357275254
 40
0.5387150251446058
 40
0.6570052502158957
 40
0.7736984629726811
 40
0.886694070730383
 40
1.0
 40
1.0
 40
1.0
 40
1.0
 10
141.9343777725886
 20
85.67166238563044
 30
0.0
 10
141.9345324188168
 20
85.65622534702479
 30
0.0
 10
141.9348347749633
 20
85.62604366358607
 30
0.0
 10
141.9405735360863
 20
85.58245031450348
 30
0.0
 10
141.947591074856
 20
85.54121080276369
 30
0.0
 10
141.9591363864947
 20
85.50324638817203
 30
0.0
 10
141.973146766868
 20
85.46756721204092
 30
0.0
 10
141.9914090613857
 20
85.4353852717231
 30
0.0
 10
142.0114145138064
 20
85.4048036801827
 30
0.0
 10
142.0280027719301
 20
85.38735066607174
 30
0.0
 10
142.0363082745191
 20
85.37861219258025
 30
0.0
  0
SPLINE
  5
E9
330
1F
100
AcDbEntity
  8
0
  6
Continuous
 62
     7
370
    25
100
AcDbSpline
210
0.0
220
0.0
230
1.0
 70
     8
 71
     3
 72
    15
 73
    11
 74
     0
 42
0.00000001
 43
0.00000001
 40
0.0
 40
0.0
 40
0.0
 40
0.0
 40
0.1417962611116212
 40
0.2768819513476975
 40
0.4055805706087828
 40
0.5298229690785614
 40
0.6485572024501441
 40
0.7672114666371235
 40
0.8821786188665555
 40
1.0
 40
1.0
 40
1.0
 40
1.0
 10
142.316617154828
 20
85.26394037790844
 30
0.0
 10
142.3311126270593
 20
85.26408938395242
 30
0.0
 10
142.3594175668769
 20
85.26438034426339
 30
0.0
 10
142.4004792859091
 20
85.27021688049778
 30
0.0
 10
142.4395473912601
 20
85.27713683648358
 30
0.0
 10
142.4757608579322
 20
85.28876613811791
 30
0.0
 10
142.5099823163741
 20
85.30283921836688
 30
0.0
 10
142.5411578443534
 20
85.32092819240341
 30
0.0
 10
142.5708396185502
 20
85.3412724353664
 30
0.0
 10
142.5881597752452
 20
85.35760464839008
 30
0.0
 10
142.5969260351368
 20
85.36587087983894
 30
0.0
  0
LINE
  5
EA
330
1F
100
AcDbEntity
  8
0
  6
Continuous
 62
     7
370
    25
100
AcDbLine
 10
141.9343777726
 20
86.3214693354
 30
0.0
 11
141.9343777726
 21
85.6716623856
 31
0.0
  0
LINE
  5
EB
330
1F
100
AcDbEntity
  8
0
  6
Continuous
 62
     7
370
    25
100
AcDbLine
 10
142.7125416508
 20
86.3214693354
 30
0.0
 11
141.9343777726
 21
86.3214693354
 31
0.0
  0
SPLINE
  5
EC
330
1F
100
AcDbEntity
  8
0
  6
Continuous
 62
     7
370
    25
100
AcDbSpline
210
0.0
220
0.0
230
1.0
 70
     8
 71
     3
 72
    15
 73
    11
 74
     0
 42
0.00000001
 43
0.00000001
 40
0.0
 40
0.0
 40
0.0
 40
0.0
 40
0.1193556939378553
 40
0.239066380521236
 40
0.3573840708360872
 40
0.4787728926029027
 40
0.6013911634438139
 40
0.7292416297469776
 40
0.8608048514681803
 40
1.0
 40
1.0
 40
1.0
 40
1.0
 10
142.5969260351368
 20
85.36587087983894
 30
0.0
 10
142.6061271212171
 20
85.37558165377708
 30
0.0
 10
142.6245566596287
 20
85.3950320838392
 30
0.0
 10
142.6478794667582
 20
85.42769176642706
 30
0.0
 10
142.6680456537378
 20
85.46258296480488
 30
0.0
 10
142.6844407563675
 20
85.4997767775524
 30
0.0
 10
142.6973915169598
 20
85.53942728558177
 30
0.0
 10
142.706163671792
 20
85.5813652935215
 30
0.0
 10
142.7114241697108
 20
85.62575422421973
 30
0.0
 10
142.7121622225187
 20
85.65607478105193
 30
0.0
 10
142.7125416507525
 20
85.67166238563044
 30
0.0
  0
LINE
  5
ED
330
1F
100
AcDbEntity
  8
0
  6
Continuous
 62
     7
370
    25
100
AcDbLine
 10
143.6426574809
 20
76.0321514461
 30
0.0
 11
142.8899762282
 21
76.0321514461
 31
0.0
  0
LINE
  5
EE
330
1F
100
AcDbEntity
  8
0
  6
Continuous
 62
     7
370
    25
100
AcDbLine
 10
143.6426574809
 20
75.3186379326
 30
0.0
 11
143.6426574809
 21
76.0321514461
 31
0.0
  0
SPLINE
  5
EF
330
1F
100
AcDbEntity
  8
0
  6
Continuous
 62
     7
370
    25
100
AcDbSpline
210
0.0
220
0.0
230
1.0
 70
     8
 71
     3
 72
    15
 73
    11
 74
     0
 42
0.00000001
 43
0.00000001
 40
0.0
 40
0.0
 40
0.0
 40
0.0
 40
0.1309133268193483
 40
0.2579771534544048
 40
0.3819342897628143
 40
0.5044826360738933
 40
0.6264704025122021
 40
0.7488072761095302
 40
0.8724814751031185
 40
1.0
 40
1.0
 40
1.0
 40
1.0
 10
143.539783177994
 20
75.07655299052105
 30
0.0
 10
143.5480035833594
 20
75.08503321091125
 30
0.0
 10
143.5642026734592
 20
75.1017442912121
 30
0.0
 10
143.5847687082012
 20
75.12943926398907
 30
0.0
 10
143.6030125144635
 20
75.15776600454711
 30
0.0
 10
143.6178434483407
 20
75.18759333902784
 30
0.0
 10
143.6284804146875
 20
75.21897881077133
 30
0.0
 10
143.6364811088918
 20
75.25117348120926
 30
0.0
 10
143.6421389466585
 20
75.28446405022959
 30
0.0
 10
143.642482881572
 20
75.30713100461114
 30
0.0
 10
143.6426574808683
 20
75.31863793260598
 30
0.0
  0
SPLINE
  5
F0
330
1F
100
AcDbEntity
  8
0
  6
Continuous
 62
     7
370
    25
100
AcDbSpline
210
0.0
220
0.0
230
1.0
 70
     8
 71
     3
 72
    15
 73
    11
 74
     0
 42
0.00000001
 43
0.00000001
 40
0.0
 40
0.0
 40
0.0
 40
0.0
 40
0.1417962611116213
 40
0.2768819513476969
 40
0.4055805706087823
 40
0.5298229690785613
 40
0.6485572024501433
 40
0.767211466637122
 40
0.8821786188665536
 40
1.0
 40
1.0
 40
1.0
 40
1.0
 10
143.2594742976851
 20
74.97462248859054
 30
0.0
 10
143.2739697699165
 20
74.97477149463454
 30
0.0
 10
143.302274709734
 20
74.97506245494549
 30
0.0
 10
143.3433364287662
 20
74.9808989911799
 30
0.0
 10
143.3824045341173
 20
74.98781894716569
 30
0.0
 10
143.4186180007894
 20
74.99944824880002
 30
0.0
 10
143.4528394592313
 20
75.01352132904898
 30
0.0
 10
143.4840149872105
 20
75.03161030308553
 30
0.0
 10
143.5136967614073
 20
75.05195454604852
 30
0.0
 10
143.5310169181023
 20
75.0682867590722
 30
0.0
 10
143.539783177994
 20
75.07655299052105
 30
0.0
  0
SPLINE
  5
F1
330
1F
100
AcDbEntity
  8
0
  6
Continuous
 62
     7
370
    25
100
AcDbSpline
210
0.0
220
0.0
230
1.0
 70
     8
 71
     3
 72
    15
 73
    11
 74
     0
 42
0.00000001
 43
0.00000001
 40
0.0
 40
0.0
 40
0.0
 40
0.0
 40
0.1053643999148126
 40
0.213400450100652
 40
0.3253299308157723
 40
0.4441520831794072
 40
0.5701116073912008
 40
0.7035881731039115
 40
0.8466305078268435
 40
1.0
 40
1.0
 40
1.0
 40
1.0
 10
142.9791654173762
 20
75.06381167777973
 30
0.0
 10
142.9870414948279
 20
75.05671592095715
 30
0.0
 10
143.0029933578346
 20
75.0423444852448
 30
0.0
 10
143.030055455293
 20
75.02370987465994
 30
0.0
 10
143.0607850633192
 20
75.00884431318732
 30
0.0
 10
143.0942733126151
 20
74.99579647939247
 30
0.0
 10
143.1313188594171
 20
74.98684135904445
 30
0.0
 10
143.1711498157278
 20
74.97957995217365
 30
0.0
 10
143.2142402427823
 20
74.97537870885019
 30
0.0
 10
143.2440500821047
 20
74.97488034971612
 30
0.0
 10
143.2594742976851
 20
74.97462248859054
 30
0.0
  0
SPLINE
  5
F2
330
1F
100
AcDbEntity
  8
0
  6
Continuous
 62
     7
370
    25
100
AcDbSpline
210
0.0
220
0.0
230
1.0
 70
     8
 71
     3
 72
    11
 73
     7
 74
     0
 42
0.00000001
 43
0.00000001
 40
0.0
 40
0.0
 40
0.0
 40
0.0
 40
0.2562600332085376
 40
0.5016208045865213
 40
0.7449078564687263
 40
1.0
 40
1.0
 40
1.0
 40
1.0
 10
142.8899762281871
 20
75.28041399438206
 30
0.0
 10
142.8910427455357
 20
75.25984484298084
 30
0.0
 10
142.893130419075
 20
75.21958138813638
 30
0.0
 10
142.9102466627993
 20
75.16184073508703
 30
0.0
 10
142.9385719958567
 20
75.1087718364249
 30
0.0
 10
142.9654222762991
 20
75.07903320333685
 30
0.0
 10
142.9791654173762
 20
75.06381167777973
 30
0.0
  0
LINE
  5
F3
330
1F
100
AcDbEntity
  8
0
  6
Continuous
 62
     7
370
    25
100
AcDbLine
 10
142.8899762282
 20
76.0321514461
 30
0.0
 11
142.8899762282
 21
75.2804139944
 31
0.0
  0
LINE
  5
F4
330
1F
100
AcDbEntity
  8
0
  6
Continuous
 62
     7
370
    25
100
AcDbLine
 10
123.9290286121
 20
68.6526565499
 30
0.0
 11
123.9290286121
 21
94.8569040324
 31
0.0
  0
LINE
  5
F5
330
1F
100
AcDbEntity
  8
0
  6
Continuous
 62
     7
370
    25
100
AcDbLine
 10
121.1540688923
 20
81.7547802912
 30
0.0
 11
121.1540688923
 21
93.2547802912
 31
0.0
  0
LINE
  5
F6
330
1F
100
AcDbEntity
  8
0
  6
Continuous
 62
     7
370
    25
100
AcDbLine
 10
121.1540688923
 20
70.2547802912
 30
0.0
 11
121.1540688923
 21
81.7547802912
 31
0.0
  0
LINE
  5
F7
330
1F
100
AcDbEntity
  8
0
  6
Continuous
 62
     7
370
    18
100
AcDbLine
 10
121.605052938
 20
93.5151560513
 30
0.0
 11
136.8540688923
 21
93.9916877999
 31
0.0
  0
LINE
  5
F8
330
1F
100
AcDbEntity
  8
0
  6
Continuous
 62
     7
370
    18
100
AcDbLine
 10
121.605052938
 20
69.994404531
 30
0.0
 11
136.8540688923
 21
69.5178727824
 31
0.0
  0
LINE
  5
F9
330
1F
100
AcDbEntity
  8
0
  6
Continuous
 62
     7
370
    25
100
AcDbLine
 10
136.8540688923
 20
68.2487490412
 30
0.0
 11
136.8540688923
 21
95.2608115412
 31
0.0
  0
LINE
  5
FA
330
1F
100
AcDbEntity
  8
FORMAT
  6
CENTERX2
370
    18
100
AcDbLine
 10
147.9358872849
 20
81.7547802912
 30
0.0
 11
119.1540688923
 21
81.7547802912
 31
0.0
  0
SPLINE
  5
FB
330
1F
100
AcDbEntity
  8
0
  6
Continuous
 62
     7
370
    25
100
AcDbSpline
210
0.0
220
0.0
230
1.0
 70
    24
 71
     3
 72
    16
 73
    12
 74
     0
 42
0.00000001
 43
0.00000001
 40
0.0
 40
0.0
 40
0.0
 40
0.0
 40
0.2500000000000001
 40
0.2500000000000001
 40
0.5000000000000001
 40
0.5000000000000001
 40
0.625
 40
0.625
 40
0.7499999999999999
 40
0.7499999999999999
 40
1.0
 40
1.0
 40
1.0
 40
1.0
 10
160.45648558644
 20
90.41503432900235
 30
0.0
 10
161.6810935226055
 20
91.12206205059927
 30
0.0
 10
162.9146296225107
 20
91.83424444993469
 30
0.0
 10
165.4074273725376
 20
93.27346190194802
 30
0.0
 10
166.6668802699531
 20
94.00060737130251
 30
0.0
 10
168.5797877394683
 20
95.10502501376195
 30
0.0
 10
169.220424748362
 20
95.47489696329957
 30
0.0
 10
170.4876721672318
 20
96.20654260171386
 30
0.0
 10
171.1170472709538
 20
96.56991248726902
 30
0.0
 10
172.9939674285058
 20
97.65355284547911
 30
0.0
 10
174.2303509895287
 20
98.36737922725733
 30
0.0
 10
175.45648558644
 20
99.07528836684678
 30
0.0
  0
SPLINE
  5
FC
330
1F
100
AcDbEntity
  8
0
  6
Continuous
 62
     7
370
    25
100
AcDbSpline
210
0.0
220
0.0
230
1.0
 70
    24
 71
     3
 72
    16
 73
    12
 74
     0
 42
0.00000001
 43
0.00000001
 40
0.0
 40
0.0
 40
0.0
 40
0.0
 40
0.2499999999999999
 40
0.2499999999999999
 40
0.4999999999999998
 40
0.4999999999999998
 40
0.6249999999999998
 40
0.6249999999999998
 40
0.7499999999999998
 40
0.7499999999999998
 40
1.0
 40
1.0
 40
1.0
 40
1.0
 10
175.45648558644
 20
99.07528836684679
 30
0.0
 10
176.6810935226055
 20
98.36826064524989
 30
0.0
 10
177.9146296225107
 20
97.65607824591446
 30
0.0
 10
180.4074273725377
 20
96.21686079390113
 30
0.0
 10
181.6668802699531
 20
95.48971532454665
 30
0.0
 10
183.5797877394683
 20
94.3852976820872
 30
0.0
 10
184.220424748362
 20
94.01542573254959
 30
0.0
 10
185.4876721672318
 20
93.28378009413528
 30
0.0
 10
186.1170472709538
 20
92.92041020858012
 30
0.0
 10
187.9939674285058
 20
91.83676985037003
 30
0.0
 10
189.2303509895287
 20
91.12294346859183
 30
0.0
 10
190.45648558644
 20
90.41503432900237
 30
0.0
  0
SPLINE
  5
FD
330
1F
100
AcDbEntity
  8
0
  6
Continuous
 62
     7
370
    25
100
AcDbSpline
210
0.0
220
0.0
230
1.0
 70
    24
 71
     3
 72
    14
 73
    10
 74
     0
 42
0.00000001
 43
0.00000001
 40
0.0
 40
0.0
 40
0.0
 40
0.0
 40
0.25
 40
0.25
 40
0.5
 40
0.5
 40
0.75
 40
0.75
 40
1.0
 40
1.0
 40
1.0
 40
1.0
 10
190.45648558644
 20
90.41503432900238
 30
0.0
 10
190.45648558644
 20
89.00525485329607
 30
0.0
 10
190.45648558644
 20
87.58246215604733
 30
0.0
 10
190.45648558644
 20
84.69882233520785
 30
0.0
 10
190.45648558644
 20
83.23631638728091
 30
0.0
 10
190.45648558644
 20
80.26907862544546
 30
0.0
 10
190.45648558644
 20
78.80891974429555
 30
0.0
 10
190.45648558644
 20
75.92659987414078
 30
0.0
 10
190.45648558644
 20
74.50415560850399
 30
0.0
 10
190.45648558644
 20
73.0945262533136
 30
0.0
  0
SPLINE
  5
FE
330
1F
100
AcDbEntity
  8
0
  6
Continuous
 62
     7
370
    25
100
AcDbSpline
210
0.0
220
0.0
230
1.0
 70
    24
 71
     3
 72
    16
 73
    12
 74
     0
 42
0.00000001
 43
0.00000001
 40
0.0
 40
0.0
 40
0.0
 40
0.0
 40
0.2499999999999999
 40
0.2499999999999999
 40
0.4999999999999998
 40
0.4999999999999998
 40
0.6249999999999998
 40
0.6249999999999998
 40
0.7499999999999997
 40
0.7499999999999997
 40
1.0
 40
1.0
 40
1.0
 40
1.0
 10
190.45648558644
 20
73.09452625331362
 30
0.0
 10
189.2318776502746
 20
72.38749853171672
 30
0.0
 10
187.9983415503693
 20
71.6753161323813
 30
0.0
 10
185.5055438003423
 20
70.23609868036796
 30
0.0
 10
184.2460909029269
 20
69.50895321101348
 30
0.0
 10
182.3331834334117
 20
68.40453556855402
 30
0.0
 10
181.692546424518
 20
68.03466361901641
 30
0.0
 10
180.4252990056482
 20
67.30301798060212
 30
0.0
 10
179.7959239019262
 20
66.93964809504696
 30
0.0
 10
177.9190037443742
 20
65.85600773683686
 30
0.0
 10
176.6826201833513
 20
65.14218135505865
 30
0.0
 10
175.45648558644
 20
64.43427221546919
 30
0.0
  0
SPLINE
  5
FF
330
1F
100
AcDbEntity
  8
0
  6
Continuous
 62
     7
370
    25
100
AcDbSpline
210
0.0
220
0.0
230
1.0
 70
    24
 71
     3
 72
    16
 73
    12
 74
     0
 42
0.00000001
 43
0.00000001
 40
0.0
 40
0.0
 40
0.0
 40
0.0
 40
0.25
 40
0.25
 40
0.5
 40
0.5
 40
0.6249999999999999
 40
0.6249999999999999
 40
0.7499999999999998
 40
0.7499999999999998
 40
1.0
 40
1.0
 40
1.0
 40
1.0
 10
175.45648558644
 20
64.43427221546918
 30
0.0
 10
174.2318776502745
 20
65.1412999370661
 30
0.0
 10
172.9983415503693
 20
65.85348233640151
 30
0.0
 10
170.5055438003424
 20
67.29269978841485
 30
0.0
 10
169.2460909029269
 20
68.01984525776932
 30
0.0
 10
167.3331834334117
 20
69.12426290022877
 30
0.0
 10
166.692546424518
 20
69.49413484976638
 30
0.0
 10
165.4252990056483
 20
70.22578048818067
 30
0.0
 10
164.7959239019262
 20
70.58915037373583
 30
0.0
 10
162.9190037443742
 20
71.67279073194594
 30
0.0
 10
161.6826201833513
 20
72.38661711372414
 30
0.0
 10
160.45648558644
 20
73.0945262533136
 30
0.0
  0
SPLINE
  5
100
330
1F
100
AcDbEntity
  8
0
  6
Continuous
 62
     7
370
    25
100
AcDbSpline
210
0.0
220
0.0
230
1.0
 70
    24
 71
     3
 72
    14
 73
    10
 74
     0
 42
0.00000001
 43
0.00000001
 40
0.0
 40
0.0
 40
0.0
 40
0.0
 40
0.2500000000000001
 40
0.2500000000000001
 40
0.5000000000000001
 40
0.5000000000000001
 40
0.75
 40
0.75
 40
1.0
 40
1.0
 40
1.0
 40
1.0
 10
160.45648558644
 20
73.09452625331359
 30
0.0
 10
160.45648558644
 20
74.5043057290199
 30
0.0
 10
160.45648558644
 20
75.92709842626864
 30
0.0
 10
160.45648558644
 20
78.81073824710813
 30
0.0
 10
160.45648558644
 20
80.27324419503508
 30
0.0
 10
160.45648558644
 20
83.24048195687052
 30
0.0
 10
160.45648558644
 20
84.70064083802042
 30
0.0
 10
160.45648558644
 20
87.58296070817521
 30
0.0
 10
160.45648558644
 20
89.00540497381199
 30
0.0
 10
160.45648558644
 20
90.41503432900238
 30
0.0
  0
CIRCLE
  5
101
330
1F
100
AcDbEntity
  8
0
  6
Continuous
 62
     7
370
    25
100
AcDbCircle
 10
175.4564855864
 20
81.7547802912
 30
0.0
 40
14.75000000000003
  0
CIRCLE
  5
102
330
1F
100
AcDbEntity
  8
0
  6
Continuous
 62
     7
370
    25
100
AcDbCircle
 10
175.4564855864
 20
81.7547802912
 30
0.0
 40
10.74999999999997
  0
CIRCLE
  5
103
330
1F
100
AcDbEntity
  8
0
  6
Continuous
 62
     7
370
    25
100
AcDbCircle
 10
175.4564855864
 20
81.7547802912
 30
0.0
 40
9.31643649999998
  0
CIRCLE
  5
104
330
1F
100
AcDbEntity
  8
0
  6
Continuous
 62
     7
370
    25
100
AcDbCircle
 10
175.4564855864
 20
81.7547802912
 30
0.0
 40
8.999999999999972
  0
INSERT
  5
110
330
1F
100
AcDbEntity
  8
FORMAT
100
AcDbBlockReference
  2
SW_CENTERMARKSYMBOL_0
 10
175.4564855864
 20
81.7547802912
 30
0.0
  0
ARC
  5
111
330
1F
100
AcDbEntity
  8
0
  6
Continuous
 62
     7
370
    18
100
AcDbCircle
 10
175.4564855864
 20
81.7547802912
 30
0.0
 40
10.5602940044099
100
AcDbArc
 50
75.0
 51
345.0
  0
LINE
  5
112
330
1F
100
AcDbEntity
  8
0
  6
Continuous
 62
     7
370
    25
100
AcDbLine
 10
139.2984064596
 20
140.7261903044
 30
0.0
 11
139.1540688923
 21
140.4761903044
 31
0.0
  0
LINE
  5
113
330
1F
100
AcDbEntity
  8
0
  6
Continuous
 62
     7
370
    25
100
AcDbLine
 10
139.1540688923
 20
110.9761903044
 30
0.0
 11
139.2984064596
 21
110.7261903044
 31
0.0
  0
LINE
  5
114
330
1F
100
AcDbEntity
  8
0
  6
Continuous
 62
     7
370
    25
100
AcDbLine
 10
146.009731325
 20
110.7261903044
 30
0.0
 11
146.1540688923
 21
110.9761903044
 31
0.0
  0
LINE
  5
115
330
1F
100
AcDbEntity
  8
0
  6
Continuous
 62
     7
370
    25
100
AcDbLine
 10
146.1540688923
 20
140.4761903044
 30
0.0
 11
146.009731325
 21
140.7261903044
 31
0.0
  0
LINE
  5
116
330
1F
100
AcDbEntity
  8
0
  6
Continuous
 62
     7
370
    25
100
AcDbLine
 10
139.1540688923
 20
139.3040965544
 30
0.0
 11
123.9290286121
 21
138.8283140456
 31
0.0
  0
LINE
  5
117
330
1F
100
AcDbEntity
  8
0
  6
Continuous
 62
     7
370
    25
100
AcDbLine
 10
123.9290286121
 20
112.6240665631
 30
0.0
 11
139.1540688923
 21
112.1482840544
 31
0.0
  0
LINE
  5
118
330
1F
100
AcDbEntity
  8
0
  6
Continuous
 62
     7
370
    25
100
AcDbLine
 10
123.9290286121
 20
138.8283140456
 30
0.0
 11
121.1540688923
 21
137.2261903044
 31
0.0
  0
LINE
  5
119
330
1F
100
AcDbEntity
  8
0
  6
Continuous
 62
     7
370
    25
100
AcDbLine
 10
121.1540688923
 20
114.2261903044
 30
0.0
 11
123.9290286121
 21
112.6240665631
 31
0.0
  0
SPLINE
  5
11A
330
1F
100
AcDbEntity
  8
0
  6
Continuous
 62
     7
370
    25
100
AcDbSpline
210
0.0
220
0.0
230
1.0
 70
    24
 71
     3
 72
    13
 73
     9
 74
     0
 42
0.00000001
 43
0.00000001
 40
0.0
 40
0.0
 40
0.0
 40
0.0
 40
0.1586375904836462
 40
0.3247648600472056
 40
0.4907876255051529
 40
0.6604787105784852
 40
0.8302648135082165
 40
1.0
 40
1.0
 40
1.0
 40
1.0
 10
139.3001614106838
 20
110.7261903043549
 30
0.0
 10
139.3068816022415
 20
110.7261903043549
 30
0.0
 10
139.3206392624786
 20
110.7261903043549
 30
0.0
 10
139.4423886716868
 20
110.7261903043549
 30
0.0
 10
139.6359492645168
 20
110.7261903043549
 30
0.0
 10
139.9060180990964
 20
110.7261903043549
 30
0.0
 10
140.2378699798431
 20
110.7261903043549
 30
0.0
 10
140.5047382814379
 20
110.7261903043549
 30
0.0
 10
140.6381524217327
 20
110.7261903043549
 30
0.0
  0
SPLINE
  5
11B
330
1F
100
AcDbEntity
  8
0
  6
Continuous
 62
     7
370
    25
100
AcDbSpline
210
0.0
220
0.0
230
1.0
 70
    24
 71
     3
 72
    14
 73
    10
 74
     0
 42
0.00000001
 43
0.00000001
 40
0.0
 40
0.0
 40
0.0
 40
0.0
 40
0.1639266967991939
 40
0.3278991061161046
 40
0.491787652269439
 40
0.6587150498545362
 40
0.8257466310634133
 40
0.9926432680958455
 40
1.0
 40
1.0
 40
1.0
 40
1.0
 10
140.6381524217327
 20
140.7261903043549
 30
0.0
 10
140.509170257785
 20
140.7261903043549
 30
0.0
 10
140.2511699619869
 20
140.7261903043549
 30
0.0
 10
139.9274618561631
 20
140.7261903043549
 30
0.0
 10
139.6584967017828
 20
140.7261903043549
 30
0.0
 10
139.4555864479128
 20
140.7261903043549
 30
0.0
 10
139.3365551353513
 20
140.7261903043549
 30
0.0
 10
139.2858034687482
 20
140.7261903043549
 30
0.0
 10
139.2995797936426
 20
140.7261903043549
 30
0.0
 10
139.3001614106838
 20
140.7261903043549
 30
0.0
  0
SPLINE
  5
11C
330
1F
100
AcDbEntity
  8
0
  6
Continuous
 62
     7
370
    25
100
AcDbSpline
210
0.0
220
0.0
230
1.0
 70
     8
 71
     3
 72
    16
 73
    12
 74
     0
 42
0.00000001
 43
0.00000001
 40
0.0
 40
0.0
 40
0.0
 40
0.0
 40
0.2499999999999999
 40
0.2499999999999999
 40
0.4999999999999998
 40
0.4999999999999998
 40
0.6249999999999998
 40
0.6249999999999998
 40
0.7499999999999998
 40
0.7499999999999998
 40
1.0
 40
1.0
 40
1.0
 40
1.0
 10
140.6381524217325
 20
125.7261903043549
 30
0.0
 10
140.229949776344
 20
126.9507982405204
 30
0.0
 10
139.8935169358299
 20
128.1843343404256
 30
0.0
 10
139.4274482819551
 20
130.6771320904525
 30
0.0
 10
139.2993498262591
 20
131.936584987868
 30
0.0
 10
139.2979426841657
 20
133.8494924573832
 30
0.0
 10
139.3292577313943
 20
134.4901294662769
 30
0.0
 10
139.4513701260902
 20
135.7573768851466
 30
0.0
 10
139.5420435249664
 20
136.3867519888687
 30
0.0
 10
139.8921752987034
 20
138.2636721464207
 30
0.0
 10
140.2294408894288
 20
139.5000557074436
 30
0.0
 10
140.6381524217326
 20
140.7261903043549
 30
0.0
  0
SPLINE
  5
11D
330
1F
100
AcDbEntity
  8
0
  6
Continuous
 62
     7
370
    25
100
AcDbSpline
210
0.0
220
0.0
230
1.0
 70
     8
 71
     3
 72
    16
 73
    12
 74
     0
 42
0.00000001
 43
0.00000001
 40
0.0
 40
0.0
 40
0.0
 40
0.0
 40
0.2500000000000001
 40
0.2500000000000001
 40
0.5000000000000001
 40
0.5000000000000001
 40
0.625
 40
0.625
 40
0.7499999999999999
 40
0.7499999999999999
 40
1.0
 40
1.0
 40
1.0
 40
1.0
 10
140.6381524217325
 20
110.7261903043549
 30
0.0
 10
140.229949776344
 20
111.9507982405204
 30
0.0
 10
139.8935169358299
 20
113.1843343404256
 30
0.0
 10
139.4274482819551
 20
115.6771320904525
 30
0.0
 10
139.2993498262591
 20
116.936584987868
 30
0.0
 10
139.2979426841657
 20
118.8494924573832
 30
0.0
 10
139.3292577313943
 20
119.4901294662769
 30
0.0
 10
139.4513701260902
 20
120.7573768851466
 30
0.0
 10
139.5420435249664
 20
121.3867519888687
 30
0.0
 10
139.8921752987034
 20
123.2636721464207
 30
0.0
 10
140.2294408894288
 20
124.5000557074436
 30
0.0
 10
140.6381524217326
 20
125.7261903043549
 30
0.0
  0
LINE
  5
11E
330
1F
100
AcDbEntity
  8
0
  6
Continuous
 62
     7
370
    25
100
AcDbLine
 10
139.1540688923
 20
110.9761903044
 30
0.0
 11
139.1540688923
 21
140.4761903044
 31
0.0
  0
LINE
  5
11F
330
1F
100
AcDbEntity
  8
0
  6
Continuous
 62
     7
370
    25
100
AcDbLine
 10
140.6381524217
 20
140.7261903044
 30
0.0
 11
144.6699853628
 21
140.7261903044
 31
0.0
  0
SPLINE
  5
120
330
1F
100
AcDbEntity
  8
0
  6
Continuous
 62
     7
370
    25
100
AcDbSpline
210
0.0
220
0.0
230
1.0
 70
     8
 71
     3
 72
    16
 73
    12
 74
     0
 42
0.00000001
 43
0.00000001
 40
0.0
 40
0.0
 40
0.0
 40
0.0
 40
0.2499999999999999
 40
0.2499999999999999
 40
0.4999999999999998
 40
0.4999999999999998
 40
0.6249999999999998
 40
0.6249999999999998
 40
0.7499999999999998
 40
0.7499999999999998
 40
1.0
 40
1.0
 40
1.0
 40
1.0
 10
144.6699853628269
 20
125.7261903043549
 30
0.0
 10
145.0781880082154
 20
126.9507982405204
 30
0.0
 10
145.4146208487296
 20
128.1843343404256
 30
0.0
 10
145.8806895026044
 20
130.6771320904525
 30
0.0
 10
146.0087879583003
 20
131.936584987868
 30
0.0
 10
146.0101951003937
 20
133.8494924573832
 30
0.0
 10
145.9788800531652
 20
134.4901294662769
 30
0.0
 10
145.8567676584692
 20
135.7573768851466
 30
0.0
 10
145.766094259593
 20
136.3867519888687
 30
0.0
 10
145.415962485856
 20
138.2636721464207
 30
0.0
 10
145.0786968951306
 20
139.5000557074436
 30
0.0
 10
144.6699853628268
 20
140.7261903043549
 30
0.0
  0
LINE
  5
121
330
1F
100
AcDbEntity
  8
0
  6
Continuous
 62
     7
370
    25
100
AcDbLine
 10
140.6381524217
 20
125.7261903044
 30
0.0
 11
144.6699853628
 21
125.7261903044
 31
0.0
  0
SPLINE
  5
122
330
1F
100
AcDbEntity
  8
0
  6
Continuous
 62
     7
370
    25
100
AcDbSpline
210
0.0
220
0.0
230
1.0
 70
     8
 71
     3
 72
    16
 73
    12
 74
     0
 42
0.00000001
 43
0.00000001
 40
0.0
 40
0.0
 40
0.0
 40
0.0
 40
0.2500000000000001
 40
0.2500000000000001
 40
0.5000000000000001
 40
0.5000000000000001
 40
0.625
 40
0.625
 40
0.7499999999999999
 40
0.7499999999999999
 40
1.0
 40
1.0
 40
1.0
 40
1.0
 10
144.6699853628269
 20
110.7261903043549
 30
0.0
 10
145.0781880082154
 20
111.9507982405204
 30
0.0
 10
145.4146208487296
 20
113.1843343404256
 30
0.0
 10
145.8806895026044
 20
115.6771320904525
 30
0.0
 10
146.0087879583003
 20
116.936584987868
 30
0.0
 10
146.0101951003937
 20
118.8494924573832
 30
0.0
 10
145.9788800531652
 20
119.4901294662769
 30
0.0
 10
145.8567676584692
 20
120.7573768851466
 30
0.0
 10
145.766094259593
 20
121.3867519888687
 30
0.0
 10
145.415962485856
 20
123.2636721464207
 30
0.0
 10
145.0786968951306
 20
124.5000557074436
 30
0.0
 10
144.6699853628268
 20
125.7261903043549
 30
0.0
  0
SPLINE
  5
123
330
1F
100
AcDbEntity
  8
0
  6
Continuous
 62
     7
370
    25
100
AcDbSpline
210
0.0
220
0.0
230
1.0
 70
    24
 71
     3
 72
    14
 73
    10
 74
     0
 42
0.00000001
 43
0.00000001
 40
0.0
 40
0.0
 40
0.0
 40
0.0
 40
0.1639266967991939
 40
0.3278991061161046
 40
0.491787652269439
 40
0.6587150498545362
 40
0.8257466310634133
 40
0.9926432680958455
 40
1.0
 40
1.0
 40
1.0
 40
1.0
 10
144.6699853628267
 20
140.7261903043549
 30
0.0
 10
144.7989675267744
 20
140.7261903043549
 30
0.0
 10
145.0569678225725
 20
140.7261903043549
 30
0.0
 10
145.3806759283963
 20
140.7261903043549
 30
0.0
 10
145.6496410827766
 20
140.7261903043549
 30
0.0
 10
145.8525513366467
 20
140.7261903043549
 30
0.0
 10
145.9715826492081
 20
140.7261903043549
 30
0.0
 10
146.0223343158113
 20
140.7261903043549
 30
0.0
 10
146.0085579909169
 20
140.7261903043549
 30
0.0
 10
146.0079763738756
 20
140.7261903043549
 30
0.0
  0
SPLINE
  5
124
330
1F
100
AcDbEntity
  8
0
  6
Continuous
 62
     7
370
    25
100
AcDbSpline
210
0.0
220
0.0
230
1.0
 70
    24
 71
     3
 72
    13
 73
     9
 74
     0
 42
0.00000001
 43
0.00000001
 40
0.0
 40
0.0
 40
0.0
 40
0.0
 40
0.1586375904836462
 40
0.3247648600472056
 40
0.4907876255051529
 40
0.6604787105784852
 40
0.8302648135082165
 40
1.0
 40
1.0
 40
1.0
 40
1.0
 10
146.0079763738756
 20
110.7261903043549
 30
0.0
 10
146.001256182318
 20
110.7261903043549
 30
0.0
 10
145.9874985220808
 20
110.7261903043549
 30
0.0
 10
145.8657491128727
 20
110.7261903043549
 30
0.0
 10
145.6721885200426
 20
110.7261903043549
 30
0.0
 10
145.402119685463
 20
110.7261903043549
 30
0.0
 10
145.0702678047163
 20
110.7261903043549
 30
0.0
 10
144.8033995031215
 20
110.7261903043549
 30
0.0
 10
144.6699853628267
 20
110.7261903043549
 30
0.0
  0
LINE
  5
125
330
1F
100
AcDbEntity
  8
0
  6
Continuous
 62
     7
370
    25
100
AcDbLine
 10
146.1540688923
 20
110.9761903044
 30
0.0
 11
146.1540688923
 21
140.4761903044
 31
0.0
  0
LINE
  5
126
330
1F
100
AcDbEntity
  8
0
  6
Continuous
 62
     7
370
    25
100
AcDbLine
 10
140.6381524217
 20
110.7261903044
 30
0.0
 11
144.6699853628
 21
110.7261903044
 31
0.0
  0
LINE
  5
127
330
1F
100
AcDbEntity
  8
0
  6
Continuous
 62
     7
370
    25
100
AcDbLine
 10
123.9290286121
 20
125.7261903044
 30
0.0
 11
123.9290286121
 21
138.8283140456
 31
0.0
  0
LINE
  5
128
330
1F
100
AcDbEntity
  8
0
  6
Continuous
 62
     7
370
    25
100
AcDbLine
 10
123.9290286121
 20
112.6240665631
 30
0.0
 11
123.9290286121
 21
125.7261903044
 31
0.0
  0
LINE
  5
129
330
1F
100
AcDbEntity
  8
0
  6
Continuous
 62
     7
370
    25
100
AcDbLine
 10
121.1540688923
 20
114.2261903044
 30
0.0
 11
121.1540688923
 21
137.2261903044
 31
0.0
  0
LINE
  5
12A
330
1F
100
AcDbEntity
  8
0
  6
Continuous
 62
     7
370
    18
100
AcDbLine
 10
121.605052938
 20
137.4865660645
 30
0.0
 11
136.8540688923
 21
137.9630978131
 31
0.0
  0
LINE
  5
12B
330
1F
100
AcDbEntity
  8
0
  6
Continuous
 62
     7
370
    18
100
AcDbLine
 10
121.605052938
 20
113.9658145442
 30
0.0
 11
136.8540688923
 21
113.4892827956
 31
0.0
  0
LINE
  5
12C
330
1F
100
AcDbEntity
  8
0
  6
Continuous
 62
     7
370
    25
100
AcDbLine
 10
136.8540688923
 20
112.2201590544
 30
0.0
 11
136.8540688923
 21
139.2322215544
 31
0.0
  0
LINE
  5
12D
330
1F
100
AcDbEntity
  8
FORMAT
  6
CENTERX2
370
    18
100
AcDbLine
 10
147.5805299712
 20
125.7261903044
 30
0.0
 11
119.1540688923
 21
125.7261903044
 31
0.0
  0
ENDSEC
  0
SECTION
  2
OBJECTS
  0
DICTIONARY
  5
C
330
0
100
AcDbDictionary
281
     1
  3
ACAD_GROUP
350
D
  3
ACAD_LAYOUT
350
1A
  3
ACAD_MLINESTYLE
350
17
  3
ACAD_PLOTSETTINGS
350
19
  3
ACAD_PLOTSTYLENAME
350
E
  3
ACAD_SCALELIST
350
47
  3
DWGPROPS
350
12E
  0
DICTIONARY
  5
D
102
{ACAD_REACTORS
330
C
102
}
330
C
100
AcDbDictionary
281
     1
  0
DICTIONARY
  5
1A
102
{ACAD_REACTORS
330
C
102
}
330
C
100
AcDbDictionary
281
     1
  3
Layout1
350
1E
  3
Layout2
350
26
  3
Model
350
22
  0
DICTIONARY
  5
17
102
{ACAD_REACTORS
330
C
102
}
330
C
100
AcDbDictionary
281
     1
  3
Standard
350
18
  0
DICTIONARY
  5
19
102
{ACAD_REACTORS
330
C
102
}
330
C
100
AcDbDictionary
281
     1
  0
ACDBDICTIONARYWDFLT
  5
E
102
{ACAD_REACTORS
330
C
102
}
330
C
100
AcDbDictionary
281
     1
  3
Normal
350
F
100
AcDbDictionaryWithDefault
340
F
  0
DICTIONARY
  5
47
102
{ACAD_REACTORS
330
C
102
}
330
C
100
AcDbDictionary
281
     1
  3
A0
350
48
  3
A1
350
49
  3
A2
350
4A
  3
A3
350
4B
  3
A4
350
4C
  3
A5
350
4D
  3
A6
350
4E
  3
A7
350
4F
  3
A8
350
50
  3
A9
350
51
  3
B0
350
52
  3
B1
350
53
  3
B2
350
54
  3
B3
350
55
  3
B4
350
56
  3
B5
350
57
  3
B6
350
58
  0
XRECORD
  5
12E
102
{ACAD_REACTORS
330
C
102
}
330
C
100
AcDbXrecord
280
     1
  1
DWGPROPS COOKIE
  2

  3

  4

  6

  7

  8
user28
  9

300
=
301
=
302
=
303
=
304
=
305
=
306
=
307
=
308
=
309
=
 40
0.0
 41
2460406.314348461
 42
2460406.314349005
  1

 90
        0
  0
LAYOUT
  5
1E
102
{ACAD_REACTORS
330
1A
102
}
330
1A
100
AcDbPlotSettings
  1

  2
none_device
  4

  6

 40
0.0
 41
0.0
 42
0.0
 43
0.0
 44
0.0
 45
0.0
 46
0.0
 47
0.0
 48
0.0
 49
0.0
140
0.0
141
0.0
142
1.0
143
1.0
 70
   688
 72
     1
 73
     0
 74
     5
  7

 75
    16
147
1.0
148
0.0
149
0.0
100
AcDbLayout
  1
Layout1
 70
     1
 71
     1
 10
0.0
 20
0.0
 11
420.0
 21
297.0
 12
0.0
 22
0.0
 32
0.0
 14
1.0000000000E+20
 24
1.0000000000E+20
 34
1.0000000000E+20
 15
-1.0000000000E+20
 25
-1.0000000000E+20
 35
-1.0000000000E+20
146
0.0
 13
0.0
 23
0.0
 33
0.0
 16
1.0
 26
0.0
 36
0.0
 17
0.0
 27
1.0
 37
0.0
 76
     0
330
1B
  0
LAYOUT
  5
26
102
{ACAD_REACTORS
330
1A
102
}
330
1A
100
AcDbPlotSettings
  1

  2
none_device
  4

  6

 40
0.0
 41
0.0
 42
0.0
 43
0.0
 44
0.0
 45
0.0
 46
0.0
 47
0.0
 48
0.0
 49
0.0
140
0.0
141
0.0
142
1.0
143
1.0
 70
   688
 72
     1
 73
     0
 74
     5
  7

 75
    16
147
1.0
148
0.0
149
0.0
100
AcDbLayout
  1
Layout2
 70
     1
 71
     2
 10
0.0
 20
0.0
 11
0.0
 21
0.0
 12
0.0
 22
0.0
 32
0.0
 14
0.0
 24
0.0
 34
0.0
 15
0.0
 25
0.0
 35
0.0
146
0.0
 13
0.0
 23
0.0
 33
0.0
 16
1.0
 26
0.0
 36
0.0
 17
0.0
 27
1.0
 37
0.0
 76
     0
330
23
  0
LAYOUT
  5
22
102
{ACAD_REACTORS
330
1A
102
}
330
1A
100
AcDbPlotSettings
  1

  2
none_device
  4
Letter_(8.50_x_11.00_Inches)
  6

 40
6.35
 41
6.35
 42
6.35000508
 43
6.35000508
 44
215.9
 45
279.4
 46
0.0
 47
0.0
 48
0.0
 49
0.0
140
0.0
141
0.0
142
1.0
143
1.0
 70
  1712
 72
     1
 73
     0
 74
     0
  7

 75
     0
147
1.0
148
0.0
149
0.0
100
AcDbLayout
  1
Model
 70
     1
 71
     0
 10
0.0
 20
0.0
 11
297.0
 21
210.0
 12
0.0
 22
0.0
 32
0.0
 14
0.0
 24
0.0
 34
0.0
 15
297.0
 25
210.0
 35
0.0
146
0.0
 13
0.0
 23
0.0
 33
0.0
 16
1.0
 26
0.0
 36
0.0
 17
0.0
 27
1.0
 37
0.0
 76
     0
330
1F
331
29
  0
MLINESTYLE
  5
18
102
{ACAD_REACTORS
330
17
102
}
330
17
100
AcDbMlineStyle
  2
Standard
 70
     0
  3

 62
   256
 51
90.0
 52
90.0
 71
     2
 49
0.5
 62
   256
  6
BYLAYER
 49
-0.5
 62
   256
  6
BYLAYER
  0
ACDBPLACEHOLDER
  5
F
102
{ACAD_REACTORS
330
E
102
}
330
E
  0
SCALE
  5
48
102
{ACAD_REACTORS
330
47
102
}
330
47
100
AcDbScale
 70
     0
300
1:1
140
1.0
141
1.0
290
     1
  0
SCALE
  5
49
102
{ACAD_REACTORS
330
47
102
}
330
47
100
AcDbScale
 70
     0
300
1:2
140
1.0
141
2.0
290
     0
  0
SCALE
  5
4A
102
{ACAD_REACTORS
330
47
102
}
330
47
100
AcDbScale
 70
     0
300
1:4
140
1.0
141
4.0
290
     0
  0
SCALE
  5
4B
102
{ACAD_REACTORS
330
47
102
}
330
47
100
AcDbScale
 70
     0
300
1:5
140
1.0
141
5.0
290
     0
  0
SCALE
  5
4C
102
{ACAD_REACTORS
330
47
102
}
330
47
100
AcDbScale
 70
     0
300
1:8
140
1.0
141
8.0
290
     0
  0
SCALE
  5
4D
102
{ACAD_REACTORS
330
47
102
}
330
47
100
AcDbScale
 70
     0
300
1:10
140
1.0
141
10.0
290
     0
  0
SCALE
  5
4E
102
{ACAD_REACTORS
330
47
102
}
330
47
100
AcDbScale
 70
     0
300
1:16
140
1.0
141
16.0
290
     0
  0
SCALE
  5
4F
102
{ACAD_REACTORS
330
47
102
}
330
47
100
AcDbScale
 70
     0
300
1:20
140
1.0
141
20.0
290
     0
  0
SCALE
  5
50
102
{ACAD_REACTORS
330
47
102
}
330
47
100
AcDbScale
 70
     0
300
1:30
140
1.0
141
30.0
290
     0
  0
SCALE
  5
51
102
{ACAD_REACTORS
330
47
102
}
330
47
100
AcDbScale
 70
     0
300
1:40
140
1.0
141
40.0
290
     0
  0
SCALE
  5
52
102
{ACAD_REACTORS
330
47
102
}
330
47
100
AcDbScale
 70
     0
300
1:50
140
1.0
141
50.0
290
     0
  0
SCALE
  5
53
102
{ACAD_REACTORS
330
47
102
}
330
47
100
AcDbScale
 70
     0
300
1:100
140
1.0
141
100.0
290
     0
  0
SCALE
  5
54
102
{ACAD_REACTORS
330
47
102
}
330
47
100
AcDbScale
 70
     0
300
2:1
140
2.0
141
1.0
290
     0
  0
SCALE
  5
55
102
{ACAD_REACTORS
330
47
102
}
330
47
100
AcDbScale
 70
     0
300
4:1
140
4.0
141
1.0
290
     0
  0
SCALE
  5
56
102
{ACAD_REACTORS
330
47
102
}
330
47
100
AcDbScale
 70
     0
300
8:1
140
8.0
141
1.0
290
     0
  0
SCALE
  5
57
102
{ACAD_REACTORS
330
47
102
}
330
47
100
AcDbScale
 70
     0
300
10:1
140
10.0
141
1.0
290
     0
  0
SCALE
  5
58
102
{ACAD_REACTORS
330
47
102
}
330
47
100
AcDbScale
 70
     0
300
100:1
140
100.0
141
1.0
290
     0
  0
ENDSEC
  0
EOF
