  0
SECTION
  2
HEADER
  9
$ACADVER
  1
AC1015
  9
$ACADMAINTVER
 70
     6
  9
$DWGCODEPAGE
  3
DOS932
  9
$INSBASE
 10
0.0
 20
0.0
 30
0.0
  9
$EXTMIN
 10
0.0
 20
0.0
 30
0.0
  9
$EXTMAX
 10
148.5
 20
105.0
 30
0.0
  9
$LIMMIN
 10
0.0
 20
0.0
  9
$LIMMAX
 10
148.5
 20
105.0
  9
$ORTHOMODE
 70
     0
  9
$REGENMODE
 70
     1
  9
$FILLMODE
 70
     1
  9
$QTEXTMODE
 70
     0
  9
$MIRRTEXT
 70
     1
  9
$LTSCALE
 40
0.5
  9
$ATTMODE
 70
     1
  9
$TEXTSIZE
 40
1.7638888889
  9
$TRACEWID
 40
1.0
  9
$TEXTSTYLE
  7
Standard
  9
$CLAYER
  8
0
  9
$CELTYPE
  6
ByLayer
  9
$CECOLOR
 62
   256
  9
$CELTSCALE
 40
1.0
  9
$DISPSILH
 70
     0
  9
$DIMSCALE
 40
1.0
  9
$DIMASZ
 40
1.3642578125
  9
$DIMEXO
 40
0.5
  9
$DIMDLI
 40
3.75
  9
$DIMRND
 40
0.0
  9
$DIMDLE
 40
0.0
  9
$DIMEXE
 40
0.5
  9
$DIMTP
 40
0.0
  9
$DIMTM
 40
0.0
  9
$DIMTXT
 40
1.7638888889
  9
$DIMCEN
 40
2.5
  9
$DIMTSZ
 40
0.0
  9
$DIMTOL
 70
     0
  9
$DIMLIM
 70
     0
  9
$DIMTIH
 70
     1
  9
$DIMTOH
 70
     1
  9
$DIMSE1
 70
     0
  9
$DIMSE2
 70
     0
  9
$DIMTAD
 70
     1
  9
$DIMZIN
 70
     0
  9
$DIMBLK
  1

  9
$DIMASO
 70
     1
  9
$DIMSHO
 70
     1
  9
$DIMPOST
  1

  9
$DIMAPOST
  1

  9
$DIMALT
 70
     0
  9
$DIMALTD
 70
     3
  9
$DIMALTF
 40
0.0393700787
  9
$DIMLFAC
 40
1.0
  9
$DIMTOFL
 70
     1
  9
$DIMTVP
 40
0.0
  9
$DIMTIX
 70
     0
  9
$DIMSOXD
 70
     0
  9
$DIMSAH
 70
     0
  9
$DIMBLK1
  1

  9
$DIMBLK2
  1

  9
$DIMSTYLE
  2
ISO-25
  9
$DIMCLRD
 70
     0
  9
$DIMCLRE
 70
     0
  9
$DIMCLRT
 70
     0
  9
$DIMTFAC
 40
1.0
  9
$DIMGAP
 40
0.762
  9
$DIMJUST
 70
     0
  9
$DIMSD1
 70
     0
  9
$DIMSD2
 70
     0
  9
$DIMTOLJ
 70
     0
  9
$DIMTZIN
 70
     0
  9
$DIMALTZ
 70
     0
  9
$DIMALTTZ
 70
     0
  9
$DIMUPT
 70
     0
  9
$DIMDEC
 70
     2
  9
$DIMTDEC
 70
     2
  9
$DIMALTU
 70
     2
  9
$DIMALTTD
 70
     3
  9
$DIMTXSTY
  7
Standard
  9
$DIMAUNIT
 70
     0
  9
$DIMADEC
 70
     2
  9
$DIMALTRND
 40
0.0
  9
$DIMAZIN
 70
     0
  9
$DIMDSEP
 70
    44
  9
$DIMATFIT
 70
     3
  9
$DIMFRAC
 70
     0
  9
$DIMLDRBLK
  1

  9
$DIMLUNIT
 70
     2
  9
$DIMLWD
 70
    -2
  9
$DIMLWE
 70
    -2
  9
$DIMTMOVE
 70
     0
  9
$LUNITS
 70
     2
  9
$LUPREC
 70
     2
  9
$SKETCHINC
 40
1.0
  9
$FILLETRAD
 40
0.0
  9
$AUNITS
 70
     0
  9
$AUPREC
 70
     2
  9
$MENU
  1
.
  9
$ELEVATION
 40
0.0
  9
$PELEVATION
 40
0.0
  9
$THICKNESS
 40
0.0
  9
$LIMCHECK
 70
     0
  9
$CHAMFERA
 40
0.0
  9
$CHAMFERB
 40
0.0
  9
$CHAMFERC
 40
0.0
  9
$CHAMFERD
 40
0.0
  9
$SKPOLY
 70
     0
  9
$TDCREATE
 40
2460406.68817537
  9
$TDUCREATE
 40
2460406.31317537
  9
$TDUPDATE
 40
2460406.688175891
  9
$TDUUPDATE
 40
2460406.313175891
  9
$TDINDWG
 40
0.0000000116
  9
$TDUSRTIMER
 40
0.0000000116
  9
$USRTIMER
 70
     1
  9
$ANGBASE
 50
0.0
  9
$ANGDIR
 70
     0
  9
$PDMODE
 70
     0
  9
$PDSIZE
 40
-1.0
  9
$PLINEWID
 40
0.0
  9
$SPLFRAME
 70
     0
  9
$SPLINETYPE
 70
     6
  9
$SPLINESEGS
 70
     8
  9
$HANDSEED
  5
135
  9
$SURFTAB1
 70
     6
  9
$SURFTAB2
 70
     6
  9
$SURFTYPE
 70
     6
  9
$SURFU
 70
     6
  9
$SURFV
 70
     6
  9
$UCSBASE
  2

  9
$UCSNAME
  2

  9
$UCSORG
 10
0.0
 20
0.0
 30
0.0
  9
$UCSXDIR
 10
1.0
 20
0.0
 30
0.0
  9
$UCSYDIR
 10
0.0
 20
1.0
 30
0.0
  9
$UCSORTHOREF
  2

  9
$UCSORTHOVIEW
 70
     0
  9
$UCSORGTOP
 10
0.0
 20
0.0
 30
0.0
  9
$UCSORGBOTTOM
 10
0.0
 20
0.0
 30
0.0
  9
$UCSORGLEFT
 10
0.0
 20
0.0
 30
0.0
  9
$UCSORGRIGHT
 10
0.0
 20
0.0
 30
0.0
  9
$UCSORGFRONT
 10
0.0
 20
0.0
 30
0.0
  9
$UCSORGBACK
 10
0.0
 20
0.0
 30
0.0
  9
$PUCSBASE
  2

  9
$PUCSNAME
  2

  9
$PUCSORG
 10
0.0
 20
0.0
 30
0.0
  9
$PUCSXDIR
 10
1.0
 20
0.0
 30
0.0
  9
$PUCSYDIR
 10
0.0
 20
1.0
 30
0.0
  9
$PUCSORTHOREF
  2

  9
$PUCSORTHOVIEW
 70
     0
  9
$PUCSORGTOP
 10
0.0
 20
0.0
 30
0.0
  9
$PUCSORGBOTTOM
 10
0.0
 20
0.0
 30
0.0
  9
$PUCSORGLEFT
 10
0.0
 20
0.0
 30
0.0
  9
$PUCSORGRIGHT
 10
0.0
 20
0.0
 30
0.0
  9
$PUCSORGFRONT
 10
0.0
 20
0.0
 30
0.0
  9
$PUCSORGBACK
 10
0.0
 20
0.0
 30
0.0
  9
$USERI1
 70
     0
  9
$USERI2
 70
     0
  9
$USERI3
 70
     0
  9
$USERI4
 70
     0
  9
$USERI5
 70
     0
  9
$USERR1
 40
0.0
  9
$USERR2
 40
0.0
  9
$USERR3
 40
0.0
  9
$USERR4
 40
0.0
  9
$USERR5
 40
0.0
  9
$WORLDVIEW
 70
     1
  9
$SHADEDGE
 70
     3
  9
$SHADEDIF
 70
    70
  9
$TILEMODE
 70
     1
  9
$MAXACTVP
 70
    64
  9
$PINSBASE
 10
0.0
 20
0.0
 30
0.0
  9
$PLIMCHECK
 70
     0
  9
$PEXTMIN
 10
1.0000000000E+20
 20
1.0000000000E+20
 30
1.0000000000E+20
  9
$PEXTMAX
 10
-1.0000000000E+20
 20
-1.0000000000E+20
 30
-1.0000000000E+20
  9
$PLIMMIN
 10
0.0
 20
0.0
  9
$PLIMMAX
 10
420.0
 20
297.0
  9
$UNITMODE
 70
     0
  9
$VISRETAIN
 70
     1
  9
$PLINEGEN
 70
     0
  9
$PSLTSCALE
 70
     1
  9
$TREEDEPTH
 70
  3020
  9
$CMLSTYLE
  2
Standard
  9
$CMLJUST
 70
     0
  9
$CMLSCALE
 40
20.0
  9
$PROXYGRAPHICS
 70
     1
  9
$MEASUREMENT
 70
     1
  9
$CELWEIGHT
370
    -1
  9
$ENDCAPS
280
     0
  9
$JOINSTYLE
280
     0
  9
$LWDISPLAY
290
     1
  9
$INSUNITS
 70
     4
  9
$HYPERLINKBASE
  1

  9
$STYLESHEET
  1

  9
$XEDIT
290
     1
  9
$CEPSNTYPE
380
     0
  9
$PSTYLEMODE
290
     1
  9
$FINGERPRINTGUID
  2
{4403dcf8-0db9-4aab-bf0b-176756bd849f}
  9
$VERSIONGUID
  2
{FAEB1C32-E019-11D5-929B-00C0DF256EC4}
  9
$EXTNAMES
290
     1
  9
$PSVPSCALE
 40
0.0
  9
$OLESTARTUP
290
     0
  0
ENDSEC
  0
SECTION
  2
CLASSES
  0
CLASS
  1
ACDBDICTIONARYWDFLT
  2
AcDbDictionaryWithDefault
  3
ObjectDBX Classes
 90
        0
280
     0
281
     0
  0
CLASS
  1
VISUALSTYLE
  2
AcDbVisualStyle
  3
ObjectDBX Classes
 90
     4095
280
     0
281
     0
  0
CLASS
  1
MATERIAL
  2
AcDbMaterial
  3
ObjectDBX Classes
 90
     1153
280
     0
281
     0
  0
CLASS
  1
SCALE
  2
AcDbScale
  3
ObjectDBX Classes
 90
     1153
280
     0
281
     0
  0
CLASS
  1
TABLESTYLE
  2
AcDbTableStyle
  3
ObjectDBX Classes
 90
     4095
280
     0
281
     0
  0
CLASS
  1
MLEADERSTYLE
  2
AcDbMLeaderStyle
  3
ACDB_MLEADERSTYLE_CLASS
 90
     4095
280
     0
281
     0
  0
CLASS
  1
SUN
  2
AcDbSun
  3
SCENEOE
 90
     1153
280
     0
281
     0
  0
CLASS
  1
ACDBPLACEHOLDER
  2
AcDbPlaceHolder
  3
ObjectDBX Classes
 90
        0
280
     0
281
     0
  0
CLASS
  1
LAYOUT
  2
AcDbLayout
  3
ObjectDBX Classes
 90
        0
280
     0
281
     0
  0
ENDSEC
  0
SECTION
  2
TABLES
  0
TABLE
  2
VPORT
  5
8
330
0
100
AcDbSymbolTable
 70
     1
  0
VPORT
  5
29
330
8
100
AcDbSymbolTableRecord
100
AcDbViewportTableRecord
  2
*Active
 70
     0
 10
0.0
 20
0.0
 11
1.0
 21
1.0
 12
74.25
 22
52.5
 13
0.0
 23
0.0
 14
10.0
 24
10.0
 15
10.0
 25
10.0
 16
0.0
 26
0.0
 36
1.0
 17
0.0
 27
0.0
 37
0.0
 40
105.0
 41
1.4142857143
 42
50.0
 43
0.0
 44
0.0
 50
0.0
 51
0.0
 71
     0
 72
  2000
 73
     1
 74
     3
 75
     0
 76
     0
 77
     0
 78
     0
281
     0
 65
     1
110
0.0
120
0.0
130
0.0
111
1.0
121
0.0
131
0.0
112
0.0
122
1.0
132
0.0
 79
     0
146
0.0
  0
ENDTAB
  0
TABLE
  2
LTYPE
  5
5
330
0
100
AcDbSymbolTable
 70
     6
  0
LTYPE
  5
14
330
5
100
AcDbSymbolTableRecord
100
AcDbLinetypeTableRecord
  2
ByBlock
 70
     0
  3

 72
    65
 73
     0
 40
0.0
  0
LTYPE
  5
15
330
5
100
AcDbSymbolTableRecord
100
AcDbLinetypeTableRecord
  2
ByLayer
 70
     0
  3

 72
    65
 73
     0
 40
0.0
  0
LTYPE
  5
16
330
5
100
AcDbSymbolTableRecord
100
AcDbLinetypeTableRecord
  2
Continuous
 70
     0
  3
Solid line
 72
    65
 73
     0
 40
0.0
  0
LTYPE
  5
5E
330
5
100
AcDbSymbolTableRecord
100
AcDbLinetypeTableRecord
  2
HIDDEN
 70
     0
  3
Hidden __ __ __ __ __ __ __ __ __ __ __ __ __ __
 72
    65
 73
     2
 40
1.905
 49
1.27
 74
     0
 49
-0.635
 74
     0
  0
LTYPE
  5
5F
330
5
100
AcDbSymbolTableRecord
100
AcDbLinetypeTableRecord
  2
PHANTOM
 70
     0
  3
Phantom ______  __  __  ______  __  __  ______
 72
    65
 73
     6
 40
12.7
 49
6.35
 74
     0
 49
-1.27
 74
     0
 49
1.27
 74
     0
 49
-1.27
 74
     0
 49
1.27
 74
     0
 49
-1.27
 74
     0
  0
LTYPE
  5
60
330
5
100
AcDbSymbolTableRecord
100
AcDbLinetypeTableRecord
  2
CENTER
 70
     0
  3
Center ____ _ ____ _ ____ _ ____ _ ____ _ ____
 72
    65
 73
     4
 40
10.16
 49
6.35
 74
     0
 49
-1.27
 74
     0
 49
1.27
 74
     0
 49
-1.27
 74
     0
  0
LTYPE
  5
61
330
5
100
AcDbSymbolTableRecord
100
AcDbLinetypeTableRecord
  2
CENTERX2
 70
     0
  3
Center (2x) ________  __  ________  __  _____
 72
    65
 73
     4
 40
20.32
 49
12.7
 74
     0
 49
-2.54
 74
     0
 49
2.54
 74
     0
 49
-2.54
 74
     0
  0
LTYPE
  5
62
330
5
100
AcDbSymbolTableRecord
100
AcDbLinetypeTableRecord
  2
DOT2
 70
     0
  3
Dot (.5x) ........................................
 72
    65
 73
     2
 40
0.635
 49
0.0
 74
     0
 49
-0.635
 74
     0
  0
ENDTAB
  0
TABLE
  2
LAYER
  5
2
330
0
100
AcDbSymbolTable
 70
     2
  0
LAYER
  5
10
330
2
100
AcDbSymbolTableRecord
100
AcDbLayerTableRecord
  2
0
 70
     0
 62
     7
  6
Continuous
370
    -3
390
F
  0
LAYER
  5
63
330
2
100
AcDbSymbolTableRecord
100
AcDbLayerTableRecord
  2
FORMAT
 70
     0
 62
     7
  6
Continuous
370
    -3
390
F
  0
ENDTAB
  0
TABLE
  2
STYLE
  5
3
330
0
100
AcDbSymbolTable
 70
     2
  0
STYLE
  5
11
330
3
100
AcDbSymbolTableRecord
100
AcDbTextStyleTableRecord
  2
Standard
 70
     0
 40
0.0
 41
1.0
 50
0.0
 71
     0
 42
1.7638888889
  3
txt
  4
bigfont
  0
STYLE
  5
64
330
3
100
AcDbSymbolTableRecord
100
AcDbTextStyleTableRecord
  2
SLDTEXTSTYLE0
 70
     0
 40
0.0
 41
0.7
 50
0.0
 71
     0
 42
1.7638888889
  3
TXT
  4
bigfont
  0
ENDTAB
  0
TABLE
  2
VIEW
  5
6
330
0
100
AcDbSymbolTable
 70
     0
  0
ENDTAB
  0
TABLE
  2
UCS
  5
7
330
0
100
AcDbSymbolTable
 70
     0
  0
ENDTAB
  0
TABLE
  2
APPID
  5
9
330
0
100
AcDbSymbolTable
 70
     1
  0
APPID
  5
12
330
9
100
AcDbSymbolTableRecord
100
AcDbRegAppTableRecord
  2
ACAD
 70
     0
  0
ENDTAB
  0
TABLE
  2
DIMSTYLE
  5
A
330
0
100
AcDbSymbolTable
 70
     1
100
AcDbDimStyleTable
  0
DIMSTYLE
105
27
330
A
100
AcDbSymbolTableRecord
100
AcDbDimStyleTableRecord
  2
ISO-25
 70
     0
 41
2.5
 42
0.625
 43
3.75
 44
1.25
 73
     0
 74
     0
 77
     1
 78
     8
140
2.5
141
2.5
143
0.0393700787
147
0.625
171
     3
172
     1
178
     0
271
     2
272
     2
274
     3
278
    44
283
     0
284
     8
340
11
  0
ENDTAB
  0
TABLE
  2
BLOCK_RECORD
  5
1
330
0
100
AcDbSymbolTable
 70
     2
  0
BLOCK_RECORD
  5
1F
330
1
100
AcDbSymbolTableRecord
100
AcDbBlockTableRecord
  2
*Model_Space
340
22
  0
BLOCK_RECORD
  5
1B
330
1
100
AcDbSymbolTableRecord
100
AcDbBlockTableRecord
  2
*Paper_Space
340
1E
  0
BLOCK_RECORD
  5
23
330
1
100
AcDbSymbolTableRecord
100
AcDbBlockTableRecord
  2
*Paper_Space0
340
26
  0
BLOCK_RECORD
  5
10B
330
1
100
AcDbSymbolTableRecord
100
AcDbBlockTableRecord
  2
SW_CENTERMARKSYMBOL_0
340
0
102
{BLKREFS
331
116
102
}
  0
ENDTAB
  0
ENDSEC
  0
SECTION
  2
BLOCKS
  0
BLOCK
  5
20
330
1F
100
AcDbEntity
  8
0
100
AcDbBlockBegin
  2
*Model_Space
 70
     0
 10
0.0
 20
0.0
 30
0.0
  3
*Model_Space
  1

  0
ENDBLK
  5
21
330
1F
100
AcDbEntity
  8
0
100
AcDbBlockEnd
  0
BLOCK
  5
1C
330
1B
100
AcDbEntity
 67
     1
  8
0
100
AcDbBlockBegin
  2
*Paper_Space
 70
     0
 10
0.0
 20
0.0
 30
0.0
  3
*Paper_Space
  1

  0
ENDBLK
  5
1D
330
1B
100
AcDbEntity
 67
     1
  8
0
100
AcDbBlockEnd
  0
BLOCK
  5
24
330
23
100
AcDbEntity
  8
0
100
AcDbBlockBegin
  2
*Paper_Space0
 70
     0
 10
0.0
 20
0.0
 30
0.0
  3
*Paper_Space0
  1

  0
ENDBLK
  5
25
330
23
100
AcDbEntity
  8
0
100
AcDbBlockEnd
  0
BLOCK
  5
10C
330
10B
100
AcDbEntity
  8
0
100
AcDbBlockBegin
  2
SW_CENTERMARKSYMBOL_0
 70
     0
 10
0.0
 20
0.0
 30
0.0
  3
SW_CENTERMARKSYMBOL_0
  1

  0
LINE
  5
10E
330
10B
100
AcDbEntity
  8
FORMAT
 62
     0
100
AcDbLine
 10
0.0
 20
0.0
 30
0.0
 11
0.0
 21
2.5
 31
0.0
  0
LINE
  5
10F
330
10B
100
AcDbEntity
  8
FORMAT
 62
     0
100
AcDbLine
 10
0.0
 20
0.0
 30
0.0
 11
-2.5
 21
0.0
 31
0.0
  0
LINE
  5
110
330
10B
100
AcDbEntity
  8
FORMAT
 62
     0
100
AcDbLine
 10
0.0
 20
0.0
 30
0.0
 11
0.0
 21
-2.5
 31
0.0
  0
LINE
  5
111
330
10B
100
AcDbEntity
  8
FORMAT
 62
     0
100
AcDbLine
 10
0.0
 20
0.0
 30
0.0
 11
2.5
 21
0.0
 31
0.0
  0
LINE
  5
112
330
10B
100
AcDbEntity
  8
FORMAT
 62
     0
100
AcDbLine
 10
0.0
 20
5.0
 30
0.0
 11
0.0
 21
15.0247350913
 31
0.0
  0
LINE
  5
113
330
10B
100
AcDbEntity
  8
FORMAT
 62
     0
100
AcDbLine
 10
-5.0
 20
0.0
 30
0.0
 11
-13.37415625
 21
0.0
 31
0.0
  0
LINE
  5
114
330
10B
100
AcDbEntity
  8
FORMAT
 62
     0
100
AcDbLine
 10
0.0
 20
-5.0
 30
0.0
 11
0.0
 21
-15.0981498226
 31
0.0
  0
LINE
  5
115
330
10B
100
AcDbEntity
  8
FORMAT
 62
     0
100
AcDbLine
 10
5.0
 20
0.0
 30
0.0
 11
13.37415625
 21
0.0
 31
0.0
  0
ENDBLK
  5
10D
330
10B
100
AcDbEntity
  8
0
100
AcDbBlockEnd
  0
ENDSEC
  0
SECTION
  2
ENTITIES
  0
MTEXT
  5
65
330
1F
100
AcDbEntity
  8
FORMAT
100
AcDbMText
 10
77.9733038931
 20
55.7435111841
 30
0.0
 40
2.1166666667
 41
0.0
 71
     1
 72
     1
  1
5R-NB1443
  7
SLDTEXTSTYLE0
 73
     1
 44
1.0
  0
LINE
  5
66
330
1F
100
AcDbEntity
  8
0
  6
Continuous
 62
     7
370
    25
100
AcDbLine
 10
59.818212859
 20
47.4345819802
 30
0.0
 11
58.6020785219
 21
45.3281755196
 31
0.0
  0
LINE
  5
67
330
1F
100
AcDbEntity
  8
0
  6
Continuous
 62
     7
370
    25
100
AcDbLine
 10
58.6020785219
 20
21.8281755196
 30
0.0
 11
59.818212859
 21
19.7217690591
 31
0.0
  0
LINE
  5
68
330
1F
100
AcDbEntity
  8
0
  6
Continuous
 62
     7
370
    25
100
AcDbLine
 10
63.3859441849
 20
19.7217690591
 30
0.0
 11
64.6020785219
 21
21.8281755196
 31
0.0
  0
LINE
  5
69
330
1F
100
AcDbEntity
  8
0
  6
Continuous
 62
     7
370
    25
100
AcDbLine
 10
64.6020785219
 20
45.3281755196
 30
0.0
 11
63.3859441849
 21
47.4345819802
 31
0.0
  0
LINE
  5
6A
330
1F
100
AcDbEntity
  8
0
  6
Continuous
 62
     7
370
    25
100
AcDbLine
 10
58.6020785219
 20
44.4523317696
 30
0.0
 11
44.5189535719
 21
44.0122341149
 31
0.0
  0
LINE
  5
6B
330
1F
100
AcDbEntity
  8
0
  6
Continuous
 62
     7
370
    25
100
AcDbLine
 10
44.5189535719
 20
23.1441169243
 30
0.0
 11
58.6020785219
 21
22.7040192696
 31
0.0
  0
LINE
  5
6C
330
1F
100
AcDbEntity
  8
0
  6
Continuous
 62
     7
370
    25
100
AcDbLine
 10
44.5189535719
 20
44.0122341149
 30
0.0
 11
41.6020785219
 21
42.3281755196
 31
0.0
  0
LINE
  5
6D
330
1F
100
AcDbEntity
  8
0
  6
Continuous
 62
     7
370
    25
100
AcDbLine
 10
41.6020785219
 20
24.8281755196
 30
0.0
 11
44.5189535719
 21
23.1441169243
 31
0.0
  0
SPLINE
  5
6E
330
1F
100
AcDbEntity
  8
0
  6
Continuous
 62
     7
370
    25
100
AcDbSpline
210
0.0
220
0.0
230
1.0
 70
     8
 71
     3
 72
    16
 73
    12
 74
     0
 42
0.00000001
 43
0.00000001
 40
0.0
 40
0.0
 40
0.0
 40
0.0
 40
0.2499999999999999
 40
0.2499999999999999
 40
0.4999999999999999
 40
0.4999999999999999
 40
0.625
 40
0.625
 40
0.7499999999999998
 40
0.7499999999999998
 40
1.0
 40
1.0
 40
1.0
 40
1.0
 10
59.81821285896154
 20
19.72176905907943
 30
0.0
 10
59.49165077897755
 20
20.28739117343708
 30
0.0
 10
59.22250449870305
 20
20.85713707600777
 30
0.0
 10
58.84964953596716
 20
22.00851114385914
 30
0.0
 10
58.74717074075422
 20
22.59022764361508
 30
0.0
 10
58.74604508912061
 20
23.47376208249695
 30
0.0
 10
58.77109715607003
 20
23.76965958616544
 30
0.0
 10
58.86878709945813
 20
24.35497601487127
 30
0.0
 10
58.94132582472783
 20
24.64567188187343
 30
0.0
 10
59.22143124077244
 20
25.51258404309002
 30
0.0
 10
59.49124368271923
 20
26.0836450635941
 30
0.0
 10
59.81821285896168
 20
26.64997228935497
 30
0.0
  0
LINE
  5
6F
330
1F
100
AcDbEntity
  8
0
  6
Continuous
 62
     7
370
    25
100
AcDbLine
 10
59.818212859
 20
26.6499722894
 30
0.0
 11
63.3859441849
 21
26.6499722894
 31
0.0
  0
SPLINE
  5
70
330
1F
100
AcDbEntity
  8
0
  6
Continuous
 62
     7
370
    25
100
AcDbSpline
210
0.0
220
0.0
230
1.0
 70
     8
 71
     3
 72
    16
 73
    12
 74
     0
 42
0.00000001
 43
0.00000001
 40
0.0
 40
0.0
 40
0.0
 40
0.0
 40
0.2499999999999999
 40
0.2499999999999999
 40
0.4999999999999999
 40
0.4999999999999999
 40
0.625
 40
0.625
 40
0.7499999999999998
 40
0.7499999999999998
 40
1.0
 40
1.0
 40
1.0
 40
1.0
 10
63.38594418491834
 20
19.72176905907943
 30
0.0
 10
63.71250626490234
 20
20.28739117343708
 30
0.0
 10
63.98165254517684
 20
20.85713707600777
 30
0.0
 10
64.35450750791273
 20
22.00851114385914
 30
0.0
 10
64.45698630312566
 20
22.59022764361508
 30
0.0
 10
64.45811195475929
 20
23.47376208249695
 30
0.0
 10
64.43305988780986
 20
23.76965958616544
 30
0.0
 10
64.33536994442176
 20
24.35497601487127
 30
0.0
 10
64.26283121915205
 20
24.64567188187343
 30
0.0
 10
63.98272580310745
 20
25.51258404309002
 30
0.0
 10
63.71291336116065
 20
26.0836450635941
 30
0.0
 10
63.3859441849182
 20
26.64997228935497
 30
0.0
  0
LINE
  5
71
330
1F
100
AcDbEntity
  8
0
  6
Continuous
 62
     7
370
    25
100
AcDbLine
 10
59.818212859
 20
19.7217690591
 30
0.0
 11
63.3859441849
 21
19.7217690591
 31
0.0
  0
SPLINE
  5
72
330
1F
100
AcDbEntity
  8
0
  6
Continuous
 62
     7
370
    25
100
AcDbSpline
210
0.0
220
0.0
230
1.0
 70
     8
 71
     3
 72
    14
 73
    10
 74
     0
 42
0.00000001
 43
0.00000001
 40
0.0
 40
0.0
 40
0.0
 40
0.0
 40
0.2499999999999999
 40
0.2499999999999999
 40
0.4999999999999999
 40
0.4999999999999999
 40
0.7499999999999999
 40
0.7499999999999999
 40
1.0
 40
1.0
 40
1.0
 40
1.0
 10
59.81821285896184
 20
26.64997228935496
 30
0.0
 10
59.49263936217415
 20
27.7777919654232
 30
0.0
 10
59.22339020854515
 20
28.91602574869934
 30
0.0
 10
58.8496046427343
 20
31.22294792957537
 30
0.0
 10
58.746319085887
 20
32.39299502397012
 30
0.0
 10
58.74651323162254
 20
34.7667558888305
 30
0.0
 10
58.8497972219728
 20
35.93487380440335
 30
0.0
 10
59.22349982974128
 20
38.24071948208468
 30
0.0
 10
59.49267248041932
 20
39.37867379880431
 30
0.0
 10
59.81821285896184
 20
40.50637874990599
 30
0.0
  0
LINE
  5
73
330
1F
100
AcDbEntity
  8
0
  6
Continuous
 62
     7
370
    25
100
AcDbLine
 10
59.818212859
 20
40.5063787499
 30
0.0
 11
63.3859441849
 21
40.5063787499
 31
0.0
  0
SPLINE
  5
74
330
1F
100
AcDbEntity
  8
0
  6
Continuous
 62
     7
370
    25
100
AcDbSpline
210
0.0
220
0.0
230
1.0
 70
     8
 71
     3
 72
    14
 73
    10
 74
     0
 42
0.00000001
 43
0.00000001
 40
0.0
 40
0.0
 40
0.0
 40
0.0
 40
0.2499999999999999
 40
0.2499999999999999
 40
0.4999999999999999
 40
0.4999999999999999
 40
0.7499999999999999
 40
0.7499999999999999
 40
1.0
 40
1.0
 40
1.0
 40
1.0
 10
63.38594418491805
 20
26.64997228935496
 30
0.0
 10
63.71151768170573
 20
27.7777919654232
 30
0.0
 10
63.98076683533474
 20
28.91602574869934
 30
0.0
 10
64.35455240114558
 20
31.22294792957537
 30
0.0
 10
64.4578379579929
 20
32.39299502397012
 30
0.0
 10
64.45764381225734
 20
34.7667558888305
 30
0.0
 10
64.35435982190708
 20
35.93487380440335
 30
0.0
 10
63.9806572141386
 20
38.24071948208468
 30
0.0
 10
63.71148456346057
 20
39.37867379880431
 30
0.0
 10
63.38594418491805
 20
40.50637874990599
 30
0.0
  0
LINE
  5
75
330
1F
100
AcDbEntity
  8
0
  6
Continuous
 62
     7
370
    25
100
AcDbLine
 10
60.6437773636
 20
29.2125563561
 30
0.0
 11
62.4264028463
 21
29.2125563561
 31
0.0
  0
LINE
  5
76
330
1F
100
AcDbEntity
  8
0
  6
Continuous
 62
     7
370
    25
100
AcDbLine
 10
60.6437773636
 20
28.9658382094
 30
0.0
 11
60.6437773636
 21
29.2125563561
 31
0.0
  0
LINE
  5
77
330
1F
100
AcDbEntity
  8
0
  6
Continuous
 62
     7
370
    25
100
AcDbLine
 10
61.4159781358
 20
28.9658382094
 30
0.0
 11
60.6437773636
 21
28.9658382094
 31
0.0
  0
LINE
  5
78
330
1F
100
AcDbEntity
  8
0
  6
Continuous
 62
     7
370
    25
100
AcDbLine
 10
61.4159781358
 20
28.4237532673
 30
0.0
 11
61.4159781358
 21
28.9658382094
 31
0.0
  0
LINE
  5
79
330
1F
100
AcDbEntity
  8
0
  6
Continuous
 62
     7
370
    25
100
AcDbLine
 10
60.6437773636
 20
28.048463692
 30
0.0
 11
61.4159781358
 21
28.4237532673
 31
0.0
  0
LINE
  5
7A
330
1F
100
AcDbEntity
  8
0
  6
Continuous
 62
     7
370
    25
100
AcDbLine
 10
60.6437773636
 20
27.7878459314
 30
0.0
 11
60.6437773636
 21
28.048463692
 31
0.0
  0
LINE
  5
7B
330
1F
100
AcDbEntity
  8
0
  6
Continuous
 62
     7
370
    25
100
AcDbLine
 10
61.4464800663
 20
28.1944096379
 30
0.0
 11
60.6437773636
 21
27.7878459314
 31
0.0
  0
SPLINE
  5
7C
330
1F
100
AcDbEntity
  8
0
  6
Continuous
 62
     7
370
    25
100
AcDbSpline
210
0.0
220
0.0
230
1.0
 70
     8
 71
     3
 72
    11
 73
     7
 74
     0
 42
0.00000001
 43
0.00000001
 40
0.0
 40
0.0
 40
0.0
 40
0.0
 40
0.2256209836966683
 40
0.462970798428229
 40
0.7196090303667867
 40
1.0
 40
1.0
 40
1.0
 40
1.0
 10
61.54030246016389
 20
27.98591542944268
 30
0.0
 10
61.52867467128914
 20
27.99902849964007
 30
0.0
 10
61.50481462684163
 20
28.02593631858342
 30
0.0
 10
61.47871510719226
 20
28.07562229821509
 30
0.0
 10
61.45770617975944
 20
28.13199621386211
 30
0.0
 10
61.45033084093374
 20
28.17300062319645
 30
0.0
 10
61.44648006634149
 20
28.19440963793688
 30
0.0
  0
SPLINE
  5
7D
330
1F
100
AcDbEntity
  8
0
  6
Continuous
 62
     7
370
    25
100
AcDbSpline
210
0.0
220
0.0
230
1.0
 70
     8
 71
     3
 72
    15
 73
    11
 74
     0
 42
0.00000001
 43
0.00000001
 40
0.0
 40
0.0
 40
0.0
 40
0.0
 40
0.1423455204062216
 40
0.2780244263979216
 40
0.4068124412900601
 40
0.5301826523562201
 40
0.6505629722368653
 40
0.7677901753368299
 40
0.883887442145378
 40
1.0
 40
1.0
 40
1.0
 40
1.0
 10
61.91559203545346
 20
27.85039419392144
 30
0.0
 10
61.89613462733006
 20
27.85066776868953
 30
0.0
 10
61.8581310799247
 20
27.85120210561675
 30
0.0
 10
61.80292000933082
 20
27.85817873603409
 30
0.0
 10
61.75080637965845
 20
27.8681256233733
 30
0.0
 10
61.70223613783503
 20
27.88361866237034
 30
0.0
 10
61.65651548236337
 20
27.90226153246804
 30
0.0
 10
61.61405065215482
 20
27.92554865690247
 30
0.0
 10
61.57517586369909
 20
27.95349649748153
 30
0.0
 10
61.55192743831286
 20
27.97510864440143
 30
0.0
 10
61.54030246016389
 20
27.98591542944267
 30
0.0
  0
SPLINE
  5
7E
330
1F
100
AcDbEntity
  8
0
  6
Continuous
 62
     7
370
    25
100
AcDbSpline
210
0.0
220
0.0
230
1.0
 70
     8
 71
     3
 72
    15
 73
    11
 74
     0
 42
0.00000001
 43
0.00000001
 40
0.0
 40
0.0
 40
0.0
 40
0.0
 40
0.116109058063985
 40
0.2322028255427882
 40
0.3494264952551895
 40
0.468933628794335
 40
0.5931998205909937
 40
0.7219839536369559
 40
0.8576587700816365
 40
1.0
 40
1.0
 40
1.0
 40
1.0
 10
62.29088161074303
 20
27.98591542944268
 30
0.0
 10
62.27925616582242
 20
27.97510982115536
 30
0.0
 10
62.2560068069544
 20
27.95350002758834
 30
0.0
 10
62.21713904161517
 20
27.92553448139195
 30
0.0
 10
62.17475149783052
 20
27.90237296278299
 30
0.0
 10
62.12914056473873
 20
27.88344553018344
 30
0.0
 10
62.0804779122118
 20
27.8682105287246
 30
0.0
 10
62.02826998358274
 20
27.85816102601039
 30
0.0
 10
61.97305139163829
 20
27.85120688852574
 30
0.0
 10
61.93504890200759
 20
27.85066938827646
 30
0.0
 10
61.91559203545346
 20
27.85039419392144
 30
0.0
  0
SPLINE
  5
7F
330
1F
100
AcDbEntity
  8
0
  6
Continuous
 62
     7
370
    25
100
AcDbSpline
210
0.0
220
0.0
230
1.0
 70
     8
 71
     3
 72
    15
 73
    11
 74
     0
 42
0.00000001
 43
0.00000001
 40
0.0
 40
0.0
 40
0.0
 40
0.0
 40
0.1342477572737618
 40
0.2634617725756831
 40
0.3884666271730281
 40
0.5118790511869581
 40
0.6324080741525893
 40
0.7535525248235465
 40
0.8755084805282742
 40
1.0
 40
1.0
 40
1.0
 40
1.0
 10
62.42640284626427
 20
28.32993087345812
 30
0.0
 10
62.42612369234092
 20
28.31291637014019
 30
0.0
 10
62.4255758516249
 20
28.27952533780812
 30
0.0
 10
62.41856091054549
 20
28.23073566152076
 30
0.0
 10
62.40842820474515
 20
28.18393913209133
 30
0.0
 10
62.39324067061335
 20
28.13964489901594
 30
0.0
 10
62.37414246657558
 20
28.09747861580319
 30
0.0
 10
62.35108214210831
 20
28.05750612998978
 30
0.0
 10
62.32294479603188
 20
28.02026960288675
 30
0.0
 10
62.30164239543621
 20
27.99744509689191
 30
0.0
 10
62.29088161074303
 20
27.98591542944268
 30
0.0
  0
LINE
  5
80
330
1F
100
AcDbEntity
  8
0
  6
Continuous
 62
     7
370
    25
100
AcDbLine
 10
62.4264028463
 20
29.2125563561
 30
0.0
 11
62.4264028463
 21
28.3299308735
 31
0.0
  0
LINE
  5
81
330
1F
100
AcDbEntity
  8
0
  6
Continuous
 62
     7
370
    25
100
AcDbLine
 10
61.905167325
 20
30.3523246959
 30
0.0
 11
61.905167325
 21
30.5816683252
 31
0.0
  0
SPLINE
  5
82
330
1F
100
AcDbEntity
  8
0
  6
Continuous
 62
     7
370
    25
100
AcDbSpline
210
0.0
220
0.0
230
1.0
 70
     8
 71
     3
 72
    15
 73
    11
 74
     0
 42
0.00000001
 43
0.00000001
 40
0.0
 40
0.0
 40
0.0
 40
0.0
 40
0.1017738366845019
 40
0.2081280746103133
 40
0.319522236132072
 40
0.4377158324105366
 40
0.5640612668215812
 40
0.7002741501736229
 40
0.8452618826189009
 40
1.0
 40
1.0
 40
1.0
 40
1.0
 10
62.17620979607122
 20
30.25850230202955
 30
0.0
 10
62.16891784647487
 20
30.26527886079684
 30
0.0
 10
62.15400576809515
 20
30.27913696200109
 30
0.0
 10
62.12778688000638
 20
30.29631242230262
 30
0.0
 10
62.0985832322668
 20
30.31130788239673
 30
0.0
 10
62.06642609311827
 20
30.32470291635758
 30
0.0
 10
62.03056575788838
 20
30.33474724084713
 30
0.0
 10
61.99169285911447
 20
30.34342739112344
 30
0.0
 10
61.94942586619251
 20
30.34895741114468
 30
0.0
 10
61.92023668988906
 20
30.35117818626287
 30
0.0
 10
61.90516732502874
 20
30.35232469585194
 30
0.0
  0
SPLINE
  5
83
330
1F
100
AcDbEntity
  8
0
  6
Continuous
 62
     7
370
    25
100
AcDbSpline
210
0.0
220
0.0
230
1.0
 70
     8
 71
     3
 72
    11
 73
     7
 74
     0
 42
0.00000001
 43
0.00000001
 40
0.0
 40
0.0
 40
0.0
 40
0.0
 40
0.2450868805219022
 40
0.4875552456976409
 40
0.7346288455311483
 40
1.0
 40
1.0
 40
1.0
 40
1.0
 10
62.24918276904419
 20
30.09170693523418
 30
0.0
 10
62.24827625666808
 20
30.10699553149478
 30
0.0
 10
62.24647291712041
 20
30.13740938020974
 30
0.0
 10
62.23234486242022
 20
30.18141147306657
 30
0.0
 10
62.20904274799284
 20
30.22269593370572
 30
0.0
 10
62.18741157049857
 20
30.24628607298064
 30
0.0
 10
62.17620979607122
 20
30.25850230202955
 30
0.0
  0
SPLINE
  5
84
330
1F
100
AcDbEntity
  8
0
  6
Continuous
 62
     7
370
    25
100
AcDbSpline
210
0.0
220
0.0
230
1.0
 70
     8
 71
     3
 72
    11
 73
     7
 74
     0
 42
0.00000001
 43
0.00000001
 40
0.0
 40
0.0
 40
0.0
 40
0.0
 40
0.2388203430261974
 40
0.4777994110081039
 40
0.7288233729769932
 40
1.0
 40
1.0
 40
1.0
 40
1.0
 10
62.18663450649593
 20
29.92491156843881
 30
0.0
 10
62.1963033259534
 20
29.93586092990289
 30
0.0
 10
62.2156473909664
 20
29.95776693000387
 30
0.0
 10
62.23542617558083
 20
29.99807344387754
 30
0.0
 10
62.24719758029782
 20
30.04328602049717
 30
0.0
 10
62.24850423079356
 20
30.07515664859789
 30
0.0
 10
62.24918276904419
 20
30.09170693523418
 30
0.0
  0
SPLINE
  5
85
330
1F
100
AcDbEntity
  8
0
  6
Continuous
 62
     7
370
    25
100
AcDbSpline
210
0.0
220
0.0
230
1.0
 70
     8
 71
     3
 72
    15
 73
    11
 74
     0
 42
0.00000001
 43
0.00000001
 40
0.0
 40
0.0
 40
0.0
 40
0.0
 40
0.1380420997033149
 40
0.2691721599589617
 40
0.39533134564347
 40
0.518601794143437
 40
0.6392985515224106
 40
0.7600805617867289
 40
0.8784957553092643
 40
1.0
 40
1.0
 40
1.0
 40
1.0
 10
61.967715587577
 20
29.84151388504113
 30
0.0
 10
61.97880508776392
 20
29.84163314369907
 30
0.0
 10
62.0004288150514
 20
29.84186568949938
 30
0.0
 10
62.0318307841647
 20
29.84667759596467
 30
0.0
 10
62.06188130077378
 20
29.85234145261078
 30
0.0
 10
62.09003299556601
 20
29.86198255466311
 30
0.0
 10
62.11707683979103
 20
29.87332071389913
 30
0.0
 10
62.14185058261668
 20
29.88825592895712
 30
0.0
 10
62.16569433809801
 20
29.90478591355269
 30
0.0
 10
62.17959479253906
 20
29.91814567950703
 30
0.0
 10
62.18663450649593
 20
29.92491156843881
 30
0.0
  0
SPLINE
  5
86
330
1F
100
AcDbEntity
  8
0
  6
Continuous
 62
     7
370
    25
100
AcDbSpline
210
0.0
220
0.0
230
1.0
 70
     8
 71
     3
 72
    15
 73
    11
 74
     0
 42
0.00000001
 43
0.00000001
 40
0.0
 40
0.0
 40
0.0
 40
0.0
 40
0.1133059292696177
 40
0.2263015370273198
 40
0.3429947497841042
 40
0.4612849748553938
 40
0.5864354642724741
 40
0.7160226876888954
 40
0.8547540019702783
 40
1.0
 40
1.0
 40
1.0
 40
1.0
 10
61.72794724780866
 20
29.92491156843881
 30
0.0
 10
61.73509690793807
 20
29.91811615722964
 30
0.0
 10
61.74937664675613
 20
29.9045439460375
 30
0.0
 10
61.77439794892555
 20
29.8881758486024
 30
0.0
 10
61.80072862736741
 20
29.87323397126969
 30
0.0
 10
61.82992068056558
 20
29.86177093278247
 30
0.0
 10
61.86098247432239
 20
29.85232476871443
 30
0.0
 10
61.89472389301857
 20
29.84658314608473
 30
0.0
 10
61.93039117863162
 20
29.84188779607499
 30
0.0
 10
61.95508528326329
 20
29.84164041377333
 30
0.0
 10
61.967715587577
 20
29.84151388504113
 30
0.0
  0
SPLINE
  5
87
330
1F
100
AcDbEntity
  8
0
  6
Continuous
 62
     7
370
    25
100
AcDbSpline
210
0.0
220
0.0
230
1.0
 70
     8
 71
     3
 72
    11
 73
     7
 74
     0
 42
0.00000001
 43
0.00000001
 40
0.0
 40
0.0
 40
0.0
 40
0.0
 40
0.2322932923175292
 40
0.4682186081034748
 40
0.7217939329173706
 40
1.0
 40
1.0
 40
1.0
 40
1.0
 10
61.64454956441098
 20
30.10213164565889
 30
0.0
 10
61.64565189132671
 20
30.08655953611311
 30
0.0
 10
61.64787378059869
 20
30.05517183918904
 30
0.0
 10
61.66444160839438
 20
30.00919215569724
 30
0.0
 10
61.69126227043234
 20
29.96498312053791
 30
0.0
 10
61.71534707336924
 20
29.93867492833754
 30
0.0
 10
61.72794724780866
 20
29.92491156843881
 30
0.0
  0
LINE
  5
88
330
1F
100
AcDbEntity
  8
0
  6
Continuous
 62
     7
370
    25
100
AcDbLine
 10
61.6445495644
 20
30.1646799082
 30
0.0
 11
61.6445495644
 21
30.1021316457
 31
0.0
  0
LINE
  5
89
330
1F
100
AcDbEntity
  8
0
  6
Continuous
 62
     7
370
    25
100
AcDbLine
 10
61.4673294872
 20
30.1646799082
 30
0.0
 11
61.6445495644
 21
30.1646799082
 31
0.0
  0
LINE
  5
8A
330
1F
100
AcDbEntity
  8
0
  6
Continuous
 62
     7
370
    25
100
AcDbLine
 10
61.4673294872
 20
30.0812822248
 30
0.0
 11
61.4673294872
 21
30.1646799082
 31
0.0
  0
SPLINE
  5
8B
330
1F
100
AcDbEntity
  8
0
  6
Continuous
 62
     7
370
    25
100
AcDbSpline
210
0.0
220
0.0
230
1.0
 70
     8
 71
     3
 72
    11
 73
     7
 74
     0
 42
0.00000001
 43
0.00000001
 40
0.0
 40
0.0
 40
0.0
 40
0.0
 40
0.2676320905605559
 40
0.517792945257718
 40
0.7570315487829548
 40
1.0
 40
1.0
 40
1.0
 40
1.0
 10
61.38393180379323
 20
29.89363743716468
 30
0.0
 10
61.39681431522251
 20
29.90743689261119
 30
0.0
 10
61.4217383574826
 20
29.93413496407054
 30
0.0
 10
61.44740812192727
 20
29.98115178709629
 30
0.0
 10
61.4648051135309
 20
30.0301327646954
 30
0.0
 10
61.46648370137297
 20
30.06414471119742
 30
0.0
 10
61.46732948719091
 20
30.08128222480947
 30
0.0
  0
LINE
  5
8C
330
1F
100
AcDbEntity
  8
0
  6
Continuous
 62
     7
370
    25
100
AcDbLine
 10
61.1024646223
 20
30.6303169738
 30
0.0
 11
61.1858623057
 21
30.6303169738
 31
0.0
  0
SPLINE
  5
8D
330
1F
100
AcDbEntity
  8
0
  6
Continuous
 62
     7
370
    25
100
AcDbSpline
210
0.0
220
0.0
230
1.0
 70
     8
 71
     3
 72
    15
 73
    11
 74
     0
 42
0.00000001
 43
0.00000001
 40
0.0
 40
0.0
 40
0.0
 40
0.0
 40
0.1339120169181258
 40
0.2615284644313492
 40
0.386188722652978
 40
0.5091929985924211
 40
0.6296768122270385
 40
0.7512559744353483
 40
0.8742965747069021
 40
1.0
 40
1.0
 40
1.0
 40
1.0
 10
60.7584491783106
 20
30.47742122094846
 30
0.0
 10
60.77071375769432
 20
30.48962956462983
 30
0.0
 10
60.7946663251109
 20
30.51347230443556
 30
0.0
 10
60.8337421279468
 20
30.54463771834724
 30
0.0
 10
60.87444480016381
 20
30.57108789389873
 30
0.0
 10
60.91687968332988
 20
30.59273355421896
 30
0.0
 10
60.96102937833093
 20
30.60956435204325
 30
0.0
 10
61.00673576501937
 20
30.62141365025488
 30
0.0
 10
61.05406949369814
 20
30.6291316398813
 30
0.0
 10
61.08621819463081
 20
30.62991905275032
 30
0.0
 10
61.10246462232605
 20
30.63031697384422
 30
0.0
  0
SPLINE
  5
8E
330
1F
100
AcDbEntity
  8
0
  6
Continuous
 62
     7
370
    25
100
AcDbSpline
210
0.0
220
0.0
230
1.0
 70
     8
 71
     3
 72
    15
 73
    11
 74
     0
 42
0.00000001
 43
0.00000001
 40
0.0
 40
0.0
 40
0.0
 40
0.0
 40
0.1330514903197372
 40
0.2614008608137413
 40
0.3859789426424563
 40
0.5084656149022189
 40
0.6295593452611178
 40
0.7509246542250774
 40
0.8741074588764667
 40
1.0
 40
1.0
 40
1.0
 40
1.0
 10
60.61250323236465
 20
30.1125563560836
 30
0.0
 10
60.61291756735083
 20
30.13047227226214
 30
0.0
 10
60.61373159447515
 20
30.1656709453479
 30
0.0
 10
60.62105245855393
 20
30.21718977125058
 30
0.0
 10
60.63189444193879
 20
30.26662127024339
 30
0.0
 10
60.6484563910282
 20
30.31341978867937
 30
0.0
 10
60.66880636485323
 20
30.35822024545151
 30
0.0
 10
60.69436348550089
 20
30.40034442268886
 30
0.0
 10
60.72336908090466
 20
30.44105341222827
 30
0.0
 10
60.74667130943275
 20
30.4652110130484
 30
0.0
 10
60.7584491783106
 20
30.47742122094846
 30
0.0
  0
SPLINE
  5
8F
330
1F
100
AcDbEntity
  8
0
  6
Continuous
 62
     7
370
    25
100
AcDbSpline
210
0.0
220
0.0
230
1.0
 70
     8
 71
     3
 72
    15
 73
    11
 74
     0
 42
0.00000001
 43
0.00000001
 40
0.0
 40
0.0
 40
0.0
 40
0.0
 40
0.1158830802717859
 40
0.2315534497979607
 40
0.3480625771524267
 40
0.4678553783950302
 40
0.5925908197539045
 40
0.7213115030172615
 40
0.8571441704632061
 40
1.0
 40
1.0
 40
1.0
 40
1.0
 10
60.7584491783106
 20
29.70599264951989
 30
0.0
 10
60.74663037345679
 20
29.71843459339178
 30
0.0
 10
60.72301445791528
 20
29.74329564315824
 30
0.0
 10
60.69407854068648
 20
29.7860559481683
 30
0.0
 10
60.66844775620795
 20
29.83142591969621
 30
0.0
 10
60.64818543323229
 20
29.88093482441484
 30
0.0
 10
60.63181669634748
 20
29.9337272925204
 30
0.0
 10
60.62092807699003
 20
29.99032410404875
 30
0.0
 10
60.61371298543116
 20
30.05020718987618
 30
0.0
 10
60.61291320177232
 20
30.09142704346059
 30
0.0
 10
60.61250323236465
 20
30.1125563560836
 30
0.0
  0
SPLINE
  5
90
330
1F
100
AcDbEntity
  8
0
  6
Continuous
 62
     7
370
    25
100
AcDbSpline
210
0.0
220
0.0
230
1.0
 70
     8
 71
     3
 72
    15
 73
    11
 74
     0
 42
0.00000001
 43
0.00000001
 40
0.0
 40
0.0
 40
0.0
 40
0.0
 40
0.1354658418109472
 40
0.2653728839126844
 40
0.3915266279918205
 40
0.5146179992444264
 40
0.6353652389705211
 40
0.755435876357243
 40
0.8764282152102201
 40
1.0
 40
1.0
 40
1.0
 40
1.0
 10
61.13373875360018
 20
29.56004670357395
 30
0.0
 10
61.11505109148917
 20
29.56045583036111
 30
0.0
 10
61.07844260981079
 20
29.56125729554189
 30
0.0
 10
61.02487514091642
 20
29.56860677334748
 30
0.0
 10
60.97363766566281
 20
29.57938218606116
 30
0.0
 10
60.92527942383749
 20
29.59592827398695
 30
0.0
 10
60.8793063004323
 20
29.61626169947228
 30
0.0
 10
60.83637049739135
 20
29.6417968723386
 30
0.0
 10
60.7952193154991
 20
29.67091072631745
 30
0.0
 10
60.77079177074798
 20
29.69421673805708
 30
0.0
 10
60.7584491783106
 20
29.70599264951989
 30
0.0
  0
SPLINE
  5
91
330
1F
100
AcDbEntity
  8
0
  6
Continuous
 62
     7
370
    25
100
AcDbSpline
210
0.0
220
0.0
230
1.0
 70
     8
 71
     3
 72
    15
 73
    11
 74
     0
 42
0.00000001
 43
0.00000001
 40
0.0
 40
0.0
 40
0.0
 40
0.0
 40
0.1195027114365299
 40
0.2380939422658886
 40
0.3566476293726331
 40
0.4775806195769138
 40
0.6003630199241491
 40
0.7278327340041403
 40
0.8606471500295814
 40
0.9999999999999999
 40
0.9999999999999999
 40
0.9999999999999999
 40
0.9999999999999999
 10
61.46732948719091
 20
29.68514322867047
 30
0.0
 10
61.45672926801826
 20
29.6751176903488
 30
0.0
 10
61.43560968050966
 20
29.65514308129056
 30
0.0
 10
61.40021745842096
 20
29.62958095658674
 30
0.0
 10
61.36195529726447
 20
29.60837656780513
 30
0.0
 10
61.32148323865007
 20
29.59040538320947
 30
0.0
 10
61.27812037571682
 20
29.57708704780725
 30
0.0
 10
61.23246931691431
 20
29.56685306681386
 30
0.0
 10
61.18394914641548
 20
29.56112402725726
 30
0.0
 10
61.15074147367503
 20
29.56041151715118
 30
0.0
 10
61.13373875360018
 20
29.56004670357395
 30
0.0
  0
SPLINE
  5
92
330
1F
100
AcDbEntity
  8
0
  6
Continuous
 62
     7
370
    25
100
AcDbSpline
210
0.0
220
0.0
230
1.0
 70
     8
 71
     3
 72
    11
 73
     7
 74
     0
 42
0.00000001
 43
0.00000001
 40
0.0
 40
0.0
 40
0.0
 40
0.0
 40
0.2570374775372502
 40
0.507341915909805
 40
0.7523129875772122
 40
0.9999999999999999
 40
0.9999999999999999
 40
0.9999999999999999
 40
0.9999999999999999
 10
61.57157659143801
 20
29.86236330589055
 30
0.0
 10
61.56596478357146
 20
29.84545433015214
 30
0.0
 10
61.55488816788874
 20
29.81207930550829
 30
0.0
 10
61.53088776690343
 20
29.76567331883184
 30
0.0
 10
61.50225291246262
 20
29.72274475595978
 30
0.0
 10
61.47901333423719
 20
29.69772305124333
 30
0.0
 10
61.46732948719091
 20
29.68514322867047
 30
0.0
  0
SPLINE
  5
93
330
1F
100
AcDbEntity
  8
0
  6
Continuous
 62
     7
370
    25
100
AcDbSpline
210
0.0
220
0.0
230
1.0
 70
     8
 71
     3
 72
    11
 73
     7
 74
     0
 42
0.00000001
 43
0.00000001
 40
0.0
 40
0.0
 40
0.0
 40
0.0
 40
0.2731656445547256
 40
0.5274113090719877
 40
0.767261983075737
 40
1.0
 40
1.0
 40
1.0
 40
1.0
 10
61.65497427483569
 20
29.70599264951989
 30
0.0
 10
61.64374768764878
 20
29.71801841744229
 30
0.0
 10
61.62207208838259
 20
29.74123702537847
 30
0.0
 10
61.59730337070292
 20
29.78037450051887
 30
0.0
 10
61.57935514681902
 20
29.82055847383699
 30
0.0
 10
61.57414329639014
 20
29.84856888466464
 30
0.0
 10
61.57157659143801
 20
29.86236330589055
 30
0.0
  0
SPLINE
  5
94
330
1F
100
AcDbEntity
  8
0
  6
Continuous
 62
     7
370
    25
100
AcDbSpline
210
0.0
220
0.0
230
1.0
 70
     8
 71
     3
 72
    15
 73
    11
 74
     0
 42
0.00000001
 43
0.00000001
 40
0.0
 40
0.0
 40
0.0
 40
0.0
 40
0.1495888260512937
 40
0.289623965081963
 40
0.4219290861937196
 40
0.5465682968532931
 40
0.6661289243466415
 40
0.7799971355270203
 40
0.8908038749321935
 40
1.0
 40
1.0
 40
1.0
 40
1.0
 10
61.967715587577
 20
29.60174554527279
 30
0.0
 10
61.95083942257591
 20
29.60197682086235
 30
0.0
 10
61.9181649110364
 20
29.60242460132192
 30
0.0
 10
61.87083360257147
 20
29.60772196148507
 30
0.0
 10
61.82666347399079
 20
29.61540887682066
 30
0.0
 10
61.78591116283958
 20
29.62745243656146
 30
0.0
 10
61.74780026393289
 20
29.64107597215677
 30
0.0
 10
61.71365731985337
 20
29.65975812569079
 30
0.0
 10
61.68232348016345
 20
29.68081978654502
 30
0.0
 10
61.6640460743866
 20
29.69764274815005
 30
0.0
 10
61.65497427483569
 20
29.70599264951989
 30
0.0
  0
SPLINE
  5
95
330
1F
100
AcDbEntity
  8
0
  6
Continuous
 62
     7
370
    25
100
AcDbSpline
210
0.0
220
0.0
230
1.0
 70
     8
 71
     3
 72
    15
 73
    11
 74
     0
 42
0.00000001
 43
0.00000001
 40
0.0
 40
0.0
 40
0.0
 40
0.0
 40
0.1195027114365317
 40
0.2380939422658884
 40
0.3566476293726337
 40
0.4775806195769131
 40
0.6003630199241493
 40
0.7278327340041405
 40
0.8606471500295813
 40
1.0
 40
1.0
 40
1.0
 40
1.0
 10
62.30130632116774
 20
29.72684207036932
 30
0.0
 10
62.29070610199509
 20
29.71681653204764
 30
0.0
 10
62.2695865144865
 20
29.69684192298941
 30
0.0
 10
62.2341942923978
 20
29.67127979828558
 30
0.0
 10
62.19593213124131
 20
29.65007540950398
 30
0.0
 10
62.15546007262691
 20
29.63210422490831
 30
0.0
 10
62.11209720969366
 20
29.61878588950609
 30
0.0
 10
62.06644615089115
 20
29.6085519085127
 30
0.0
 10
62.01792598039231
 20
29.60282286895611
 30
0.0
 10
61.98471830765186
 20
29.60211035885003
 30
0.0
 10
61.967715587577
 20
29.60174554527279
 30
0.0
  0
SPLINE
  5
96
330
1F
100
AcDbEntity
  8
0
  6
Continuous
 62
     7
370
    25
100
AcDbSpline
210
0.0
220
0.0
230
1.0
 70
     8
 71
     3
 72
    15
 73
    11
 74
     0
 42
0.00000001
 43
0.00000001
 40
0.0
 40
0.0
 40
0.0
 40
0.0
 40
0.1401156952848877
 40
0.2734369515897453
 40
0.4007170918852061
 40
0.5244111544238715
 40
0.6451326608364121
 40
0.7627629456192487
 40
0.88098244332115
 40
1.0
 40
1.0
 40
1.0
 40
1.0
 10
62.43682755668898
 20
30.09170693523418
 30
0.0
 10
62.43655512526362
 20
30.0730208313183
 30
0.0
 10
62.43602347305781
 20
30.03655474319407
 30
0.0
 10
62.42903139853157
 20
29.98352596583524
 30
0.0
 10
62.41898673008481
 20
29.93323439327617
 30
0.0
 10
62.40360313933619
 20
29.88605767635815
 30
0.0
 10
62.38497882415401
 20
29.84146510634288
 30
0.0
 10
62.3614575648457
 20
29.80005165807584
 30
0.0
 10
62.33362920188818
 20
29.76166178710744
 30
0.0
 10
62.31210475063011
 20
29.73847464292212
 30
0.0
 10
62.30130632116774
 20
29.72684207036932
 30
0.0
  0
SPLINE
  5
97
330
1F
100
AcDbEntity
  8
0
  6
Continuous
 62
     7
370
    25
100
AcDbSpline
210
0.0
220
0.0
230
1.0
 70
     8
 71
     3
 72
    15
 73
    11
 74
     0
 42
0.00000001
 43
0.00000001
 40
0.0
 40
0.0
 40
0.0
 40
0.0
 40
0.1270527522076896
 40
0.2522753243044987
 40
0.3739697899787146
 40
0.4948832629277709
 40
0.6176556772794566
 40
0.741939912446617
 40
0.8684128160693887
 40
1.0
 40
1.0
 40
1.0
 40
1.0
 10
62.30130632116774
 20
30.42529766882491
 30
0.0
 10
62.31209513379245
 20
30.413918415918
 30
0.0
 10
62.33351734745148
 20
30.39132382691815
 30
0.0
 10
62.36114598735205
 20
30.35425732237509
 30
0.0
 10
62.38460915226059
 20
30.31533982076464
 30
0.0
 10
62.40356349073045
 20
30.27438169430973
 30
0.0
 10
62.4188720180618
 20
30.23155296655533
 30
0.0
 10
62.42889872826496
 20
30.18652419411691
 30
0.0
 10
62.43601744910643
 20
30.13980959081271
 30
0.0
 10
62.43655397649666
 20
30.10795160945724
 30
0.0
 10
62.43682755668898
 20
30.09170693523418
 30
0.0
  0
SPLINE
  5
98
330
1F
100
AcDbEntity
  8
0
  6
Continuous
 62
     7
370
    25
100
AcDbSpline
210
0.0
220
0.0
230
1.0
 70
     8
 71
     3
 72
    15
 73
    11
 74
     0
 42
0.00000001
 43
0.00000001
 40
0.0
 40
0.0
 40
0.0
 40
0.0
 40
0.1342207616992962
 40
0.2632543584014017
 40
0.3882486178889516
 40
0.5110181775835609
 40
0.6322369822528033
 40
0.7532951172272379
 40
0.8750618099117068
 40
1.0
 40
1.0
 40
1.0
 40
1.0
 10
61.90516732502874
 20
30.58166832519557
 30
0.0
 10
61.92475264794125
 20
30.58126762602835
 30
0.0
 10
61.96316638924432
 20
30.58048171332125
 30
0.0
 10
62.01942931197676
 20
30.57299957528459
 30
0.0
 10
62.07302367688007
 20
30.56053011422031
 30
0.0
 10
62.12422433699015
 20
30.54366216709773
 30
0.0
 10
62.1727911859412
 20
30.52154299072977
 30
0.0
 10
62.21844087554458
 20
30.49426974195448
 30
0.0
 10
62.26185514165078
 20
30.46254137187528
 30
0.0
 10
62.28804370624059
 20
30.43781817893554
 30
0.0
 10
62.30130632116774
 20
30.42529766882491
 30
0.0
  0
LINE
  5
99
330
1F
100
AcDbEntity
  8
0
  6
Continuous
 62
     7
370
    25
100
AcDbLine
 10
61.3005341204
 20
31.999428943
 30
0.0
 11
62.4368275567
 21
31.3009733445
 31
0.0
  0
LINE
  5
9A
330
1F
100
AcDbEntity
  8
0
  6
Continuous
 62
     7
370
    25
100
AcDbLine
 10
61.0928121127
 20
31.999428943
 30
0.0
 11
61.3005341204
 21
31.999428943
 31
0.0
  0
LINE
  5
9B
330
1F
100
AcDbEntity
  8
0
  6
Continuous
 62
     7
370
    25
100
AcDbLine
 10
61.0928121127
 20
31.3079231515
 30
0.0
 11
61.0928121127
 21
31.999428943
 31
0.0
  0
LINE
  5
9C
330
1F
100
AcDbEntity
  8
0
  6
Continuous
 62
     7
370
    25
100
AcDbLine
 10
60.6333526532
 20
31.3079231515
 30
0.0
 11
61.0928121127
 21
31.3079231515
 31
0.0
  0
LINE
  5
9D
330
1F
100
AcDbEntity
  8
0
  6
Continuous
 62
     7
370
    25
100
AcDbLine
 10
60.6333526532
 20
31.0612050047
 30
0.0
 11
60.6333526532
 21
31.3079231515
 31
0.0
  0
LINE
  5
9E
330
1F
100
AcDbEntity
  8
0
  6
Continuous
 62
     7
370
    25
100
AcDbLine
 10
61.0928121127
 20
31.0612050047
 30
0.0
 11
60.6333526532
 21
31.0612050047
 31
0.0
  0
LINE
  5
9F
330
1F
100
AcDbEntity
  8
0
  6
Continuous
 62
     7
370
    25
100
AcDbLine
 10
61.0928121127
 20
30.8422860858
 30
0.0
 11
61.0928121127
 21
31.0612050047
 31
0.0
  0
LINE
  5
A0
330
1F
100
AcDbEntity
  8
0
  6
Continuous
 62
     7
370
    25
100
AcDbLine
 10
61.29010941
 20
30.8422860858
 30
0.0
 11
61.0928121127
 21
30.8422860858
 31
0.0
  0
LINE
  5
A1
330
1F
100
AcDbEntity
  8
0
  6
Continuous
 62
     7
370
    25
100
AcDbLine
 10
61.29010941
 20
31.0612050047
 30
0.0
 11
61.29010941
 21
30.8422860858
 31
0.0
  0
LINE
  5
A2
330
1F
100
AcDbEntity
  8
0
  6
Continuous
 62
     7
370
    25
100
AcDbLine
 10
62.4368275567
 20
31.0612050047
 30
0.0
 11
61.29010941
 21
31.0612050047
 31
0.0
  0
LINE
  5
A3
330
1F
100
AcDbEntity
  8
0
  6
Continuous
 62
     7
370
    25
100
AcDbLine
 10
62.4368275567
 20
31.3009733445
 30
0.0
 11
62.4368275567
 21
31.0612050047
 31
0.0
  0
LINE
  5
A4
330
1F
100
AcDbEntity
  8
0
  6
Continuous
 62
     7
370
    25
100
AcDbLine
 10
61.3005341204
 20
33.3337918773
 30
0.0
 11
62.4368275567
 21
32.6353362789
 31
0.0
  0
LINE
  5
A5
330
1F
100
AcDbEntity
  8
0
  6
Continuous
 62
     7
370
    25
100
AcDbLine
 10
61.0928121127
 20
33.3337918773
 30
0.0
 11
61.3005341204
 21
33.3337918773
 31
0.0
  0
LINE
  5
A6
330
1F
100
AcDbEntity
  8
0
  6
Continuous
 62
     7
370
    25
100
AcDbLine
 10
61.0928121127
 20
32.6422860858
 30
0.0
 11
61.0928121127
 21
33.3337918773
 31
0.0
  0
LINE
  5
A7
330
1F
100
AcDbEntity
  8
0
  6
Continuous
 62
     7
370
    25
100
AcDbLine
 10
60.6333526532
 20
32.6422860858
 30
0.0
 11
61.0928121127
 21
32.6422860858
 31
0.0
  0
LINE
  5
A8
330
1F
100
AcDbEntity
  8
0
  6
Continuous
 62
     7
370
    25
100
AcDbLine
 10
60.6333526532
 20
32.3955679391
 30
0.0
 11
60.6333526532
 21
32.6422860858
 31
0.0
  0
LINE
  5
A9
330
1F
100
AcDbEntity
  8
0
  6
Continuous
 62
     7
370
    25
100
AcDbLine
 10
61.0928121127
 20
32.3955679391
 30
0.0
 11
60.6333526532
 21
32.3955679391
 31
0.0
  0
LINE
  5
AA
330
1F
100
AcDbEntity
  8
0
  6
Continuous
 62
     7
370
    25
100
AcDbLine
 10
61.0928121127
 20
32.1766490202
 30
0.0
 11
61.0928121127
 21
32.3955679391
 31
0.0
  0
LINE
  5
AB
330
1F
100
AcDbEntity
  8
0
  6
Continuous
 62
     7
370
    25
100
AcDbLine
 10
61.29010941
 20
32.1766490202
 30
0.0
 11
61.0928121127
 21
32.1766490202
 31
0.0
  0
LINE
  5
AC
330
1F
100
AcDbEntity
  8
0
  6
Continuous
 62
     7
370
    25
100
AcDbLine
 10
61.29010941
 20
32.3955679391
 30
0.0
 11
61.29010941
 21
32.1766490202
 31
0.0
  0
LINE
  5
AD
330
1F
100
AcDbEntity
  8
0
  6
Continuous
 62
     7
370
    25
100
AcDbLine
 10
62.4368275567
 20
32.3955679391
 30
0.0
 11
61.29010941
 21
32.3955679391
 31
0.0
  0
LINE
  5
AE
330
1F
100
AcDbEntity
  8
0
  6
Continuous
 62
     7
370
    25
100
AcDbLine
 10
62.4368275567
 20
32.6353362789
 30
0.0
 11
62.4368275567
 21
32.3955679391
 31
0.0
  0
SPLINE
  5
AF
330
1F
100
AcDbEntity
  8
0
  6
Continuous
 62
     7
370
    25
100
AcDbSpline
210
0.0
220
0.0
230
1.0
 70
     8
 71
     3
 72
    15
 73
    11
 74
     0
 42
0.00000001
 43
0.00000001
 40
0.0
 40
0.0
 40
0.0
 40
0.0
 40
0.1418032572055077
 40
0.2768956124422273
 40
0.4056005815718944
 40
0.5283792299702864
 40
0.6485398625937332
 40
0.7671999810702805
 40
0.8821728056706521
 40
1.0
 40
1.0
 40
1.0
 40
1.0
 10
62.1553603752218
 20
34.38668763021487
 30
0.0
 10
62.15548064727704
 20
34.3748271469448
 30
0.0
 10
62.15571549945921
 20
34.3516674830298
 30
0.0
 10
62.16051366331602
 20
34.31807919365193
 30
0.0
 10
62.16607333621203
 20
34.28620836985885
 30
0.0
 10
62.17584635016168
 20
34.25667245797818
 30
0.0
 10
62.18707199367163
 20
34.22856074740202
 30
0.0
 10
62.20200085089855
 20
34.20297811136127
 30
0.0
 10
62.21862848360479
 20
34.17868601330038
 30
0.0
 10
62.2319935769782
 20
34.16451591836873
 30
0.0
 10
62.23875805861947
 20
34.15734400087125
 30
0.0
  0
LINE
  5
B0
330
1F
100
AcDbEntity
  8
0
  6
Continuous
 62
     7
370
    25
100
AcDbLine
 10
62.1553603752
 20
34.480510024
 30
0.0
 11
62.1553603752
 21
34.3866876302
 31
0.0
  0
LINE
  5
B1
330
1F
100
AcDbEntity
  8
0
  6
Continuous
 62
     7
370
    25
100
AcDbLine
 10
62.0321943521
 20
34.480510024
 30
0.0
 11
62.1553603752
 21
34.480510024
 31
0.0
  0
LINE
  5
B2
330
1F
100
AcDbEntity
  8
0
  6
Continuous
 62
     7
370
    25
100
AcDbLine
 10
62.0321943521
 20
34.1747185182
 30
0.0
 11
62.0321943521
 21
34.480510024
 31
0.0
  0
LINE
  5
B3
330
1F
100
AcDbEntity
  8
0
  6
Continuous
 62
     7
370
    25
100
AcDbLine
 10
60.6437773636
 20
34.1747185182
 30
0.0
 11
62.0321943521
 21
34.1747185182
 31
0.0
  0
LINE
  5
B4
330
1F
100
AcDbEntity
  8
0
  6
Continuous
 62
     7
370
    25
100
AcDbLine
 10
60.6437773636
 20
33.9280003715
 30
0.0
 11
60.6437773636
 21
34.1747185182
 31
0.0
  0
LINE
  5
B5
330
1F
100
AcDbEntity
  8
0
  6
Continuous
 62
     7
370
    25
100
AcDbLine
 10
62.4472522671
 20
33.9280003715
 30
0.0
 11
60.6437773636
 21
33.9280003715
 31
0.0
  0
LINE
  5
B6
330
1F
100
AcDbEntity
  8
0
  6
Continuous
 62
     7
370
    25
100
AcDbLine
 10
62.4472522671
 20
34.0530968966
 30
0.0
 11
62.4472522671
 21
33.9280003715
 31
0.0
  0
SPLINE
  5
B7
330
1F
100
AcDbEntity
  8
0
  6
Continuous
 62
     7
370
    25
100
AcDbSpline
210
0.0
220
0.0
230
1.0
 70
     8
 71
     3
 72
    11
 73
     7
 74
     0
 42
0.00000001
 43
0.00000001
 40
0.0
 40
0.0
 40
0.0
 40
0.0
 40
0.2682823389612929
 40
0.5197997967341372
 40
0.7604656312619605
 40
1.0
 40
1.0
 40
1.0
 40
1.0
 10
62.23875805861947
 20
34.15734400087125
 30
0.0
 10
62.25438926562474
 20
34.14285731222972
 30
0.0
 10
62.28467489029723
 20
34.1147892036827
 30
0.0
 10
62.3365008392159
 20
34.08339830604815
 30
0.0
 10
62.39061153987979
 20
34.06128177295081
 30
0.0
 10
62.42840170557257
 20
34.05582089969467
 30
0.0
 10
62.44725226711369
 20
34.05309689662414
 30
0.0
  0
LINE
  5
B8
330
1F
100
AcDbEntity
  8
0
  6
Continuous
 62
     7
370
    25
100
AcDbLine
 10
61.4615379814
 20
36.0233671669
 30
0.0
 11
61.634124854
 21
36.0233671669
 31
0.0
  0
LINE
  5
B9
330
1F
100
AcDbEntity
  8
0
  6
Continuous
 62
     7
370
    25
100
AcDbLine
 10
61.4615379814
 20
34.8349501785
 30
0.0
 11
61.4615379814
 21
36.0233671669
 31
0.0
  0
LINE
  5
BA
330
1F
100
AcDbEntity
  8
0
  6
Continuous
 62
     7
370
    25
100
AcDbLine
 10
61.634124854
 20
34.8349501785
 30
0.0
 11
61.4615379814
 21
34.8349501785
 31
0.0
  0
LINE
  5
BB
330
1F
100
AcDbEntity
  8
0
  6
Continuous
 62
     7
370
    25
100
AcDbLine
 10
61.634124854
 20
36.0233671669
 30
0.0
 11
61.634124854
 21
34.8349501785
 31
0.0
  0
LINE
  5
BC
330
1F
100
AcDbEntity
  8
0
  6
Continuous
 62
     7
370
    25
100
AcDbLine
 10
60.634124854
 20
37.6310891746
 30
0.0
 11
62.4159781358
 21
37.6310891746
 31
0.0
  0
LINE
  5
BD
330
1F
100
AcDbEntity
  8
0
  6
Continuous
 62
     7
370
    25
100
AcDbLine
 10
60.634124854
 20
36.8005872441
 30
0.0
 11
60.634124854
 21
37.6310891746
 31
0.0
  0
SPLINE
  5
BE
330
1F
100
AcDbEntity
  8
0
  6
Continuous
 62
     7
370
    25
100
AcDbSpline
210
0.0
220
0.0
230
1.0
 70
     8
 71
     3
 72
    15
 73
    11
 74
     0
 42
0.00000001
 43
0.00000001
 40
0.0
 40
0.0
 40
0.0
 40
0.0
 40
0.1086277469152494
 40
0.2195300404679359
 40
0.3340583594962494
 40
0.4525037346025801
 40
0.5781660321028789
 40
0.709801797526806
 40
0.8504665399585413
 40
1.0
 40
1.0
 40
1.0
 40
1.0
 10
60.7584491783106
 20
36.42529766882492
 30
0.0
 10
60.74853476588201
 20
36.43614911868466
 30
0.0
 10
60.72849834403332
 20
36.45807923593826
 30
0.0
 10
60.70289207240252
 20
36.49549169851367
 30
0.0
 10
60.68182136713848
 20
36.53704372358889
 30
0.0
 10
60.66438242127914
 20
36.58235567418177
 30
0.0
 10
60.65046345586875
 20
36.63129665746652
 30
0.0
 10
60.64100381366933
 20
36.68432789479566
 30
0.0
 10
60.63514254163751
 20
36.74112349838804
 30
0.0
 10
60.63447092493978
 20
36.78036623115705
 30
0.0
 10
60.63412485398627
 20
36.80058724411449
 30
0.0
  0
SPLINE
  5
BF
330
1F
100
AcDbEntity
  8
0
  6
Continuous
 62
     7
370
    25
100
AcDbSpline
210
0.0
220
0.0
230
1.0
 70
     8
 71
     3
 72
    15
 73
    11
 74
     0
 42
0.00000001
 43
0.00000001
 40
0.0
 40
0.0
 40
0.0
 40
0.0
 40
0.1319114978615547
 40
0.2585593955794499
 40
0.3829282045992127
 40
0.5051155152535457
 40
0.6266776175559877
 40
0.7489849223246641
 40
0.8728415720964475
 40
1.0
 40
1.0
 40
1.0
 40
1.0
 10
61.14416346402489
 20
36.26892701245426
 30
0.0
 10
61.12534825435978
 20
36.26932190823255
 30
0.0
 10
61.08846860916147
 20
36.27009594245556
 30
0.0
 10
61.03427620081575
 20
36.27768289021604
 30
0.0
 10
60.98245982484823
 20
36.29005025420369
 30
0.0
 10
60.93270188424388
 20
36.30701489921879
 30
0.0
 10
60.88530941554342
 20
36.32914042447216
 30
0.0
 10
60.84047057484062
 20
36.35643707390761
 30
0.0
 10
60.79749984468784
 20
36.38805529230658
 30
0.0
 10
60.7715797156747
 20
36.41277515738611
 30
0.0
 10
60.7584491783106
 20
36.42529766882492
 30
0.0
  0
SPLINE
  5
C0
330
1F
100
AcDbEntity
  8
0
  6
Continuous
 62
     7
370
    25
100
AcDbSpline
210
0.0
220
0.0
230
1.0
 70
     8
 71
     3
 72
    15
 73
    11
 74
     0
 42
0.00000001
 43
0.00000001
 40
0.0
 40
0.0
 40
0.0
 40
0.0
 40
0.1263812889588911
 40
0.2491049464973166
 40
0.3706105362999224
 40
0.4913917559424307
 40
0.6138158455532667
 40
0.7388355742356976
 40
0.867118175426879
 40
1.0
 40
1.0
 40
1.0
 40
1.0
 10
61.4569047767662
 20
36.39402353755078
 30
0.0
 10
61.44626747321628
 20
36.38404654043622
 30
0.0
 10
61.42530072288872
 20
36.36438129289127
 30
0.0
 10
61.39109838610784
 20
36.33851895844533
 30
0.0
 10
61.35450981296956
 20
36.31756551312034
 30
0.0
 10
61.31654395544993
 20
36.29924981409794
 30
0.0
 10
61.27605914142255
 20
36.28609122903726
 30
0.0
 10
61.23391385728534
 20
36.27578878632428
 30
0.0
 10
61.1896254450826
 20
36.27002349851864
 30
0.0
 10
61.15949433187728
 20
36.2692967737925
 30
0.0
 10
61.14416346402489
 20
36.26892701245426
 30
0.0
  0
SPLINE
  5
C1
330
1F
100
AcDbEntity
  8
0
  6
Continuous
 62
     7
370
    25
100
AcDbSpline
210
0.0
220
0.0
230
1.0
 70
     8
 71
     3
 72
    11
 73
     7
 74
     0
 42
0.00000001
 43
0.00000001
 40
0.0
 40
0.0
 40
0.0
 40
0.0
 40
0.2758864184465412
 40
0.5310076877713114
 40
0.7722766677115269
 40
1.0
 40
1.0
 40
1.0
 40
1.0
 10
61.57157659143801
 20
36.59209303562028
 30
0.0
 10
61.56441800316322
 20
36.57209044846194
 30
0.0
 10
61.55063963223468
 20
36.5335908093126
 30
0.0
 10
61.52357434385677
 20
36.48055260299671
 30
0.0
 10
61.49304374624565
 20
36.43370854798198
 30
0.0
 10
61.46871689354597
 20
36.40699468709855
 30
0.0
 10
61.4569047767662
 20
36.39402353755078
 30
0.0
  0
SPLINE
  5
C2
330
1F
100
AcDbEntity
  8
0
  6
Continuous
 62
     7
370
    25
100
AcDbSpline
210
0.0
220
0.0
230
1.0
 70
     8
 71
     3
 72
    11
 73
     7
 74
     0
 42
0.00000001
 43
0.00000001
 40
0.0
 40
0.0
 40
0.0
 40
0.0
 40
0.2409277974217344
 40
0.4854864172424159
 40
0.738041046499392
 40
1.0
 40
1.0
 40
1.0
 40
1.0
 10
61.6653989852604
 20
36.43572237924962
 30
0.0
 10
61.65533255807842
 20
36.44655450233314
 30
0.0
 10
61.63504800096499
 20
36.46838199041553
 30
0.0
 10
61.60949301430173
 20
36.50593633196441
 30
0.0
 10
61.58827514048777
 20
36.54748313341946
 30
0.0
 10
61.57721018983305
 20
36.57704296913293
 30
0.0
 10
61.57157659143801
 20
36.59209303562028
 30
0.0
  0
SPLINE
  5
C3
330
1F
100
AcDbEntity
  8
0
  6
Continuous
 62
     7
370
    25
100
AcDbSpline
210
0.0
220
0.0
230
1.0
 70
     8
 71
     3
 72
    15
 73
    11
 74
     0
 42
0.00000001
 43
0.00000001
 40
0.0
 40
0.0
 40
0.0
 40
0.0
 40
0.1312072932871418
 40
0.2585055422472042
 40
0.3817646425439865
 40
0.5033692670500665
 40
0.6250492974901225
 40
0.7476118725723031
 40
0.8722462138971594
 40
0.9999999999999999
 40
0.9999999999999999
 40
0.9999999999999999
 40
0.9999999999999999
 10
61.94686616672759
 20
36.32105056457781
 30
0.0
 10
61.93320626613175
 20
36.32143991794555
 30
0.0
 10
61.90629343284249
 20
36.32220702471936
 30
0.0
 10
61.86685235510399
 20
36.32771065244464
 30
0.0
 10
61.82910668180032
 20
36.33662965781426
 30
0.0
 10
61.79291543740646
 20
36.3489436607084
 30
0.0
 10
61.75845014045892
 20
36.36533229981395
 30
0.0
 10
61.72553708828688
 20
36.38517571690851
 30
0.0
 10
61.69390111542116
 20
36.40821540069039
 30
0.0
 10
61.67497765814658
 20
36.42647814563551
 30
0.0
 10
61.6653989852604
 20
36.43572237924962
 30
0.0
  0
SPLINE
  5
C4
330
1F
100
AcDbEntity
  8
0
  6
Continuous
 62
     7
370
    25
100
AcDbSpline
210
0.0
220
0.0
230
1.0
 70
     8
 71
     3
 72
    15
 73
    11
 74
     0
 42
0.00000001
 43
0.00000001
 40
0.0
 40
0.0
 40
0.0
 40
0.0
 40
0.1195027114365312
 40
0.2380939422658884
 40
0.3566476293726336
 40
0.4775806195769144
 40
0.6003630199241496
 40
0.727832734004141
 40
0.8606471500295818
 40
1.0
 40
1.0
 40
1.0
 40
1.0
 10
62.28045690031832
 20
36.44614708967433
 30
0.0
 10
62.26985668114568
 20
36.43612155135266
 30
0.0
 10
62.24873709363708
 20
36.41614694229442
 30
0.0
 10
62.21334487154838
 20
36.3905848175906
 30
0.0
 10
62.17508271039188
 20
36.369380428809
 30
0.0
 10
62.13461065177749
 20
36.35140924421333
 30
0.0
 10
62.09124778884424
 20
36.3380909088111
 30
0.0
 10
62.04559673004173
 20
36.32785692781772
 30
0.0
 10
61.99707655954288
 20
36.32212788826113
 30
0.0
 10
61.96386888680244
 20
36.32141537815505
 30
0.0
 10
61.94686616672759
 20
36.32105056457781
 30
0.0
  0
SPLINE
  5
C5
330
1F
100
AcDbEntity
  8
0
  6
Continuous
 62
     7
370
    25
100
AcDbSpline
210
0.0
220
0.0
230
1.0
 70
     8
 71
     3
 72
    15
 73
    11
 74
     0
 42
0.00000001
 43
0.00000001
 40
0.0
 40
0.0
 40
0.0
 40
0.0
 40
0.1342477572737641
 40
0.263461772575684
 40
0.3884666271730292
 40
0.5118790511869581
 40
0.6324080741525892
 40
0.7535525248235484
 40
0.8755084805282738
 40
1.0
 40
1.0
 40
1.0
 40
1.0
 10
62.41597813583956
 20
36.79016253368977
 30
0.0
 10
62.41569898191621
 20
36.77314803037185
 30
0.0
 10
62.41515114120019
 20
36.73975699803978
 30
0.0
 10
62.40813620012078
 20
36.69096732175242
 30
0.0
 10
62.39800349432043
 20
36.64417079232299
 30
0.0
 10
62.38281596018864
 20
36.5998765592476
 30
0.0
 10
62.36371775615087
 20
36.55771027603485
 30
0.0
 10
62.3406574316836
 20
36.51773779022145
 30
0.0
 10
62.31252008560716
 20
36.48050126311841
 30
0.0
 10
62.2912176850115
 20
36.45767675712357
 30
0.0
 10
62.28045690031832
 20
36.44614708967433
 30
0.0
  0
LINE
  5
C6
330
1F
100
AcDbEntity
  8
0
  6
Continuous
 62
     7
370
    25
100
AcDbLine
 10
62.4159781358
 20
37.6310891746
 30
0.0
 11
62.4159781358
 21
36.7901625337
 31
0.0
  0
LINE
  5
C7
330
1F
100
AcDbEntity
  8
0
  6
Continuous
 62
     7
370
    25
100
AcDbLine
 10
60.6333526532
 20
39.3256837692
 30
0.0
 11
62.4159781358
 21
39.3256837692
 31
0.0
  0
LINE
  5
C8
330
1F
100
AcDbEntity
  8
0
  6
Continuous
 62
     7
370
    25
100
AcDbLine
 10
60.6333526532
 20
39.0789656225
 30
0.0
 11
60.6333526532
 21
39.3256837692
 31
0.0
  0
LINE
  5
C9
330
1F
100
AcDbEntity
  8
0
  6
Continuous
 62
     7
370
    25
100
AcDbLine
 10
62.0406885605
 20
39.0789656225
 30
0.0
 11
60.6333526532
 21
39.0789656225
 31
0.0
  0
LINE
  5
CA
330
1F
100
AcDbEntity
  8
0
  6
Continuous
 62
     7
370
    25
100
AcDbLine
 10
60.6333526532
 20
38.2449887885
 30
0.0
 11
62.0406885605
 21
39.0789656225
 31
0.0
  0
LINE
  5
CB
330
1F
100
AcDbEntity
  8
0
  6
Continuous
 62
     7
370
    25
100
AcDbLine
 10
60.6333526532
 20
37.9843710279
 30
0.0
 11
60.6333526532
 21
38.2449887885
 31
0.0
  0
LINE
  5
CC
330
1F
100
AcDbEntity
  8
0
  6
Continuous
 62
     7
370
    25
100
AcDbLine
 10
62.4159781358
 20
37.9843710279
 30
0.0
 11
60.6333526532
 21
37.9843710279
 31
0.0
  0
LINE
  5
CD
330
1F
100
AcDbEntity
  8
0
  6
Continuous
 62
     7
370
    25
100
AcDbLine
 10
62.4159781358
 20
38.2310891746
 30
0.0
 11
62.4159781358
 21
37.9843710279
 31
0.0
  0
LINE
  5
CE
330
1F
100
AcDbEntity
  8
0
  6
Continuous
 62
     7
370
    25
100
AcDbLine
 10
61.0086422285
 20
38.2310891746
 30
0.0
 11
62.4159781358
 21
38.2310891746
 31
0.0
  0
LINE
  5
CF
330
1F
100
AcDbEntity
  8
0
  6
Continuous
 62
     7
370
    25
100
AcDbLine
 10
62.4159781358
 20
39.0581162016
 30
0.0
 11
61.0086422285
 21
38.2310891746
 31
0.0
  0
LINE
  5
D0
330
1F
100
AcDbEntity
  8
0
  6
Continuous
 62
     7
370
    25
100
AcDbLine
 10
62.4159781358
 20
39.3256837692
 30
0.0
 11
62.4159781358
 21
39.0581162016
 31
0.0
  0
SPLINE
  5
D1
330
1F
100
AcDbEntity
  8
0
  6
Continuous
 62
     7
370
    25
100
AcDbSpline
210
0.0
220
0.0
230
1.0
 70
     8
 71
     3
 72
    15
 73
    11
 74
     0
 42
0.00000001
 43
0.00000001
 40
0.0
 40
0.0
 40
0.0
 40
0.0
 40
0.1417962611116214
 40
0.2768819513476977
 40
0.405580570608783
 40
0.5298229690785617
 40
0.6485572024501449
 40
0.7672114666371238
 40
0.8821786188665561
 40
1.0
 40
1.0
 40
1.0
 40
1.0
 10
61.15458817444959
 20
29.810239753767
 30
0.0
 10
61.16644810627524
 20
29.81036166780299
 30
0.0
 10
61.18960669339871
 20
29.81059972623923
 30
0.0
 10
61.22320264533415
 20
29.81537507406738
 30
0.0
 10
61.25516745880316
 20
29.82103685623758
 30
0.0
 10
61.28479665880761
 20
29.83055173939293
 30
0.0
 10
61.31279603389645
 20
29.84206607777845
 30
0.0
 10
61.33830328406128
 20
29.85686614744472
 30
0.0
 10
61.36258837204047
 20
29.8735114371417
 30
0.0
 10
61.37675940933642
 20
29.88687415688835
 30
0.0
 10
61.38393180379323
 20
29.89363743716468
 30
0.0
  0
SPLINE
  5
D2
330
1F
100
AcDbEntity
  8
0
  6
Continuous
 62
     7
370
    25
100
AcDbSpline
210
0.0
220
0.0
230
1.0
 70
     8
 71
     3
 72
    15
 73
    11
 74
     0
 42
0.00000001
 43
0.00000001
 40
0.0
 40
0.0
 40
0.0
 40
0.0
 40
0.1062344532908164
 40
0.2134351374465918
 40
0.3266362515327411
 40
0.4454478074346334
 40
0.5709125865608566
 40
0.7047818913259148
 40
0.8472638984122981
 40
1.0
 40
1.0
 40
1.0
 40
1.0
 10
60.89397041383184
 20
29.89363743716468
 30
0.0
 10
60.90124363736192
 20
29.88683060636887
 30
0.0
 10
60.91585623634216
 20
29.87315503482429
 30
0.0
 10
60.94176573826621
 20
29.85673181559395
 30
0.0
 10
60.96978529221663
 20
29.8416961363457
 30
0.0
 10
61.00141199504427
 20
29.83055863440845
 30
0.0
 10
61.0355010015119
 20
29.8208924714742
 30
0.0
 10
61.07274132663262
 20
29.81535741102415
 30
0.0
 10
61.1126387852056
 20
29.81056562688522
 30
0.0
 10
61.1402849576691
 20
29.81035086465412
 30
0.0
 10
61.15458817444959
 20
29.810239753767
 30
0.0
  0
SPLINE
  5
D3
330
1F
100
AcDbEntity
  8
0
  6
Continuous
 62
     7
370
    25
100
AcDbSpline
210
0.0
220
0.0
230
1.0
 70
     8
 71
     3
 72
    15
 73
    11
 74
     0
 42
0.00000001
 43
0.00000001
 40
0.0
 40
0.0
 40
0.0
 40
0.0
 40
0.1380420997033158
 40
0.2691721599589608
 40
0.3953313456434693
 40
0.518601794143437
 40
0.639298551522411
 40
0.7600805617867292
 40
0.8784957553092649
 40
1.0
 40
1.0
 40
1.0
 40
1.0
 10
60.81057273043415
 20
30.1125563560836
 30
0.0
 10
60.81069198909209
 20
30.10146685589669
 30
0.0
 10
60.8109245348924
 20
30.07984312860921
 30
0.0
 10
60.81573644135769
 20
30.04844115949592
 30
0.0
 10
60.82140029800381
 20
30.01839064288682
 30
0.0
 10
60.83104140005614
 20
29.9902389480946
 30
0.0
 10
60.84237955929216
 20
29.96319510386958
 30
0.0
 10
60.85731477435014
 20
29.93842136104393
 30
0.0
 10
60.87384475894572
 20
29.9145776055626
 30
0.0
 10
60.88720452490006
 20
29.90067715112156
 30
0.0
 10
60.89397041383184
 20
29.89363743716468
 30
0.0
  0
SPLINE
  5
D4
330
1F
100
AcDbEntity
  8
0
  6
Continuous
 62
     7
370
    25
100
AcDbSpline
210
0.0
220
0.0
230
1.0
 70
     8
 71
     3
 72
    11
 73
     7
 74
     0
 42
0.00000001
 43
0.00000001
 40
0.0
 40
0.0
 40
0.0
 40
0.0
 40
0.2550921435312752
 40
0.4983791954134778
 40
0.7437399667914604
 40
0.9999999999999999
 40
0.9999999999999999
 40
0.9999999999999999
 40
0.9999999999999999
 10
60.88354570340712
 20
30.28977643330368
 30
0.0
 10
60.87230131525311
 20
30.27732245784786
 30
0.0
 10
60.85033290398204
 20
30.25299084895763
 30
0.0
 10
60.82715763148052
 20
30.20957084096134
 30
0.0
 10
60.81315343206978
 20
30.16232848846641
 30
0.0
 10
60.81144533553758
 20
30.12938566177549
 30
0.0
 10
60.81057273043415
 20
30.1125563560836
 30
0.0
  0
SPLINE
  5
D5
330
1F
100
AcDbEntity
  8
0
  6
Continuous
 62
     7
370
    25
100
AcDbSpline
210
0.0
220
0.0
230
1.0
 70
     8
 71
     3
 72
    15
 73
    11
 74
     0
 42
0.00000001
 43
0.00000001
 40
0.0
 40
0.0
 40
0.0
 40
0.0
 40
0.1305521219623388
 40
0.257514555698003
 40
0.3807268344757817
 40
0.5030306145961515
 40
0.6251462349433738
 40
0.7476378858044689
 40
0.8722881459663866
 40
1.0
 40
1.0
 40
1.0
 40
1.0
 10
61.11288933275075
 20
30.38359882712607
 30
0.0
 10
61.10180870644772
 20
30.38327419905752
 30
0.0
 10
61.07995212904099
 20
30.38263386896113
 30
0.0
 10
61.04785214672476
 20
30.37840533063068
 30
0.0
 10
61.01703959427763
 20
30.37105216086022
 30
0.0
 10
60.98765058176934
 20
30.36044850134277
 30
0.0
 10
60.95926205662277
 20
30.34748923441027
 30
0.0
 10
60.93260797781681
 20
30.33091450466887
 30
0.0
 10
60.90680187162035
 20
30.31218486593489
 30
0.0
 10
60.89136020428985
 20
30.29730607941613
 30
0.0
 10
60.88354570340712
 20
30.28977643330368
 30
0.0
  0
LINE
  5
D6
330
1F
100
AcDbEntity
  8
0
  6
Continuous
 62
     7
370
    25
100
AcDbLine
 10
61.1858623057
 20
30.3835988271
 30
0.0
 11
61.1128893328
 21
30.3835988271
 31
0.0
  0
LINE
  5
D7
330
1F
100
AcDbEntity
  8
0
  6
Continuous
 62
     7
370
    25
100
AcDbLine
 10
61.1858623057
 20
30.6303169738
 30
0.0
 11
61.1858623057
 21
30.3835988271
 31
0.0
  0
SPLINE
  5
D8
330
1F
100
AcDbEntity
  8
0
  6
Continuous
 62
     7
370
    25
100
AcDbSpline
210
0.0
220
0.0
230
1.0
 70
     8
 71
     3
 72
    16
 73
    12
 74
     0
 42
0.00000001
 43
0.00000001
 40
0.0
 40
0.0
 40
0.0
 40
0.0
 40
0.2500000000000002
 40
0.2500000000000002
 40
0.5000000000000004
 40
0.5000000000000004
 40
0.6250000000000003
 40
0.6250000000000003
 40
0.7500000000000002
 40
0.7500000000000002
 40
1.0
 40
1.0
 40
1.0
 40
1.0
 10
59.81821285896154
 20
40.50637874990597
 30
0.0
 10
59.49165077897755
 20
41.07200086426363
 30
0.0
 10
59.22250449870305
 20
41.6417467668343
 30
0.0
 10
58.84964953596716
 20
42.79312083468568
 30
0.0
 10
58.74717074075423
 20
43.37483733444163
 30
0.0
 10
58.74604508912061
 20
44.25837177332349
 30
0.0
 10
58.77109715607004
 20
44.55426927699198
 30
0.0
 10
58.86878709945814
 20
45.13958570569781
 30
0.0
 10
58.94132582472783
 20
45.43028157269998
 30
0.0
 10
59.22143124077245
 20
46.29719373391656
 30
0.0
 10
59.49124368271924
 20
46.86825475442065
 30
0.0
 10
59.81821285896169
 20
47.43458198018151
 30
0.0
  0
LINE
  5
D9
330
1F
100
AcDbEntity
  8
0
  6
Continuous
 62
     7
370
    25
100
AcDbLine
 10
58.6020785219
 20
33.5781755196
 30
0.0
 11
58.6020785219
 21
45.3281755196
 31
0.0
  0
LINE
  5
DA
330
1F
100
AcDbEntity
  8
0
  6
Continuous
 62
     7
370
    25
100
AcDbLine
 10
58.6020785219
 20
21.8281755196
 30
0.0
 11
58.6020785219
 21
33.5781755196
 31
0.0
  0
SPLINE
  5
DB
330
1F
100
AcDbEntity
  8
0
  6
Continuous
 62
     7
370
    25
100
AcDbSpline
210
0.0
220
0.0
230
1.0
 70
     8
 71
     3
 72
    16
 73
    12
 74
     0
 42
0.00000001
 43
0.00000001
 40
0.0
 40
0.0
 40
0.0
 40
0.0
 40
0.2500000000000002
 40
0.2500000000000002
 40
0.5000000000000004
 40
0.5000000000000004
 40
0.6250000000000003
 40
0.6250000000000003
 40
0.7500000000000002
 40
0.7500000000000002
 40
1.0
 40
1.0
 40
1.0
 40
1.0
 10
63.38594418491834
 20
40.50637874990597
 30
0.0
 10
63.71250626490234
 20
41.07200086426363
 30
0.0
 10
63.98165254517684
 20
41.6417467668343
 30
0.0
 10
64.35450750791271
 20
42.79312083468568
 30
0.0
 10
64.45698630312566
 20
43.37483733444163
 30
0.0
 10
64.45811195475929
 20
44.25837177332349
 30
0.0
 10
64.43305988780985
 20
44.55426927699198
 30
0.0
 10
64.33536994442174
 20
45.13958570569781
 30
0.0
 10
64.26283121915205
 20
45.43028157269998
 30
0.0
 10
63.98272580310744
 20
46.29719373391656
 30
0.0
 10
63.71291336116065
 20
46.86825475442065
 30
0.0
 10
63.38594418491819
 20
47.43458198018151
 30
0.0
  0
LINE
  5
DC
330
1F
100
AcDbEntity
  8
0
  6
Continuous
 62
     7
370
    25
100
AcDbLine
 10
64.6020785219
 20
33.5781755196
 30
0.0
 11
64.6020785219
 21
45.3281755196
 31
0.0
  0
LINE
  5
DD
330
1F
100
AcDbEntity
  8
0
  6
Continuous
 62
     7
370
    25
100
AcDbLine
 10
64.6020785219
 20
21.8281755196
 30
0.0
 11
64.6020785219
 21
33.5781755196
 31
0.0
  0
LINE
  5
DE
330
1F
100
AcDbEntity
  8
0
  6
Continuous
 62
     7
370
    25
100
AcDbLine
 10
62.051113271
 20
31.3079231515
 30
0.0
 11
61.29010941
 21
31.7700853136
 31
0.0
  0
LINE
  5
DF
330
1F
100
AcDbEntity
  8
0
  6
Continuous
 62
     7
370
    25
100
AcDbLine
 10
61.29010941
 20
31.3079231515
 30
0.0
 11
62.051113271
 21
31.3079231515
 31
0.0
  0
LINE
  5
E0
330
1F
100
AcDbEntity
  8
0
  6
Continuous
 62
     7
370
    25
100
AcDbLine
 10
61.29010941
 20
31.7700853136
 30
0.0
 11
61.29010941
 21
31.3079231515
 31
0.0
  0
LINE
  5
E1
330
1F
100
AcDbEntity
  8
0
  6
Continuous
 62
     7
370
    25
100
AcDbLine
 10
62.051113271
 20
32.6422860858
 30
0.0
 11
61.29010941
 21
33.104448248
 31
0.0
  0
LINE
  5
E2
330
1F
100
AcDbEntity
  8
0
  6
Continuous
 62
     7
370
    25
100
AcDbLine
 10
61.29010941
 20
32.6422860858
 30
0.0
 11
62.051113271
 21
32.6422860858
 31
0.0
  0
LINE
  5
E3
330
1F
100
AcDbEntity
  8
0
  6
Continuous
 62
     7
370
    25
100
AcDbLine
 10
61.29010941
 20
33.104448248
 30
0.0
 11
61.29010941
 21
32.6422860858
 31
0.0
  0
LINE
  5
E4
330
1F
100
AcDbEntity
  8
0
  6
Continuous
 62
     7
370
    25
100
AcDbLine
 10
62.229105549
 20
28.9658382094
 30
0.0
 11
61.6132754331
 21
28.9658382094
 31
0.0
  0
LINE
  5
E5
330
1F
100
AcDbEntity
  8
0
  6
Continuous
 62
     7
370
    25
100
AcDbLine
 10
62.229105549
 20
28.3820544256
 30
0.0
 11
62.229105549
 21
28.9658382094
 31
0.0
  0
SPLINE
  5
E6
330
1F
100
AcDbEntity
  8
0
  6
Continuous
 62
     7
370
    25
100
AcDbSpline
210
0.0
220
0.0
230
1.0
 70
     8
 71
     3
 72
    15
 73
    11
 74
     0
 42
0.00000001
 43
0.00000001
 40
0.0
 40
0.0
 40
0.0
 40
0.0
 40
0.1309133268193498
 40
0.257977153454405
 40
0.3819342897628112
 40
0.5044826360738923
 40
0.6264704025122013
 40
0.7488072761095259
 40
0.8724814751031141
 40
0.9999999999999999
 40
0.9999999999999999
 40
0.9999999999999999
 40
0.9999999999999999
 10
62.14493566479709
 20
28.18398492751217
 30
0.0
 10
62.15166145100513
 20
28.19092328964961
 30
0.0
 10
62.16491525199584
 20
28.20459599171395
 30
0.0
 10
62.18174200769393
 20
28.22725551489511
 30
0.0
 10
62.19666875827215
 20
28.25043193898805
 30
0.0
 10
62.20880315871713
 20
28.27483612174501
 30
0.0
 10
62.21750613118269
 20
28.30051514408058
 30
0.0
 10
62.22405215371352
 20
28.32685623807526
 30
0.0
 10
62.22868129370445
 20
28.35409397636462
 30
0.0
 10
62.22896269499728
 20
28.37263966631316
 30
0.0
 10
62.22910554896697
 20
28.38205442558167
 30
0.0
  0
SPLINE
  5
E7
330
1F
100
AcDbEntity
  8
0
  6
Continuous
 62
     7
370
    25
100
AcDbSpline
210
0.0
220
0.0
230
1.0
 70
     8
 71
     3
 72
    15
 73
    11
 74
     0
 42
0.00000001
 43
0.00000001
 40
0.0
 40
0.0
 40
0.0
 40
0.0
 40
0.1417962611116215
 40
0.276881951347697
 40
0.4055805706087827
 40
0.5298229690785615
 40
0.6485572024501448
 40
0.7672114666371239
 40
0.8821786188665566
 40
1.0
 40
1.0
 40
1.0
 40
1.0
 10
61.91559203545346
 20
28.10058724411449
 30
0.0
 10
61.9274519672791
 20
28.10070915815049
 30
0.0
 10
61.95061055440256
 20
28.10094721658672
 30
0.0
 10
61.984206506338
 20
28.10572256441487
 30
0.0
 10
62.01617131980702
 20
28.11138434658507
 30
0.0
 10
62.04580051981147
 20
28.12089922974042
 30
0.0
 10
62.0737998949003
 20
28.13241356812594
 30
0.0
 10
62.09930714506515
 20
28.14721363779221
 30
0.0
 10
62.12359223304433
 20
28.16385892748919
 30
0.0
 10
62.13776327034028
 20
28.17722164723584
 30
0.0
 10
62.14493566479709
 20
28.18398492751217
 30
0.0
  0
SPLINE
  5
E8
330
1F
100
AcDbEntity
  8
0
  6
Continuous
 62
     7
370
    25
100
AcDbSpline
210
0.0
220
0.0
230
1.0
 70
     8
 71
     3
 72
    15
 73
    11
 74
     0
 42
0.00000001
 43
0.00000001
 40
0.0
 40
0.0
 40
0.0
 40
0.0
 40
0.1053643999148116
 40
0.2134004501006516
 40
0.3253299308157719
 40
0.4441520831794066
 40
0.5701116073912007
 40
0.7035881731039115
 40
0.8466305078268429
 40
1.0
 40
1.0
 40
1.0
 40
1.0
 10
61.68624840610983
 20
28.17356021708746
 30
0.0
 10
61.6926924694794
 20
28.16775459786898
 30
0.0
 10
61.70574399375754
 20
28.15599615046797
 30
0.0
 10
61.72788570985986
 20
28.14074965089855
 30
0.0
 10
61.75302811642683
 20
28.12858691878458
 30
0.0
 10
61.78042759312341
 20
28.11791141840698
 30
0.0
 10
61.81073758596148
 20
28.11058450175859
 30
0.0
 10
61.84332655021564
 20
28.10464335068249
 30
0.0
 10
61.87858235416932
 20
28.10120596978147
 30
0.0
 10
61.90297222270583
 20
28.10079822139904
 30
0.0
 10
61.91559203545346
 20
28.10058724411449
 30
0.0
  0
SPLINE
  5
E9
330
1F
100
AcDbEntity
  8
0
  6
Continuous
 62
     7
370
    25
100
AcDbSpline
210
0.0
220
0.0
230
1.0
 70
     8
 71
     3
 72
    11
 73
     7
 74
     0
 42
0.00000001
 43
0.00000001
 40
0.0
 40
0.0
 40
0.0
 40
0.0
 40
0.2562600332085374
 40
0.5016208045865242
 40
0.7449078564687266
 40
1.0
 40
1.0
 40
1.0
 40
1.0
 10
61.61327543313686
 20
28.35078029430754
 30
0.0
 10
61.61414803824028
 20
28.33395098861564
 30
0.0
 10
61.61585613477248
 20
28.30100816192472
 30
0.0
 10
61.62986033418323
 20
28.2537658094298
 30
0.0
 10
61.65303560668474
 20
28.21034580143351
 30
0.0
 10
61.67500401795581
 20
28.18601419254329
 30
0.0
 10
61.68624840610983
 20
28.17356021708746
 30
0.0
  0
LINE
  5
EA
330
1F
100
AcDbEntity
  8
0
  6
Continuous
 62
     7
370
    25
100
AcDbLine
 10
61.6132754331
 20
28.9658382094
 30
0.0
 11
61.6132754331
 21
28.3507802943
 31
0.0
  0
LINE
  5
EB
330
1F
100
AcDbEntity
  8
0
  6
Continuous
 62
     7
370
    25
100
AcDbLine
 10
59.818212859
 20
47.4345819802
 30
0.0
 11
63.3859441849
 21
47.4345819802
 31
0.0
  0
LINE
  5
EC
330
1F
100
AcDbEntity
  8
0
  6
Continuous
 62
     7
370
    25
100
AcDbLine
 10
62.2186808385
 20
36.8005872441
 30
0.0
 11
62.2186808385
 21
37.3843710279
 31
0.0
  0
SPLINE
  5
ED
330
1F
100
AcDbEntity
  8
0
  6
Continuous
 62
     7
370
    25
100
AcDbSpline
210
0.0
220
0.0
230
1.0
 70
     8
 71
     3
 72
    11
 73
     7
 74
     0
 42
0.00000001
 43
0.00000001
 40
0.0
 40
0.0
 40
0.0
 40
0.0
 40
0.2499695538886841
 40
0.4922399851273383
 40
0.7405148106355972
 40
1.0
 40
1.0
 40
1.0
 40
1.0
 10
62.1553603752218
 20
36.64421658774383
 30
0.0
 10
62.16515553929253
 20
36.65489958307008
 30
0.0
 10
62.1844441740142
 20
36.67593653488563
 30
0.0
 10
62.20420793716738
 20
36.71432563404817
 30
0.0
 10
62.21672262181627
 20
36.75616984584865
 30
0.0
 10
62.21801856234274
 20
36.78556511437495
 30
0.0
 10
62.21868083854226
 20
36.80058724411449
 30
0.0
  0
SPLINE
  5
EE
330
1F
100
AcDbEntity
  8
0
  6
Continuous
 62
     7
370
    25
100
AcDbSpline
210
0.0
220
0.0
230
1.0
 70
     8
 71
     3
 72
    11
 73
     7
 74
     0
 42
0.00000001
 43
0.00000001
 40
0.0
 40
0.0
 40
0.0
 40
0.0
 40
0.2516095171558482
 40
0.4964930798665569
 40
0.7426069856111284
 40
1.0
 40
1.0
 40
1.0
 40
1.0
 10
61.9572908771523
 20
36.56081890434615
 30
0.0
 10
61.97580463441729
 20
36.56188781994612
 30
0.0
 10
62.01233724442466
 20
36.5639970771966
 30
0.0
 10
62.06506364164784
 20
36.57995679442924
 30
0.0
 10
62.11369323091717
 20
36.6066903555594
 30
0.0
 10
62.14126544448655
 20
36.63152242181955
 30
0.0
 10
62.1553603752218
 20
36.64421658774383
 30
0.0
  0
SPLINE
  5
EF
330
1F
100
AcDbEntity
  8
0
  6
Continuous
 62
     7
370
    25
100
AcDbSpline
210
0.0
220
0.0
230
1.0
 70
     8
 71
     3
 72
    15
 73
    11
 74
     0
 42
0.00000001
 43
0.00000001
 40
0.0
 40
0.0
 40
0.0
 40
0.0
 40
0.1215042446907351
 40
0.2399194382132706
 40
0.360701448477589
 40
0.4813982058565626
 40
0.6046686543565305
 40
0.730827840041038
 40
0.8619579002966852
 40
1.0
 40
1.0
 40
1.0
 40
1.0
 10
61.73837195823338
 20
36.64421658774383
 30
0.0
 10
61.74541167219026
 20
36.63745069881205
 30
0.0
 10
61.7593121266313
 20
36.62409093285772
 30
0.0
 10
61.78315588211263
 20
36.60756094826213
 30
0.0
 10
61.80792962493828
 20
36.59262573320415
 30
0.0
 10
61.83497346916329
 20
36.58128757396813
 30
0.0
 10
61.86312516395552
 20
36.5716464719158
 30
0.0
 10
61.89317568056461
 20
36.5659826152697
 30
0.0
 10
61.92457764967791
 20
36.5611707088044
 30
0.0
 10
61.94620137696539
 20
36.56093816300409
 30
0.0
 10
61.9572908771523
 20
36.56081890434615
 30
0.0
  0
SPLINE
  5
F0
330
1F
100
AcDbEntity
  8
0
  6
Continuous
 62
     7
370
    25
100
AcDbSpline
210
0.0
220
0.0
230
1.0
 70
     8
 71
     3
 72
    11
 73
     7
 74
     0
 42
0.00000001
 43
0.00000001
 40
0.0
 40
0.0
 40
0.0
 40
0.0
 40
0.2562600332085394
 40
0.501620804586522
 40
0.7449078564687267
 40
1.0
 40
1.0
 40
1.0
 40
1.0
 10
61.6653989852604
 20
36.82143666496391
 30
0.0
 10
61.66627159036383
 20
36.80460735927202
 30
0.0
 10
61.66797968689603
 20
36.77166453258109
 30
0.0
 10
61.68198388630678
 20
36.72442218008617
 30
0.0
 10
61.70515915880829
 20
36.68100217208988
 30
0.0
 10
61.72712757007937
 20
36.65667056319965
 30
0.0
 10
61.73837195823338
 20
36.64421658774383
 30
0.0
  0
LINE
  5
F1
330
1F
100
AcDbEntity
  8
0
  6
Continuous
 62
     7
370
    25
100
AcDbLine
 10
62.2186808385
 20
37.3843710279
 30
0.0
 11
61.6653989853
 21
37.3843710279
 31
0.0
  0
LINE
  5
F2
330
1F
100
AcDbEntity
  8
0
  6
Continuous
 62
     7
370
    25
100
AcDbLine
 10
61.6653989853
 20
37.3843710279
 30
0.0
 11
61.6653989853
 21
36.821436665
 31
0.0
  0
SPLINE
  5
F3
330
1F
100
AcDbEntity
  8
0
  6
Continuous
 62
     7
370
    25
100
AcDbSpline
210
0.0
220
0.0
230
1.0
 70
     8
 71
     3
 72
    15
 73
    11
 74
     0
 42
0.00000001
 43
0.00000001
 40
0.0
 40
0.0
 40
0.0
 40
0.0
 40
0.1193556939378553
 40
0.2390663805212365
 40
0.3573840708360855
 40
0.4787728926029021
 40
0.6013911634438122
 40
0.7292416297469778
 40
0.8608048514681801
 40
1.0
 40
1.0
 40
1.0
 40
1.0
 10
61.37350709336852
 20
36.60251774604499
 30
0.0
 10
61.38103525470691
 20
36.61046292472166
 30
0.0
 10
61.39611396795278
 20
36.62637691295429
 30
0.0
 10
61.4151962646951
 20
36.65309847143527
 30
0.0
 10
61.43169587222383
 20
36.68164581556258
 30
0.0
 10
61.44511004710272
 20
36.71207711690145
 30
0.0
 10
61.45570612395095
 20
36.74451844165277
 30
0.0
 10
61.46288334154089
 20
36.77883135723982
 30
0.0
 10
61.46718738529264
 20
36.81514957326566
 30
0.0
 10
61.4677912466809
 20
36.83995730158291
 30
0.0
 10
61.46810168796311
 20
36.85271079623804
 30
0.0
  0
SPLINE
  5
F4
330
1F
100
AcDbEntity
  8
0
  6
Continuous
 62
     7
370
    25
100
AcDbSpline
210
0.0
220
0.0
230
1.0
 70
     8
 71
     3
 72
    15
 73
    11
 74
     0
 42
0.00000001
 43
0.00000001
 40
0.0
 40
0.0
 40
0.0
 40
0.0
 40
0.1417962611116214
 40
0.2768819513476977
 40
0.4055805706087833
 40
0.5298229690785615
 40
0.6485572024501451
 40
0.767211466637124
 40
0.8821786188665564
 40
1.0
 40
1.0
 40
1.0
 40
1.0
 10
61.14416346402489
 20
36.5191200626473
 30
0.0
 10
61.15602339585053
 20
36.5192419766833
 30
0.0
 10
61.17918198297399
 20
36.51948003511954
 30
0.0
 10
61.21277793490944
 20
36.52425538294769
 30
0.0
 10
61.24474274837845
 20
36.52991716511789
 30
0.0
 10
61.27437194838289
 20
36.53943204827323
 30
0.0
 10
61.30237132347173
 20
36.55094638665876
 30
0.0
 10
61.32787857363657
 20
36.56574645632502
 30
0.0
 10
61.35216366161576
 20
36.58239174602201
 30
0.0
 10
61.3663346989117
 20
36.59575446576866
 30
0.0
 10
61.37350709336852
 20
36.60251774604499
 30
0.0
  0
SPLINE
  5
F5
330
1F
100
AcDbEntity
  8
0
  6
Continuous
 62
     7
370
    25
100
AcDbSpline
210
0.0
220
0.0
230
1.0
 70
     8
 71
     3
 72
    15
 73
    11
 74
     0
 42
0.00000001
 43
0.00000001
 40
0.0
 40
0.0
 40
0.0
 40
0.0
 40
0.1277118540336133
 40
0.2523621141955309
 40
0.3748537650566256
 40
0.4969693854038489
 40
0.6192731655242187
 40
0.7424854443019969
 40
0.8694478780376613
 40
1.0
 40
1.0
 40
1.0
 40
1.0
 10
60.91481983468125
 20
36.6129424564697
 30
0.0
 10
60.92263433556398
 20
36.60541281035725
 30
0.0
 10
60.93807600289448
 20
36.59053402383849
 30
0.0
 10
60.96388210909094
 20
36.57180438510451
 30
0.0
 10
60.9905361878969
 20
36.55522965536311
 30
0.0
 10
61.01892471304348
 20
36.54227038843061
 30
0.0
 10
61.04831372555176
 20
36.53166672891317
 30
0.0
 10
61.0791262779989
 20
36.52431355914269
 30
0.0
 10
61.11122626031513
 20
36.52008502081224
 30
0.0
 10
61.13308283772185
 20
36.51944469071586
 30
0.0
 10
61.14416346402489
 20
36.5191200626473
 30
0.0
  0
SPLINE
  5
F6
330
1F
100
AcDbEntity
  8
0
  6
Continuous
 62
     7
370
    25
100
AcDbSpline
210
0.0
220
0.0
230
1.0
 70
     8
 71
     3
 72
    15
 73
    11
 74
     0
 42
0.00000001
 43
0.00000001
 40
0.0
 40
0.0
 40
0.0
 40
0.0
 40
0.1452459980297225
 40
0.2839773123111045
 40
0.4135645357275252
 40
0.538715025144607
 40
0.6570052502158948
 40
0.7736984629726806
 40
0.8866940707303834
 40
1.0
 40
1.0
 40
1.0
 40
1.0
 10
60.83142215128357
 20
36.85271079623804
 30
0.0
 10
60.83154868001577
 20
36.84008049192433
 30
0.0
 10
60.83179606231744
 20
36.81538638729265
 30
0.0
 10
60.83649141232717
 20
36.77971910167961
 30
0.0
 10
60.84223303495688
 20
36.74597768298342
 30
0.0
 10
60.85167919902491
 20
36.71491588922661
 30
0.0
 10
60.86314223751213
 20
36.68572383602844
 30
0.0
 10
60.87808411484485
 20
36.65939315758658
 30
0.0
 10
60.89445221227994
 20
36.63437185541716
 30
0.0
 10
60.90802442347209
 20
36.6200921165991
 30
0.0
 10
60.91481983468125
 20
36.6129424564697
 30
0.0
  0
LINE
  5
F7
330
1F
100
AcDbEntity
  8
0
  6
Continuous
 62
     7
370
    25
100
AcDbLine
 10
60.8314221513
 20
37.3843710279
 30
0.0
 11
60.8314221513
 21
36.8527107962
 31
0.0
  0
LINE
  5
F8
330
1F
100
AcDbEntity
  8
0
  6
Continuous
 62
     7
370
    25
100
AcDbLine
 10
61.468101688
 20
36.8527107962
 30
0.0
 11
61.468101688
 21
37.3843710279
 31
0.0
  0
LINE
  5
F9
330
1F
100
AcDbEntity
  8
0
  6
Continuous
 62
     7
370
    25
100
AcDbLine
 10
61.468101688
 20
37.3843710279
 30
0.0
 11
60.8314221513
 21
37.3843710279
 31
0.0
  0
LINE
  5
FA
330
1F
100
AcDbEntity
  8
0
  6
Continuous
 62
     7
370
    25
100
AcDbLine
 10
44.5189535719
 20
23.1441169243
 30
0.0
 11
44.5189535719
 21
44.0122341149
 31
0.0
  0
LINE
  5
FB
330
1F
100
AcDbEntity
  8
0
  6
Continuous
 62
     7
370
    25
100
AcDbLine
 10
41.6020785219
 20
33.5781755196
 30
0.0
 11
41.6020785219
 21
42.3281755196
 31
0.0
  0
LINE
  5
FC
330
1F
100
AcDbEntity
  8
0
  6
Continuous
 62
     7
370
    25
100
AcDbLine
 10
41.6020785219
 20
24.8281755196
 30
0.0
 11
41.6020785219
 21
33.5781755196
 31
0.0
  0
LINE
  5
FD
330
1F
100
AcDbEntity
  8
0
  6
Continuous
 62
     7
370
    18
100
AcDbLine
 10
42.1868569458
 20
42.6657975001
 30
0.0
 11
57.2020785219
 21
43.1350231743
 31
0.0
  0
LINE
  5
FE
330
1F
100
AcDbEntity
  8
0
  6
Continuous
 62
     7
370
    18
100
AcDbLine
 10
42.1868569458
 20
24.4905535392
 30
0.0
 11
57.2020785219
 21
24.0213278649
 31
0.0
  0
LINE
  5
FF
330
1F
100
AcDbEntity
  8
0
  6
Continuous
 62
     7
370
    25
100
AcDbLine
 10
57.2020785219
 20
22.7477692696
 30
0.0
 11
57.2020785219
 21
44.4085817696
 31
0.0
  0
LINE
  5
100
330
1F
100
AcDbEntity
  8
FORMAT
  6
CENTERX2
370
    18
100
AcDbLine
 10
65.3060886452
 20
33.5781755196
 30
0.0
 11
40.6020785219
 21
33.5781755196
 31
0.0
  0
SPLINE
  5
101
330
1F
100
AcDbEntity
  8
0
  6
Continuous
 62
     7
370
    25
100
AcDbSpline
210
0.0
220
0.0
230
1.0
 70
    24
 71
     3
 72
    16
 73
    12
 74
     0
 42
0.00000001
 43
0.00000001
 40
0.0
 40
0.0
 40
0.0
 40
0.0
 40
0.2500000000000002
 40
0.2500000000000002
 40
0.5000000000000004
 40
0.5000000000000004
 40
0.6250000000000003
 40
0.6250000000000003
 40
0.7500000000000002
 40
0.7500000000000002
 40
1.0
 40
1.0
 40
1.0
 40
1.0
 10
72.88579676674357
 20
40.50637874990597
 30
0.0
 10
73.86548300669554
 20
41.07200086426363
 30
0.0
 10
74.85231185735215
 20
41.6417467668343
 30
0.0
 10
76.84655024138799
 20
42.79312083468568
 30
0.0
 10
77.85411277456642
 20
43.37483733444163
 30
0.0
 10
79.38443931294665
 20
44.25837177332349
 30
0.0
 10
79.89694882313329
 20
44.55426927699198
 30
0.0
 10
80.91074661615654
 20
45.13958570569781
 30
0.0
 10
81.41424662735459
 20
45.43028157269998
 30
0.0
 10
82.91578253628104
 20
46.29719373391656
 30
0.0
 10
83.90488923801625
 20
46.86825475442065
 30
0.0
 10
84.88579676674361
 20
47.43458198018151
 30
0.0
  0
SPLINE
  5
102
330
1F
100
AcDbEntity
  8
0
  6
Continuous
 62
     7
370
    25
100
AcDbSpline
210
0.0
220
0.0
230
1.0
 70
    24
 71
     3
 72
    16
 73
    12
 74
     0
 42
0.00000001
 43
0.00000001
 40
0.0
 40
0.0
 40
0.0
 40
0.0
 40
0.2499999999999999
 40
0.2499999999999999
 40
0.4999999999999999
 40
0.4999999999999999
 40
0.6249999999999999
 40
0.6249999999999999
 40
0.7499999999999998
 40
0.7499999999999998
 40
1.0
 40
1.0
 40
1.0
 40
1.0
 10
84.88579676674355
 20
47.43458198018152
 30
0.0
 10
85.86548300669556
 20
46.86895986582388
 30
0.0
 10
86.85231185735215
 20
46.2992139632532
 30
0.0
 10
88.84655024138799
 20
45.14783989540182
 30
0.0
 10
89.85411277456642
 20
44.56612339564587
 30
0.0
 10
91.38443931294665
 20
43.68258895676401
 30
0.0
 10
91.89694882313329
 20
43.38669145309552
 30
0.0
 10
92.91074661615656
 20
42.80137502438969
 30
0.0
 10
93.41424662735457
 20
42.51067915738753
 30
0.0
 10
94.91578253628106
 20
41.64376699617094
 30
0.0
 10
95.90488923801624
 20
41.07270597566686
 30
0.0
 10
96.88579676674362
 20
40.50637874990598
 30
0.0
  0
SPLINE
  5
103
330
1F
100
AcDbEntity
  8
0
  6
Continuous
 62
     7
370
    25
100
AcDbSpline
210
0.0
220
0.0
230
1.0
 70
    24
 71
     3
 72
    14
 73
    10
 74
     0
 42
0.00000001
 43
0.00000001
 40
0.0
 40
0.0
 40
0.0
 40
0.0
 40
0.2500000000000001
 40
0.2500000000000001
 40
0.5000000000000001
 40
0.5000000000000001
 40
0.7500000000000001
 40
0.7500000000000001
 40
1.0
 40
1.0
 40
1.0
 40
1.0
 10
96.8857967667436
 20
40.50637874990599
 30
0.0
 10
96.88579676674361
 20
39.37855907383775
 30
0.0
 10
96.8857967667436
 20
38.24032529056161
 30
0.0
 10
96.8857967667436
 20
35.93340310968559
 30
0.0
 10
96.8857967667436
 20
34.76335601529083
 30
0.0
 10
96.8857967667436
 20
32.38959515043046
 30
0.0
 10
96.8857967667436
 20
31.22147723485761
 30
0.0
 10
96.8857967667436
 20
28.91563155717628
 30
0.0
 10
96.8857967667436
 20
27.77767724045665
 30
0.0
 10
96.8857967667436
 20
26.64997228935496
 30
0.0
  0
SPLINE
  5
104
330
1F
100
AcDbEntity
  8
0
  6
Continuous
 62
     7
370
    25
100
AcDbSpline
210
0.0
220
0.0
230
1.0
 70
    24
 71
     3
 72
    16
 73
    12
 74
     0
 42
0.00000001
 43
0.00000001
 40
0.0
 40
0.0
 40
0.0
 40
0.0
 40
0.25
 40
0.25
 40
0.5
 40
0.5
 40
0.625
 40
0.625
 40
0.75
 40
0.75
 40
1.0
 40
1.0
 40
1.0
 40
1.0
 10
96.88579676674364
 20
26.64997228935498
 30
0.0
 10
95.90611052679165
 20
26.08435017499734
 30
0.0
 10
94.91928167613504
 20
25.51460427242665
 30
0.0
 10
92.9250432920992
 20
24.36323020457528
 30
0.0
 10
91.91748075892079
 20
23.78151370481934
 30
0.0
 10
90.38715422054054
 20
22.89797926593747
 30
0.0
 10
89.87464471035392
 20
22.60208176226898
 30
0.0
 10
88.86084691733065
 20
22.01676533356315
 30
0.0
 10
88.35734690613262
 20
21.72606946656099
 30
0.0
 10
86.85581099720615
 20
20.8591573053444
 30
0.0
 10
85.86670429547095
 20
20.28809628484032
 30
0.0
 10
84.88579676674357
 20
19.72176905907944
 30
0.0
  0
SPLINE
  5
105
330
1F
100
AcDbEntity
  8
0
  6
Continuous
 62
     7
370
    25
100
AcDbSpline
210
0.0
220
0.0
230
1.0
 70
    24
 71
     3
 72
    16
 73
    12
 74
     0
 42
0.00000001
 43
0.00000001
 40
0.0
 40
0.0
 40
0.0
 40
0.0
 40
0.2499999999999999
 40
0.2499999999999999
 40
0.4999999999999999
 40
0.4999999999999999
 40
0.625
 40
0.625
 40
0.7499999999999998
 40
0.7499999999999998
 40
1.0
 40
1.0
 40
1.0
 40
1.0
 10
84.88579676674364
 20
19.72176905907943
 30
0.0
 10
83.90611052679165
 20
20.28739117343708
 30
0.0
 10
82.91928167613504
 20
20.85713707600777
 30
0.0
 10
80.9250432920992
 20
22.00851114385914
 30
0.0
 10
79.91748075892077
 20
22.59022764361508
 30
0.0
 10
78.38715422054054
 20
23.47376208249695
 30
0.0
 10
77.8746447103539
 20
23.76965958616544
 30
0.0
 10
76.86084691733063
 20
24.35497601487127
 30
0.0
 10
76.35734690613262
 20
24.64567188187343
 30
0.0
 10
74.85581099720615
 20
25.51258404309002
 30
0.0
 10
73.86670429547094
 20
26.0836450635941
 30
0.0
 10
72.88579676674357
 20
26.64997228935497
 30
0.0
  0
SPLINE
  5
106
330
1F
100
AcDbEntity
  8
0
  6
Continuous
 62
     7
370
    25
100
AcDbSpline
210
0.0
220
0.0
230
1.0
 70
    24
 71
     3
 72
    14
 73
    10
 74
     0
 42
0.00000001
 43
0.00000001
 40
0.0
 40
0.0
 40
0.0
 40
0.0
 40
0.2499999999999999
 40
0.2499999999999999
 40
0.4999999999999999
 40
0.4999999999999999
 40
0.7499999999999999
 40
0.7499999999999999
 40
1.0
 40
1.0
 40
1.0
 40
1.0
 10
72.8857967667436
 20
26.64997228935496
 30
0.0
 10
72.88579676674358
 20
27.7777919654232
 30
0.0
 10
72.88579676674358
 20
28.91602574869934
 30
0.0
 10
72.88579676674358
 20
31.22294792957537
 30
0.0
 10
72.8857967667436
 20
32.39299502397012
 30
0.0
 10
72.8857967667436
 20
34.7667558888305
 30
0.0
 10
72.8857967667436
 20
35.93487380440335
 30
0.0
 10
72.8857967667436
 20
38.24071948208468
 30
0.0
 10
72.8857967667436
 20
39.37867379880431
 30
0.0
 10
72.8857967667436
 20
40.50637874990599
 30
0.0
  0
CIRCLE
  5
107
330
1F
100
AcDbEntity
  8
0
  6
Continuous
 62
     7
370
    25
100
AcDbCircle
 10
84.8857967667
 20
33.5781755196
 30
0.0
 40
11.75000000000001
  0
CIRCLE
  5
108
330
1F
100
AcDbEntity
  8
0
  6
Continuous
 62
     7
370
    25
100
AcDbCircle
 10
84.8857967667
 20
33.5781755196
 30
0.0
 40
8.5
  0
CIRCLE
  5
109
330
1F
100
AcDbEntity
  8
0
  6
Continuous
 62
     7
370
    25
100
AcDbCircle
 10
84.8857967667
 20
33.5781755196
 30
0.0
 40
7.525882999999993
  0
CIRCLE
  5
10A
330
1F
100
AcDbEntity
  8
0
  6
Continuous
 62
     7
370
    25
100
AcDbCircle
 10
84.8857967667
 20
33.5781755196
 30
0.0
 40
7.200000000000003
  0
INSERT
  5
116
330
1F
100
AcDbEntity
  8
FORMAT
100
AcDbBlockReference
  2
SW_CENTERMARKSYMBOL_0
 10
84.8857967667
 20
33.5781755196
 30
0.0
  0
ARC
  5
117
330
1F
100
AcDbEntity
  8
0
  6
Continuous
 62
     7
370
    18
100
AcDbCircle
 10
84.8857967667
 20
33.5781755196
 30
0.0
 40
8.381049659390913
100
AcDbArc
 50
75.0
 51
345.0
  0
LINE
  5
118
330
1F
100
AcDbEntity
  8
0
  6
Continuous
 62
     7
370
    25
100
AcDbLine
 10
58.7464160892
 20
77.8565819861
 30
0.0
 11
58.6020785219
 21
77.6065819861
 31
0.0
  0
LINE
  5
119
330
1F
100
AcDbEntity
  8
0
  6
Continuous
 62
     7
370
    25
100
AcDbLine
 10
58.6020785219
 20
54.1065819861
 30
0.0
 11
58.7464160892
 21
53.8565819861
 31
0.0
  0
LINE
  5
11A
330
1F
100
AcDbEntity
  8
0
  6
Continuous
 62
     7
370
    25
100
AcDbLine
 10
64.4577409546
 20
53.8565819861
 30
0.0
 11
64.6020785219
 21
54.1065819861
 31
0.0
  0
LINE
  5
11B
330
1F
100
AcDbEntity
  8
0
  6
Continuous
 62
     7
370
    25
100
AcDbLine
 10
64.6020785219
 20
77.6065819861
 30
0.0
 11
64.4577409546
 21
77.8565819861
 31
0.0
  0
LINE
  5
11C
330
1F
100
AcDbEntity
  8
0
  6
Continuous
 62
     7
370
    25
100
AcDbLine
 10
58.6020785219
 20
76.7307382361
 30
0.0
 11
44.5189535719
 21
76.2906405815
 31
0.0
  0
LINE
  5
11D
330
1F
100
AcDbEntity
  8
0
  6
Continuous
 62
     7
370
    25
100
AcDbLine
 10
44.5189535719
 20
55.4225233908
 30
0.0
 11
58.6020785219
 21
54.9824257361
 31
0.0
  0
LINE
  5
11E
330
1F
100
AcDbEntity
  8
0
  6
Continuous
 62
     7
370
    25
100
AcDbLine
 10
44.5189535719
 20
76.2906405815
 30
0.0
 11
41.6020785219
 21
74.6065819861
 31
0.0
  0
LINE
  5
11F
330
1F
100
AcDbEntity
  8
0
  6
Continuous
 62
     7
370
    25
100
AcDbLine
 10
41.6020785219
 20
57.1065819861
 30
0.0
 11
44.5189535719
 21
55.4225233908
 31
0.0
  0
SPLINE
  5
120
330
1F
100
AcDbEntity
  8
0
  6
Continuous
 62
     7
370
    25
100
AcDbSpline
210
0.0
220
0.0
230
1.0
 70
    24
 71
     3
 72
    13
 73
     9
 74
     0
 42
0.00000001
 43
0.00000001
 40
0.0
 40
0.0
 40
0.0
 40
0.0
 40
0.1584540730871392
 40
0.3246164265555321
 40
0.4906741937996869
 40
0.6604030504345446
 40
0.8302270010289557
 40
1.0
 40
1.0
 40
1.0
 40
1.0
 10
58.74786013590748
 20
53.85658198614318
 30
0.0
 10
58.75320673367774
 20
53.85658198614318
 30
0.0
 10
58.76416002398198
 20
53.85658198614318
 30
0.0
 10
58.86148840429809
 20
53.85658198614318
 30
0.0
 10
59.01631964211958
 20
53.85658198614318
 30
0.0
 10
59.23239353765511
 20
53.85658198614318
 30
0.0
 10
59.49791784041288
 20
53.85658198614318
 30
0.0
 10
59.71145853234564
 20
53.85658198614318
 30
0.0
 10
59.81821285896184
 20
53.85658198614318
 30
0.0
  0
SPLINE
  5
121
330
1F
100
AcDbEntity
  8
0
  6
Continuous
 62
     7
370
    25
100
AcDbSpline
210
0.0
220
0.0
230
1.0
 70
    24
 71
     3
 72
    14
 73
    10
 74
     0
 42
0.00000001
 43
0.00000001
 40
0.0
 40
0.0
 40
0.0
 40
0.0
 40
0.1638914286381826
 40
0.3278285393495351
 40
0.4916818515520734
 40
0.6585716995184105
 40
0.8255656451325715
 40
0.9924247446322447
 40
1.0
 40
1.0
 40
1.0
 40
1.0
 10
59.81821285896184
 20
77.85658198614317
 30
0.0
 10
59.71504861517669
 20
77.85658198614318
 30
0.0
 10
59.50869137224945
 20
77.85658198614318
 30
0.0
 10
59.24976646910137
 20
77.85658198614317
 30
0.0
 10
59.03461385544681
 20
77.85658198614317
 30
0.0
 10
58.87228132719832
 20
77.85658198614317
 30
0.0
 10
58.77700331770504
 20
77.85658198614317
 30
0.0
 10
58.73636401476285
 20
77.85658198614317
 30
0.0
 10
58.74738166637339
 20
77.85658198614317
 30
0.0
 10
58.74786013590748
 20
77.85658198614317
 30
0.0
  0
SPLINE
  5
122
330
1F
100
AcDbEntity
  8
0
  6
Continuous
 62
     7
370
    25
100
AcDbSpline
210
0.0
220
0.0
230
1.0
 70
     8
 71
     3
 72
    16
 73
    12
 74
     0
 42
0.00000001
 43
0.00000001
 40
0.0
 40
0.0
 40
0.0
 40
0.0
 40
0.2499999999999999
 40
0.2499999999999999
 40
0.4999999999999999
 40
0.4999999999999999
 40
0.6249999999999999
 40
0.6249999999999999
 40
0.7499999999999998
 40
0.7499999999999998
 40
1.0
 40
1.0
 40
1.0
 40
1.0
 10
59.81821285896155
 20
65.85658198614314
 30
0.0
 10
59.49165077897756
 20
66.83626822609513
 30
0.0
 10
59.22250449870306
 20
67.82309707675174
 30
0.0
 10
58.84964953596716
 20
69.81733546078758
 30
0.0
 10
58.74717074075423
 20
70.824897993966
 30
0.0
 10
58.74604508912061
 20
72.35522453234624
 30
0.0
 10
58.77109715607004
 20
72.86773404253287
 30
0.0
 10
58.86878709945814
 20
73.88153183555613
 30
0.0
 10
58.94132582472783
 20
74.38503184675416
 30
0.0
 10
59.22143124077245
 20
75.88656775568063
 30
0.0
 10
59.49124368271924
 20
76.87567445741583
 30
0.0
 10
59.81821285896169
 20
77.8565819861432
 30
0.0
  0
SPLINE
  5
123
330
1F
100
AcDbEntity
  8
0
  6
Continuous
 62
     7
370
    25
100
AcDbSpline
210
0.0
220
0.0
230
1.0
 70
     8
 71
     3
 72
    16
 73
    12
 74
     0
 42
0.00000001
 43
0.00000001
 40
0.0
 40
0.0
 40
0.0
 40
0.0
 40
0.2500000000000002
 40
0.2500000000000002
 40
0.5000000000000004
 40
0.5000000000000004
 40
0.6250000000000003
 40
0.6250000000000003
 40
0.7500000000000002
 40
0.7500000000000002
 40
1.0
 40
1.0
 40
1.0
 40
1.0
 10
59.81821285896154
 20
53.85658198614314
 30
0.0
 10
59.49165077897755
 20
54.83626822609512
 30
0.0
 10
59.22250449870305
 20
55.82309707675173
 30
0.0
 10
58.84964953596716
 20
57.81733546078758
 30
0.0
 10
58.74717074075423
 20
58.824897993966
 30
0.0
 10
58.74604508912061
 20
60.35522453234624
 30
0.0
 10
58.77109715607004
 20
60.86773404253287
 30
0.0
 10
58.86878709945814
 20
61.88153183555613
 30
0.0
 10
58.94132582472783
 20
62.38503184675416
 30
0.0
 10
59.22143124077245
 20
63.88656775568064
 30
0.0
 10
59.49124368271924
 20
64.87567445741584
 30
0.0
 10
59.81821285896169
 20
65.85658198614321
 30
0.0
  0
LINE
  5
124
330
1F
100
AcDbEntity
  8
0
  6
Continuous
 62
     7
370
    25
100
AcDbLine
 10
58.6020785219
 20
54.1065819861
 30
0.0
 11
58.6020785219
 21
77.6065819861
 31
0.0
  0
LINE
  5
125
330
1F
100
AcDbEntity
  8
0
  6
Continuous
 62
     7
370
    25
100
AcDbLine
 10
59.818212859
 20
77.8565819861
 30
0.0
 11
63.3859441849
 21
77.8565819861
 31
0.0
  0
SPLINE
  5
126
330
1F
100
AcDbEntity
  8
0
  6
Continuous
 62
     7
370
    25
100
AcDbSpline
210
0.0
220
0.0
230
1.0
 70
     8
 71
     3
 72
    16
 73
    12
 74
     0
 42
0.00000001
 43
0.00000001
 40
0.0
 40
0.0
 40
0.0
 40
0.0
 40
0.2499999999999999
 40
0.2499999999999999
 40
0.4999999999999999
 40
0.4999999999999999
 40
0.6249999999999999
 40
0.6249999999999999
 40
0.7499999999999998
 40
0.7499999999999998
 40
1.0
 40
1.0
 40
1.0
 40
1.0
 10
63.38594418491833
 20
65.85658198614314
 30
0.0
 10
63.71250626490232
 20
66.83626822609513
 30
0.0
 10
63.98165254517682
 20
67.82309707675174
 30
0.0
 10
64.35450750791271
 20
69.81733546078758
 30
0.0
 10
64.45698630312566
 20
70.824897993966
 30
0.0
 10
64.45811195475929
 20
72.35522453234624
 30
0.0
 10
64.43305988780985
 20
72.86773404253287
 30
0.0
 10
64.33536994442174
 20
73.88153183555613
 30
0.0
 10
64.26283121915205
 20
74.38503184675416
 30
0.0
 10
63.98272580310744
 20
75.88656775568063
 30
0.0
 10
63.71291336116065
 20
76.87567445741583
 30
0.0
 10
63.38594418491819
 20
77.8565819861432
 30
0.0
  0
LINE
  5
127
330
1F
100
AcDbEntity
  8
0
  6
Continuous
 62
     7
370
    25
100
AcDbLine
 10
59.818212859
 20
65.8565819861
 30
0.0
 11
63.3859441849
 21
65.8565819861
 31
0.0
  0
SPLINE
  5
128
330
1F
100
AcDbEntity
  8
0
  6
Continuous
 62
     7
370
    25
100
AcDbSpline
210
0.0
220
0.0
230
1.0
 70
     8
 71
     3
 72
    16
 73
    12
 74
     0
 42
0.00000001
 43
0.00000001
 40
0.0
 40
0.0
 40
0.0
 40
0.0
 40
0.2500000000000002
 40
0.2500000000000002
 40
0.5000000000000004
 40
0.5000000000000004
 40
0.6250000000000003
 40
0.6250000000000003
 40
0.7500000000000002
 40
0.7500000000000002
 40
1.0
 40
1.0
 40
1.0
 40
1.0
 10
63.38594418491834
 20
53.85658198614314
 30
0.0
 10
63.71250626490234
 20
54.83626822609512
 30
0.0
 10
63.98165254517684
 20
55.82309707675173
 30
0.0
 10
64.35450750791271
 20
57.81733546078758
 30
0.0
 10
64.45698630312566
 20
58.824897993966
 30
0.0
 10
64.45811195475929
 20
60.35522453234624
 30
0.0
 10
64.43305988780985
 20
60.86773404253287
 30
0.0
 10
64.33536994442174
 20
61.88153183555613
 30
0.0
 10
64.26283121915205
 20
62.38503184675416
 30
0.0
 10
63.98272580310744
 20
63.88656775568064
 30
0.0
 10
63.71291336116065
 20
64.87567445741584
 30
0.0
 10
63.38594418491819
 20
65.85658198614321
 30
0.0
  0
SPLINE
  5
129
330
1F
100
AcDbEntity
  8
0
  6
Continuous
 62
     7
370
    25
100
AcDbSpline
210
0.0
220
0.0
230
1.0
 70
    24
 71
     3
 72
    14
 73
    10
 74
     0
 42
0.00000001
 43
0.00000001
 40
0.0
 40
0.0
 40
0.0
 40
0.0
 40
0.1638914286381826
 40
0.3278285393495351
 40
0.4916818515520734
 40
0.6585716995184105
 40
0.8255656451325715
 40
0.9924247446322447
 40
1.0
 40
1.0
 40
1.0
 40
1.0
 10
63.38594418491805
 20
77.85658198614317
 30
0.0
 10
63.48910842870318
 20
77.85658198614318
 30
0.0
 10
63.69546567163042
 20
77.85658198614318
 30
0.0
 10
63.95439057477851
 20
77.85658198614317
 30
0.0
 10
64.16954318843307
 20
77.85658198614317
 30
0.0
 10
64.33187571668155
 20
77.85658198614317
 30
0.0
 10
64.42715372617484
 20
77.85658198614317
 30
0.0
 10
64.46779302911703
 20
77.85658198614317
 30
0.0
 10
64.45677537750649
 20
77.85658198614317
 30
0.0
 10
64.4562969079724
 20
77.85658198614317
 30
0.0
  0
SPLINE
  5
12A
330
1F
100
AcDbEntity
  8
0
  6
Continuous
 62
     7
370
    25
100
AcDbSpline
210
0.0
220
0.0
230
1.0
 70
    24
 71
     3
 72
    13
 73
     9
 74
     0
 42
0.00000001
 43
0.00000001
 40
0.0
 40
0.0
 40
0.0
 40
0.0
 40
0.1584540730871392
 40
0.3246164265555321
 40
0.4906741937996869
 40
0.6604030504345446
 40
0.8302270010289559
 40
1.0
 40
1.0
 40
1.0
 40
1.0
 10
64.4562969079724
 20
53.85658198614318
 30
0.0
 10
64.45095031020215
 20
53.85658198614318
 30
0.0
 10
64.4399970198979
 20
53.85658198614318
 30
0.0
 10
64.3426686395818
 20
53.85658198614318
 30
0.0
 10
64.18783740176032
 20
53.85658198614318
 30
0.0
 10
63.97176350622477
 20
53.85658198614318
 30
0.0
 10
63.70623920346701
 20
53.85658198614318
 30
0.0
 10
63.49269851153424
 20
53.85658198614318
 30
0.0
 10
63.38594418491805
 20
53.85658198614318
 30
0.0
  0
LINE
  5
12B
330
1F
100
AcDbEntity
  8
0
  6
Continuous
 62
     7
370
    25
100
AcDbLine
 10
64.6020785219
 20
54.1065819861
 30
0.0
 11
64.6020785219
 21
77.6065819861
 31
0.0
  0
LINE
  5
12C
330
1F
100
AcDbEntity
  8
0
  6
Continuous
 62
     7
370
    25
100
AcDbLine
 10
59.818212859
 20
53.8565819861
 30
0.0
 11
63.3859441849
 21
53.8565819861
 31
0.0
  0
LINE
  5
12D
330
1F
100
AcDbEntity
  8
0
  6
Continuous
 62
     7
370
    25
100
AcDbLine
 10
44.5189535719
 20
65.8565819861
 30
0.0
 11
44.5189535719
 21
76.2906405815
 31
0.0
  0
LINE
  5
12E
330
1F
100
AcDbEntity
  8
0
  6
Continuous
 62
     7
370
    25
100
AcDbLine
 10
44.5189535719
 20
55.4225233908
 30
0.0
 11
44.5189535719
 21
65.8565819861
 31
0.0
  0
LINE
  5
12F
330
1F
100
AcDbEntity
  8
0
  6
Continuous
 62
     7
370
    25
100
AcDbLine
 10
41.6020785219
 20
57.1065819861
 30
0.0
 11
41.6020785219
 21
74.6065819861
 31
0.0
  0
LINE
  5
130
330
1F
100
AcDbEntity
  8
0
  6
Continuous
 62
     7
370
    18
100
AcDbLine
 10
42.1868569458
 20
74.9442039666
 30
0.0
 11
57.2020785219
 21
75.4134296408
 31
0.0
  0
LINE
  5
131
330
1F
100
AcDbEntity
  8
0
  6
Continuous
 62
     7
370
    18
100
AcDbLine
 10
42.1868569458
 20
56.7689600057
 30
0.0
 11
57.2020785219
 21
56.2997343315
 31
0.0
  0
LINE
  5
132
330
1F
100
AcDbEntity
  8
0
  6
Continuous
 62
     7
370
    25
100
AcDbLine
 10
57.2020785219
 20
55.0261757361
 30
0.0
 11
57.2020785219
 21
76.6869882361
 31
0.0
  0
LINE
  5
133
330
1F
100
AcDbEntity
  8
FORMAT
  6
CENTERX2
370
    18
100
AcDbLine
 10
65.3832679326
 20
65.8565819861
 30
0.0
 11
40.6020785219
 21
65.8565819861
 31
0.0
  0
ENDSEC
  0
SECTION
  2
OBJECTS
  0
DICTIONARY
  5
C
330
0
100
AcDbDictionary
281
     1
  3
ACAD_GROUP
350
D
  3
ACAD_LAYOUT
350
1A
  3
ACAD_MLINESTYLE
350
17
  3
ACAD_PLOTSETTINGS
350
19
  3
ACAD_PLOTSTYLENAME
350
E
  3
ACAD_SCALELIST
350
47
  3
DWGPROPS
350
134
  0
DICTIONARY
  5
D
102
{ACAD_REACTORS
330
C
102
}
330
C
100
AcDbDictionary
281
     1
  0
DICTIONARY
  5
1A
102
{ACAD_REACTORS
330
C
102
}
330
C
100
AcDbDictionary
281
     1
  3
Layout1
350
1E
  3
Layout2
350
26
  3
Model
350
22
  0
DICTIONARY
  5
17
102
{ACAD_REACTORS
330
C
102
}
330
C
100
AcDbDictionary
281
     1
  3
Standard
350
18
  0
DICTIONARY
  5
19
102
{ACAD_REACTORS
330
C
102
}
330
C
100
AcDbDictionary
281
     1
  0
ACDBDICTIONARYWDFLT
  5
E
102
{ACAD_REACTORS
330
C
102
}
330
C
100
AcDbDictionary
281
     1
  3
Normal
350
F
100
AcDbDictionaryWithDefault
340
F
  0
DICTIONARY
  5
47
102
{ACAD_REACTORS
330
C
102
}
330
C
100
AcDbDictionary
281
     1
  3
A0
350
48
  3
A1
350
49
  3
A2
350
4A
  3
A3
350
4B
  3
A4
350
4C
  3
A5
350
4D
  3
A6
350
4E
  3
A7
350
4F
  3
A8
350
50
  3
A9
350
51
  3
B0
350
52
  3
B1
350
53
  3
B2
350
54
  3
B3
350
55
  3
B4
350
56
  3
B5
350
57
  3
B6
350
58
  0
XRECORD
  5
134
102
{ACAD_REACTORS
330
C
102
}
330
C
100
AcDbXrecord
280
     1
  1
DWGPROPS COOKIE
  2

  3

  4

  6

  7

  8
user28
  9

300
=
301
=
302
=
303
=
304
=
305
=
306
=
307
=
308
=
309
=
 40
0.0
 41
2460406.31317537
 42
2460406.313175891
  1

 90
        0
  0
LAYOUT
  5
1E
102
{ACAD_REACTORS
330
1A
102
}
330
1A
100
AcDbPlotSettings
  1

  2
none_device
  4

  6

 40
0.0
 41
0.0
 42
0.0
 43
0.0
 44
0.0
 45
0.0
 46
0.0
 47
0.0
 48
0.0
 49
0.0
140
0.0
141
0.0
142
1.0
143
1.0
 70
   688
 72
     1
 73
     0
 74
     5
  7

 75
    16
147
1.0
148
0.0
149
0.0
100
AcDbLayout
  1
Layout1
 70
     1
 71
     1
 10
0.0
 20
0.0
 11
420.0
 21
297.0
 12
0.0
 22
0.0
 32
0.0
 14
1.0000000000E+20
 24
1.0000000000E+20
 34
1.0000000000E+20
 15
-1.0000000000E+20
 25
-1.0000000000E+20
 35
-1.0000000000E+20
146
0.0
 13
0.0
 23
0.0
 33
0.0
 16
1.0
 26
0.0
 36
0.0
 17
0.0
 27
1.0
 37
0.0
 76
     0
330
1B
  0
LAYOUT
  5
26
102
{ACAD_REACTORS
330
1A
102
}
330
1A
100
AcDbPlotSettings
  1

  2
none_device
  4

  6

 40
0.0
 41
0.0
 42
0.0
 43
0.0
 44
0.0
 45
0.0
 46
0.0
 47
0.0
 48
0.0
 49
0.0
140
0.0
141
0.0
142
1.0
143
1.0
 70
   688
 72
     1
 73
     0
 74
     5
  7

 75
    16
147
1.0
148
0.0
149
0.0
100
AcDbLayout
  1
Layout2
 70
     1
 71
     2
 10
0.0
 20
0.0
 11
0.0
 21
0.0
 12
0.0
 22
0.0
 32
0.0
 14
0.0
 24
0.0
 34
0.0
 15
0.0
 25
0.0
 35
0.0
146
0.0
 13
0.0
 23
0.0
 33
0.0
 16
1.0
 26
0.0
 36
0.0
 17
0.0
 27
1.0
 37
0.0
 76
     0
330
23
  0
LAYOUT
  5
22
102
{ACAD_REACTORS
330
1A
102
}
330
1A
100
AcDbPlotSettings
  1

  2
none_device
  4
Letter_(8.50_x_11.00_Inches)
  6

 40
6.35
 41
6.35
 42
6.35000508
 43
6.35000508
 44
215.9
 45
279.4
 46
0.0
 47
0.0
 48
0.0
 49
0.0
140
0.0
141
0.0
142
1.0
143
1.0
 70
  1712
 72
     1
 73
     0
 74
     0
  7

 75
     0
147
1.0
148
0.0
149
0.0
100
AcDbLayout
  1
Model
 70
     1
 71
     0
 10
0.0
 20
0.0
 11
148.5
 21
105.0
 12
0.0
 22
0.0
 32
0.0
 14
0.0
 24
0.0
 34
0.0
 15
148.5
 25
105.0
 35
0.0
146
0.0
 13
0.0
 23
0.0
 33
0.0
 16
1.0
 26
0.0
 36
0.0
 17
0.0
 27
1.0
 37
0.0
 76
     0
330
1F
331
29
  0
MLINESTYLE
  5
18
102
{ACAD_REACTORS
330
17
102
}
330
17
100
AcDbMlineStyle
  2
Standard
 70
     0
  3

 62
   256
 51
90.0
 52
90.0
 71
     2
 49
0.5
 62
   256
  6
BYLAYER
 49
-0.5
 62
   256
  6
BYLAYER
  0
ACDBPLACEHOLDER
  5
F
102
{ACAD_REACTORS
330
E
102
}
330
E
  0
SCALE
  5
48
102
{ACAD_REACTORS
330
47
102
}
330
47
100
AcDbScale
 70
     0
300
1:1
140
1.0
141
1.0
290
     1
  0
SCALE
  5
49
102
{ACAD_REACTORS
330
47
102
}
330
47
100
AcDbScale
 70
     0
300
1:2
140
1.0
141
2.0
290
     0
  0
SCALE
  5
4A
102
{ACAD_REACTORS
330
47
102
}
330
47
100
AcDbScale
 70
     0
300
1:4
140
1.0
141
4.0
290
     0
  0
SCALE
  5
4B
102
{ACAD_REACTORS
330
47
102
}
330
47
100
AcDbScale
 70
     0
300
1:5
140
1.0
141
5.0
290
     0
  0
SCALE
  5
4C
102
{ACAD_REACTORS
330
47
102
}
330
47
100
AcDbScale
 70
     0
300
1:8
140
1.0
141
8.0
290
     0
  0
SCALE
  5
4D
102
{ACAD_REACTORS
330
47
102
}
330
47
100
AcDbScale
 70
     0
300
1:10
140
1.0
141
10.0
290
     0
  0
SCALE
  5
4E
102
{ACAD_REACTORS
330
47
102
}
330
47
100
AcDbScale
 70
     0
300
1:16
140
1.0
141
16.0
290
     0
  0
SCALE
  5
4F
102
{ACAD_REACTORS
330
47
102
}
330
47
100
AcDbScale
 70
     0
300
1:20
140
1.0
141
20.0
290
     0
  0
SCALE
  5
50
102
{ACAD_REACTORS
330
47
102
}
330
47
100
AcDbScale
 70
     0
300
1:30
140
1.0
141
30.0
290
     0
  0
SCALE
  5
51
102
{ACAD_REACTORS
330
47
102
}
330
47
100
AcDbScale
 70
     0
300
1:40
140
1.0
141
40.0
290
     0
  0
SCALE
  5
52
102
{ACAD_REACTORS
330
47
102
}
330
47
100
AcDbScale
 70
     0
300
1:50
140
1.0
141
50.0
290
     0
  0
SCALE
  5
53
102
{ACAD_REACTORS
330
47
102
}
330
47
100
AcDbScale
 70
     0
300
1:100
140
1.0
141
100.0
290
     0
  0
SCALE
  5
54
102
{ACAD_REACTORS
330
47
102
}
330
47
100
AcDbScale
 70
     0
300
2:1
140
2.0
141
1.0
290
     0
  0
SCALE
  5
55
102
{ACAD_REACTORS
330
47
102
}
330
47
100
AcDbScale
 70
     0
300
4:1
140
4.0
141
1.0
290
     0
  0
SCALE
  5
56
102
{ACAD_REACTORS
330
47
102
}
330
47
100
AcDbScale
 70
     0
300
8:1
140
8.0
141
1.0
290
     0
  0
SCALE
  5
57
102
{ACAD_REACTORS
330
47
102
}
330
47
100
AcDbScale
 70
     0
300
10:1
140
10.0
141
1.0
290
     0
  0
SCALE
  5
58
102
{ACAD_REACTORS
330
47
102
}
330
47
100
AcDbScale
 70
     0
300
100:1
140
100.0
141
1.0
290
     0
  0
ENDSEC
  0
EOF
