  0
SECTION
  2
HEADER
  9
$ACADVER
  1
AC1015
  9
$ACADMAINTVER
 70
     6
  9
$DWGCODEPAGE
  3
DOS932
  9
$INSBASE
 10
0.0
 20
0.0
 30
0.0
  9
$EXTMIN
 10
0.0
 20
0.0
 30
0.0
  9
$EXTMAX
 10
148.5
 20
105.0
 30
0.0
  9
$LIMMIN
 10
0.0
 20
0.0
  9
$LIMMAX
 10
148.5
 20
105.0
  9
$ORTHOMODE
 70
     0
  9
$REGENMODE
 70
     1
  9
$FILLMODE
 70
     1
  9
$QTEXTMODE
 70
     0
  9
$MIRRTEXT
 70
     1
  9
$LTSCALE
 40
0.5
  9
$ATTMODE
 70
     1
  9
$TEXTSIZE
 40
1.7638888889
  9
$TRACEWID
 40
1.0
  9
$TEXTSTYLE
  7
Standard
  9
$CLAYER
  8
0
  9
$CELTYPE
  6
ByLayer
  9
$CECOLOR
 62
   256
  9
$CELTSCALE
 40
1.0
  9
$DISPSILH
 70
     0
  9
$DIMSCALE
 40
1.0
  9
$DIMASZ
 40
1.3642578125
  9
$DIMEXO
 40
0.5
  9
$DIMDLI
 40
3.75
  9
$DIMRND
 40
0.0
  9
$DIMDLE
 40
0.0
  9
$DIMEXE
 40
0.5
  9
$DIMTP
 40
0.0
  9
$DIMTM
 40
0.0
  9
$DIMTXT
 40
1.7638888889
  9
$DIMCEN
 40
2.5
  9
$DIMTSZ
 40
0.0
  9
$DIMTOL
 70
     0
  9
$DIMLIM
 70
     0
  9
$DIMTIH
 70
     1
  9
$DIMTOH
 70
     1
  9
$DIMSE1
 70
     0
  9
$DIMSE2
 70
     0
  9
$DIMTAD
 70
     1
  9
$DIMZIN
 70
     0
  9
$DIMBLK
  1

  9
$DIMASO
 70
     1
  9
$DIMSHO
 70
     1
  9
$DIMPOST
  1

  9
$DIMAPOST
  1

  9
$DIMALT
 70
     0
  9
$DIMALTD
 70
     3
  9
$DIMALTF
 40
0.0393700787
  9
$DIMLFAC
 40
1.0
  9
$DIMTOFL
 70
     1
  9
$DIMTVP
 40
0.0
  9
$DIMTIX
 70
     0
  9
$DIMSOXD
 70
     0
  9
$DIMSAH
 70
     0
  9
$DIMBLK1
  1

  9
$DIMBLK2
  1

  9
$DIMSTYLE
  2
ISO-25
  9
$DIMCLRD
 70
     0
  9
$DIMCLRE
 70
     0
  9
$DIMCLRT
 70
     0
  9
$DIMTFAC
 40
1.0
  9
$DIMGAP
 40
0.762
  9
$DIMJUST
 70
     0
  9
$DIMSD1
 70
     0
  9
$DIMSD2
 70
     0
  9
$DIMTOLJ
 70
     0
  9
$DIMTZIN
 70
     0
  9
$DIMALTZ
 70
     0
  9
$DIMALTTZ
 70
     0
  9
$DIMUPT
 70
     0
  9
$DIMDEC
 70
     2
  9
$DIMTDEC
 70
     2
  9
$DIMALTU
 70
     2
  9
$DIMALTTD
 70
     3
  9
$DIMTXSTY
  7
Standard
  9
$DIMAUNIT
 70
     0
  9
$DIMADEC
 70
     2
  9
$DIMALTRND
 40
0.0
  9
$DIMAZIN
 70
     0
  9
$DIMDSEP
 70
    44
  9
$DIMATFIT
 70
     3
  9
$DIMFRAC
 70
     0
  9
$DIMLDRBLK
  1

  9
$DIMLUNIT
 70
     2
  9
$DIMLWD
 70
    -2
  9
$DIMLWE
 70
    -2
  9
$DIMTMOVE
 70
     0
  9
$LUNITS
 70
     2
  9
$LUPREC
 70
     2
  9
$SKETCHINC
 40
1.0
  9
$FILLETRAD
 40
0.0
  9
$AUNITS
 70
     0
  9
$AUPREC
 70
     2
  9
$MENU
  1
.
  9
$ELEVATION
 40
0.0
  9
$PELEVATION
 40
0.0
  9
$THICKNESS
 40
0.0
  9
$LIMCHECK
 70
     0
  9
$CHAMFERA
 40
0.0
  9
$CHAMFERB
 40
0.0
  9
$CHAMFERC
 40
0.0
  9
$CHAMFERD
 40
0.0
  9
$SKPOLY
 70
     0
  9
$TDCREATE
 40
2460406.687271227
  9
$TDUCREATE
 40
2460406.312271227
  9
$TDUPDATE
 40
2460406.687271736
  9
$TDUUPDATE
 40
2460406.312271736
  9
$TDINDWG
 40
0.0000000116
  9
$TDUSRTIMER
 40
0.0000000116
  9
$USRTIMER
 70
     1
  9
$ANGBASE
 50
0.0
  9
$ANGDIR
 70
     0
  9
$PDMODE
 70
     0
  9
$PDSIZE
 40
-1.0
  9
$PLINEWID
 40
0.0
  9
$SPLFRAME
 70
     0
  9
$SPLINETYPE
 70
     6
  9
$SPLINESEGS
 70
     8
  9
$HANDSEED
  5
13B
  9
$SURFTAB1
 70
     6
  9
$SURFTAB2
 70
     6
  9
$SURFTYPE
 70
     6
  9
$SURFU
 70
     6
  9
$SURFV
 70
     6
  9
$UCSBASE
  2

  9
$UCSNAME
  2

  9
$UCSORG
 10
0.0
 20
0.0
 30
0.0
  9
$UCSXDIR
 10
1.0
 20
0.0
 30
0.0
  9
$UCSYDIR
 10
0.0
 20
1.0
 30
0.0
  9
$UCSORTHOREF
  2

  9
$UCSORTHOVIEW
 70
     0
  9
$UCSORGTOP
 10
0.0
 20
0.0
 30
0.0
  9
$UCSORGBOTTOM
 10
0.0
 20
0.0
 30
0.0
  9
$UCSORGLEFT
 10
0.0
 20
0.0
 30
0.0
  9
$UCSORGRIGHT
 10
0.0
 20
0.0
 30
0.0
  9
$UCSORGFRONT
 10
0.0
 20
0.0
 30
0.0
  9
$UCSORGBACK
 10
0.0
 20
0.0
 30
0.0
  9
$PUCSBASE
  2

  9
$PUCSNAME
  2

  9
$PUCSORG
 10
0.0
 20
0.0
 30
0.0
  9
$PUCSXDIR
 10
1.0
 20
0.0
 30
0.0
  9
$PUCSYDIR
 10
0.0
 20
1.0
 30
0.0
  9
$PUCSORTHOREF
  2

  9
$PUCSORTHOVIEW
 70
     0
  9
$PUCSORGTOP
 10
0.0
 20
0.0
 30
0.0
  9
$PUCSORGBOTTOM
 10
0.0
 20
0.0
 30
0.0
  9
$PUCSORGLEFT
 10
0.0
 20
0.0
 30
0.0
  9
$PUCSORGRIGHT
 10
0.0
 20
0.0
 30
0.0
  9
$PUCSORGFRONT
 10
0.0
 20
0.0
 30
0.0
  9
$PUCSORGBACK
 10
0.0
 20
0.0
 30
0.0
  9
$USERI1
 70
     0
  9
$USERI2
 70
     0
  9
$USERI3
 70
     0
  9
$USERI4
 70
     0
  9
$USERI5
 70
     0
  9
$USERR1
 40
0.0
  9
$USERR2
 40
0.0
  9
$USERR3
 40
0.0
  9
$USERR4
 40
0.0
  9
$USERR5
 40
0.0
  9
$WORLDVIEW
 70
     1
  9
$SHADEDGE
 70
     3
  9
$SHADEDIF
 70
    70
  9
$TILEMODE
 70
     1
  9
$MAXACTVP
 70
    64
  9
$PINSBASE
 10
0.0
 20
0.0
 30
0.0
  9
$PLIMCHECK
 70
     0
  9
$PEXTMIN
 10
1.0000000000E+20
 20
1.0000000000E+20
 30
1.0000000000E+20
  9
$PEXTMAX
 10
-1.0000000000E+20
 20
-1.0000000000E+20
 30
-1.0000000000E+20
  9
$PLIMMIN
 10
0.0
 20
0.0
  9
$PLIMMAX
 10
420.0
 20
297.0
  9
$UNITMODE
 70
     0
  9
$VISRETAIN
 70
     1
  9
$PLINEGEN
 70
     0
  9
$PSLTSCALE
 70
     1
  9
$TREEDEPTH
 70
  3020
  9
$CMLSTYLE
  2
Standard
  9
$CMLJUST
 70
     0
  9
$CMLSCALE
 40
20.0
  9
$PROXYGRAPHICS
 70
     1
  9
$MEASUREMENT
 70
     1
  9
$CELWEIGHT
370
    -1
  9
$ENDCAPS
280
     0
  9
$JOINSTYLE
280
     0
  9
$LWDISPLAY
290
     1
  9
$INSUNITS
 70
     4
  9
$HYPERLINKBASE
  1

  9
$STYLESHEET
  1

  9
$XEDIT
290
     1
  9
$CEPSNTYPE
380
     0
  9
$PSTYLEMODE
290
     1
  9
$FINGERPRINTGUID
  2
{66046d93-5a87-4586-b80e-e60609b53912}
  9
$VERSIONGUID
  2
{FAEB1C32-E019-11D5-929B-00C0DF256EC4}
  9
$EXTNAMES
290
     1
  9
$PSVPSCALE
 40
0.0
  9
$OLESTARTUP
290
     0
  0
ENDSEC
  0
SECTION
  2
CLASSES
  0
CLASS
  1
ACDBDICTIONARYWDFLT
  2
AcDbDictionaryWithDefault
  3
ObjectDBX Classes
 90
        0
280
     0
281
     0
  0
CLASS
  1
VISUALSTYLE
  2
AcDbVisualStyle
  3
ObjectDBX Classes
 90
     4095
280
     0
281
     0
  0
CLASS
  1
MATERIAL
  2
AcDbMaterial
  3
ObjectDBX Classes
 90
     1153
280
     0
281
     0
  0
CLASS
  1
SCALE
  2
AcDbScale
  3
ObjectDBX Classes
 90
     1153
280
     0
281
     0
  0
CLASS
  1
TABLESTYLE
  2
AcDbTableStyle
  3
ObjectDBX Classes
 90
     4095
280
     0
281
     0
  0
CLASS
  1
MLEADERSTYLE
  2
AcDbMLeaderStyle
  3
ACDB_MLEADERSTYLE_CLASS
 90
     4095
280
     0
281
     0
  0
CLASS
  1
SUN
  2
AcDbSun
  3
SCENEOE
 90
     1153
280
     0
281
     0
  0
CLASS
  1
ACDBPLACEHOLDER
  2
AcDbPlaceHolder
  3
ObjectDBX Classes
 90
        0
280
     0
281
     0
  0
CLASS
  1
LAYOUT
  2
AcDbLayout
  3
ObjectDBX Classes
 90
        0
280
     0
281
     0
  0
ENDSEC
  0
SECTION
  2
TABLES
  0
TABLE
  2
VPORT
  5
8
330
0
100
AcDbSymbolTable
 70
     1
  0
VPORT
  5
29
330
8
100
AcDbSymbolTableRecord
100
AcDbViewportTableRecord
  2
*Active
 70
     0
 10
0.0
 20
0.0
 11
1.0
 21
1.0
 12
74.25
 22
52.5
 13
0.0
 23
0.0
 14
10.0
 24
10.0
 15
10.0
 25
10.0
 16
0.0
 26
0.0
 36
1.0
 17
0.0
 27
0.0
 37
0.0
 40
105.0
 41
1.4142857143
 42
50.0
 43
0.0
 44
0.0
 50
0.0
 51
0.0
 71
     0
 72
  2000
 73
     1
 74
     3
 75
     0
 76
     0
 77
     0
 78
     0
281
     0
 65
     1
110
0.0
120
0.0
130
0.0
111
1.0
121
0.0
131
0.0
112
0.0
122
1.0
132
0.0
 79
     0
146
0.0
  0
ENDTAB
  0
TABLE
  2
LTYPE
  5
5
330
0
100
AcDbSymbolTable
 70
     6
  0
LTYPE
  5
14
330
5
100
AcDbSymbolTableRecord
100
AcDbLinetypeTableRecord
  2
ByBlock
 70
     0
  3

 72
    65
 73
     0
 40
0.0
  0
LTYPE
  5
15
330
5
100
AcDbSymbolTableRecord
100
AcDbLinetypeTableRecord
  2
ByLayer
 70
     0
  3

 72
    65
 73
     0
 40
0.0
  0
LTYPE
  5
16
330
5
100
AcDbSymbolTableRecord
100
AcDbLinetypeTableRecord
  2
Continuous
 70
     0
  3
Solid line
 72
    65
 73
     0
 40
0.0
  0
LTYPE
  5
5E
330
5
100
AcDbSymbolTableRecord
100
AcDbLinetypeTableRecord
  2
HIDDEN
 70
     0
  3
Hidden __ __ __ __ __ __ __ __ __ __ __ __ __ __
 72
    65
 73
     2
 40
1.905
 49
1.27
 74
     0
 49
-0.635
 74
     0
  0
LTYPE
  5
5F
330
5
100
AcDbSymbolTableRecord
100
AcDbLinetypeTableRecord
  2
PHANTOM
 70
     0
  3
Phantom ______  __  __  ______  __  __  ______
 72
    65
 73
     6
 40
12.7
 49
6.35
 74
     0
 49
-1.27
 74
     0
 49
1.27
 74
     0
 49
-1.27
 74
     0
 49
1.27
 74
     0
 49
-1.27
 74
     0
  0
LTYPE
  5
60
330
5
100
AcDbSymbolTableRecord
100
AcDbLinetypeTableRecord
  2
CENTER
 70
     0
  3
Center ____ _ ____ _ ____ _ ____ _ ____ _ ____
 72
    65
 73
     4
 40
10.16
 49
6.35
 74
     0
 49
-1.27
 74
     0
 49
1.27
 74
     0
 49
-1.27
 74
     0
  0
LTYPE
  5
61
330
5
100
AcDbSymbolTableRecord
100
AcDbLinetypeTableRecord
  2
CENTERX2
 70
     0
  3
Center (2x) ________  __  ________  __  _____
 72
    65
 73
     4
 40
20.32
 49
12.7
 74
     0
 49
-2.54
 74
     0
 49
2.54
 74
     0
 49
-2.54
 74
     0
  0
LTYPE
  5
62
330
5
100
AcDbSymbolTableRecord
100
AcDbLinetypeTableRecord
  2
DOT2
 70
     0
  3
Dot (.5x) ........................................
 72
    65
 73
     2
 40
0.635
 49
0.0
 74
     0
 49
-0.635
 74
     0
  0
ENDTAB
  0
TABLE
  2
LAYER
  5
2
330
0
100
AcDbSymbolTable
 70
     2
  0
LAYER
  5
10
330
2
100
AcDbSymbolTableRecord
100
AcDbLayerTableRecord
  2
0
 70
     0
 62
     7
  6
Continuous
370
    -3
390
F
  0
LAYER
  5
63
330
2
100
AcDbSymbolTableRecord
100
AcDbLayerTableRecord
  2
FORMAT
 70
     0
 62
     7
  6
Continuous
370
    -3
390
F
  0
ENDTAB
  0
TABLE
  2
STYLE
  5
3
330
0
100
AcDbSymbolTable
 70
     2
  0
STYLE
  5
11
330
3
100
AcDbSymbolTableRecord
100
AcDbTextStyleTableRecord
  2
Standard
 70
     0
 40
0.0
 41
1.0
 50
0.0
 71
     0
 42
1.7638888889
  3
txt
  4
bigfont
  0
STYLE
  5
64
330
3
100
AcDbSymbolTableRecord
100
AcDbTextStyleTableRecord
  2
SLDTEXTSTYLE0
 70
     0
 40
0.0
 41
0.7
 50
0.0
 71
     0
 42
1.7638888889
  3
TXT
  4
bigfont
  0
ENDTAB
  0
TABLE
  2
VIEW
  5
6
330
0
100
AcDbSymbolTable
 70
     0
  0
ENDTAB
  0
TABLE
  2
UCS
  5
7
330
0
100
AcDbSymbolTable
 70
     0
  0
ENDTAB
  0
TABLE
  2
APPID
  5
9
330
0
100
AcDbSymbolTable
 70
     1
  0
APPID
  5
12
330
9
100
AcDbSymbolTableRecord
100
AcDbRegAppTableRecord
  2
ACAD
 70
     0
  0
ENDTAB
  0
TABLE
  2
DIMSTYLE
  5
A
330
0
100
AcDbSymbolTable
 70
     1
100
AcDbDimStyleTable
  0
DIMSTYLE
105
27
330
A
100
AcDbSymbolTableRecord
100
AcDbDimStyleTableRecord
  2
ISO-25
 70
     0
 41
2.5
 42
0.625
 43
3.75
 44
1.25
 73
     0
 74
     0
 77
     1
 78
     8
140
2.5
141
2.5
143
0.0393700787
147
0.625
171
     3
172
     1
178
     0
271
     2
272
     2
274
     3
278
    44
283
     0
284
     8
340
11
  0
ENDTAB
  0
TABLE
  2
BLOCK_RECORD
  5
1
330
0
100
AcDbSymbolTable
 70
     2
  0
BLOCK_RECORD
  5
1F
330
1
100
AcDbSymbolTableRecord
100
AcDbBlockTableRecord
  2
*Model_Space
340
22
  0
BLOCK_RECORD
  5
1B
330
1
100
AcDbSymbolTableRecord
100
AcDbBlockTableRecord
  2
*Paper_Space
340
1E
  0
BLOCK_RECORD
  5
23
330
1
100
AcDbSymbolTableRecord
100
AcDbBlockTableRecord
  2
*Paper_Space0
340
26
  0
BLOCK_RECORD
  5
111
330
1
100
AcDbSymbolTableRecord
100
AcDbBlockTableRecord
  2
SW_CENTERMARKSYMBOL_0
340
0
102
{BLKREFS
331
11C
102
}
  0
ENDTAB
  0
ENDSEC
  0
SECTION
  2
BLOCKS
  0
BLOCK
  5
20
330
1F
100
AcDbEntity
  8
0
100
AcDbBlockBegin
  2
*Model_Space
 70
     0
 10
0.0
 20
0.0
 30
0.0
  3
*Model_Space
  1

  0
ENDBLK
  5
21
330
1F
100
AcDbEntity
  8
0
100
AcDbBlockEnd
  0
BLOCK
  5
1C
330
1B
100
AcDbEntity
 67
     1
  8
0
100
AcDbBlockBegin
  2
*Paper_Space
 70
     0
 10
0.0
 20
0.0
 30
0.0
  3
*Paper_Space
  1

  0
ENDBLK
  5
1D
330
1B
100
AcDbEntity
 67
     1
  8
0
100
AcDbBlockEnd
  0
BLOCK
  5
24
330
23
100
AcDbEntity
  8
0
100
AcDbBlockBegin
  2
*Paper_Space0
 70
     0
 10
0.0
 20
0.0
 30
0.0
  3
*Paper_Space0
  1

  0
ENDBLK
  5
25
330
23
100
AcDbEntity
  8
0
100
AcDbBlockEnd
  0
BLOCK
  5
112
330
111
100
AcDbEntity
  8
0
100
AcDbBlockBegin
  2
SW_CENTERMARKSYMBOL_0
 70
     0
 10
0.0
 20
0.0
 30
0.0
  3
SW_CENTERMARKSYMBOL_0
  1

  0
LINE
  5
114
330
111
100
AcDbEntity
  8
FORMAT
 62
     0
100
AcDbLine
 10
0.0
 20
0.0
 30
0.0
 11
0.0
 21
2.5
 31
0.0
  0
LINE
  5
115
330
111
100
AcDbEntity
  8
FORMAT
 62
     0
100
AcDbLine
 10
0.0
 20
0.0
 30
0.0
 11
-2.5
 21
0.0
 31
0.0
  0
LINE
  5
116
330
111
100
AcDbEntity
  8
FORMAT
 62
     0
100
AcDbLine
 10
0.0
 20
0.0
 30
0.0
 11
0.0
 21
-2.5
 31
0.0
  0
LINE
  5
117
330
111
100
AcDbEntity
  8
FORMAT
 62
     0
100
AcDbLine
 10
0.0
 20
0.0
 30
0.0
 11
2.5
 21
0.0
 31
0.0
  0
LINE
  5
118
330
111
100
AcDbEntity
  8
FORMAT
 62
     0
100
AcDbLine
 10
0.0
 20
5.0
 30
0.0
 11
0.0
 21
11.8543421556
 31
0.0
  0
LINE
  5
119
330
111
100
AcDbEntity
  8
FORMAT
 62
     0
100
AcDbLine
 10
-5.0
 20
0.0
 30
0.0
 11
-11.2745
 21
0.0
 31
0.0
  0
LINE
  5
11A
330
111
100
AcDbEntity
  8
FORMAT
 62
     0
100
AcDbLine
 10
0.0
 20
-5.0
 30
0.0
 11
0.0
 21
-11.9796529895
 31
0.0
  0
LINE
  5
11B
330
111
100
AcDbEntity
  8
FORMAT
 62
     0
100
AcDbLine
 10
5.0
 20
0.0
 30
0.0
 11
11.2745
 21
0.0
 31
0.0
  0
ENDBLK
  5
113
330
111
100
AcDbEntity
  8
0
100
AcDbBlockEnd
  0
ENDSEC
  0
SECTION
  2
ENTITIES
  0
MTEXT
  5
65
330
1F
100
AcDbEntity
  8
FORMAT
100
AcDbMText
 10
93.9269990432
 20
55.7435111841
 30
0.0
 40
2.1166666667
 41
0.0
 71
     1
 72
     1
  1
5R-NB1432
  7
SLDTEXTSTYLE0
 73
     1
 44
1.0
  0
LINE
  5
66
330
1F
100
AcDbEntity
  8
0
  6
Continuous
 62
     7
370
    25
100
AcDbLine
 10
78.1297948445
 20
48.1343202416
 30
0.0
 11
77.1369515012
 21
46.414665127
 31
0.0
  0
LINE
  5
67
330
1F
100
AcDbEntity
  8
0
  6
Continuous
 62
     7
370
    25
100
AcDbLine
 10
77.1369515012
 20
27.914665127
 30
0.0
 11
78.1297948445
 21
26.1950100124
 31
0.0
  0
LINE
  5
68
330
1F
100
AcDbEntity
  8
0
  6
Continuous
 62
     7
370
    25
100
AcDbLine
 10
82.1441081578
 20
26.1950100124
 30
0.0
 11
83.1369515012
 21
27.914665127
 31
0.0
  0
LINE
  5
69
330
1F
100
AcDbEntity
  8
0
  6
Continuous
 62
     7
370
    25
100
AcDbLine
 10
83.1369515012
 20
46.414665127
 30
0.0
 11
82.1441081578
 21
48.1343202416
 31
0.0
  0
LINE
  5
6A
330
1F
100
AcDbEntity
  8
0
  6
Continuous
 62
     7
370
    25
100
AcDbLine
 10
77.1369515012
 20
45.939165127
 30
0.0
 11
65.585219842
 21
45.5781735127
 31
0.0
  0
LINE
  5
6B
330
1F
100
AcDbEntity
  8
0
  6
Continuous
 62
     7
370
    25
100
AcDbLine
 10
65.585219842
 20
28.7511567414
 30
0.0
 11
77.1369515012
 21
28.390165127
 31
0.0
  0
LINE
  5
6C
330
1F
100
AcDbEntity
  8
0
  6
Continuous
 62
     7
370
    25
100
AcDbLine
 10
65.585219842
 20
45.5781735127
 30
0.0
 11
63.1369515012
 21
44.164665127
 31
0.0
  0
LINE
  5
6D
330
1F
100
AcDbEntity
  8
0
  6
Continuous
 62
     7
370
    25
100
AcDbLine
 10
63.1369515012
 20
30.164665127
 30
0.0
 11
65.585219842
 21
28.7511567414
 31
0.0
  0
SPLINE
  5
6E
330
1F
100
AcDbEntity
  8
0
  6
Continuous
 62
     7
370
    25
100
AcDbSpline
210
0.0
220
0.0
230
1.0
 70
     8
 71
     3
 72
    16
 73
    12
 74
     0
 42
0.00000001
 43
0.00000001
 40
0.0
 40
0.0
 40
0.0
 40
0.0
 40
0.2499999999999999
 40
0.2499999999999999
 40
0.4999999999999998
 40
0.4999999999999998
 40
0.6249999999999998
 40
0.6249999999999998
 40
0.7499999999999997
 40
0.7499999999999997
 40
1.0
 40
1.0
 40
1.0
 40
1.0
 10
78.12979484448364
 20
42.6494926843222
 30
0.0
 10
77.87126656900128
 20
43.09727679265079
 30
0.0
 10
77.65819242225864
 20
43.54832561458763
 30
0.0
 10
77.36301553547176
 20
44.45983019564385
 30
0.0
 10
77.28188645732916
 20
44.92035588740409
 30
0.0
 10
77.28099538108208
 20
45.61982098997576
 30
0.0
 10
77.30082829779872
 20
45.85407312207327
 30
0.0
 10
77.37816619843075
 20
46.31744854268707
 30
0.0
 10
77.4355926956951
 20
46.54758272756091
 30
0.0
 10
77.65734281366261
 20
47.23388805794725
 30
0.0
 10
77.87094429829328
 20
47.68597794405473
 30
0.0
 10
78.12979484448383
 20
48.13432024162369
 30
0.0
  0
LINE
  5
6F
330
1F
100
AcDbEntity
  8
0
  6
Continuous
 62
     7
370
    25
100
AcDbLine
 10
78.1297948445
 20
48.1343202416
 30
0.0
 11
82.1441081578
 21
48.1343202416
 31
0.0
  0
SPLINE
  5
70
330
1F
100
AcDbEntity
  8
0
  6
Continuous
 62
     7
370
    25
100
AcDbSpline
210
0.0
220
0.0
230
1.0
 70
     8
 71
     3
 72
    16
 73
    12
 74
     0
 42
0.00000001
 43
0.00000001
 40
0.0
 40
0.0
 40
0.0
 40
0.0
 40
0.2499999999999999
 40
0.2499999999999999
 40
0.4999999999999998
 40
0.4999999999999998
 40
0.6249999999999998
 40
0.6249999999999998
 40
0.7499999999999997
 40
0.7499999999999997
 40
1.0
 40
1.0
 40
1.0
 40
1.0
 10
82.14410815782577
 20
42.6494926843222
 30
0.0
 10
82.40263643330813
 20
43.09727679265079
 30
0.0
 10
82.61571058005077
 20
43.54832561458763
 30
0.0
 10
82.91088746683765
 20
44.45983019564385
 30
0.0
 10
82.99201654498026
 20
44.92035588740409
 30
0.0
 10
82.99290762122733
 20
45.61982098997576
 30
0.0
 10
82.9730747045107
 20
45.85407312207327
 30
0.0
 10
82.89573680387868
 20
46.31744854268707
 30
0.0
 10
82.83831030661432
 20
46.54758272756091
 30
0.0
 10
82.6165601886468
 20
47.23388805794725
 30
0.0
 10
82.40295870401613
 20
47.68597794405473
 30
0.0
 10
82.14410815782561
 20
48.13432024162369
 30
0.0
  0
LINE
  5
71
330
1F
100
AcDbEntity
  8
0
  6
Continuous
 62
     7
370
    25
100
AcDbLine
 10
78.1297948445
 20
42.6494926843
 30
0.0
 11
82.1441081578
 21
42.6494926843
 31
0.0
  0
LINE
  5
72
330
1F
100
AcDbEntity
  8
0
  6
Continuous
 62
     7
370
    25
100
AcDbLine
 10
80.7841200983
 20
40.281152916
 30
0.0
 11
80.3230518873
 21
40.281152916
 31
0.0
  0
SPLINE
  5
73
330
1F
100
AcDbEntity
  8
0
  6
Continuous
 62
     7
370
    25
100
AcDbSpline
210
0.0
220
0.0
230
1.0
 70
     8
 71
     3
 72
    11
 73
     7
 74
     0
 42
0.00000001
 43
0.00000001
 40
0.0
 40
0.0
 40
0.0
 40
0.0
 40
0.2499695538886869
 40
0.4922399851273395
 40
0.7405148106355955
 40
1.0
 40
1.0
 40
1.0
 40
1.0
 10
80.73135304555626
 20
39.66435754918709
 30
0.0
 10
80.73951568228186
 20
39.67326004529231
 30
0.0
 10
80.75558954454992
 20
39.69079083847193
 30
0.0
 10
80.77205934717757
 20
39.72278175444072
 30
0.0
 10
80.78248825105165
 20
39.75765193094112
 30
0.0
 10
80.78356820149038
 20
39.78214798804636
 30
0.0
 10
80.78412009832331
 20
39.79466642949598
 30
0.0
  0
SPLINE
  5
74
330
1F
100
AcDbEntity
  8
0
  6
Continuous
 62
     7
370
    25
100
AcDbSpline
210
0.0
220
0.0
230
1.0
 70
     8
 71
     3
 72
    11
 73
     7
 74
     0
 42
0.00000001
 43
0.00000001
 40
0.0
 40
0.0
 40
0.0
 40
0.0
 40
0.2516095171558489
 40
0.4964930798665572
 40
0.7426069856111285
 40
1.0
 40
1.0
 40
1.0
 40
1.0
 10
80.56629513049835
 20
39.59485947968903
 30
0.0
 10
80.5817232615525
 20
39.59575024268901
 30
0.0
 10
80.6121671032253
 20
39.59750795706439
 30
0.0
 10
80.65610576757796
 20
39.61080772142494
 30
0.0
 10
80.6966304253024
 20
39.6330856890334
 30
0.0
 10
80.71960726994355
 20
39.65377907758351
 30
0.0
 10
80.73135304555626
 20
39.66435754918709
 30
0.0
  0
SPLINE
  5
75
330
1F
100
AcDbEntity
  8
0
  6
Continuous
 62
     7
370
    25
100
AcDbSpline
210
0.0
220
0.0
230
1.0
 70
     8
 71
     3
 72
    15
 73
    11
 74
     0
 42
0.00000001
 43
0.00000001
 40
0.0
 40
0.0
 40
0.0
 40
0.0
 40
0.121504244690735
 40
0.2399194382132703
 40
0.3607014484775896
 40
0.4813982058565624
 40
0.6046686543565305
 40
0.7308278400410381
 40
0.8619579002966858
 40
1.0
 40
1.0
 40
1.0
 40
1.0
 10
80.38386269806591
 20
39.66435754918709
 30
0.0
 10
80.3897291263633
 20
39.65871930841061
 30
0.0
 10
80.4013128383975
 20
39.64758617011533
 30
0.0
 10
80.42118263463195
 20
39.63381118295234
 30
0.0
 10
80.44182742031998
 20
39.62136517040403
 30
0.0
 10
80.46436395717417
 20
39.61191670437402
 30
0.0
 10
80.48782370283436
 20
39.60388245266373
 30
0.0
 10
80.5128658000086
 20
39.59916257212532
 30
0.0
 10
80.53903410760302
 20
39.5951526500709
 30
0.0
 10
80.55705388034258
 20
39.59495886190398
 30
0.0
 10
80.56629513049835
 20
39.59485947968903
 30
0.0
  0
SPLINE
  5
76
330
1F
100
AcDbEntity
  8
0
  6
Continuous
 62
     7
370
    25
100
AcDbSpline
210
0.0
220
0.0
230
1.0
 70
     8
 71
     3
 72
    11
 73
     7
 74
     0
 42
0.00000001
 43
0.00000001
 40
0.0
 40
0.0
 40
0.0
 40
0.0
 40
0.2562600332085395
 40
0.5016208045865233
 40
0.7449078564687254
 40
1.0
 40
1.0
 40
1.0
 40
1.0
 10
80.32305188725509
 20
39.81204094687049
 30
0.0
 10
80.32377905817462
 20
39.79801652546058
 30
0.0
 10
80.32520247195144
 20
39.77056416988481
 30
0.0
 10
80.33687263812706
 20
39.73119554280571
 30
0.0
 10
80.35618536521166
 20
39.6950122028088
 30
0.0
 10
80.37449237460423
 20
39.67473586206695
 30
0.0
 10
80.38386269806591
 20
39.66435754918709
 30
0.0
  0
LINE
  5
77
330
1F
100
AcDbEntity
  8
0
  6
Continuous
 62
     7
370
    25
100
AcDbLine
 10
80.3230518873
 20
40.281152916
 30
0.0
 11
80.3230518873
 21
39.8120409469
 31
0.0
  0
LINE
  5
78
330
1F
100
AcDbEntity
  8
0
  6
Continuous
 62
     7
370
    25
100
AcDbLine
 10
80.7841200983
 20
39.7946664295
 30
0.0
 11
80.7841200983
 21
40.281152916
 31
0.0
  0
SPLINE
  5
79
330
1F
100
AcDbEntity
  8
0
  6
Continuous
 62
     7
370
    25
100
AcDbSpline
210
0.0
220
0.0
230
1.0
 70
     8
 71
     3
 72
    14
 73
    10
 74
     0
 42
0.00000001
 43
0.00000001
 40
0.0
 40
0.0
 40
0.0
 40
0.0
 40
0.25
 40
0.25
 40
0.5
 40
0.5
 40
0.75
 40
0.75
 40
1.0
 40
1.0
 40
1.0
 40
1.0
 10
78.129794844484
 20
31.67983756971933
 30
0.0
 10
77.87205033624926
 20
32.57269073698817
 30
0.0
 10
77.65889425589934
 20
33.4737920977209
 30
0.0
 10
77.36297902375736
 20
35.30011630417392
 30
0.0
 10
77.28121026547919
 20
36.22644782889291
 30
0.0
 10
77.28136798733574
 20
38.10564449006369
 30
0.0
 10
77.36313389065997
 20
39.03039489623146
 30
0.0
 10
77.65898054240638
 20
40.8558453725318
 30
0.0
 10
77.87207493471523
 20
41.75672472863911
 30
0.0
 10
78.129794844484
 20
42.64949268432223
 30
0.0
  0
SPLINE
  5
7A
330
1F
100
AcDbEntity
  8
0
  6
Continuous
 62
     7
370
    25
100
AcDbSpline
210
0.0
220
0.0
230
1.0
 70
     8
 71
     3
 72
    14
 73
    10
 74
     0
 42
0.00000001
 43
0.00000001
 40
0.0
 40
0.0
 40
0.0
 40
0.0
 40
0.25
 40
0.25
 40
0.5
 40
0.5
 40
0.75
 40
0.75
 40
1.0
 40
1.0
 40
1.0
 40
1.0
 10
82.14410815782541
 20
31.67983756971933
 30
0.0
 10
82.40185266606015
 20
32.57269073698817
 30
0.0
 10
82.61500874641007
 20
33.4737920977209
 30
0.0
 10
82.91092397855206
 20
35.30011630417392
 30
0.0
 10
82.99269273683022
 20
36.22644782889291
 30
0.0
 10
82.99253501497367
 20
38.10564449006369
 30
0.0
 10
82.91076911164946
 20
39.03039489623146
 30
0.0
 10
82.61492245990303
 20
40.8558453725318
 30
0.0
 10
82.40182806759418
 20
41.75672472863911
 30
0.0
 10
82.14410815782541
 20
42.64949268432223
 30
0.0
  0
LINE
  5
7B
330
1F
100
AcDbEntity
  8
0
  6
Continuous
 62
     7
370
    25
100
AcDbLine
 10
78.1297948445
 20
31.6798375697
 30
0.0
 11
82.1441081578
 21
31.6798375697
 31
0.0
  0
LINE
  5
7C
330
1F
100
AcDbEntity
  8
0
  6
Continuous
 62
     7
370
    25
100
AcDbLine
 10
79.4717005359
 20
33.4713073561
 30
0.0
 11
80.9572217714
 21
33.4713073561
 31
0.0
  0
LINE
  5
7D
330
1F
100
AcDbEntity
  8
0
  6
Continuous
 62
     7
370
    25
100
AcDbLine
 10
79.4717005359
 20
33.2657089005
 30
0.0
 11
79.4717005359
 21
33.4713073561
 31
0.0
  0
LINE
  5
7E
330
1F
100
AcDbEntity
  8
0
  6
Continuous
 62
     7
370
    25
100
AcDbLine
 10
80.1152011794
 20
33.2657089005
 30
0.0
 11
79.4717005359
 21
33.2657089005
 31
0.0
  0
LINE
  5
7F
330
1F
100
AcDbEntity
  8
0
  6
Continuous
 62
     7
370
    25
100
AcDbLine
 10
80.1152011794
 20
32.8139714488
 30
0.0
 11
80.1152011794
 21
33.2657089005
 31
0.0
  0
LINE
  5
80
330
1F
100
AcDbEntity
  8
0
  6
Continuous
 62
     7
370
    25
100
AcDbLine
 10
79.4717005359
 20
32.5012301361
 30
0.0
 11
80.1152011794
 21
32.8139714488
 31
0.0
  0
LINE
  5
81
330
1F
100
AcDbEntity
  8
0
  6
Continuous
 62
     7
370
    25
100
AcDbLine
 10
79.4717005359
 20
32.2840486689
 30
0.0
 11
79.4717005359
 21
32.5012301361
 31
0.0
  0
LINE
  5
82
330
1F
100
AcDbEntity
  8
0
  6
Continuous
 62
     7
370
    25
100
AcDbLine
 10
80.1406194548
 20
32.6228517577
 30
0.0
 11
79.4717005359
 21
32.2840486689
 31
0.0
  0
SPLINE
  5
83
330
1F
100
AcDbEntity
  8
0
  6
Continuous
 62
     7
370
    25
100
AcDbSpline
210
0.0
220
0.0
230
1.0
 70
     8
 71
     3
 72
    11
 73
     7
 74
     0
 42
0.00000001
 43
0.00000001
 40
0.0
 40
0.0
 40
0.0
 40
0.0
 40
0.22562098369667
 40
0.4629707984282313
 40
0.7196090303667908
 40
0.9999999999999999
 40
0.9999999999999999
 40
0.9999999999999999
 40
0.9999999999999999
 10
80.218804783008
 20
32.44910658393613
 30
0.0
 10
80.20911495894572
 20
32.46003414243395
 30
0.0
 10
80.18923158857278
 20
32.48245732488675
 30
0.0
 10
80.16748198886498
 20
32.52386230791315
 30
0.0
 10
80.14997454933763
 20
32.57084057095231
 30
0.0
 10
80.14382843364955
 20
32.60501091206427
 30
0.0
 10
80.14061945482266
 20
32.6228517576813
 30
0.0
  0
SPLINE
  5
84
330
1F
100
AcDbEntity
  8
0
  6
Continuous
 62
     7
370
    25
100
AcDbSpline
210
0.0
220
0.0
230
1.0
 70
     8
 71
     3
 72
    15
 73
    11
 74
     0
 42
0.00000001
 43
0.00000001
 40
0.0
 40
0.0
 40
0.0
 40
0.0
 40
0.1423455204062214
 40
0.2780244263979216
 40
0.4068124412900598
 40
0.5301826523562205
 40
0.6505629722368655
 40
0.7677901753368305
 40
0.8838874421453795
 40
1.0
 40
1.0
 40
1.0
 40
1.0
 10
80.5315460957493
 20
32.33617222100177
 30
0.0
 10
80.5153315889798
 20
32.33640019997517
 30
0.0
 10
80.48366196614201
 20
32.33684548074786
 30
0.0
 10
80.4376527406471
 20
32.34265933942898
 30
0.0
 10
80.39422471592013
 20
32.35094841221164
 30
0.0
 10
80.3537495144006
 20
32.36385927804251
 30
0.0
 10
80.31564896817424
 20
32.37939500312394
 30
0.0
 10
80.2802616096671
 20
32.39880094015263
 30
0.0
 10
80.24786595262067
 20
32.42209080730184
 30
0.0
 10
80.2284922647988
 20
32.4401009297351
 30
0.0
 10
80.218804783008
 20
32.44910658393613
 30
0.0
  0
SPLINE
  5
85
330
1F
100
AcDbEntity
  8
0
  6
Continuous
 62
     7
370
    25
100
AcDbSpline
210
0.0
220
0.0
230
1.0
 70
     8
 71
     3
 72
    15
 73
    11
 74
     0
 42
0.00000001
 43
0.00000001
 40
0.0
 40
0.0
 40
0.0
 40
0.0
 40
0.1161090580639828
 40
0.2322028255427873
 40
0.3494264952551893
 40
0.4689336287943341
 40
0.5931998205909935
 40
0.7219839536369554
 40
0.8576587700816363
 40
1.0
 40
1.0
 40
1.0
 40
1.0
 10
80.84428740849062
 20
32.44910658393613
 30
0.0
 10
80.83459953772345
 20
32.44010191036337
 30
0.0
 10
80.81522507200009
 20
32.42209374905752
 30
0.0
 10
80.78283526755072
 20
32.3987891272272
 30
0.0
 10
80.74751231439686
 20
32.37948786171972
 30
0.0
 10
80.70950320348703
 20
32.36371500122011
 30
0.0
 10
80.66895099304793
 20
32.35101916667107
 30
0.0
 10
80.62544438585704
 20
32.34264458107589
 30
0.0
 10
80.57942889257
 20
32.33684946650536
 30
0.0
 10
80.54776015121108
 20
32.33640154963095
 30
0.0
 10
80.5315460957493
 20
32.33617222100177
 30
0.0
  0
SPLINE
  5
86
330
1F
100
AcDbEntity
  8
0
  6
Continuous
 62
     7
370
    25
100
AcDbSpline
210
0.0
220
0.0
230
1.0
 70
     8
 71
     3
 72
    15
 73
    11
 74
     0
 42
0.00000001
 43
0.00000001
 40
0.0
 40
0.0
 40
0.0
 40
0.0
 40
0.1342477572737641
 40
0.263461772575685
 40
0.3884666271730292
 40
0.5118790511869558
 40
0.6324080741525879
 40
0.753552524823548
 40
0.8755084805282739
 40
0.9999999999999999
 40
0.9999999999999999
 40
0.9999999999999999
 40
0.9999999999999999
 10
80.95722177142497
 20
32.73578612061566
 30
0.0
 10
80.95698914315552
 20
32.72160736785073
 30
0.0
 10
80.9565326092255
 20
32.693781507574
 30
0.0
 10
80.95068682499266
 20
32.6531234440012
 30
0.0
 10
80.94224290349237
 20
32.61412633614334
 30
0.0
 10
80.92958662504923
 20
32.57721447524718
 30
0.0
 10
80.91367145501773
 20
32.54207590590323
 30
0.0
 10
80.89445451796168
 20
32.50876550105873
 30
0.0
 10
80.87100672956466
 20
32.47773506180619
 30
0.0
 10
80.85325472906827
 20
32.45871464014382
 30
0.0
 10
80.84428740849062
 20
32.44910658393613
 30
0.0
  0
LINE
  5
87
330
1F
100
AcDbEntity
  8
0
  6
Continuous
 62
     7
370
    25
100
AcDbLine
 10
80.9572217714
 20
33.4713073561
 30
0.0
 11
80.9572217714
 21
32.7357861206
 31
0.0
  0
LINE
  5
88
330
1F
100
AcDbEntity
  8
0
  6
Continuous
 62
     7
370
    25
100
AcDbLine
 10
80.4446735089
 20
34.4124270473
 30
0.0
 11
80.4446735089
 21
34.6122339971
 31
0.0
  0
SPLINE
  5
89
330
1F
100
AcDbEntity
  8
0
  6
Continuous
 62
     7
370
    25
100
AcDbSpline
210
0.0
220
0.0
230
1.0
 70
     8
 71
     3
 72
    15
 73
    11
 74
     0
 42
0.00000001
 43
0.00000001
 40
0.0
 40
0.0
 40
0.0
 40
0.0
 40
0.1046424622149466
 40
0.2111208971546078
 40
0.3233806047009372
 40
0.4420520864308682
 40
0.5671630372768656
 40
0.701971043008228
 40
0.8453718683440633
 40
1.0
 40
1.0
 40
1.0
 40
1.0
 10
80.74872756293078
 20
34.31686720169675
 30
0.0
 10
80.740346113091
 20
34.3246199496966
 30
0.0
 10
80.723436159214
 20
34.34026146919545
 30
0.0
 10
80.69382066413995
 20
34.35963293524939
 30
0.0
 10
80.66083656815597
 20
34.3759918655676
 30
0.0
 10
80.62438761844862
 20
34.38948971098671
 30
0.0
 10
80.5843644865091
 20
34.3997263189249
 30
0.0
 10
80.54098217725026
 20
34.40694414191638
 30
0.0
 10
80.49399857298451
 20
34.41153233927964
 30
0.0
 10
80.46152300200976
 20
34.41212141408234
 30
0.0
 10
80.44467350887672
 20
34.4124270472566
 30
0.0
  0
SPLINE
  5
8A
330
1F
100
AcDbEntity
  8
0
  6
Continuous
 62
     7
370
    25
100
AcDbSpline
210
0.0
220
0.0
230
1.0
 70
     8
 71
     3
 72
    11
 73
     7
 74
     0
 42
0.00000001
 43
0.00000001
 40
0.0
 40
0.0
 40
0.0
 40
0.0
 40
0.2497828004743467
 40
0.4924940338313421
 40
0.7395338078652255
 40
1.0
 40
1.0
 40
1.0
 40
1.0
 10
80.80085111505431
 20
34.19524558007512
 30
0.0
 10
80.8002578103753
 20
34.20658089709192
 30
0.0
 10
80.79908799798586
 20
34.22893061849689
 30
0.0
 10
80.7889393332737
 20
34.2611942539958
 30
0.0
 10
80.77229698940354
 20
34.29115147496906
 30
0.0
 10
80.75672139278227
 20
34.30814543054096
 30
0.0
 10
80.74872756293078
 20
34.31686720169675
 30
0.0
  0
SPLINE
  5
8B
330
1F
100
AcDbEntity
  8
0
  6
Continuous
 62
     7
370
    25
100
AcDbSpline
210
0.0
220
0.0
230
1.0
 70
     8
 71
     3
 72
    11
 73
     7
 74
     0
 42
0.00000001
 43
0.00000001
 40
0.0
 40
0.0
 40
0.0
 40
0.0
 40
0.2490517621318992
 40
0.4918163964483705
 40
0.7399854914835424
 40
1.0
 40
1.0
 40
1.0
 40
1.0
 10
80.74872756293078
 20
34.06493669976625
 30
0.0
 10
80.75675319085481
 20
34.07385866168645
 30
0.0
 10
80.7726018456527
 20
34.09147735718688
 30
0.0
 10
80.78921544208504
 20
34.12329430569632
 30
0.0
 10
80.79911277532601
 20
34.15829329160475
 30
0.0
 10
80.80026273356393
 20
34.18273821905166
 30
0.0
 10
80.80085111505431
 20
34.19524558007512
 30
0.0
  0
SPLINE
  5
8C
330
1F
100
AcDbEntity
  8
0
  6
Continuous
 62
     7
370
    25
100
AcDbSpline
210
0.0
220
0.0
230
1.0
 70
     8
 71
     3
 72
    15
 73
    11
 74
     0
 42
0.00000001
 43
0.00000001
 40
0.0
 40
0.0
 40
0.0
 40
0.0
 40
0.132290013348315
 40
0.2607898618052656
 40
0.3858441649046994
 40
0.5080904451166504
 40
0.6294055086180658
 40
0.7510893117646905
 40
0.8732553966668102
 40
1.0
 40
1.0
 40
1.0
 40
1.0
 10
80.57498238918559
 20
33.99543863026818
 30
0.0
 10
80.58347373468307
 20
33.99554535718259
 30
0.0
 10
80.60021314503442
 20
33.99575575324012
 30
0.0
 10
80.624658847901
 20
33.99977602743557
 30
0.0
 10
80.64833285868434
 20
34.00444879644175
 30
0.0
 10
80.67057326976774
 20
34.01257298824773
 30
0.0
 10
80.69209111870178
 20
34.02193034271956
 30
0.0
 10
80.71184587625672
 20
34.03457015006556
 30
0.0
 10
80.73132365535966
 20
34.0482444861801
 30
0.0
 10
80.74285555364177
 20
34.05930481320105
 30
0.0
 10
80.74872756293078
 20
34.06493669976625
 30
0.0
  0
SPLINE
  5
8D
330
1F
100
AcDbEntity
  8
0
  6
Continuous
 62
     7
370
    25
100
AcDbSpline
210
0.0
220
0.0
230
1.0
 70
     8
 71
     3
 72
    15
 73
    11
 74
     0
 42
0.00000001
 43
0.00000001
 40
0.0
 40
0.0
 40
0.0
 40
0.0
 40
0.1414377028612575
 40
0.2759868619651535
 40
0.4050827468357282
 40
0.5293092515363201
 40
0.6494060973408682
 40
0.7665008015291713
 40
0.8835214776401928
 40
1.0
 40
1.0
 40
1.0
 40
1.0
 10
80.24486655906976
 20
34.14312202795158
 30
0.0
 10
80.2577533489711
 20
34.13130411540147
 30
0.0
 10
80.28289929403186
 20
34.10824386672873
 30
0.0
 10
80.32312250870996
 20
34.07833522475737
 30
0.0
 10
80.363631481342
 20
34.05262121794205
 30
0.0
 10
80.405001628161
 20
34.03202891089213
 30
0.0
 10
80.44665909858205
 20
34.01575325541111
 30
0.0
 10
80.4888979065288
 20
34.00407966759275
 30
0.0
 10
80.53171285137117
 20
33.99666882721493
 30
0.0
 10
80.56058155299564
 20
33.99584806068057
 30
0.0
 10
80.57498238918559
 20
33.99543863026818
 30
0.0
  0
SPLINE
  5
8E
330
1F
100
AcDbEntity
  8
0
  6
Continuous
 62
     7
370
    25
100
AcDbSpline
210
0.0
220
0.0
230
1.0
 70
     8
 71
     3
 72
    15
 73
    11
 74
     0
 42
0.00000001
 43
0.00000001
 40
0.0
 40
0.0
 40
0.0
 40
0.0
 40
0.1476613860734705
 40
0.2888924423695142
 40
0.424106550057424
 40
0.551995553230679
 40
0.6738679309355682
 40
0.7893162665477799
 40
0.8978915155028955
 40
1.0
 40
1.0
 40
1.0
 40
1.0
 10
79.85393991814313
 20
34.49929963412919
 30
0.0
 10
79.87301022666563
 20
34.48158147922974
 30
0.0
 10
79.91032037356526
 20
34.44691675624905
 30
0.0
 10
79.96543398028767
 20
34.3963964177422
 30
0.0
 10
80.01806152952244
 20
34.34832309514693
 30
0.0
 10
80.06807452799791
 20
34.30244785514278
 30
0.0
 10
80.11559205857095
 20
34.25900632442305
 30
0.0
 10
80.1609298707722
 20
34.21822944026296
 30
0.0
 10
80.2038099546925
 20
34.17993138268771
 30
0.0
 10
80.23146396331772
 20
34.15513814348049
 30
0.0
 10
80.24486655906976
 20
34.14312202795158
 30
0.0
  0
SPLINE
  5
8F
330
1F
100
AcDbEntity
  8
0
  6
Continuous
 62
     7
370
    25
100
AcDbSpline
210
0.0
220
0.0
230
1.0
 70
     8
 71
     3
 72
    15
 73
    11
 74
     0
 42
0.00000001
 43
0.00000001
 40
0.0
 40
0.0
 40
0.0
 40
0.0
 40
0.0824284987423308
 40
0.1761528009252875
 40
0.2809817587265287
 40
0.3985256681357573
 40
0.5291842754648531
 40
0.6726050610319612
 40
0.829398919453103
 40
1.0
 40
1.0
 40
1.0
 40
1.0
 10
79.61069667489988
 20
34.64698303181258
 30
0.0
 10
79.61836176985561
 20
34.64511012541697
 30
0.0
 10
79.6347423659651
 20
34.64110765403278
 30
0.0
 10
79.65977101403688
 20
34.63112073891485
 30
0.0
 10
79.68689597428845
 20
34.61775537551755
 30
0.0
 10
79.71618750593876
 20
34.60091741487525
 30
0.0
 10
79.74758651643711
 20
34.58049099417222
 30
0.0
 10
79.78152386300766
 20
34.55710125923666
 30
0.0
 10
79.81715423755797
 20
34.52954522726431
 30
0.0
 10
79.84133805666119
 20
34.50966102391631
 30
0.0
 10
79.85393991814313
 20
34.49929963412919
 30
0.0
  0
LINE
  5
90
330
1F
100
AcDbEntity
  8
0
  6
Continuous
 62
     7
370
    25
100
AcDbLine
 10
79.4636567779
 20
34.6469830318
 30
0.0
 11
79.6106966749
 21
34.6469830318
 31
0.0
  0
LINE
  5
91
330
1F
100
AcDbEntity
  8
0
  6
Continuous
 62
     7
370
    25
100
AcDbLine
 10
79.4636567779
 20
33.7608826457
 30
0.0
 11
79.4636567779
 21
34.6469830318
 31
0.0
  0
LINE
  5
92
330
1F
100
AcDbEntity
  8
0
  6
Continuous
 62
     7
370
    25
100
AcDbLine
 10
79.6280711923
 20
33.7608826457
 30
0.0
 11
79.4636567779
 21
33.7608826457
 31
0.0
  0
LINE
  5
93
330
1F
100
AcDbEntity
  8
0
  6
Continuous
 62
     7
370
    25
100
AcDbLine
 10
79.6280711923
 20
34.4124270473
 30
0.0
 11
79.6280711923
 21
33.7608826457
 31
0.0
  0
SPLINE
  5
94
330
1F
100
AcDbEntity
  8
0
  6
Continuous
 62
     7
370
    25
100
AcDbSpline
210
0.0
220
0.0
230
1.0
 70
     8
 71
     3
 72
     9
 73
     5
 74
     0
 42
0.00000001
 43
0.00000001
 40
0.0
 40
0.0
 40
0.0
 40
0.0
 40
0.5155288090837097
 40
1.0
 40
1.0
 40
1.0
 40
1.0
 10
79.76706733127054
 20
34.30817994300949
 30
0.0
 10
79.74428411047627
 20
34.32756773865243
 30
0.0
 10
79.70009022568685
 20
34.36517532779455
 30
0.0
 10
79.6515752838994
 20
34.39700600241537
 30
0.0
 10
79.6280711922744
 20
34.4124270472566
 30
0.0
  0
LINE
  5
95
330
1F
100
AcDbEntity
  8
0
  6
Continuous
 62
     7
370
    25
100
AcDbLine
 10
79.9234379876
 20
34.169183804
 30
0.0
 11
79.7670673313
 21
34.308179943
 31
0.0
  0
SPLINE
  5
96
330
1F
100
AcDbEntity
  8
0
  6
Continuous
 62
     7
370
    25
100
AcDbSpline
210
0.0
220
0.0
230
1.0
 70
     8
 71
     3
 72
     9
 73
     5
 74
     0
 42
0.00000001
 43
0.00000001
 40
0.0
 40
0.0
 40
0.0
 40
0.0
 40
0.5004988252029442
 40
0.9999999999999999
 40
0.9999999999999999
 40
0.9999999999999999
 40
0.9999999999999999
 10
80.21011752432074
 20
33.91725330208285
 30
0.0
 10
80.16131509824567
 20
33.9581743476296
 30
0.0
 10
80.063807524566
 20
34.03993487030447
 30
0.0
 10
79.97019670299142
 20
34.12612949014287
 30
0.0
 10
79.9234379876412
 20
34.16918380401335
 30
0.0
  0
SPLINE
  5
97
330
1F
100
AcDbEntity
  8
0
  6
Continuous
 62
     7
370
    25
100
AcDbSpline
210
0.0
220
0.0
230
1.0
 70
     8
 71
     3
 72
    15
 73
    11
 74
     0
 42
0.00000001
 43
0.00000001
 40
0.0
 40
0.0
 40
0.0
 40
0.0
 40
0.1293972986426973
 40
0.2563931032053937
 40
0.3803289534191742
 40
0.5027804241113405
 40
0.6257089540099045
 40
0.7486563126058704
 40
0.8729651434356746
 40
1.0
 40
1.0
 40
1.0
 40
1.0
 10
80.57498238918559
 20
33.78694442177397
 30
0.0
 10
80.55791196303295
 20
33.78728906261335
 30
0.0
 10
80.52408792203501
 20
33.78797194807717
 30
0.0
 10
80.4742224787685
 20
33.79420653383553
 30
0.0
 10
80.42603167273269
 20
33.8045767512704
 30
0.0
 10
80.37938415986594
 20
33.81878071338612
 30
0.0
 10
80.33428117018197
 20
33.83703843259219
 30
0.0
 10
80.29106743990441
 20
33.85986632668089
 30
0.0
 10
80.24917422563124
 20
33.88613795431412
 30
0.0
 10
80.22323021934025
 20
33.90680679605374
 30
0.0
 10
80.21011752432074
 20
33.91725330208285
 30
0.0
  0
SPLINE
  5
98
330
1F
100
AcDbEntity
  8
0
  6
Continuous
 62
     7
370
    25
100
AcDbSpline
210
0.0
220
0.0
230
1.0
 70
     8
 71
     3
 72
    15
 73
    11
 74
     0
 42
0.00000001
 43
0.00000001
 40
0.0
 40
0.0
 40
0.0
 40
0.0
 40
0.1270527522076904
 40
0.2522753243044998
 40
0.3739697899787147
 40
0.4948832629277704
 40
0.6176556772794566
 40
0.7419399124466166
 40
0.8684128160693885
 40
1.0
 40
1.0
 40
1.0
 40
1.0
 10
80.85297466717788
 20
33.89987878470833
 30
0.0
 10
80.84349195642213
 20
33.89088810752107
 30
0.0
 10
80.82466313225557
 20
33.87303626280521
 30
0.0
 10
80.79377437846969
 20
33.8500123962214
 30
0.0
 10
80.76134312712766
 20
33.83045975879762
 30
0.0
 10
80.72721135508189
 20
33.81466447673941
 30
0.0
 10
80.6915207486199
 20
33.80190737062995
 30
0.0
 10
80.65399677158788
 20
33.79355177879398
 30
0.0
 10
80.61506793550103
 20
33.78761951142609
 30
0.0
 10
80.58851961770482
 20
33.78717240526757
 30
0.0
 10
80.57498238918559
 20
33.78694442177397
 30
0.0
  0
SPLINE
  5
99
330
1F
100
AcDbEntity
  8
0
  6
Continuous
 62
     7
370
    25
100
AcDbSpline
210
0.0
220
0.0
230
1.0
 70
     8
 71
     3
 72
    15
 73
    11
 74
     0
 42
0.00000001
 43
0.00000001
 40
0.0
 40
0.0
 40
0.0
 40
0.0
 40
0.1401156952848877
 40
0.2734369515897458
 40
0.4007170918852055
 40
0.5244111544238709
 40
0.6451326608364119
 40
0.7627629456192484
 40
0.8809824433211503
 40
1.0
 40
1.0
 40
1.0
 40
1.0
 10
80.96590903011223
 20
34.20393283876238
 30
0.0
 10
80.96568200392444
 20
34.18836108549915
 30
0.0
 10
80.9652389604196
 20
34.15797267872896
 30
0.0
 10
80.95941223164773
 20
34.11378203092993
 30
0.0
 10
80.95104167460876
 20
34.07187238713071
 30
0.0
 10
80.93822201565158
 20
34.03255845636569
 30
0.0
 10
80.92270175299976
 20
33.99539798135297
 30
0.0
 10
80.90310070357617
 20
33.96088677446377
 30
0.0
 10
80.87991040111157
 20
33.92889521532344
 30
0.0
 10
80.86197335839651
 20
33.909572595169
 30
0.0
 10
80.85297466717788
 20
33.89987878470833
 30
0.0
  0
SPLINE
  5
9A
330
1F
100
AcDbEntity
  8
0
  6
Continuous
 62
     7
370
    25
100
AcDbSpline
210
0.0
220
0.0
230
1.0
 70
     8
 71
     3
 72
    15
 73
    11
 74
     0
 42
0.00000001
 43
0.00000001
 40
0.0
 40
0.0
 40
0.0
 40
0.0
 40
0.1305450777958563
 40
0.2575006610529005
 40
0.3807062916981832
 40
0.5030034727056797
 40
0.6241056847467471
 40
0.7465907263580781
 40
0.87229503688128
 40
1.0
 40
1.0
 40
1.0
 40
1.0
 10
80.85297466717788
 20
34.47323785806741
 30
0.0
 10
80.86193822630483
 20
34.4637335635853
 30
0.0
 10
80.87961888067761
 20
34.44498630667371
 30
0.0
 10
80.90284182482726
 20
34.41471133252942
 30
0.0
 10
80.92240324304959
 20
34.38291098292489
 30
0.0
 10
80.93797096984646
 20
34.34965879116058
 30
0.0
 10
80.95096732753247
 20
34.31536196099095
 30
0.0
 10
80.9593314604095
 20
34.27931579920376
 30
0.0
 10
80.96518349169807
 20
34.24209120623865
 30
0.0
 10
80.96566591440707
 20
34.21671906515121
 30
0.0
 10
80.96590903011223
 20
34.20393283876238
 30
0.0
  0
SPLINE
  5
9B
330
1F
100
AcDbEntity
  8
0
  6
Continuous
 62
     7
370
    25
100
AcDbSpline
210
0.0
220
0.0
230
1.0
 70
     8
 71
     3
 72
    15
 73
    11
 74
     0
 42
0.00000001
 43
0.00000001
 40
0.0
 40
0.0
 40
0.0
 40
0.0
 40
0.1476270724396857
 40
0.2864810592714895
 40
0.4181894659268067
 40
0.5428808841137348
 40
0.6619178330920029
 40
0.7770087505932002
 40
0.8893050437597241
 40
1.0
 40
1.0
 40
1.0
 40
1.0
 10
80.44467350887672
 20
34.61223399706354
 30
0.0
 10
80.4664606890038
 20
34.6117978902498
 30
0.0
 10
80.50874029489314
 20
34.61095159329431
 30
0.0
 10
80.5702036578149
 20
34.60452728744868
 30
0.0
 10
80.62756116613103
 20
34.59362547063895
 30
0.0
 10
80.68100800289415
 20
34.57869383756235
 30
0.0
 10
80.73022612288021
 20
34.5588883408572
 30
0.0
 10
80.77557126102379
 20
34.53511718507617
 30
0.0
 10
80.81689810607017
 20
34.50683002039386
 30
0.0
 10
80.84100685644572
 20
34.48438151002488
 30
0.0
 10
80.85297466717788
 20
34.47323785806741
 30
0.0
  0
LINE
  5
9C
330
1F
100
AcDbEntity
  8
0
  6
Continuous
 62
     7
370
    25
100
AcDbLine
 10
80.5228588371
 20
35.5330834179
 30
0.0
 11
80.5228588371
 21
35.724203109
 31
0.0
  0
SPLINE
  5
9D
330
1F
100
AcDbEntity
  8
0
  6
Continuous
 62
     7
370
    25
100
AcDbSpline
210
0.0
220
0.0
230
1.0
 70
     8
 71
     3
 72
    15
 73
    11
 74
     0
 42
0.00000001
 43
0.00000001
 40
0.0
 40
0.0
 40
0.0
 40
0.0
 40
0.1017738366845019
 40
0.2081280746103132
 40
0.3195222361320717
 40
0.4377158324105367
 40
0.5640612668215814
 40
0.7002741501736234
 40
0.8452618826189008
 40
1.0
 40
1.0
 40
1.0
 40
1.0
 10
80.74872756293077
 20
35.45489808972764
 30
0.0
 10
80.74265093826715
 20
35.46054522203372
 30
0.0
 10
80.73022420628405
 20
35.47209363970394
 30
0.0
 10
80.70837513287674
 20
35.48640652328854
 30
0.0
 10
80.68403875976043
 20
35.49890274003362
 30
0.0
 10
80.65724114380332
 20
35.51006526833434
 30
0.0
 10
80.62735753111174
 20
35.5184355387423
 30
0.0
 10
80.59496344880016
 20
35.52566899730589
 30
0.0
 10
80.55974095469851
 20
35.53027734732358
 30
0.0
 10
80.5354166411123
 20
35.53212799325541
 30
0.0
 10
80.52285883706205
 20
35.53308341791297
 30
0.0
  0
SPLINE
  5
9E
330
1F
100
AcDbEntity
  8
0
  6
Continuous
 62
     7
370
    25
100
AcDbSpline
210
0.0
220
0.0
230
1.0
 70
     8
 71
     3
 72
    11
 73
     7
 74
     0
 42
0.00000001
 43
0.00000001
 40
0.0
 40
0.0
 40
0.0
 40
0.0
 40
0.2450868805219031
 40
0.4875552456976431
 40
0.7346288455311485
 40
1.0
 40
1.0
 40
1.0
 40
1.0
 10
80.80953837374157
 20
35.31590195073149
 30
0.0
 10
80.80878294676148
 20
35.32864244761534
 30
0.0
 10
80.80728016380509
 20
35.35398732154446
 30
0.0
 10
80.79550678488827
 20
35.39065573225849
 30
0.0
 10
80.77608835619878
 20
35.42505944945778
 30
0.0
 10
80.75806237495355
 20
35.44471789885355
 30
0.0
 10
80.74872756293077
 20
35.45489808972764
 30
0.0
  0
SPLINE
  5
9F
330
1F
100
AcDbEntity
  8
0
  6
Continuous
 62
     7
370
    25
100
AcDbSpline
210
0.0
220
0.0
230
1.0
 70
     8
 71
     3
 72
    11
 73
     7
 74
     0
 42
0.00000001
 43
0.00000001
 40
0.0
 40
0.0
 40
0.0
 40
0.0
 40
0.2388203430261979
 40
0.4777994110081064
 40
0.728823372976995
 40
1.0
 40
1.0
 40
1.0
 40
1.0
 10
80.75741482161803
 20
35.17690581173536
 30
0.0
 10
80.76547217116592
 20
35.18603027962208
 30
0.0
 10
80.78159222534342
 20
35.20428527970624
 30
0.0
 10
80.79807454585544
 20
35.23787404126763
 30
0.0
 10
80.80788404978627
 20
35.27555118845066
 30
0.0
 10
80.80897292519938
 20
35.30211004520126
 30
0.0
 10
80.80953837374157
 20
35.31590195073149
 30
0.0
  0
SPLINE
  5
A0
330
1F
100
AcDbEntity
  8
0
  6
Continuous
 62
     7
370
    25
100
AcDbSpline
210
0.0
220
0.0
230
1.0
 70
     8
 71
     3
 72
    15
 73
    11
 74
     0
 42
0.00000001
 43
0.00000001
 40
0.0
 40
0.0
 40
0.0
 40
0.0
 40
0.1380420997033151
 40
0.2691721599589619
 40
0.3953313456434693
 40
0.5186017941434374
 40
0.6392985515224101
 40
0.7600805617867294
 40
0.8784957553092647
 40
1.0
 40
1.0
 40
1.0
 40
1.0
 10
80.57498238918559
 20
35.10740774223729
 30
0.0
 10
80.58422363934136
 20
35.10750712445224
 30
0.0
 10
80.60224341208091
 20
35.10770091261917
 30
0.0
 10
80.62841171967533
 20
35.11171083467358
 30
0.0
 10
80.65345381684958
 20
35.116430715212
 30
0.0
 10
80.67691356250977
 20
35.12446496692228
 30
0.0
 10
80.69945009936396
 20
35.1339134329523
 30
0.0
 10
80.72009488505198
 20
35.14635944550061
 30
0.0
 10
80.73996468128642
 20
35.1601344326636
 30
0.0
 10
80.75154839332063
 20
35.17126757095888
 30
0.0
 10
80.75741482161803
 20
35.17690581173536
 30
0.0
  0
SPLINE
  5
A1
330
1F
100
AcDbEntity
  8
0
  6
Continuous
 62
     7
370
    25
100
AcDbSpline
210
0.0
220
0.0
230
1.0
 70
     8
 71
     3
 72
    15
 73
    11
 74
     0
 42
0.00000001
 43
0.00000001
 40
0.0
 40
0.0
 40
0.0
 40
0.0
 40
0.1133059292696167
 40
0.226301537027319
 40
0.3429947497841045
 40
0.4612849748553937
 40
0.5864354642724737
 40
0.7160226876888952
 40
0.8547540019702781
 40
1.0
 40
1.0
 40
1.0
 40
1.0
 10
80.37517543937865
 20
35.17690581173536
 30
0.0
 10
80.38113348948649
 20
35.17124296906105
 30
0.0
 10
80.39303327183487
 20
35.1599327930676
 30
0.0
 10
80.41388435697606
 20
35.14629271187168
 30
0.0
 10
80.43582658901093
 20
35.13384114742776
 30
0.0
 10
80.4601533000094
 20
35.12428861535508
 30
0.0
 10
80.48603812814008
 20
35.11641681196504
 30
0.0
 10
80.51415597705356
 20
35.11163212644029
 30
0.0
 10
80.54387871506444
 20
35.10771933476551
 30
0.0
 10
80.56445713559084
 20
35.10751318284746
 30
0.0
 10
80.57498238918559
 20
35.10740774223729
 30
0.0
  0
SPLINE
  5
A2
330
1F
100
AcDbEntity
  8
0
  6
Continuous
 62
     7
370
    25
100
AcDbSpline
210
0.0
220
0.0
230
1.0
 70
     8
 71
     3
 72
    11
 73
     7
 74
     0
 42
0.00000001
 43
0.00000001
 40
0.0
 40
0.0
 40
0.0
 40
0.0
 40
0.2322932923175303
 40
0.4682186081034742
 40
0.7217939329173704
 40
1.0
 40
1.0
 40
1.0
 40
1.0
 10
80.30567736988057
 20
35.32458920941875
 30
0.0
 10
80.30659597564369
 20
35.31161245146395
 30
0.0
 10
80.308447550037
 20
35.28545603736055
 30
0.0
 10
80.32225407320007
 20
35.24713963445073
 30
0.0
 10
80.34460462489837
 20
35.21029877181795
 30
0.0
 10
80.36467529401246
 20
35.18837527831764
 30
0.0
 10
80.37517543937865
 20
35.17690581173536
 30
0.0
  0
LINE
  5
A3
330
1F
100
AcDbEntity
  8
0
  6
Continuous
 62
     7
370
    25
100
AcDbLine
 10
80.3056773699
 20
35.3767127615
 30
0.0
 11
80.3056773699
 21
35.3245892094
 31
0.0
  0
LINE
  5
A4
330
1F
100
AcDbEntity
  8
0
  6
Continuous
 62
     7
370
    25
100
AcDbLine
 10
80.1579939722
 20
35.3767127615
 30
0.0
 11
80.3056773699
 21
35.3767127615
 31
0.0
  0
LINE
  5
A5
330
1F
100
AcDbEntity
  8
0
  6
Continuous
 62
     7
370
    25
100
AcDbLine
 10
80.1579939722
 20
35.307214692
 30
0.0
 11
80.1579939722
 21
35.3767127615
 31
0.0
  0
SPLINE
  5
A6
330
1F
100
AcDbEntity
  8
0
  6
Continuous
 62
     7
370
    25
100
AcDbSpline
210
0.0
220
0.0
230
1.0
 70
     8
 71
     3
 72
    11
 73
     7
 74
     0
 42
0.00000001
 43
0.00000001
 40
0.0
 40
0.0
 40
0.0
 40
0.0
 40
0.2676320905605547
 40
0.5177929452577187
 40
0.7570315487829565
 40
1.0
 40
1.0
 40
1.0
 40
1.0
 10
80.08849590269911
 20
35.15084403567359
 30
0.0
 10
80.09923132889018
 20
35.16234358187901
 30
0.0
 10
80.12000136410693
 20
35.1845919747618
 30
0.0
 10
80.14139283447749
 20
35.2237726606166
 30
0.0
 10
80.1558903274805
 20
35.26459014194918
 30
0.0
 10
80.15728915068222
 20
35.29293343070086
 30
0.0
 10
80.15799397219718
 20
35.30721469204424
 30
0.0
  0
SPLINE
  5
A7
330
1F
100
AcDbEntity
  8
0
  6
Continuous
 62
     7
370
    25
100
AcDbSpline
210
0.0
220
0.0
230
1.0
 70
     8
 71
     3
 72
    15
 73
    11
 74
     0
 42
0.00000001
 43
0.00000001
 40
0.0
 40
0.0
 40
0.0
 40
0.0
 40
0.1417962611116216
 40
0.2768819513476974
 40
0.4055805706087831
 40
0.5298229690785616
 40
0.6485572024501446
 40
0.7672114666371237
 40
0.8821786188665558
 40
1.0
 40
1.0
 40
1.0
 40
1.0
 10
79.89737621157941
 20
35.08134596617551
 30
0.0
 10
79.90725948810079
 20
35.08144756120551
 30
0.0
 10
79.92655831070368
 20
35.08164594323571
 30
0.0
 10
79.95455493731654
 20
35.08562539975917
 30
0.0
 10
79.98119228187406
 20
35.09034355156766
 30
0.0
 10
80.00588328187776
 20
35.09827262086379
 30
0.0
 10
80.0292160944518
 20
35.10786790285172
 30
0.0
 10
80.05047213625582
 20
35.12020129424027
 30
0.0
 10
80.0707097095718
 20
35.13407236898777
 30
0.0
 10
80.08251890731843
 20
35.14520796877664
 30
0.0
 10
80.08849590269911
 20
35.15084403567359
 30
0.0
  0
SPLINE
  5
A8
330
1F
100
AcDbEntity
  8
0
  6
Continuous
 62
     7
370
    25
100
AcDbSpline
210
0.0
220
0.0
230
1.0
 70
     8
 71
     3
 72
    15
 73
    11
 74
     0
 42
0.00000001
 43
0.00000001
 40
0.0
 40
0.0
 40
0.0
 40
0.0
 40
0.1062344532908171
 40
0.2134351374465925
 40
0.3266362515327415
 40
0.4454478074346337
 40
0.5709125865608569
 40
0.7047818913259154
 40
0.8472638984122983
 40
1.0
 40
1.0
 40
1.0
 40
1.0
 10
79.68019474439795
 20
35.15084403567359
 30
0.0
 10
79.68625576400636
 20
35.14517167667708
 30
0.0
 10
79.69843292982321
 20
35.13377536705659
 30
0.0
 10
79.7200241814266
 20
35.12008935103131
 30
0.0
 10
79.74337380971862
 20
35.10755961832444
 30
0.0
 10
79.76972939540832
 20
35.09827836671005
 30
0.0
 10
79.798136900798
 20
35.09022323093152
 30
0.0
 10
79.82917050506528
 20
35.08561068055647
 30
0.0
 10
79.86241838720942
 20
35.08161752710737
 30
0.0
 10
79.88545686426234
 20
35.08143855858145
 30
0.0
 10
79.89737621157941
 20
35.08134596617551
 30
0.0
  0
SPLINE
  5
A9
330
1F
100
AcDbEntity
  8
0
  6
Continuous
 62
     7
370
    25
100
AcDbSpline
210
0.0
220
0.0
230
1.0
 70
     8
 71
     3
 72
    15
 73
    11
 74
     0
 42
0.00000001
 43
0.00000001
 40
0.0
 40
0.0
 40
0.0
 40
0.0
 40
0.138042099703314
 40
0.2691721599589607
 40
0.3953313456434694
 40
0.5186017941434373
 40
0.6392985515224102
 40
0.7600805617867284
 40
0.8784957553092638
 40
1.0
 40
1.0
 40
1.0
 40
1.0
 10
79.61069667489988
 20
35.33327646810601
 30
0.0
 10
79.61079605711484
 20
35.32403521795026
 30
0.0
 10
79.61098984528175
 20
35.3060154452107
 30
0.0
 10
79.61499976733617
 20
35.27984713761628
 30
0.0
 10
79.61971964787459
 20
35.25480504044203
 30
0.0
 10
79.62775389958487
 20
35.23134529478185
 30
0.0
 10
79.63720236561488
 20
35.20880875792766
 30
0.0
 10
79.6496483781632
 20
35.18816397223963
 30
0.0
 10
79.6634233653262
 20
35.16829417600518
 30
0.0
 10
79.67455650362147
 20
35.15671046397098
 30
0.0
 10
79.68019474439795
 20
35.15084403567359
 30
0.0
  0
SPLINE
  5
AA
330
1F
100
AcDbEntity
  8
0
  6
Continuous
 62
     7
370
    25
100
AcDbSpline
210
0.0
220
0.0
230
1.0
 70
     8
 71
     3
 72
    11
 73
     7
 74
     0
 42
0.00000001
 43
0.00000001
 40
0.0
 40
0.0
 40
0.0
 40
0.0
 40
0.2550921435312739
 40
0.4983791954134786
 40
0.7437399667914601
 40
1.0
 40
1.0
 40
1.0
 40
1.0
 10
79.67150748571069
 20
35.48095986578941
 30
0.0
 10
79.66213716224901
 20
35.47058155290956
 30
0.0
 10
79.64383015285645
 20
35.45030521216771
 30
0.0
 10
79.62451742577187
 20
35.4141218721708
 30
0.0
 10
79.61284725959624
 20
35.3747532450917
 30
0.0
 10
79.6114238458194
 20
35.34730088951592
 30
0.0
 10
79.61069667489988
 20
35.33327646810601
 30
0.0
  0
SPLINE
  5
AB
330
1F
100
AcDbEntity
  8
0
  6
Continuous
 62
     7
370
    25
100
AcDbSpline
210
0.0
220
0.0
230
1.0
 70
     8
 71
     3
 72
    15
 73
    11
 74
     0
 42
0.00000001
 43
0.00000001
 40
0.0
 40
0.0
 40
0.0
 40
0.0
 40
0.130552121962339
 40
0.2575145556980029
 40
0.3807268344757817
 40
0.5030306145961513
 40
0.6251462349433743
 40
0.7476378858044692
 40
0.8722881459663865
 40
1.0
 40
1.0
 40
1.0
 40
1.0
 10
79.86262717683039
 20
35.55914519397474
 30
0.0
 10
79.85339332157785
 20
35.55887467058429
 30
0.0
 10
79.83517950707225
 20
35.55834106217063
 30
0.0
 10
79.80842952180872
 20
35.55481728022858
 30
0.0
 10
79.78275239476945
 20
35.5486896387532
 30
0.0
 10
79.75826155101254
 20
35.53985325582199
 30
0.0
 10
79.73460444672372
 20
35.52905386671158
 30
0.0
 10
79.71239271438543
 20
35.51524159192708
 30
0.0
 10
79.69088762588838
 20
35.49963355964876
 30
0.0
 10
79.67801956977964
 20
35.48723457088312
 30
0.0
 10
79.67150748571069
 20
35.48095986578941
 30
0.0
  0
LINE
  5
AC
330
1F
100
AcDbEntity
  8
0
  6
Continuous
 62
     7
370
    25
100
AcDbLine
 10
79.9234379876
 20
35.559145194
 30
0.0
 11
79.8626271768
 21
35.559145194
 31
0.0
  0
LINE
  5
AD
330
1F
100
AcDbEntity
  8
0
  6
Continuous
 62
     7
370
    25
100
AcDbLine
 10
79.9234379876
 20
35.7647436496
 30
0.0
 11
79.9234379876
 21
35.559145194
 31
0.0
  0
LINE
  5
AE
330
1F
100
AcDbEntity
  8
0
  6
Continuous
 62
     7
370
    25
100
AcDbLine
 10
79.8539399181
 20
35.7647436496
 30
0.0
 11
79.9234379876
 21
35.7647436496
 31
0.0
  0
SPLINE
  5
AF
330
1F
100
AcDbEntity
  8
0
  6
Continuous
 62
     7
370
    25
100
AcDbSpline
210
0.0
220
0.0
230
1.0
 70
     8
 71
     3
 72
    15
 73
    11
 74
     0
 42
0.00000001
 43
0.00000001
 40
0.0
 40
0.0
 40
0.0
 40
0.0
 40
0.1339120169181248
 40
0.2615284644313484
 40
0.3861887226529774
 40
0.5091929985924206
 40
0.6296768122270381
 40
0.7512559744353479
 40
0.874296574706902
 40
1.0
 40
1.0
 40
1.0
 40
1.0
 10
79.56726038146358
 20
35.63733052216008
 30
0.0
 10
79.57748086428336
 20
35.64750414189455
 30
0.0
 10
79.59744133713049
 20
35.66737309173265
 30
0.0
 10
79.63000450616042
 20
35.69334426999238
 30
0.0
 10
79.66392339967462
 20
35.71538608295196
 30
0.0
 10
79.69928580231299
 20
35.73342413321882
 30
0.0
 10
79.73607721481386
 20
35.7474497980724
 30
0.0
 10
79.77416587038756
 20
35.75732421324875
 30
0.0
 10
79.81361064428654
 20
35.76375587127077
 30
0.0
 10
79.8404012283971
 20
35.76441204866161
 30
0.0
 10
79.85393991814313
 20
35.7647436495732
 30
0.0
  0
SPLINE
  5
B0
330
1F
100
AcDbEntity
  8
0
  6
Continuous
 62
     7
370
    25
100
AcDbSpline
210
0.0
220
0.0
230
1.0
 70
     8
 71
     3
 72
    15
 73
    11
 74
     0
 42
0.00000001
 43
0.00000001
 40
0.0
 40
0.0
 40
0.0
 40
0.0
 40
0.1330514903197376
 40
0.2614008608137415
 40
0.3859789426424564
 40
0.508465614902219
 40
0.6295593452611171
 40
0.7509246542250768
 40
0.8741074588764665
 40
1.0
 40
1.0
 40
1.0
 40
1.0
 10
79.44563875984197
 20
35.33327646810601
 30
0.0
 10
79.44598403899711
 20
35.3482063982548
 30
0.0
 10
79.44666239493407
 20
35.37753862582627
 30
0.0
 10
79.4527631149997
 20
35.42047098074516
 30
0.0
 10
79.46179810115375
 20
35.46166389657251
 30
0.0
 10
79.47559972539491
 20
35.50066266193582
 30
0.0
 10
79.49255803691578
 20
35.53799637591261
 30
0.0
 10
79.51385563745549
 20
35.57309985694373
 30
0.0
 10
79.53802696695865
 20
35.60702401489324
 30
0.0
 10
79.55744549073204
 20
35.62715534891002
 30
0.0
 10
79.56726038146358
 20
35.63733052216008
 30
0.0
  0
SPLINE
  5
B1
330
1F
100
AcDbEntity
  8
0
  6
Continuous
 62
     7
370
    25
100
AcDbSpline
210
0.0
220
0.0
230
1.0
 70
     8
 71
     3
 72
    15
 73
    11
 74
     0
 42
0.00000001
 43
0.00000001
 40
0.0
 40
0.0
 40
0.0
 40
0.0
 40
0.1158830802717865
 40
0.2315534497979606
 40
0.3480625771524272
 40
0.4678553783950306
 40
0.5925908197539044
 40
0.7213115030172625
 40
0.8571441704632062
 40
1.0
 40
1.0
 40
1.0
 40
1.0
 10
79.56726038146358
 20
34.99447337930292
 30
0.0
 10
79.55741137741875
 20
35.00484166586283
 30
0.0
 10
79.53773144780081
 20
35.02555920733489
 30
0.0
 10
79.5136181834435
 20
35.06119279484327
 30
0.0
 10
79.49225919637804
 20
35.09900110444985
 30
0.0
 10
79.47537392723167
 20
35.14025852504872
 30
0.0
 10
79.46173331316099
 20
35.18425224847002
 30
0.0
 10
79.45265946369643
 20
35.23141625807697
 30
0.0
 10
79.4466468873974
 20
35.28131882959983
 30
0.0
 10
79.44598040101502
 20
35.31566870758684
 30
0.0
 10
79.44563875984197
 20
35.33327646810601
 30
0.0
  0
SPLINE
  5
B2
330
1F
100
AcDbEntity
  8
0
  6
Continuous
 62
     7
370
    25
100
AcDbSpline
210
0.0
220
0.0
230
1.0
 70
     8
 71
     3
 72
    15
 73
    11
 74
     0
 42
0.00000001
 43
0.00000001
 40
0.0
 40
0.0
 40
0.0
 40
0.0
 40
0.1354658418109469
 40
0.2653728839126843
 40
0.3915266279918199
 40
0.5146179992444256
 40
0.6353652389705203
 40
0.7554358763572422
 40
0.8764282152102189
 40
1.0
 40
1.0
 40
1.0
 40
1.0
 10
79.88000169420489
 20
34.8728517576813
 30
0.0
 10
79.86442864244573
 20
34.87319269667061
 30
0.0
 10
79.83392157438041
 20
34.87386058432126
 30
0.0
 10
79.78928201696844
 20
34.87998514915925
 30
0.0
 10
79.74658412092377
 20
34.88896465975399
 30
0.0
 10
79.70628558606933
 20
34.90275306635881
 30
0.0
 10
79.66797464989833
 20
34.91969758759658
 30
0.0
 10
79.63219481403088
 20
34.94097689831852
 30
0.0
 10
79.597902162454
 20
34.96523844330089
 30
0.0
 10
79.5775458751614
 20
34.98466011975059
 30
0.0
 10
79.56726038146358
 20
34.99447337930292
 30
0.0
  0
SPLINE
  5
B3
330
1F
100
AcDbEntity
  8
0
  6
Continuous
 62
     7
370
    25
100
AcDbSpline
210
0.0
220
0.0
230
1.0
 70
     8
 71
     3
 72
    15
 73
    11
 74
     0
 42
0.00000001
 43
0.00000001
 40
0.0
 40
0.0
 40
0.0
 40
0.0
 40
0.1195027114365302
 40
0.2380939422658881
 40
0.3566476293726336
 40
0.4775806195769138
 40
0.6003630199241493
 40
0.7278327340041406
 40
0.8606471500295814
 40
1.0
 40
1.0
 40
1.0
 40
1.0
 10
80.15799397219718
 20
34.97709886192841
 30
0.0
 10
80.14916045621997
 20
34.96874424666036
 30
0.0
 10
80.13156079996281
 20
34.95209873911182
 30
0.0
 10
80.10206728155555
 20
34.93079696852529
 30
0.0
 10
80.07018214725849
 20
34.91312664454063
 30
0.0
 10
80.03645543174648
 20
34.89815065737757
 30
0.0
 10
80.00031971263543
 20
34.88705204454239
 30
0.0
 10
79.96227716363336
 20
34.8785237270479
 30
0.0
 10
79.92184368821765
 20
34.8737495274174
 30
0.0
 10
79.89417062760062
 20
34.87315576899567
 30
0.0
 10
79.88000169420489
 20
34.8728517576813
 30
0.0
  0
SPLINE
  5
B4
330
1F
100
AcDbEntity
  8
0
  6
Continuous
 62
     7
370
    25
100
AcDbSpline
210
0.0
220
0.0
230
1.0
 70
     8
 71
     3
 72
    11
 73
     7
 74
     0
 42
0.00000001
 43
0.00000001
 40
0.0
 40
0.0
 40
0.0
 40
0.0
 40
0.25703747753725
 40
0.5073419159098039
 40
0.7523129875772129
 40
1.0
 40
1.0
 40
1.0
 40
1.0
 10
80.24486655906976
 20
35.12478225961181
 30
0.0
 10
80.24019005251431
 20
35.11069144649647
 30
0.0
 10
80.23095953944537
 20
35.08287892595992
 30
0.0
 10
80.21095920529095
 20
35.04420727039622
 30
0.0
 10
80.18709682659026
 20
35.00843346800283
 30
0.0
 10
80.16773051140241
 20
34.98758204740579
 30
0.0
 10
80.15799397219718
 20
34.97709886192841
 30
0.0
  0
SPLINE
  5
B5
330
1F
100
AcDbEntity
  8
0
  6
Continuous
 62
     7
370
    25
100
AcDbSpline
210
0.0
220
0.0
230
1.0
 70
     8
 71
     3
 72
    11
 73
     7
 74
     0
 42
0.00000001
 43
0.00000001
 40
0.0
 40
0.0
 40
0.0
 40
0.0
 40
0.2731656445547254
 40
0.5274113090719883
 40
0.767261983075737
 40
1.0
 40
1.0
 40
1.0
 40
1.0
 10
80.31436462856783
 20
34.99447337930292
 30
0.0
 10
80.3050091392454
 20
35.0044948525716
 30
0.0
 10
80.28694613985691
 20
35.02384369251841
 30
0.0
 10
80.26630554179053
 20
35.05645825513541
 30
0.0
 10
80.25134868855393
 20
35.08994489956718
 30
0.0
 10
80.2470054798632
 20
35.11328690859022
 30
0.0
 10
80.24486655906976
 20
35.12478225961181
 30
0.0
  0
SPLINE
  5
B6
330
1F
100
AcDbEntity
  8
0
  6
Continuous
 62
     7
370
    25
100
AcDbSpline
210
0.0
220
0.0
230
1.0
 70
     8
 71
     3
 72
    15
 73
    11
 74
     0
 42
0.00000001
 43
0.00000001
 40
0.0
 40
0.0
 40
0.0
 40
0.0
 40
0.1495888260512938
 40
0.2896239650819634
 40
0.4219290861937188
 40
0.5465682968532927
 40
0.6661289243466406
 40
0.7799971355270195
 40
0.8908038749321935
 40
1.0
 40
1.0
 40
1.0
 40
1.0
 10
80.57498238918559
 20
34.90760079243034
 30
0.0
 10
80.56091891835135
 20
34.90779352208831
 30
0.0
 10
80.53369015873508
 20
34.90816667247129
 30
0.0
 10
80.49424740168098
 20
34.91258113927391
 30
0.0
 10
80.45743896119708
 20
34.91898690205356
 30
0.0
 10
80.4234787019044
 20
34.92902320183757
 30
0.0
 10
80.39171961948216
 20
34.94037614816699
 30
0.0
 10
80.36326716608257
 20
34.95594460944534
 30
0.0
 10
80.33715563300763
 20
34.97349599349053
 30
0.0
 10
80.32192446152692
 20
34.98751512816139
 30
0.0
 10
80.31436462856783
 20
34.99447337930292
 30
0.0
  0
SPLINE
  5
B7
330
1F
100
AcDbEntity
  8
0
  6
Continuous
 62
     7
370
    25
100
AcDbSpline
210
0.0
220
0.0
230
1.0
 70
     8
 71
     3
 72
    15
 73
    11
 74
     0
 42
0.00000001
 43
0.00000001
 40
0.0
 40
0.0
 40
0.0
 40
0.0
 40
0.1195027114365314
 40
0.2380939422658892
 40
0.3566476293726336
 40
0.4775806195769134
 40
0.6003630199241495
 40
0.7278327340041411
 40
0.8606471500295816
 40
1.0
 40
1.0
 40
1.0
 40
1.0
 10
80.85297466717788
 20
35.01184789667744
 30
0.0
 10
80.84414115120067
 20
35.00349328140938
 30
0.0
 10
80.8265414949435
 20
34.98684777386085
 30
0.0
 10
80.79704797653625
 20
34.96554600327433
 30
0.0
 10
80.76516284223918
 20
34.94787567928966
 30
0.0
 10
80.73143612672717
 20
34.93289969212661
 30
0.0
 10
80.69530040761613
 20
34.92180107929142
 30
0.0
 10
80.65725785861405
 20
34.91327276179693
 30
0.0
 10
80.61682438319835
 20
34.90849856216644
 30
0.0
 10
80.5891513225813
 20
34.90790480374471
 30
0.0
 10
80.57498238918559
 20
34.90760079243034
 30
0.0
  0
SPLINE
  5
B8
330
1F
100
AcDbEntity
  8
0
  6
Continuous
 62
     7
370
    25
100
AcDbSpline
210
0.0
220
0.0
230
1.0
 70
     8
 71
     3
 72
    15
 73
    11
 74
     0
 42
0.00000001
 43
0.00000001
 40
0.0
 40
0.0
 40
0.0
 40
0.0
 40
0.1401156952848864
 40
0.2734369515897446
 40
0.4007170918852055
 40
0.5244111544238697
 40
0.6451326608364119
 40
0.7627629456192484
 40
0.8809824433211493
 40
1.0
 40
1.0
 40
1.0
 40
1.0
 10
80.96590903011223
 20
35.31590195073149
 30
0.0
 10
80.96568200392444
 20
35.30033019746827
 30
0.0
 10
80.9652389604196
 20
35.26994179069807
 30
0.0
 10
80.95941223164773
 20
35.22575114289905
 30
0.0
 10
80.95104167460876
 20
35.18384149909983
 30
0.0
 10
80.93822201565158
 20
35.1445275683348
 30
0.0
 10
80.92270175299976
 20
35.10736709332209
 30
0.0
 10
80.90310070357617
 20
35.07285588643289
 30
0.0
 10
80.87991040111157
 20
35.04086432729255
 30
0.0
 10
80.86197335839651
 20
35.02154170713811
 30
0.0
 10
80.85297466717788
 20
35.01184789667744
 30
0.0
  0
SPLINE
  5
B9
330
1F
100
AcDbEntity
  8
0
  6
Continuous
 62
     7
370
    25
100
AcDbSpline
210
0.0
220
0.0
230
1.0
 70
     8
 71
     3
 72
    15
 73
    11
 74
     0
 42
0.00000001
 43
0.00000001
 40
0.0
 40
0.0
 40
0.0
 40
0.0
 40
0.1270527522076904
 40
0.2522753243044992
 40
0.3739697899787141
 40
0.49488326292777
 40
0.6176556772794559
 40
0.7419399124466161
 40
0.8684128160693879
 40
1.0
 40
1.0
 40
1.0
 40
1.0
 10
80.85297466717788
 20
35.59389422872378
 30
0.0
 10
80.86196534436515
 20
35.58441151796802
 30
0.0
 10
80.879817189081
 20
35.56558269380148
 30
0.0
 10
80.90284105566481
 20
35.53469394001559
 30
0.0
 10
80.92239369308858
 20
35.50226268867355
 30
0.0
 10
80.9381889751468
 20
35.46813091662779
 30
0.0
 10
80.95094608125625
 20
35.43244031016579
 30
0.0
 10
80.95930167309221
 20
35.39491633313378
 30
0.0
 10
80.96523394046011
 20
35.35598749704694
 30
0.0
 10
80.96568104661864
 20
35.32943917925071
 30
0.0
 10
80.96590903011223
 20
35.31590195073149
 30
0.0
  0
SPLINE
  5
BA
330
1F
100
AcDbEntity
  8
0
  6
Continuous
 62
     7
370
    25
100
AcDbSpline
210
0.0
220
0.0
230
1.0
 70
     8
 71
     3
 72
    15
 73
    11
 74
     0
 42
0.00000001
 43
0.00000001
 40
0.0
 40
0.0
 40
0.0
 40
0.0
 40
0.1342207616992959
 40
0.2632543584014019
 40
0.3882486178889517
 40
0.5110181775835607
 40
0.6322369822528029
 40
0.7532951172272381
 40
0.8750618099117068
 40
1.0
 40
1.0
 40
1.0
 40
1.0
 10
80.52285883706205
 20
35.72420310903265
 30
0.0
 10
80.53917993948914
 20
35.72386919305998
 30
0.0
 10
80.57119139057504
 20
35.72321426580405
 30
0.0
 10
80.61807715951872
 20
35.7169791507735
 30
0.0
 10
80.66273913027149
 20
35.70658793321994
 30
0.0
 10
80.70540634702988
 20
35.6925313106178
 30
0.0
 10
80.74587872115575
 20
35.67409866364449
 30
0.0
 10
80.78392012915857
 20
35.65137095633175
 30
0.0
 10
80.82009868424707
 20
35.62493064793242
 30
0.0
 10
80.84192248807192
 20
35.6043279871493
 30
0.0
 10
80.85297466717788
 20
35.59389422872378
 30
0.0
  0
LINE
  5
BB
330
1F
100
AcDbEntity
  8
0
  6
Continuous
 62
     7
370
    25
100
AcDbLine
 10
80.0189978332
 20
36.9056702905
 30
0.0
 11
80.9659090301
 21
36.3236239585
 31
0.0
  0
LINE
  5
BC
330
1F
100
AcDbEntity
  8
0
  6
Continuous
 62
     7
370
    25
100
AcDbLine
 10
79.8458961601
 20
36.9056702905
 30
0.0
 11
80.0189978332
 21
36.9056702905
 31
0.0
  0
LINE
  5
BD
330
1F
100
AcDbEntity
  8
0
  6
Continuous
 62
     7
370
    25
100
AcDbLine
 10
79.8458961601
 20
36.3294154642
 30
0.0
 11
79.8458961601
 21
36.9056702905
 31
0.0
  0
LINE
  5
BE
330
1F
100
AcDbEntity
  8
0
  6
Continuous
 62
     7
370
    25
100
AcDbLine
 10
79.4630132772
 20
36.3294154642
 30
0.0
 11
79.8458961601
 21
36.3294154642
 31
0.0
  0
LINE
  5
BF
330
1F
100
AcDbEntity
  8
0
  6
Continuous
 62
     7
370
    25
100
AcDbLine
 10
79.4630132772
 20
36.1238170086
 30
0.0
 11
79.4630132772
 21
36.3294154642
 31
0.0
  0
LINE
  5
C0
330
1F
100
AcDbEntity
  8
0
  6
Continuous
 62
     7
370
    25
100
AcDbLine
 10
79.8458961601
 20
36.1238170086
 30
0.0
 11
79.4630132772
 21
36.1238170086
 31
0.0
  0
LINE
  5
C1
330
1F
100
AcDbEntity
  8
0
  6
Continuous
 62
     7
370
    25
100
AcDbLine
 10
79.8458961601
 20
35.9413845762
 30
0.0
 11
79.8458961601
 21
36.1238170086
 31
0.0
  0
LINE
  5
C2
330
1F
100
AcDbEntity
  8
0
  6
Continuous
 62
     7
370
    25
100
AcDbLine
 10
80.0103105745
 20
35.9413845762
 30
0.0
 11
79.8458961601
 21
35.9413845762
 31
0.0
  0
LINE
  5
C3
330
1F
100
AcDbEntity
  8
0
  6
Continuous
 62
     7
370
    25
100
AcDbLine
 10
80.0103105745
 20
36.1238170086
 30
0.0
 11
80.0103105745
 21
35.9413845762
 31
0.0
  0
LINE
  5
C4
330
1F
100
AcDbEntity
  8
0
  6
Continuous
 62
     7
370
    25
100
AcDbLine
 10
80.9659090301
 20
36.1238170086
 30
0.0
 11
80.0103105745
 21
36.1238170086
 31
0.0
  0
LINE
  5
C5
330
1F
100
AcDbEntity
  8
0
  6
Continuous
 62
     7
370
    25
100
AcDbLine
 10
80.9659090301
 20
36.3236239585
 30
0.0
 11
80.9659090301
 21
36.1238170086
 31
0.0
  0
SPLINE
  5
C6
330
1F
100
AcDbEntity
  8
0
  6
Continuous
 62
     7
370
    25
100
AcDbSpline
210
0.0
220
0.0
230
1.0
 70
     8
 71
     3
 72
    15
 73
    11
 74
     0
 42
0.00000001
 43
0.00000001
 40
0.0
 40
0.0
 40
0.0
 40
0.0
 40
0.1418032572055083
 40
0.2768956124422278
 40
0.4056005815718943
 40
0.5283792299702869
 40
0.648539862593733
 40
0.76719998107028
 40
0.8821728056706515
 40
1.0
 40
1.0
 40
1.0
 40
1.0
 10
80.73135304555626
 20
37.78308341791296
 30
0.0
 10
80.73145327226895
 20
37.77319968185456
 30
0.0
 10
80.73164898242077
 20
37.7538999619254
 30
0.0
 10
80.73564745230144
 20
37.72590972077718
 30
0.0
 10
80.74028051304812
 20
37.69935070094962
 30
0.0
 10
80.7484246913395
 20
37.67473744104906
 30
0.0
 10
80.75777939426445
 20
37.65131101556892
 30
0.0
 10
80.77022010862021
 20
37.62999215220163
 30
0.0
 10
80.78407646920874
 20
37.60974873715089
 30
0.0
 10
80.79521404701993
 20
37.59794032470785
 30
0.0
 10
80.80085111505431
 20
37.59196372679327
 30
0.0
  0
LINE
  5
C7
330
1F
100
AcDbEntity
  8
0
  6
Continuous
 62
     7
370
    25
100
AcDbLine
 10
80.7313530456
 20
37.8612687461
 30
0.0
 11
80.7313530456
 21
37.7830834179
 31
0.0
  0
LINE
  5
C8
330
1F
100
AcDbEntity
  8
0
  6
Continuous
 62
     7
370
    25
100
AcDbLine
 10
80.6287146929
 20
37.8612687461
 30
0.0
 11
80.7313530456
 21
37.8612687461
 31
0.0
  0
LINE
  5
C9
330
1F
100
AcDbEntity
  8
0
  6
Continuous
 62
     7
370
    25
100
AcDbLine
 10
80.6287146929
 20
37.6064424913
 30
0.0
 11
80.6287146929
 21
37.8612687461
 31
0.0
  0
LINE
  5
CA
330
1F
100
AcDbEntity
  8
0
  6
Continuous
 62
     7
370
    25
100
AcDbLine
 10
79.4717005359
 20
37.6064424913
 30
0.0
 11
80.6287146929
 21
37.6064424913
 31
0.0
  0
LINE
  5
CB
330
1F
100
AcDbEntity
  8
0
  6
Continuous
 62
     7
370
    25
100
AcDbLine
 10
79.4717005359
 20
37.4008440357
 30
0.0
 11
79.4717005359
 21
37.6064424913
 31
0.0
  0
LINE
  5
CC
330
1F
100
AcDbEntity
  8
0
  6
Continuous
 62
     7
370
    25
100
AcDbLine
 10
80.9745962888
 20
37.4008440357
 30
0.0
 11
79.4717005359
 21
37.4008440357
 31
0.0
  0
LINE
  5
CD
330
1F
100
AcDbEntity
  8
0
  6
Continuous
 62
     7
370
    25
100
AcDbLine
 10
80.9745962888
 20
37.5050911399
 30
0.0
 11
80.9745962888
 21
37.4008440357
 31
0.0
  0
SPLINE
  5
CE
330
1F
100
AcDbEntity
  8
0
  6
Continuous
 62
     7
370
    25
100
AcDbSpline
210
0.0
220
0.0
230
1.0
 70
     8
 71
     3
 72
    11
 73
     7
 74
     0
 42
0.00000001
 43
0.00000001
 40
0.0
 40
0.0
 40
0.0
 40
0.0
 40
0.2682823389612929
 40
0.5197997967341365
 40
0.7604656312619599
 40
1.0
 40
1.0
 40
1.0
 40
1.0
 10
80.80085111505431
 20
37.59196372679327
 30
0.0
 10
80.81387712089204
 20
37.57989148625867
 30
0.0
 10
80.83911514145245
 20
37.55650139580282
 30
0.0
 10
80.882303432218
 20
37.53034231444069
 30
0.0
 10
80.92739568277126
 20
37.51191187019291
 30
0.0
 10
80.95888748751523
 20
37.50736114247946
 30
0.0
 10
80.97459628879949
 20
37.50509113992069
 30
0.0
  0
LINE
  5
CF
330
1F
100
AcDbEntity
  8
0
  6
Continuous
 62
     7
370
    25
100
AcDbLine
 10
80.1531677174
 20
39.1469830318
 30
0.0
 11
80.2969901112
 21
39.1469830318
 31
0.0
  0
LINE
  5
D0
330
1F
100
AcDbEntity
  8
0
  6
Continuous
 62
     7
370
    25
100
AcDbLine
 10
80.1531677174
 20
38.1566355415
 30
0.0
 11
80.1531677174
 21
39.1469830318
 31
0.0
  0
LINE
  5
D1
330
1F
100
AcDbEntity
  8
0
  6
Continuous
 62
     7
370
    25
100
AcDbLine
 10
80.2969901112
 20
38.1566355415
 30
0.0
 11
80.1531677174
 21
38.1566355415
 31
0.0
  0
LINE
  5
D2
330
1F
100
AcDbEntity
  8
0
  6
Continuous
 62
     7
370
    25
100
AcDbLine
 10
80.2969901112
 20
39.1469830318
 30
0.0
 11
80.2969901112
 21
38.1566355415
 31
0.0
  0
LINE
  5
D3
330
1F
100
AcDbEntity
  8
0
  6
Continuous
 62
     7
370
    25
100
AcDbLine
 10
79.4636567779
 20
40.4867513716
 30
0.0
 11
80.9485345127
 21
40.4867513716
 31
0.0
  0
LINE
  5
D4
330
1F
100
AcDbEntity
  8
0
  6
Continuous
 62
     7
370
    25
100
AcDbLine
 10
79.4636567779
 20
39.7946664295
 30
0.0
 11
79.4636567779
 21
40.4867513716
 31
0.0
  0
SPLINE
  5
D5
330
1F
100
AcDbEntity
  8
0
  6
Continuous
 62
     7
370
    25
100
AcDbSpline
210
0.0
220
0.0
230
1.0
 70
     8
 71
     3
 72
    15
 73
    11
 74
     0
 42
0.00000001
 43
0.00000001
 40
0.0
 40
0.0
 40
0.0
 40
0.0
 40
0.1086277469152504
 40
0.2195300404679356
 40
0.3340583594962501
 40
0.4525037346025802
 40
0.578166032102879
 40
0.7098017975268055
 40
0.8504665399585418
 40
1.0
 40
1.0
 40
1.0
 40
1.0
 10
79.56726038146358
 20
39.48192511675466
 30
0.0
 10
79.55899837110643
 20
39.49096799163778
 30
0.0
 10
79.54230135289919
 20
39.50924308934912
 30
0.0
 10
79.52096279320686
 20
39.5404201414953
 30
0.0
 10
79.50340387215348
 20
39.57504682905797
 30
0.0
 10
79.4888714172707
 20
39.61280678788538
 30
0.0
 10
79.47727227942872
 20
39.65359094062266
 30
0.0
 10
79.46938924426253
 20
39.69778363839695
 30
0.0
 10
79.46450485090269
 20
39.74511330805726
 30
0.0
 10
79.46394517032124
 20
39.77781558536478
 30
0.0
 10
79.46365677785998
 20
39.79466642949598
 30
0.0
  0
SPLINE
  5
D6
330
1F
100
AcDbEntity
  8
0
  6
Continuous
 62
     7
370
    25
100
AcDbSpline
210
0.0
220
0.0
230
1.0
 70
     8
 71
     3
 72
    15
 73
    11
 74
     0
 42
0.00000001
 43
0.00000001
 40
0.0
 40
0.0
 40
0.0
 40
0.0
 40
0.1319114978615548
 40
0.25855939557945
 40
0.3829282045992125
 40
0.5051155152535459
 40
0.6266776175559877
 40
0.7489849223246644
 40
0.8728415720964464
 40
1.0
 40
1.0
 40
1.0
 40
1.0
 10
79.88868895289215
 20
39.35161623644578
 30
0.0
 10
79.87300961150456
 20
39.35194531626103
 30
0.0
 10
79.84227657383931
 20
39.3525903447802
 30
0.0
 10
79.79711623355121
 20
39.35891280124727
 30
0.0
 10
79.75393592024494
 20
39.36921893790364
 30
0.0
 10
79.71247096974132
 20
39.3833561420829
 30
0.0
 10
79.67297724582428
 20
39.40179407979403
 30
0.0
 10
79.6356115452386
 20
39.42454128765691
 30
0.0
 10
79.59980260344463
 20
39.45088980298939
 30
0.0
 10
79.57820249593367
 20
39.47148969055566
 30
0.0
 10
79.56726038146358
 20
39.48192511675466
 30
0.0
  0
SPLINE
  5
D7
330
1F
100
AcDbEntity
  8
0
  6
Continuous
 62
     7
370
    25
100
AcDbSpline
210
0.0
220
0.0
230
1.0
 70
     8
 71
     3
 72
    15
 73
    11
 74
     0
 42
0.00000001
 43
0.00000001
 40
0.0
 40
0.0
 40
0.0
 40
0.0
 40
0.126381288958891
 40
0.2491049464973166
 40
0.3706105362999219
 40
0.4913917559424306
 40
0.6138158455532664
 40
0.7388355742356971
 40
0.867118175426879
 40
1.0
 40
1.0
 40
1.0
 40
1.0
 10
80.14930671350992
 20
39.45586334069289
 30
0.0
 10
80.14044229388499
 20
39.44754917643075
 30
0.0
 10
80.12297000194536
 20
39.43116147014329
 30
0.0
 10
80.09446805462795
 20
39.40960952477168
 30
0.0
 10
80.06397757701272
 20
39.39214832033419
 30
0.0
 10
80.03233936241303
 20
39.37688523781551
 30
0.0
 10
79.99860201739021
 20
39.36591975026495
 30
0.0
 10
79.96348094727587
 20
39.35733438133747
 30
0.0
 10
79.92657393710692
 20
39.35252997483278
 30
0.0
 10
79.90146467610249
 20
39.35192437089432
 30
0.0
 10
79.88868895289215
 20
39.35161623644578
 30
0.0
  0
SPLINE
  5
D8
330
1F
100
AcDbEntity
  8
0
  6
Continuous
 62
     7
370
    25
100
AcDbSpline
210
0.0
220
0.0
230
1.0
 70
     8
 71
     3
 72
    11
 73
     7
 74
     0
 42
0.00000001
 43
0.00000001
 40
0.0
 40
0.0
 40
0.0
 40
0.0
 40
0.2758864184465409
 40
0.5310076877713116
 40
0.7722766677115261
 40
1.0
 40
1.0
 40
1.0
 40
1.0
 10
80.24486655906976
 20
39.6209212557508
 30
0.0
 10
80.23890106884076
 20
39.60425243311885
 30
0.0
 10
80.227419093067
 20
39.5721694004944
 30
0.0
 10
80.2048646860854
 20
39.52797089523116
 30
0.0
 10
80.17942252140946
 20
39.48893418271889
 30
0.0
 10
80.15915014415972
 20
39.46667263198268
 30
0.0
 10
80.14930671350992
 20
39.45586334069289
 30
0.0
  0
SPLINE
  5
D9
330
1F
100
AcDbEntity
  8
0
  6
Continuous
 62
     7
370
    25
100
AcDbSpline
210
0.0
220
0.0
230
1.0
 70
     8
 71
     3
 72
    11
 73
     7
 74
     0
 42
0.00000001
 43
0.00000001
 40
0.0
 40
0.0
 40
0.0
 40
0.0
 40
0.2409277974217338
 40
0.4854864172424123
 40
0.7380410464993908
 40
1.0
 40
1.0
 40
1.0
 40
1.0
 10
80.32305188725509
 20
39.49061237544192
 30
0.0
 10
80.31466319793677
 20
39.49963914467818
 30
0.0
 10
80.29775940034224
 20
39.51782871808017
 30
0.0
 10
80.27646357812286
 20
39.54912400270424
 30
0.0
 10
80.25878201661122
 20
39.58374633725012
 30
0.0
 10
80.24956122439896
 20
39.608379533678
 30
0.0
 10
80.24486655906976
 20
39.6209212557508
 30
0.0
  0
SPLINE
  5
DA
330
1F
100
AcDbEntity
  8
0
  6
Continuous
 62
     7
370
    25
100
AcDbSpline
210
0.0
220
0.0
230
1.0
 70
     8
 71
     3
 72
    15
 73
    11
 74
     0
 42
0.00000001
 43
0.00000001
 40
0.0
 40
0.0
 40
0.0
 40
0.0
 40
0.1312072932871418
 40
0.2585055422472041
 40
0.3817646425439867
 40
0.5033692670500667
 40
0.6250492974901226
 40
0.7476118725723032
 40
0.872246213897159
 40
1.0
 40
1.0
 40
1.0
 40
1.0
 10
80.55760787181107
 20
39.39505252988207
 30
0.0
 10
80.54622462131454
 20
39.39537699102186
 30
0.0
 10
80.52379726024016
 20
39.3960162466667
 30
0.0
 10
80.49092969545808
 20
39.40060260310444
 30
0.0
 10
80.45947496770503
 20
39.40803510757912
 30
0.0
 10
80.42931559737681
 20
39.41829677665756
 30
0.0
 10
80.40059451658719
 20
39.43195397591219
 30
0.0
 10
80.37316697311049
 20
39.44849015682433
 30
0.0
 10
80.34680366238905
 20
39.46768989330922
 30
0.0
 10
80.33103411466024
 20
39.48290884743016
 30
0.0
 10
80.32305188725509
 20
39.49061237544192
 30
0.0
  0
SPLINE
  5
DB
330
1F
100
AcDbEntity
  8
0
  6
Continuous
 62
     7
370
    25
100
AcDbSpline
210
0.0
220
0.0
230
1.0
 70
     8
 71
     3
 72
    15
 73
    11
 74
     0
 42
0.00000001
 43
0.00000001
 40
0.0
 40
0.0
 40
0.0
 40
0.0
 40
0.1195027114365312
 40
0.238093942265889
 40
0.3566476293726333
 40
0.4775806195769142
 40
0.6003630199241491
 40
0.7278327340041406
 40
0.8606471500295811
 40
1.0
 40
1.0
 40
1.0
 40
1.0
 10
80.83560014980335
 20
39.49929963412918
 30
0.0
 10
80.82676663382615
 20
39.49094501886112
 30
0.0
 10
80.80916697756899
 20
39.47429951131259
 30
0.0
 10
80.77967345916173
 20
39.45299774072607
 30
0.0
 10
80.74778832486466
 20
39.43532741674139
 30
0.0
 10
80.71406160935265
 20
39.42035142957835
 30
0.0
 10
80.67792589024161
 20
39.40925281674316
 30
0.0
 10
80.63988334123954
 20
39.40072449924867
 30
0.0
 10
80.59944986582383
 20
39.39595029961817
 30
0.0
 10
80.57177680520678
 20
39.39535654119644
 30
0.0
 10
80.55760787181107
 20
39.39505252988207
 30
0.0
  0
SPLINE
  5
DC
330
1F
100
AcDbEntity
  8
0
  6
Continuous
 62
     7
370
    25
100
AcDbSpline
210
0.0
220
0.0
230
1.0
 70
     8
 71
     3
 72
    15
 73
    11
 74
     0
 42
0.00000001
 43
0.00000001
 40
0.0
 40
0.0
 40
0.0
 40
0.0
 40
0.1342477572737632
 40
0.263461772575683
 40
0.388466627173029
 40
0.5118790511869572
 40
0.6324080741525895
 40
0.7535525248235478
 40
0.8755084805282741
 40
1.0
 40
1.0
 40
1.0
 40
1.0
 10
80.94853451273772
 20
39.78597917080872
 30
0.0
 10
80.94830188446826
 20
39.77180041804377
 30
0.0
 10
80.94784535053824
 20
39.74397455776705
 30
0.0
 10
80.94199956630541
 20
39.70331649419425
 30
0.0
 10
80.93355564480511
 20
39.66431938633639
 30
0.0
 10
80.92089936636197
 20
39.62740752544023
 30
0.0
 10
80.90498419633047
 20
39.59226895609628
 30
0.0
 10
80.88576725927442
 20
39.55895855125177
 30
0.0
 10
80.8623194708774
 20
39.52792811199924
 30
0.0
 10
80.84456747038101
 20
39.50890769033688
 30
0.0
 10
80.83560014980335
 20
39.49929963412918
 30
0.0
  0
LINE
  5
DD
330
1F
100
AcDbEntity
  8
0
  6
Continuous
 62
     7
370
    25
100
AcDbLine
 10
79.4630132772
 20
41.8989135337
 30
0.0
 11
80.9485345127
 21
41.8989135337
 31
0.0
  0
LINE
  5
DE
330
1F
100
AcDbEntity
  8
0
  6
Continuous
 62
     7
370
    25
100
AcDbLine
 10
79.4630132772
 20
41.6933150781
 30
0.0
 11
79.4630132772
 21
41.8989135337
 31
0.0
  0
LINE
  5
DF
330
1F
100
AcDbEntity
  8
0
  6
Continuous
 62
     7
370
    25
100
AcDbLine
 10
80.6357932
 20
41.6933150781
 30
0.0
 11
79.4630132772
 21
41.6933150781
 31
0.0
  0
LINE
  5
E0
330
1F
100
AcDbEntity
  8
0
  6
Continuous
 62
     7
370
    25
100
AcDbLine
 10
79.4630132772
 20
40.9983343832
 30
0.0
 11
80.6357932
 21
41.6933150781
 31
0.0
  0
LINE
  5
E1
330
1F
100
AcDbEntity
  8
0
  6
Continuous
 62
     7
370
    25
100
AcDbLine
 10
79.4630132772
 20
40.781152916
 30
0.0
 11
79.4630132772
 21
40.9983343832
 31
0.0
  0
LINE
  5
E2
330
1F
100
AcDbEntity
  8
0
  6
Continuous
 62
     7
370
    25
100
AcDbLine
 10
80.9485345127
 20
40.781152916
 30
0.0
 11
79.4630132772
 21
40.781152916
 31
0.0
  0
LINE
  5
E3
330
1F
100
AcDbEntity
  8
0
  6
Continuous
 62
     7
370
    25
100
AcDbLine
 10
80.9485345127
 20
40.9867513716
 30
0.0
 11
80.9485345127
 21
40.781152916
 31
0.0
  0
LINE
  5
E4
330
1F
100
AcDbEntity
  8
0
  6
Continuous
 62
     7
370
    25
100
AcDbLine
 10
79.77575459
 20
40.9867513716
 30
0.0
 11
80.9485345127
 21
40.9867513716
 31
0.0
  0
LINE
  5
E5
330
1F
100
AcDbEntity
  8
0
  6
Continuous
 62
     7
370
    25
100
AcDbLine
 10
80.9485345127
 20
41.6759405608
 30
0.0
 11
79.77575459
 21
40.9867513716
 31
0.0
  0
LINE
  5
E6
330
1F
100
AcDbEntity
  8
0
  6
Continuous
 62
     7
370
    25
100
AcDbLine
 10
80.9485345127
 20
40.4867513716
 30
0.0
 11
80.9485345127
 21
39.7859791708
 31
0.0
  0
LINE
  5
E7
330
1F
100
AcDbEntity
  8
0
  6
Continuous
 62
     7
370
    25
100
AcDbLine
 10
80.9485345127
 20
41.8989135337
 30
0.0
 11
80.9485345127
 21
41.6759405608
 31
0.0
  0
SPLINE
  5
E8
330
1F
100
AcDbEntity
  8
0
  6
Continuous
 62
     7
370
    25
100
AcDbSpline
210
0.0
220
0.0
230
1.0
 70
     8
 71
     3
 72
    16
 73
    12
 74
     0
 42
0.00000001
 43
0.00000001
 40
0.0
 40
0.0
 40
0.0
 40
0.0
 40
0.25
 40
0.25
 40
0.5
 40
0.5
 40
0.625
 40
0.625
 40
0.75
 40
0.75
 40
1.0
 40
1.0
 40
1.0
 40
1.0
 10
78.12979484448363
 20
26.19501001241786
 30
0.0
 10
77.87126656900128
 20
26.64279412074645
 30
0.0
 10
77.65819242225864
 20
27.09384294268328
 30
0.0
 10
77.36301553547176
 20
28.00534752373952
 30
0.0
 10
77.28188645732915
 20
28.46587321549974
 30
0.0
 10
77.28099538108208
 20
29.16533831807142
 30
0.0
 10
77.30082829779872
 20
29.39959045016893
 30
0.0
 10
77.37816619843073
 20
29.86296587078272
 30
0.0
 10
77.43559269569509
 20
30.09310005565657
 30
0.0
 10
77.65734281366261
 20
30.7794053860429
 30
0.0
 10
77.87094429829328
 20
31.23149527215038
 30
0.0
 10
78.12979484448383
 20
31.67983756971935
 30
0.0
  0
LINE
  5
E9
330
1F
100
AcDbEntity
  8
0
  6
Continuous
 62
     7
370
    25
100
AcDbLine
 10
77.1369515012
 20
37.164665127
 30
0.0
 11
77.1369515012
 21
46.414665127
 31
0.0
  0
LINE
  5
EA
330
1F
100
AcDbEntity
  8
0
  6
Continuous
 62
     7
370
    25
100
AcDbLine
 10
77.1369515012
 20
27.914665127
 30
0.0
 11
77.1369515012
 21
37.164665127
 31
0.0
  0
SPLINE
  5
EB
330
1F
100
AcDbEntity
  8
0
  6
Continuous
 62
     7
370
    25
100
AcDbSpline
210
0.0
220
0.0
230
1.0
 70
     8
 71
     3
 72
    16
 73
    12
 74
     0
 42
0.00000001
 43
0.00000001
 40
0.0
 40
0.0
 40
0.0
 40
0.0
 40
0.25
 40
0.25
 40
0.5
 40
0.5
 40
0.625
 40
0.625
 40
0.75
 40
0.75
 40
1.0
 40
1.0
 40
1.0
 40
1.0
 10
82.14410815782578
 20
26.19501001241786
 30
0.0
 10
82.40263643330813
 20
26.64279412074645
 30
0.0
 10
82.61571058005077
 20
27.09384294268328
 30
0.0
 10
82.91088746683765
 20
28.00534752373952
 30
0.0
 10
82.99201654498026
 20
28.46587321549974
 30
0.0
 10
82.99290762122735
 20
29.16533831807142
 30
0.0
 10
82.97307470451071
 20
29.39959045016893
 30
0.0
 10
82.89573680387868
 20
29.86296587078272
 30
0.0
 10
82.83831030661432
 20
30.09310005565657
 30
0.0
 10
82.6165601886468
 20
30.7794053860429
 30
0.0
 10
82.40295870401613
 20
31.23149527215038
 30
0.0
 10
82.14410815782561
 20
31.67983756971935
 30
0.0
  0
LINE
  5
EC
330
1F
100
AcDbEntity
  8
0
  6
Continuous
 62
     7
370
    25
100
AcDbLine
 10
83.1369515012
 20
37.164665127
 30
0.0
 11
83.1369515012
 21
46.414665127
 31
0.0
  0
LINE
  5
ED
330
1F
100
AcDbEntity
  8
0
  6
Continuous
 62
     7
370
    25
100
AcDbLine
 10
83.1369515012
 20
27.914665127
 30
0.0
 11
83.1369515012
 21
37.164665127
 31
0.0
  0
LINE
  5
EE
330
1F
100
AcDbEntity
  8
0
  6
Continuous
 62
     7
370
    25
100
AcDbLine
 10
80.1586374728
 20
40.281152916
 30
0.0
 11
79.6280711923
 21
40.281152916
 31
0.0
  0
LINE
  5
EF
330
1F
100
AcDbEntity
  8
0
  6
Continuous
 62
     7
370
    25
100
AcDbLine
 10
80.1586374728
 20
39.8381027229
 30
0.0
 11
80.1586374728
 21
40.281152916
 31
0.0
  0
SPLINE
  5
F0
330
1F
100
AcDbEntity
  8
0
  6
Continuous
 62
     7
370
    25
100
AcDbSpline
210
0.0
220
0.0
230
1.0
 70
     8
 71
     3
 72
    15
 73
    11
 74
     0
 42
0.00000001
 43
0.00000001
 40
0.0
 40
0.0
 40
0.0
 40
0.0
 40
0.1193556939378538
 40
0.2390663805212355
 40
0.3573840708360853
 40
0.478772892602903
 40
0.6013911634438114
 40
0.7292416297469758
 40
0.8608048514681788
 40
1.0
 40
1.0
 40
1.0
 40
1.0
 10
80.07980864401185
 20
39.62960851443806
 30
0.0
 10
80.08608211179384
 20
39.63622949666862
 30
0.0
 10
80.0986477061654
 20
39.64949115352914
 30
0.0
 10
80.11454962011734
 20
39.67175911892996
 30
0.0
 10
80.12829929305795
 20
39.69554857236938
 30
0.0
 10
80.13947777212368
 20
39.72090799015178
 30
0.0
 10
80.1483078361639
 20
39.74794242744454
 30
0.0
 10
80.15428885082217
 20
39.77653652376709
 30
0.0
 10
80.15787555394863
 20
39.80680170378862
 30
0.0
 10
80.15837877177218
 20
39.82747481071965
 30
0.0
 10
80.15863747284068
 20
39.83810272293227
 30
0.0
  0
SPLINE
  5
F1
330
1F
100
AcDbEntity
  8
0
  6
Continuous
 62
     7
370
    25
100
AcDbSpline
210
0.0
220
0.0
230
1.0
 70
     8
 71
     3
 72
    15
 73
    11
 74
     0
 42
0.00000001
 43
0.00000001
 40
0.0
 40
0.0
 40
0.0
 40
0.0
 40
0.1417962611116216
 40
0.2768819513476976
 40
0.4055805706087828
 40
0.5298229690785617
 40
0.6485572024501437
 40
0.7672114666371233
 40
0.8821786188665558
 40
1.0
 40
1.0
 40
1.0
 40
1.0
 10
79.88868895289215
 20
39.56011044493999
 30
0.0
 10
79.89857222941353
 20
39.56021203996999
 30
0.0
 10
79.91787105201642
 20
39.56041042200018
 30
0.0
 10
79.94586767862928
 20
39.56438987852364
 30
0.0
 10
79.9725050231868
 20
39.56910803033214
 30
0.0
 10
79.9971960231905
 20
39.57703709962826
 30
0.0
 10
80.02052883576454
 20
39.58663238161621
 30
0.0
 10
80.04178487756856
 20
39.59896577300476
 30
0.0
 10
80.06202245088456
 20
39.61283684775224
 30
0.0
 10
80.07383164863117
 20
39.62397244754111
 30
0.0
 10
80.07980864401185
 20
39.62960851443806
 30
0.0
  0
SPLINE
  5
F2
330
1F
100
AcDbEntity
  8
0
  6
Continuous
 62
     7
370
    25
100
AcDbSpline
210
0.0
220
0.0
230
1.0
 70
     8
 71
     3
 72
    15
 73
    11
 74
     0
 42
0.00000001
 43
0.00000001
 40
0.0
 40
0.0
 40
0.0
 40
0.0
 40
0.1277118540336142
 40
0.2523621141955308
 40
0.3748537650566257
 40
0.4969693854038487
 40
0.6192731655242185
 40
0.742485444301997
 40
0.8694478780376611
 40
0.9999999999999999
 40
0.9999999999999999
 40
0.9999999999999999
 40
0.9999999999999999
 10
79.69756926177247
 20
39.63829577312531
 30
0.0
 10
79.7040813458414
 20
39.63202106803161
 30
0.0
 10
79.71694940195015
 20
39.61962207926597
 30
0.0
 10
79.73845449044721
 20
39.60401404698766
 30
0.0
 10
79.7606662227855
 20
39.59020177220316
 30
0.0
 10
79.78432332707432
 20
39.57940238309273
 30
0.0
 10
79.80881417083123
 20
39.57056600016154
 30
0.0
 10
79.8344912978705
 20
39.56443835868615
 30
0.0
 10
79.86124128313404
 20
39.5609145767441
 30
0.0
 10
79.87945509763964
 20
39.56038096833045
 30
0.0
 10
79.88868895289215
 20
39.56011044493999
 30
0.0
  0
SPLINE
  5
F3
330
1F
100
AcDbEntity
  8
0
  6
Continuous
 62
     7
370
    25
100
AcDbSpline
210
0.0
220
0.0
230
1.0
 70
     8
 71
     3
 72
    15
 73
    11
 74
     0
 42
0.00000001
 43
0.00000001
 40
0.0
 40
0.0
 40
0.0
 40
0.0
 40
0.1452459980297217
 40
0.2839773123111043
 40
0.4135645357275269
 40
0.5387150251446066
 40
0.6570052502158967
 40
0.7736984629726813
 40
0.8866940707303824
 40
0.9999999999999999
 40
0.9999999999999999
 40
0.9999999999999999
 40
0.9999999999999999
 10
79.6280711922744
 20
39.83810272293227
 30
0.0
 10
79.62817663288456
 20
39.82757746933751
 30
0.0
 10
79.62838278480262
 20
39.80699904881111
 30
0.0
 10
79.6322955764774
 20
39.77727631080024
 30
0.0
 10
79.63708026200216
 20
39.74915846188675
 30
0.0
 10
79.64495206539219
 20
39.72327363375607
 30
0.0
 10
79.65450459746486
 20
39.6989469227576
 30
0.0
 10
79.66695616190879
 20
39.67700469072273
 30
0.0
 10
79.68059624310472
 20
39.65615360558154
 30
0.0
 10
79.69190641909815
 20
39.64425382323315
 30
0.0
 10
79.69756926177247
 20
39.63829577312531
 30
0.0
  0
LINE
  5
F4
330
1F
100
AcDbEntity
  8
0
  6
Continuous
 62
     7
370
    25
100
AcDbLine
 10
79.6280711923
 20
40.281152916
 30
0.0
 11
79.6280711923
 21
39.8381027229
 31
0.0
  0
LINE
  5
F5
330
1F
100
AcDbEntity
  8
0
  6
Continuous
 62
     7
370
    25
100
AcDbLine
 10
80.0103105745
 20
36.7145505994
 30
0.0
 11
80.0103105745
 21
36.3294154642
 31
0.0
  0
LINE
  5
F6
330
1F
100
AcDbEntity
  8
0
  6
Continuous
 62
     7
370
    25
100
AcDbLine
 10
80.0103105745
 20
36.3294154642
 30
0.0
 11
80.6444804587
 21
36.3294154642
 31
0.0
  0
LINE
  5
F7
330
1F
100
AcDbEntity
  8
0
  6
Continuous
 62
     7
370
    25
100
AcDbLine
 10
80.6444804587
 20
36.3294154642
 30
0.0
 11
80.0103105745
 21
36.7145505994
 31
0.0
  0
LINE
  5
F8
330
1F
100
AcDbEntity
  8
0
  6
Continuous
 62
     7
370
    25
100
AcDbLine
 10
78.1297948445
 20
26.1950100124
 30
0.0
 11
82.1441081578
 21
26.1950100124
 31
0.0
  0
LINE
  5
F9
330
1F
100
AcDbEntity
  8
0
  6
Continuous
 62
     7
370
    25
100
AcDbLine
 10
80.792807357
 20
32.7792224141
 30
0.0
 11
80.792807357
 21
33.2657089005
 31
0.0
  0
SPLINE
  5
FA
330
1F
100
AcDbEntity
  8
0
  6
Continuous
 62
     7
370
    25
100
AcDbSpline
210
0.0
220
0.0
230
1.0
 70
     8
 71
     3
 72
    15
 73
    11
 74
     0
 42
0.00000001
 43
0.00000001
 40
0.0
 40
0.0
 40
0.0
 40
0.0
 40
0.1309133268193509
 40
0.2579771534544038
 40
0.381934289762815
 40
0.504482636073894
 40
0.6264704025122015
 40
0.7488072761095284
 40
0.872481475103115
 40
1.0
 40
1.0
 40
1.0
 40
1.0
 10
80.722665786869
 20
32.61416449899404
 30
0.0
 10
80.72827060870904
 20
32.61994646744191
 30
0.0
 10
80.73931544286796
 20
32.63134038582886
 30
0.0
 10
80.75333773928303
 20
32.65022332181316
 30
0.0
 10
80.76577669809821
 20
32.66953700855728
 30
0.0
 10
80.77588869846903
 20
32.68987382752142
 30
0.0
 10
80.78314117552365
 20
32.71127301280106
 30
0.0
 10
80.78859619429936
 20
32.73322392446328
 30
0.0
 10
80.79245381095846
 20
32.75592203970442
 30
0.0
 10
80.79268831203582
 20
32.7713767813282
 30
0.0
 10
80.79280735701057
 20
32.77922241405197
 30
0.0
  0
SPLINE
  5
FB
330
1F
100
AcDbEntity
  8
0
  6
Continuous
 62
     7
370
    25
100
AcDbSpline
210
0.0
220
0.0
230
1.0
 70
     8
 71
     3
 72
    15
 73
    11
 74
     0
 42
0.00000001
 43
0.00000001
 40
0.0
 40
0.0
 40
0.0
 40
0.0
 40
0.141796261111622
 40
0.2768819513476978
 40
0.4055805706087826
 40
0.5298229690785621
 40
0.6485572024501453
 40
0.7672114666371234
 40
0.8821786188665558
 40
1.0
 40
1.0
 40
1.0
 40
1.0
 10
80.5315460957493
 20
32.54466642949598
 30
0.0
 10
80.54142937227067
 20
32.54476802452597
 30
0.0
 10
80.56072819487356
 20
32.54496640655617
 30
0.0
 10
80.58872482148644
 20
32.54894586307962
 30
0.0
 10
80.61536216604394
 20
32.55366401488813
 30
0.0
 10
80.64005316604765
 20
32.56159308418425
 30
0.0
 10
80.66338597862168
 20
32.57118836617219
 30
0.0
 10
80.68464202042571
 20
32.58352175756074
 30
0.0
 10
80.70487959374171
 20
32.59739283230823
 30
0.0
 10
80.71668879148831
 20
32.6085284320971
 30
0.0
 10
80.722665786869
 20
32.61416449899404
 30
0.0
  0
SPLINE
  5
FC
330
1F
100
AcDbEntity
  8
0
  6
Continuous
 62
     7
370
    25
100
AcDbSpline
210
0.0
220
0.0
230
1.0
 70
     8
 71
     3
 72
    15
 73
    11
 74
     0
 42
0.00000001
 43
0.00000001
 40
0.0
 40
0.0
 40
0.0
 40
0.0
 40
0.1053643999148114
 40
0.2134004501006517
 40
0.3253299308157729
 40
0.4441520831794068
 40
0.5701116073912007
 40
0.7035881731039118
 40
0.8466305078268437
 40
0.9999999999999999
 40
0.9999999999999999
 40
0.9999999999999999
 40
0.9999999999999999
 10
80.34042640462961
 20
32.60547724030679
 30
0.0
 10
80.34579645743759
 20
32.60063922429138
 30
0.0
 10
80.35667272766938
 20
32.59084051812388
 30
0.0
 10
80.37512415775466
 20
32.57813510181602
 30
0.0
 10
80.39607616322711
 20
32.56799949172105
 30
0.0
 10
80.41890906047426
 20
32.55910324140638
 30
0.0
 10
80.44416738783933
 20
32.55299747753273
 30
0.0
 10
80.47132485805112
 20
32.54804651830264
 30
0.0
 10
80.5007046946792
 20
32.54518203421846
 30
0.0
 10
80.52102958512627
 20
32.54484224389977
 30
0.0
 10
80.5315460957493
 20
32.54466642949598
 30
0.0
  0
SPLINE
  5
FD
330
1F
100
AcDbEntity
  8
0
  6
Continuous
 62
     7
370
    25
100
AcDbSpline
210
0.0
220
0.0
230
1.0
 70
     8
 71
     3
 72
    11
 73
     7
 74
     0
 42
0.00000001
 43
0.00000001
 40
0.0
 40
0.0
 40
0.0
 40
0.0
 40
0.2562600332085376
 40
0.5016208045865247
 40
0.7449078564687251
 40
1.0
 40
1.0
 40
1.0
 40
1.0
 10
80.2796155938188
 20
32.75316063799018
 30
0.0
 10
80.28034276473832
 20
32.73913621658028
 30
0.0
 10
80.28176617851516
 20
32.7116838610045
 30
0.0
 10
80.29343634469079
 20
32.6723152339254
 30
0.0
 10
80.31274907177537
 20
32.63613189392849
 30
0.0
 10
80.33105608116793
 20
32.61585555318664
 30
0.0
 10
80.34042640462961
 20
32.60547724030679
 30
0.0
  0
LINE
  5
FE
330
1F
100
AcDbEntity
  8
0
  6
Continuous
 62
     7
370
    25
100
AcDbLine
 10
80.2796155938
 20
33.2657089005
 30
0.0
 11
80.2796155938
 21
32.753160638
 31
0.0
  0
LINE
  5
FF
330
1F
100
AcDbEntity
  8
0
  6
Continuous
 62
     7
370
    25
100
AcDbLine
 10
80.792807357
 20
33.2657089005
 30
0.0
 11
80.2796155938
 21
33.2657089005
 31
0.0
  0
LINE
  5
100
330
1F
100
AcDbEntity
  8
0
  6
Continuous
 62
     7
370
    25
100
AcDbLine
 10
65.585219842
 20
28.7511567414
 30
0.0
 11
65.585219842
 21
45.5781735127
 31
0.0
  0
LINE
  5
101
330
1F
100
AcDbEntity
  8
0
  6
Continuous
 62
     7
370
    25
100
AcDbLine
 10
63.1369515012
 20
37.164665127
 30
0.0
 11
63.1369515012
 21
44.164665127
 31
0.0
  0
LINE
  5
102
330
1F
100
AcDbEntity
  8
0
  6
Continuous
 62
     7
370
    25
100
AcDbLine
 10
63.1369515012
 20
30.164665127
 30
0.0
 11
63.1369515012
 21
37.164665127
 31
0.0
  0
LINE
  5
103
330
1F
100
AcDbEntity
  8
0
  6
Continuous
 62
     7
370
    18
100
AcDbLine
 10
63.7265714529
 20
44.5050823649
 30
0.0
 11
74.8369515012
 21
44.8522817414
 31
0.0
  0
LINE
  5
104
330
1F
100
AcDbEntity
  8
0
  6
Continuous
 62
     7
370
    18
100
AcDbLine
 10
63.7265714529
 20
29.8242478892
 30
0.0
 11
74.8369515012
 21
29.4770485127
 31
0.0
  0
LINE
  5
105
330
1F
100
AcDbEntity
  8
0
  6
Continuous
 62
     7
370
    25
100
AcDbLine
 10
74.8369515012
 20
28.462040127
 30
0.0
 11
74.8369515012
 21
45.867290127
 31
0.0
  0
LINE
  5
106
330
1F
100
AcDbEntity
  8
FORMAT
  6
CENTERX2
370
    18
100
AcDbLine
 10
84.1454946257
 20
37.164665127
 30
0.0
 11
62.1369515012
 21
37.164665127
 31
0.0
  0
SPLINE
  5
107
330
1F
100
AcDbEntity
  8
0
  6
Continuous
 62
     7
370
    25
100
AcDbSpline
210
0.0
220
0.0
230
1.0
 70
    24
 71
     3
 72
    16
 73
    12
 74
     0
 42
0.00000001
 43
0.00000001
 40
0.0
 40
0.0
 40
0.0
 40
0.0
 40
0.2499999999999999
 40
0.2499999999999999
 40
0.4999999999999998
 40
0.4999999999999998
 40
0.6249999999999998
 40
0.6249999999999998
 40
0.7499999999999997
 40
0.7499999999999997
 40
1.0
 40
1.0
 40
1.0
 40
1.0
 10
90.1981139732328
 20
42.6494926843222
 30
0.0
 10
90.97369879967981
 20
43.09727679265079
 30
0.0
 10
91.75493827596851
 20
43.54832561458763
 30
0.0
 10
93.3337105216897
 20
44.45983019564385
 30
0.0
 10
94.13136441800921
 20
44.92035588740409
 30
0.0
 10
95.34287351378472
 20
45.61982098997576
 30
0.0
 10
95.74861010835896
 20
45.85407312207327
 30
0.0
 10
96.55119987984064
 20
46.31744854268707
 30
0.0
 10
96.9498039806006
 20
46.54758272756091
 30
0.0
 10
98.13851968233506
 20
47.23388805794725
 30
0.0
 10
98.92156233466125
 20
47.68597794405473
 30
0.0
 10
99.69811397323286
 20
48.13432024162369
 30
0.0
  0
SPLINE
  5
108
330
1F
100
AcDbEntity
  8
0
  6
Continuous
 62
     7
370
    25
100
AcDbSpline
210
0.0
220
0.0
230
1.0
 70
    24
 71
     3
 72
    16
 73
    12
 74
     0
 42
0.00000001
 43
0.00000001
 40
0.0
 40
0.0
 40
0.0
 40
0.0
 40
0.2500000000000001
 40
0.2500000000000001
 40
0.5000000000000002
 40
0.5000000000000002
 40
0.6250000000000001
 40
0.6250000000000001
 40
0.7500000000000001
 40
0.7500000000000001
 40
1.0
 40
1.0
 40
1.0
 40
1.0
 10
99.6981139732328
 20
48.1343202416237
 30
0.0
 10
100.4736987996798
 20
47.68653613329511
 30
0.0
 10
101.2549382759685
 20
47.23548731135828
 30
0.0
 10
102.8337105216897
 20
46.32398273030206
 30
0.0
 10
103.6313644180092
 20
45.86345703854182
 30
0.0
 10
104.8428735137847
 20
45.16399193597015
 30
0.0
 10
105.2486101083589
 20
44.92973980387263
 30
0.0
 10
106.0511998798406
 20
44.46636438325884
 30
0.0
 10
106.4498039806006
 20
44.23623019838499
 30
0.0
 10
107.6385196823351
 20
43.54992486799866
 30
0.0
 10
108.4215623346613
 20
43.09783498189118
 30
0.0
 10
109.1981139732329
 20
42.64949268432221
 30
0.0
  0
SPLINE
  5
109
330
1F
100
AcDbEntity
  8
0
  6
Continuous
 62
     7
370
    25
100
AcDbSpline
210
0.0
220
0.0
230
1.0
 70
    24
 71
     3
 72
    14
 73
    10
 74
     0
 42
0.00000001
 43
0.00000001
 40
0.0
 40
0.0
 40
0.0
 40
0.0
 40
0.25
 40
0.25
 40
0.5
 40
0.5
 40
0.75
 40
0.75
 40
1.0
 40
1.0
 40
1.0
 40
1.0
 10
109.1981139732328
 20
42.64949268432223
 30
0.0
 10
109.1981139732328
 20
41.75663951705339
 30
0.0
 10
109.1981139732328
 20
40.85553815632066
 30
0.0
 10
109.1981139732328
 20
39.02921394986765
 30
0.0
 10
109.1981139732328
 20
38.10288242514866
 30
0.0
 10
109.1981139732328
 20
36.22368576397787
 30
0.0
 10
109.1981139732328
 20
35.29893535781009
 30
0.0
 10
109.1981139732328
 20
33.47348488150976
 30
0.0
 10
109.1981139732328
 20
32.57260552540245
 30
0.0
 10
109.1981139732328
 20
31.67983756971934
 30
0.0
  0
SPLINE
  5
10A
330
1F
100
AcDbEntity
  8
0
  6
Continuous
 62
     7
370
    25
100
AcDbSpline
210
0.0
220
0.0
230
1.0
 70
    24
 71
     3
 72
    16
 73
    12
 74
     0
 42
0.00000001
 43
0.00000001
 40
0.0
 40
0.0
 40
0.0
 40
0.0
 40
0.2500000000000002
 40
0.2500000000000002
 40
0.5000000000000001
 40
0.5000000000000001
 40
0.6250000000000001
 40
0.6250000000000001
 40
0.75
 40
0.75
 40
1.0
 40
1.0
 40
1.0
 40
1.0
 10
109.1981139732329
 20
31.67983756971936
 30
0.0
 10
108.4225291467858
 20
31.23205346139078
 30
0.0
 10
107.6412896704971
 20
30.78100463945394
 30
0.0
 10
106.062517424776
 20
29.86950005839771
 30
0.0
 10
105.2648635284565
 20
29.40897436663748
 30
0.0
 10
104.0533544326809
 20
28.70950926406581
 30
0.0
 10
103.6476178381067
 20
28.47525713196829
 30
0.0
 10
102.845028066625
 20
28.0118817113545
 30
0.0
 10
102.4464239658651
 20
27.78174752648064
 30
0.0
 10
101.2577082641306
 20
27.09544219609432
 30
0.0
 10
100.4746656118044
 20
26.64335230998684
 30
0.0
 10
99.69811397323281
 20
26.19501001241788
 30
0.0
  0
SPLINE
  5
10B
330
1F
100
AcDbEntity
  8
0
  6
Continuous
 62
     7
370
    25
100
AcDbSpline
210
0.0
220
0.0
230
1.0
 70
    24
 71
     3
 72
    16
 73
    12
 74
     0
 42
0.00000001
 43
0.00000001
 40
0.0
 40
0.0
 40
0.0
 40
0.0
 40
0.25
 40
0.25
 40
0.5
 40
0.5
 40
0.625
 40
0.625
 40
0.75
 40
0.75
 40
1.0
 40
1.0
 40
1.0
 40
1.0
 10
99.69811397323288
 20
26.19501001241786
 30
0.0
 10
98.92252914678586
 20
26.64279412074645
 30
0.0
 10
98.14128967049714
 20
27.09384294268328
 30
0.0
 10
96.56251742477598
 20
28.00534752373952
 30
0.0
 10
95.76486352845646
 20
28.46587321549974
 30
0.0
 10
94.55335443268095
 20
29.16533831807142
 30
0.0
 10
94.14761783810671
 20
29.39959045016893
 30
0.0
 10
93.34502806662503
 20
29.86296587078272
 30
0.0
 10
92.94642396586507
 20
30.09310005565657
 30
0.0
 10
91.75770826413061
 20
30.7794053860429
 30
0.0
 10
90.97466561180443
 20
31.23149527215038
 30
0.0
 10
90.19811397323281
 20
31.67983756971935
 30
0.0
  0
SPLINE
  5
10C
330
1F
100
AcDbEntity
  8
0
  6
Continuous
 62
     7
370
    25
100
AcDbSpline
210
0.0
220
0.0
230
1.0
 70
    24
 71
     3
 72
    14
 73
    10
 74
     0
 42
0.00000001
 43
0.00000001
 40
0.0
 40
0.0
 40
0.0
 40
0.0
 40
0.25
 40
0.25
 40
0.5
 40
0.5
 40
0.75
 40
0.75
 40
1.0
 40
1.0
 40
1.0
 40
1.0
 10
90.19811397323284
 20
31.67983756971933
 30
0.0
 10
90.19811397323284
 20
32.57269073698817
 30
0.0
 10
90.19811397323284
 20
33.4737920977209
 30
0.0
 10
90.19811397323284
 20
35.30011630417392
 30
0.0
 10
90.19811397323284
 20
36.22644782889291
 30
0.0
 10
90.19811397323284
 20
38.10564449006369
 30
0.0
 10
90.19811397323284
 20
39.03039489623146
 30
0.0
 10
90.19811397323284
 20
40.8558453725318
 30
0.0
 10
90.19811397323284
 20
41.75672472863911
 30
0.0
 10
90.19811397323284
 20
42.64949268432223
 30
0.0
  0
CIRCLE
  5
10D
330
1F
100
AcDbEntity
  8
0
  6
Continuous
 62
     7
370
    25
100
AcDbCircle
 10
99.6981139732
 20
37.164665127
 30
0.0
 40
9.25
  0
CIRCLE
  5
10E
330
1F
100
AcDbEntity
  8
0
  6
Continuous
 62
     7
370
    25
100
AcDbCircle
 10
99.6981139732
 20
37.164665127
 30
0.0
 40
6.75
  0
CIRCLE
  5
10F
330
1F
100
AcDbEntity
  8
0
  6
Continuous
 62
     7
370
    25
100
AcDbCircle
 10
99.6981139732
 20
37.164665127
 30
0.0
 40
5.782747999999998
  0
CIRCLE
  5
110
330
1F
100
AcDbEntity
  8
0
  6
Continuous
 62
     7
370
    25
100
AcDbCircle
 10
99.6981139732
 20
37.164665127
 30
0.0
 40
5.449999999999989
  0
INSERT
  5
11C
330
1F
100
AcDbEntity
  8
FORMAT
100
AcDbBlockReference
  2
SW_CENTERMARKSYMBOL_0
 10
99.6981139732
 20
37.164665127
 30
0.0
  0
ARC
  5
11D
330
1F
100
AcDbEntity
  8
0
  6
Continuous
 62
     7
370
    18
100
AcDbCircle
 10
99.6981139732
 20
37.164665127
 30
0.0
 40
6.637914659390907
100
AcDbArc
 50
75.0
 51
345.0
  0
LINE
  5
11E
330
1F
100
AcDbEntity
  8
0
  6
Continuous
 62
     7
370
    25
100
AcDbLine
 10
77.2812890685
 20
73.3584962897
 30
0.0
 11
77.1369515012
 21
73.1084962897
 31
0.0
  0
LINE
  5
11F
330
1F
100
AcDbEntity
  8
0
  6
Continuous
 62
     7
370
    25
100
AcDbLine
 10
77.1369515012
 20
54.6084962897
 30
0.0
 11
77.2812890685
 21
54.3584962897
 31
0.0
  0
LINE
  5
120
330
1F
100
AcDbEntity
  8
0
  6
Continuous
 62
     7
370
    25
100
AcDbLine
 10
82.9926139339
 20
54.3584962897
 30
0.0
 11
83.1369515012
 21
54.6084962897
 31
0.0
  0
LINE
  5
121
330
1F
100
AcDbEntity
  8
0
  6
Continuous
 62
     7
370
    25
100
AcDbLine
 10
83.1369515012
 20
73.1084962897
 30
0.0
 11
82.9926139339
 21
73.3584962897
 31
0.0
  0
LINE
  5
122
330
1F
100
AcDbEntity
  8
0
  6
Continuous
 62
     7
370
    25
100
AcDbLine
 10
77.1369515012
 20
72.6329962897
 30
0.0
 11
65.585219842
 21
72.2720046754
 31
0.0
  0
LINE
  5
123
330
1F
100
AcDbEntity
  8
0
  6
Continuous
 62
     7
370
    25
100
AcDbLine
 10
65.585219842
 20
55.4449879041
 30
0.0
 11
77.1369515012
 21
55.0839962897
 31
0.0
  0
LINE
  5
124
330
1F
100
AcDbEntity
  8
0
  6
Continuous
 62
     7
370
    25
100
AcDbLine
 10
65.585219842
 20
72.2720046754
 30
0.0
 11
63.1369515012
 21
70.8584962897
 31
0.0
  0
LINE
  5
125
330
1F
100
AcDbEntity
  8
0
  6
Continuous
 62
     7
370
    25
100
AcDbLine
 10
63.1369515012
 20
56.8584962897
 30
0.0
 11
65.585219842
 21
55.4449879041
 31
0.0
  0
SPLINE
  5
126
330
1F
100
AcDbEntity
  8
0
  6
Continuous
 62
     7
370
    25
100
AcDbSpline
210
0.0
220
0.0
230
1.0
 70
    24
 71
     3
 72
    13
 73
     9
 74
     0
 42
0.00000001
 43
0.00000001
 40
0.0
 40
0.0
 40
0.0
 40
0.0
 40
0.1582113922128841
 40
0.3244201401798706
 40
0.49052419332543
 40
0.6603029985295997
 40
0.8301769983408035
 40
1.0
 40
1.0
 40
1.0
 40
1.0
 10
77.28247412339704
 20
54.35849628970583
 30
0.0
 10
77.28667599763669
 20
54.35849628970583
 30
0.0
 10
77.29529214474711
 20
54.35849628970583
 30
0.0
 10
77.37226937610056
 20
54.35849628970583
 30
0.0
 10
77.49482603530987
 20
54.35849628970583
 30
0.0
 10
77.66590421476953
 20
54.35849628970583
 30
0.0
 10
77.87615571205
 20
54.35849628970583
 30
0.0
 10
78.04525692930186
 20
54.35849628970583
 30
0.0
 10
78.129794844484
 20
54.35849628970583
 30
0.0
  0
SPLINE
  5
127
330
1F
100
AcDbEntity
  8
0
  6
Continuous
 62
     7
370
    25
100
AcDbSpline
210
0.0
220
0.0
230
1.0
 70
    24
 71
     3
 72
    14
 73
    10
 74
     0
 42
0.00000001
 43
0.00000001
 40
0.0
 40
0.0
 40
0.0
 40
0.0
 40
0.1638447891801702
 40
0.3277352202176382
 40
0.4915419381379111
 40
0.6583821333503933
 40
0.8253263126700616
 40
0.9921357754170704
 40
1.0
 40
1.0
 40
1.0
 40
1.0
 10
78.129794844484
 20
73.35849628970583
 30
0.0
 10
78.0481456283077
 20
73.35849628970584
 30
0.0
 10
77.88482445112513
 20
73.35849628970584
 30
0.0
 10
77.67988573923238
 20
73.35849628970583
 30
0.0
 10
77.50957701244113
 20
73.35849628970583
 30
0.0
 10
77.3810592546359
 20
73.35849628970584
 30
0.0
 10
77.30557550705015
 20
73.35849628970583
 30
0.0
 10
77.2733628957815
 20
73.35849628970583
 30
0.0
 10
77.28208158718665
 20
73.35849628970584
 30
0.0
 10
77.28247412339704
 20
73.35849628970583
 30
0.0
  0
SPLINE
  5
128
330
1F
100
AcDbEntity
  8
0
  6
Continuous
 62
     7
370
    25
100
AcDbSpline
210
0.0
220
0.0
230
1.0
 70
     8
 71
     3
 72
    16
 73
    12
 74
     0
 42
0.00000001
 43
0.00000001
 40
0.0
 40
0.0
 40
0.0
 40
0.0
 40
0.2500000000000001
 40
0.2500000000000001
 40
0.5000000000000002
 40
0.5000000000000002
 40
0.6250000000000001
 40
0.6250000000000001
 40
0.7500000000000001
 40
0.7500000000000001
 40
1.0
 40
1.0
 40
1.0
 40
1.0
 10
78.12979484448364
 20
63.85849628970578
 30
0.0
 10
77.87126656900128
 20
64.6340811161528
 30
0.0
 10
77.65819242225865
 20
65.41532059244152
 30
0.0
 10
77.36301553547176
 20
66.99409283816269
 30
0.0
 10
77.28188645732916
 20
67.7917467344822
 30
0.0
 10
77.28099538108208
 20
69.00325583025771
 30
0.0
 10
77.30082829779872
 20
69.40899242483195
 30
0.0
 10
77.37816619843073
 20
70.21158219631363
 30
0.0
 10
77.4355926956951
 20
70.6101862970736
 30
0.0
 10
77.65734281366261
 20
71.79890199880805
 30
0.0
 10
77.87094429829328
 20
72.58194465113425
 30
0.0
 10
78.12979484448383
 20
73.35849628970585
 30
0.0
  0
SPLINE
  5
129
330
1F
100
AcDbEntity
  8
0
  6
Continuous
 62
     7
370
    25
100
AcDbSpline
210
0.0
220
0.0
230
1.0
 70
     8
 71
     3
 72
    16
 73
    12
 74
     0
 42
0.00000001
 43
0.00000001
 40
0.0
 40
0.0
 40
0.0
 40
0.0
 40
0.2499999999999999
 40
0.2499999999999999
 40
0.4999999999999998
 40
0.4999999999999998
 40
0.6249999999999998
 40
0.6249999999999998
 40
0.7499999999999997
 40
0.7499999999999997
 40
1.0
 40
1.0
 40
1.0
 40
1.0
 10
78.12979484448364
 20
54.35849628970578
 30
0.0
 10
77.87126656900128
 20
55.13408111615281
 30
0.0
 10
77.65819242225864
 20
55.91532059244152
 30
0.0
 10
77.36301553547176
 20
57.49409283816268
 30
0.0
 10
77.28188645732916
 20
58.2917467344822
 30
0.0
 10
77.28099538108208
 20
59.50325583025771
 30
0.0
 10
77.30082829779872
 20
59.90899242483195
 30
0.0
 10
77.37816619843075
 20
60.71158219631364
 30
0.0
 10
77.4355926956951
 20
61.11018629707359
 30
0.0
 10
77.65734281366261
 20
62.29890199880806
 30
0.0
 10
77.87094429829328
 20
63.08194465113424
 30
0.0
 10
78.12979484448383
 20
63.85849628970585
 30
0.0
  0
LINE
  5
12A
330
1F
100
AcDbEntity
  8
0
  6
Continuous
 62
     7
370
    25
100
AcDbLine
 10
77.1369515012
 20
54.6084962897
 30
0.0
 11
77.1369515012
 21
73.1084962897
 31
0.0
  0
LINE
  5
12B
330
1F
100
AcDbEntity
  8
0
  6
Continuous
 62
     7
370
    25
100
AcDbLine
 10
78.1297948445
 20
73.3584962897
 30
0.0
 11
82.1441081578
 21
73.3584962897
 31
0.0
  0
SPLINE
  5
12C
330
1F
100
AcDbEntity
  8
0
  6
Continuous
 62
     7
370
    25
100
AcDbSpline
210
0.0
220
0.0
230
1.0
 70
     8
 71
     3
 72
    16
 73
    12
 74
     0
 42
0.00000001
 43
0.00000001
 40
0.0
 40
0.0
 40
0.0
 40
0.0
 40
0.2500000000000001
 40
0.2500000000000001
 40
0.5000000000000002
 40
0.5000000000000002
 40
0.6250000000000001
 40
0.6250000000000001
 40
0.7500000000000001
 40
0.7500000000000001
 40
1.0
 40
1.0
 40
1.0
 40
1.0
 10
82.14410815782577
 20
63.85849628970578
 30
0.0
 10
82.40263643330813
 20
64.6340811161528
 30
0.0
 10
82.61571058005077
 20
65.41532059244152
 30
0.0
 10
82.91088746683765
 20
66.99409283816269
 30
0.0
 10
82.99201654498026
 20
67.7917467344822
 30
0.0
 10
82.99290762122733
 20
69.00325583025771
 30
0.0
 10
82.9730747045107
 20
69.40899242483195
 30
0.0
 10
82.89573680387868
 20
70.21158219631363
 30
0.0
 10
82.83831030661432
 20
70.6101862970736
 30
0.0
 10
82.6165601886468
 20
71.79890199880805
 30
0.0
 10
82.40295870401613
 20
72.58194465113425
 30
0.0
 10
82.14410815782561
 20
73.35849628970585
 30
0.0
  0
LINE
  5
12D
330
1F
100
AcDbEntity
  8
0
  6
Continuous
 62
     7
370
    25
100
AcDbLine
 10
78.1297948445
 20
63.8584962897
 30
0.0
 11
82.1441081578
 21
63.8584962897
 31
0.0
  0
SPLINE
  5
12E
330
1F
100
AcDbEntity
  8
0
  6
Continuous
 62
     7
370
    25
100
AcDbSpline
210
0.0
220
0.0
230
1.0
 70
     8
 71
     3
 72
    16
 73
    12
 74
     0
 42
0.00000001
 43
0.00000001
 40
0.0
 40
0.0
 40
0.0
 40
0.0
 40
0.2499999999999999
 40
0.2499999999999999
 40
0.4999999999999998
 40
0.4999999999999998
 40
0.6249999999999998
 40
0.6249999999999998
 40
0.7499999999999997
 40
0.7499999999999997
 40
1.0
 40
1.0
 40
1.0
 40
1.0
 10
82.14410815782577
 20
54.35849628970578
 30
0.0
 10
82.40263643330813
 20
55.13408111615281
 30
0.0
 10
82.61571058005077
 20
55.91532059244152
 30
0.0
 10
82.91088746683765
 20
57.49409283816268
 30
0.0
 10
82.99201654498026
 20
58.2917467344822
 30
0.0
 10
82.99290762122733
 20
59.50325583025771
 30
0.0
 10
82.9730747045107
 20
59.90899242483195
 30
0.0
 10
82.89573680387868
 20
60.71158219631364
 30
0.0
 10
82.83831030661432
 20
61.11018629707359
 30
0.0
 10
82.6165601886468
 20
62.29890199880806
 30
0.0
 10
82.40295870401613
 20
63.08194465113424
 30
0.0
 10
82.14410815782561
 20
63.85849628970585
 30
0.0
  0
SPLINE
  5
12F
330
1F
100
AcDbEntity
  8
0
  6
Continuous
 62
     7
370
    25
100
AcDbSpline
210
0.0
220
0.0
230
1.0
 70
    24
 71
     3
 72
    14
 73
    10
 74
     0
 42
0.00000001
 43
0.00000001
 40
0.0
 40
0.0
 40
0.0
 40
0.0
 40
0.1638447891801702
 40
0.3277352202176382
 40
0.4915419381379111
 40
0.6583821333503933
 40
0.8253263126700616
 40
0.9921357754170704
 40
1.0
 40
1.0
 40
1.0
 40
1.0
 10
82.14410815782541
 20
73.35849628970583
 30
0.0
 10
82.22575737400172
 20
73.35849628970584
 30
0.0
 10
82.38907855118428
 20
73.35849628970584
 30
0.0
 10
82.59401726307703
 20
73.35849628970583
 30
0.0
 10
82.76432598986828
 20
73.35849628970583
 30
0.0
 10
82.89284374767351
 20
73.35849628970584
 30
0.0
 10
82.96832749525926
 20
73.35849628970583
 30
0.0
 10
83.00054010652791
 20
73.35849628970583
 30
0.0
 10
82.99182141512276
 20
73.35849628970584
 30
0.0
 10
82.99142887891237
 20
73.35849628970583
 30
0.0
  0
SPLINE
  5
130
330
1F
100
AcDbEntity
  8
0
  6
Continuous
 62
     7
370
    25
100
AcDbSpline
210
0.0
220
0.0
230
1.0
 70
    24
 71
     3
 72
    13
 73
     9
 74
     0
 42
0.00000001
 43
0.00000001
 40
0.0
 40
0.0
 40
0.0
 40
0.0
 40
0.1582113922128841
 40
0.3244201401798706
 40
0.49052419332543
 40
0.6603029985295997
 40
0.8301769983408035
 40
1.0
 40
1.0
 40
1.0
 40
1.0
 10
82.99142887891237
 20
54.35849628970583
 30
0.0
 10
82.98722700467272
 20
54.35849628970583
 30
0.0
 10
82.9786108575623
 20
54.35849628970583
 30
0.0
 10
82.90163362620886
 20
54.35849628970583
 30
0.0
 10
82.77907696699954
 20
54.35849628970583
 30
0.0
 10
82.60799878753988
 20
54.35849628970583
 30
0.0
 10
82.39774729025942
 20
54.35849628970583
 30
0.0
 10
82.22864607300757
 20
54.35849628970583
 30
0.0
 10
82.14410815782541
 20
54.35849628970583
 30
0.0
  0
LINE
  5
131
330
1F
100
AcDbEntity
  8
0
  6
Continuous
 62
     7
370
    25
100
AcDbLine
 10
83.1369515012
 20
54.6084962897
 30
0.0
 11
83.1369515012
 21
73.1084962897
 31
0.0
  0
LINE
  5
132
330
1F
100
AcDbEntity
  8
0
  6
Continuous
 62
     7
370
    25
100
AcDbLine
 10
78.1297948445
 20
54.3584962897
 30
0.0
 11
82.1441081578
 21
54.3584962897
 31
0.0
  0
LINE
  5
133
330
1F
100
AcDbEntity
  8
0
  6
Continuous
 62
     7
370
    25
100
AcDbLine
 10
65.585219842
 20
63.8584962897
 30
0.0
 11
65.585219842
 21
72.2720046754
 31
0.0
  0
LINE
  5
134
330
1F
100
AcDbEntity
  8
0
  6
Continuous
 62
     7
370
    25
100
AcDbLine
 10
65.585219842
 20
55.4449879041
 30
0.0
 11
65.585219842
 21
63.8584962897
 31
0.0
  0
LINE
  5
135
330
1F
100
AcDbEntity
  8
0
  6
Continuous
 62
     7
370
    25
100
AcDbLine
 10
63.1369515012
 20
56.8584962897
 30
0.0
 11
63.1369515012
 21
70.8584962897
 31
0.0
  0
LINE
  5
136
330
1F
100
AcDbEntity
  8
0
  6
Continuous
 62
     7
370
    18
100
AcDbLine
 10
63.7265714529
 20
71.1989135275
 30
0.0
 11
74.8369515012
 21
71.5461129041
 31
0.0
  0
LINE
  5
137
330
1F
100
AcDbEntity
  8
0
  6
Continuous
 62
     7
370
    18
100
AcDbLine
 10
63.7265714529
 20
56.5180790519
 30
0.0
 11
74.8369515012
 21
56.1708796754
 31
0.0
  0
LINE
  5
138
330
1F
100
AcDbEntity
  8
0
  6
Continuous
 62
     7
370
    25
100
AcDbLine
 10
74.8369515012
 20
55.1558712897
 30
0.0
 11
74.8369515012
 21
72.5611212897
 31
0.0
  0
LINE
  5
139
330
1F
100
AcDbEntity
  8
FORMAT
  6
CENTERX2
370
    18
100
AcDbLine
 10
83.8844455079
 20
63.8584962897
 30
0.0
 11
62.1369515012
 21
63.8584962897
 31
0.0
  0
ENDSEC
  0
SECTION
  2
OBJECTS
  0
DICTIONARY
  5
C
330
0
100
AcDbDictionary
281
     1
  3
ACAD_GROUP
350
D
  3
ACAD_LAYOUT
350
1A
  3
ACAD_MLINESTYLE
350
17
  3
ACAD_PLOTSETTINGS
350
19
  3
ACAD_PLOTSTYLENAME
350
E
  3
ACAD_SCALELIST
350
47
  3
DWGPROPS
350
13A
  0
DICTIONARY
  5
D
102
{ACAD_REACTORS
330
C
102
}
330
C
100
AcDbDictionary
281
     1
  0
DICTIONARY
  5
1A
102
{ACAD_REACTORS
330
C
102
}
330
C
100
AcDbDictionary
281
     1
  3
Layout1
350
1E
  3
Layout2
350
26
  3
Model
350
22
  0
DICTIONARY
  5
17
102
{ACAD_REACTORS
330
C
102
}
330
C
100
AcDbDictionary
281
     1
  3
Standard
350
18
  0
DICTIONARY
  5
19
102
{ACAD_REACTORS
330
C
102
}
330
C
100
AcDbDictionary
281
     1
  0
ACDBDICTIONARYWDFLT
  5
E
102
{ACAD_REACTORS
330
C
102
}
330
C
100
AcDbDictionary
281
     1
  3
Normal
350
F
100
AcDbDictionaryWithDefault
340
F
  0
DICTIONARY
  5
47
102
{ACAD_REACTORS
330
C
102
}
330
C
100
AcDbDictionary
281
     1
  3
A0
350
48
  3
A1
350
49
  3
A2
350
4A
  3
A3
350
4B
  3
A4
350
4C
  3
A5
350
4D
  3
A6
350
4E
  3
A7
350
4F
  3
A8
350
50
  3
A9
350
51
  3
B0
350
52
  3
B1
350
53
  3
B2
350
54
  3
B3
350
55
  3
B4
350
56
  3
B5
350
57
  3
B6
350
58
  0
XRECORD
  5
13A
102
{ACAD_REACTORS
330
C
102
}
330
C
100
AcDbXrecord
280
     1
  1
DWGPROPS COOKIE
  2

  3

  4

  6

  7

  8
user28
  9

300
=
301
=
302
=
303
=
304
=
305
=
306
=
307
=
308
=
309
=
 40
0.0
 41
2460406.312271227
 42
2460406.312271736
  1

 90
        0
  0
LAYOUT
  5
1E
102
{ACAD_REACTORS
330
1A
102
}
330
1A
100
AcDbPlotSettings
  1

  2
none_device
  4

  6

 40
0.0
 41
0.0
 42
0.0
 43
0.0
 44
0.0
 45
0.0
 46
0.0
 47
0.0
 48
0.0
 49
0.0
140
0.0
141
0.0
142
1.0
143
1.0
 70
   688
 72
     1
 73
     0
 74
     5
  7

 75
    16
147
1.0
148
0.0
149
0.0
100
AcDbLayout
  1
Layout1
 70
     1
 71
     1
 10
0.0
 20
0.0
 11
420.0
 21
297.0
 12
0.0
 22
0.0
 32
0.0
 14
1.0000000000E+20
 24
1.0000000000E+20
 34
1.0000000000E+20
 15
-1.0000000000E+20
 25
-1.0000000000E+20
 35
-1.0000000000E+20
146
0.0
 13
0.0
 23
0.0
 33
0.0
 16
1.0
 26
0.0
 36
0.0
 17
0.0
 27
1.0
 37
0.0
 76
     0
330
1B
  0
LAYOUT
  5
26
102
{ACAD_REACTORS
330
1A
102
}
330
1A
100
AcDbPlotSettings
  1

  2
none_device
  4

  6

 40
0.0
 41
0.0
 42
0.0
 43
0.0
 44
0.0
 45
0.0
 46
0.0
 47
0.0
 48
0.0
 49
0.0
140
0.0
141
0.0
142
1.0
143
1.0
 70
   688
 72
     1
 73
     0
 74
     5
  7

 75
    16
147
1.0
148
0.0
149
0.0
100
AcDbLayout
  1
Layout2
 70
     1
 71
     2
 10
0.0
 20
0.0
 11
0.0
 21
0.0
 12
0.0
 22
0.0
 32
0.0
 14
0.0
 24
0.0
 34
0.0
 15
0.0
 25
0.0
 35
0.0
146
0.0
 13
0.0
 23
0.0
 33
0.0
 16
1.0
 26
0.0
 36
0.0
 17
0.0
 27
1.0
 37
0.0
 76
     0
330
23
  0
LAYOUT
  5
22
102
{ACAD_REACTORS
330
1A
102
}
330
1A
100
AcDbPlotSettings
  1

  2
none_device
  4
Letter_(8.50_x_11.00_Inches)
  6

 40
6.35
 41
6.35
 42
6.35000508
 43
6.35000508
 44
215.9
 45
279.4
 46
0.0
 47
0.0
 48
0.0
 49
0.0
140
0.0
141
0.0
142
1.0
143
1.0
 70
  1712
 72
     1
 73
     0
 74
     0
  7

 75
     0
147
1.0
148
0.0
149
0.0
100
AcDbLayout
  1
Model
 70
     1
 71
     0
 10
0.0
 20
0.0
 11
148.5
 21
105.0
 12
0.0
 22
0.0
 32
0.0
 14
0.0
 24
0.0
 34
0.0
 15
148.5
 25
105.0
 35
0.0
146
0.0
 13
0.0
 23
0.0
 33
0.0
 16
1.0
 26
0.0
 36
0.0
 17
0.0
 27
1.0
 37
0.0
 76
     0
330
1F
331
29
  0
MLINESTYLE
  5
18
102
{ACAD_REACTORS
330
17
102
}
330
17
100
AcDbMlineStyle
  2
Standard
 70
     0
  3

 62
   256
 51
90.0
 52
90.0
 71
     2
 49
0.5
 62
   256
  6
BYLAYER
 49
-0.5
 62
   256
  6
BYLAYER
  0
ACDBPLACEHOLDER
  5
F
102
{ACAD_REACTORS
330
E
102
}
330
E
  0
SCALE
  5
48
102
{ACAD_REACTORS
330
47
102
}
330
47
100
AcDbScale
 70
     0
300
1:1
140
1.0
141
1.0
290
     1
  0
SCALE
  5
49
102
{ACAD_REACTORS
330
47
102
}
330
47
100
AcDbScale
 70
     0
300
1:2
140
1.0
141
2.0
290
     0
  0
SCALE
  5
4A
102
{ACAD_REACTORS
330
47
102
}
330
47
100
AcDbScale
 70
     0
300
1:4
140
1.0
141
4.0
290
     0
  0
SCALE
  5
4B
102
{ACAD_REACTORS
330
47
102
}
330
47
100
AcDbScale
 70
     0
300
1:5
140
1.0
141
5.0
290
     0
  0
SCALE
  5
4C
102
{ACAD_REACTORS
330
47
102
}
330
47
100
AcDbScale
 70
     0
300
1:8
140
1.0
141
8.0
290
     0
  0
SCALE
  5
4D
102
{ACAD_REACTORS
330
47
102
}
330
47
100
AcDbScale
 70
     0
300
1:10
140
1.0
141
10.0
290
     0
  0
SCALE
  5
4E
102
{ACAD_REACTORS
330
47
102
}
330
47
100
AcDbScale
 70
     0
300
1:16
140
1.0
141
16.0
290
     0
  0
SCALE
  5
4F
102
{ACAD_REACTORS
330
47
102
}
330
47
100
AcDbScale
 70
     0
300
1:20
140
1.0
141
20.0
290
     0
  0
SCALE
  5
50
102
{ACAD_REACTORS
330
47
102
}
330
47
100
AcDbScale
 70
     0
300
1:30
140
1.0
141
30.0
290
     0
  0
SCALE
  5
51
102
{ACAD_REACTORS
330
47
102
}
330
47
100
AcDbScale
 70
     0
300
1:40
140
1.0
141
40.0
290
     0
  0
SCALE
  5
52
102
{ACAD_REACTORS
330
47
102
}
330
47
100
AcDbScale
 70
     0
300
1:50
140
1.0
141
50.0
290
     0
  0
SCALE
  5
53
102
{ACAD_REACTORS
330
47
102
}
330
47
100
AcDbScale
 70
     0
300
1:100
140
1.0
141
100.0
290
     0
  0
SCALE
  5
54
102
{ACAD_REACTORS
330
47
102
}
330
47
100
AcDbScale
 70
     0
300
2:1
140
2.0
141
1.0
290
     0
  0
SCALE
  5
55
102
{ACAD_REACTORS
330
47
102
}
330
47
100
AcDbScale
 70
     0
300
4:1
140
4.0
141
1.0
290
     0
  0
SCALE
  5
56
102
{ACAD_REACTORS
330
47
102
}
330
47
100
AcDbScale
 70
     0
300
8:1
140
8.0
141
1.0
290
     0
  0
SCALE
  5
57
102
{ACAD_REACTORS
330
47
102
}
330
47
100
AcDbScale
 70
     0
300
10:1
140
10.0
141
1.0
290
     0
  0
SCALE
  5
58
102
{ACAD_REACTORS
330
47
102
}
330
47
100
AcDbScale
 70
     0
300
100:1
140
100.0
141
1.0
290
     0
  0
ENDSEC
  0
EOF
