  0
SECTION
  2
HEADER
  9
$ACADVER
  1
AC1015
  9
$ACADMAINTVER
 70
     6
  9
$DWGCODEPAGE
  3
DOS932
  9
$INSBASE
 10
0.0
 20
0.0
 30
0.0
  9
$EXTMIN
 10
0.0
 20
0.0
 30
0.0
  9
$EXTMAX
 10
148.5
 20
105.0
 30
0.0
  9
$LIMMIN
 10
0.0
 20
0.0
  9
$LIMMAX
 10
148.5
 20
105.0
  9
$ORTHOMODE
 70
     0
  9
$REGENMODE
 70
     1
  9
$FILLMODE
 70
     1
  9
$QTEXTMODE
 70
     0
  9
$MIRRTEXT
 70
     1
  9
$LTSCALE
 40
0.5
  9
$ATTMODE
 70
     1
  9
$TEXTSIZE
 40
1.7638888889
  9
$TRACEWID
 40
1.0
  9
$TEXTSTYLE
  7
Standard
  9
$CLAYER
  8
0
  9
$CELTYPE
  6
ByLayer
  9
$CECOLOR
 62
   256
  9
$CELTSCALE
 40
1.0
  9
$DISPSILH
 70
     0
  9
$DIMSCALE
 40
1.0
  9
$DIMASZ
 40
1.3642578125
  9
$DIMEXO
 40
0.5
  9
$DIMDLI
 40
3.75
  9
$DIMRND
 40
0.0
  9
$DIMDLE
 40
0.0
  9
$DIMEXE
 40
0.5
  9
$DIMTP
 40
0.0
  9
$DIMTM
 40
0.0
  9
$DIMTXT
 40
1.7638888889
  9
$DIMCEN
 40
2.5
  9
$DIMTSZ
 40
0.0
  9
$DIMTOL
 70
     0
  9
$DIMLIM
 70
     0
  9
$DIMTIH
 70
     1
  9
$DIMTOH
 70
     1
  9
$DIMSE1
 70
     0
  9
$DIMSE2
 70
     0
  9
$DIMTAD
 70
     1
  9
$DIMZIN
 70
     0
  9
$DIMBLK
  1

  9
$DIMASO
 70
     1
  9
$DIMSHO
 70
     1
  9
$DIMPOST
  1

  9
$DIMAPOST
  1

  9
$DIMALT
 70
     0
  9
$DIMALTD
 70
     3
  9
$DIMALTF
 40
0.0393700787
  9
$DIMLFAC
 40
1.0
  9
$DIMTOFL
 70
     1
  9
$DIMTVP
 40
0.0
  9
$DIMTIX
 70
     0
  9
$DIMSOXD
 70
     0
  9
$DIMSAH
 70
     0
  9
$DIMBLK1
  1

  9
$DIMBLK2
  1

  9
$DIMSTYLE
  2
ISO-25
  9
$DIMCLRD
 70
     0
  9
$DIMCLRE
 70
     0
  9
$DIMCLRT
 70
     0
  9
$DIMTFAC
 40
1.0
  9
$DIMGAP
 40
0.762
  9
$DIMJUST
 70
     0
  9
$DIMSD1
 70
     0
  9
$DIMSD2
 70
     0
  9
$DIMTOLJ
 70
     0
  9
$DIMTZIN
 70
     0
  9
$DIMALTZ
 70
     0
  9
$DIMALTTZ
 70
     0
  9
$DIMUPT
 70
     0
  9
$DIMDEC
 70
     2
  9
$DIMTDEC
 70
     2
  9
$DIMALTU
 70
     2
  9
$DIMALTTD
 70
     3
  9
$DIMTXSTY
  7
Standard
  9
$DIMAUNIT
 70
     0
  9
$DIMADEC
 70
     2
  9
$DIMALTRND
 40
0.0
  9
$DIMAZIN
 70
     0
  9
$DIMDSEP
 70
    44
  9
$DIMATFIT
 70
     3
  9
$DIMFRAC
 70
     0
  9
$DIMLDRBLK
  1

  9
$DIMLUNIT
 70
     2
  9
$DIMLWD
 70
    -2
  9
$DIMLWE
 70
    -2
  9
$DIMTMOVE
 70
     0
  9
$LUNITS
 70
     2
  9
$LUPREC
 70
     2
  9
$SKETCHINC
 40
1.0
  9
$FILLETRAD
 40
0.0
  9
$AUNITS
 70
     0
  9
$AUPREC
 70
     2
  9
$MENU
  1
.
  9
$ELEVATION
 40
0.0
  9
$PELEVATION
 40
0.0
  9
$THICKNESS
 40
0.0
  9
$LIMCHECK
 70
     0
  9
$CHAMFERA
 40
0.0
  9
$CHAMFERB
 40
0.0
  9
$CHAMFERC
 40
0.0
  9
$CHAMFERD
 40
0.0
  9
$SKPOLY
 70
     0
  9
$TDCREATE
 40
2460406.684713241
  9
$TDUCREATE
 40
2460406.309713241
  9
$TDUPDATE
 40
2460406.684713704
  9
$TDUUPDATE
 40
2460406.309713704
  9
$TDINDWG
 40
0.0000000116
  9
$TDUSRTIMER
 40
0.0000000116
  9
$USRTIMER
 70
     1
  9
$ANGBASE
 50
0.0
  9
$ANGDIR
 70
     0
  9
$PDMODE
 70
     0
  9
$PDSIZE
 40
-1.0
  9
$PLINEWID
 40
0.0
  9
$SPLFRAME
 70
     0
  9
$SPLINETYPE
 70
     6
  9
$SPLINESEGS
 70
     8
  9
$HANDSEED
  5
125
  9
$SURFTAB1
 70
     6
  9
$SURFTAB2
 70
     6
  9
$SURFTYPE
 70
     6
  9
$SURFU
 70
     6
  9
$SURFV
 70
     6
  9
$UCSBASE
  2

  9
$UCSNAME
  2

  9
$UCSORG
 10
0.0
 20
0.0
 30
0.0
  9
$UCSXDIR
 10
1.0
 20
0.0
 30
0.0
  9
$UCSYDIR
 10
0.0
 20
1.0
 30
0.0
  9
$UCSORTHOREF
  2

  9
$UCSORTHOVIEW
 70
     0
  9
$UCSORGTOP
 10
0.0
 20
0.0
 30
0.0
  9
$UCSORGBOTTOM
 10
0.0
 20
0.0
 30
0.0
  9
$UCSORGLEFT
 10
0.0
 20
0.0
 30
0.0
  9
$UCSORGRIGHT
 10
0.0
 20
0.0
 30
0.0
  9
$UCSORGFRONT
 10
0.0
 20
0.0
 30
0.0
  9
$UCSORGBACK
 10
0.0
 20
0.0
 30
0.0
  9
$PUCSBASE
  2

  9
$PUCSNAME
  2

  9
$PUCSORG
 10
0.0
 20
0.0
 30
0.0
  9
$PUCSXDIR
 10
1.0
 20
0.0
 30
0.0
  9
$PUCSYDIR
 10
0.0
 20
1.0
 30
0.0
  9
$PUCSORTHOREF
  2

  9
$PUCSORTHOVIEW
 70
     0
  9
$PUCSORGTOP
 10
0.0
 20
0.0
 30
0.0
  9
$PUCSORGBOTTOM
 10
0.0
 20
0.0
 30
0.0
  9
$PUCSORGLEFT
 10
0.0
 20
0.0
 30
0.0
  9
$PUCSORGRIGHT
 10
0.0
 20
0.0
 30
0.0
  9
$PUCSORGFRONT
 10
0.0
 20
0.0
 30
0.0
  9
$PUCSORGBACK
 10
0.0
 20
0.0
 30
0.0
  9
$USERI1
 70
     0
  9
$USERI2
 70
     0
  9
$USERI3
 70
     0
  9
$USERI4
 70
     0
  9
$USERI5
 70
     0
  9
$USERR1
 40
0.0
  9
$USERR2
 40
0.0
  9
$USERR3
 40
0.0
  9
$USERR4
 40
0.0
  9
$USERR5
 40
0.0
  9
$WORLDVIEW
 70
     1
  9
$SHADEDGE
 70
     3
  9
$SHADEDIF
 70
    70
  9
$TILEMODE
 70
     1
  9
$MAXACTVP
 70
    64
  9
$PINSBASE
 10
0.0
 20
0.0
 30
0.0
  9
$PLIMCHECK
 70
     0
  9
$PEXTMIN
 10
1.0000000000E+20
 20
1.0000000000E+20
 30
1.0000000000E+20
  9
$PEXTMAX
 10
-1.0000000000E+20
 20
-1.0000000000E+20
 30
-1.0000000000E+20
  9
$PLIMMIN
 10
0.0
 20
0.0
  9
$PLIMMAX
 10
420.0
 20
297.0
  9
$UNITMODE
 70
     0
  9
$VISRETAIN
 70
     1
  9
$PLINEGEN
 70
     0
  9
$PSLTSCALE
 70
     1
  9
$TREEDEPTH
 70
  3020
  9
$CMLSTYLE
  2
Standard
  9
$CMLJUST
 70
     0
  9
$CMLSCALE
 40
20.0
  9
$PROXYGRAPHICS
 70
     1
  9
$MEASUREMENT
 70
     1
  9
$CELWEIGHT
370
    -1
  9
$ENDCAPS
280
     0
  9
$JOINSTYLE
280
     0
  9
$LWDISPLAY
290
     1
  9
$INSUNITS
 70
     4
  9
$HYPERLINKBASE
  1

  9
$STYLESHEET
  1

  9
$XEDIT
290
     1
  9
$CEPSNTYPE
380
     0
  9
$PSTYLEMODE
290
     1
  9
$FINGERPRINTGUID
  2
{400eae6f-4f65-4ee6-a1ce-2c34cc6c341a}
  9
$VERSIONGUID
  2
{FAEB1C32-E019-11D5-929B-00C0DF256EC4}
  9
$EXTNAMES
290
     1
  9
$PSVPSCALE
 40
0.0
  9
$OLESTARTUP
290
     0
  0
ENDSEC
  0
SECTION
  2
CLASSES
  0
CLASS
  1
ACDBDICTIONARYWDFLT
  2
AcDbDictionaryWithDefault
  3
ObjectDBX Classes
 90
        0
280
     0
281
     0
  0
CLASS
  1
VISUALSTYLE
  2
AcDbVisualStyle
  3
ObjectDBX Classes
 90
     4095
280
     0
281
     0
  0
CLASS
  1
MATERIAL
  2
AcDbMaterial
  3
ObjectDBX Classes
 90
     1153
280
     0
281
     0
  0
CLASS
  1
SCALE
  2
AcDbScale
  3
ObjectDBX Classes
 90
     1153
280
     0
281
     0
  0
CLASS
  1
TABLESTYLE
  2
AcDbTableStyle
  3
ObjectDBX Classes
 90
     4095
280
     0
281
     0
  0
CLASS
  1
MLEADERSTYLE
  2
AcDbMLeaderStyle
  3
ACDB_MLEADERSTYLE_CLASS
 90
     4095
280
     0
281
     0
  0
CLASS
  1
SUN
  2
AcDbSun
  3
SCENEOE
 90
     1153
280
     0
281
     0
  0
CLASS
  1
ACDBPLACEHOLDER
  2
AcDbPlaceHolder
  3
ObjectDBX Classes
 90
        0
280
     0
281
     0
  0
CLASS
  1
LAYOUT
  2
AcDbLayout
  3
ObjectDBX Classes
 90
        0
280
     0
281
     0
  0
ENDSEC
  0
SECTION
  2
TABLES
  0
TABLE
  2
VPORT
  5
8
330
0
100
AcDbSymbolTable
 70
     1
  0
VPORT
  5
29
330
8
100
AcDbSymbolTableRecord
100
AcDbViewportTableRecord
  2
*Active
 70
     0
 10
0.0
 20
0.0
 11
1.0
 21
1.0
 12
74.25
 22
52.5
 13
0.0
 23
0.0
 14
10.0
 24
10.0
 15
10.0
 25
10.0
 16
0.0
 26
0.0
 36
1.0
 17
0.0
 27
0.0
 37
0.0
 40
105.0
 41
1.4142857143
 42
50.0
 43
0.0
 44
0.0
 50
0.0
 51
0.0
 71
     0
 72
  2000
 73
     1
 74
     3
 75
     0
 76
     0
 77
     0
 78
     0
281
     0
 65
     1
110
0.0
120
0.0
130
0.0
111
1.0
121
0.0
131
0.0
112
0.0
122
1.0
132
0.0
 79
     0
146
0.0
  0
ENDTAB
  0
TABLE
  2
LTYPE
  5
5
330
0
100
AcDbSymbolTable
 70
     6
  0
LTYPE
  5
14
330
5
100
AcDbSymbolTableRecord
100
AcDbLinetypeTableRecord
  2
ByBlock
 70
     0
  3

 72
    65
 73
     0
 40
0.0
  0
LTYPE
  5
15
330
5
100
AcDbSymbolTableRecord
100
AcDbLinetypeTableRecord
  2
ByLayer
 70
     0
  3

 72
    65
 73
     0
 40
0.0
  0
LTYPE
  5
16
330
5
100
AcDbSymbolTableRecord
100
AcDbLinetypeTableRecord
  2
Continuous
 70
     0
  3
Solid line
 72
    65
 73
     0
 40
0.0
  0
LTYPE
  5
5E
330
5
100
AcDbSymbolTableRecord
100
AcDbLinetypeTableRecord
  2
HIDDEN
 70
     0
  3
Hidden __ __ __ __ __ __ __ __ __ __ __ __ __ __
 72
    65
 73
     2
 40
1.905
 49
1.27
 74
     0
 49
-0.635
 74
     0
  0
LTYPE
  5
5F
330
5
100
AcDbSymbolTableRecord
100
AcDbLinetypeTableRecord
  2
PHANTOM
 70
     0
  3
Phantom ______  __  __  ______  __  __  ______
 72
    65
 73
     6
 40
12.7
 49
6.35
 74
     0
 49
-1.27
 74
     0
 49
1.27
 74
     0
 49
-1.27
 74
     0
 49
1.27
 74
     0
 49
-1.27
 74
     0
  0
LTYPE
  5
60
330
5
100
AcDbSymbolTableRecord
100
AcDbLinetypeTableRecord
  2
CENTER
 70
     0
  3
Center ____ _ ____ _ ____ _ ____ _ ____ _ ____
 72
    65
 73
     4
 40
10.16
 49
6.35
 74
     0
 49
-1.27
 74
     0
 49
1.27
 74
     0
 49
-1.27
 74
     0
  0
LTYPE
  5
61
330
5
100
AcDbSymbolTableRecord
100
AcDbLinetypeTableRecord
  2
CENTERX2
 70
     0
  3
Center (2x) ________  __  ________  __  _____
 72
    65
 73
     4
 40
20.32
 49
12.7
 74
     0
 49
-2.54
 74
     0
 49
2.54
 74
     0
 49
-2.54
 74
     0
  0
LTYPE
  5
62
330
5
100
AcDbSymbolTableRecord
100
AcDbLinetypeTableRecord
  2
DOT2
 70
     0
  3
Dot (.5x) ........................................
 72
    65
 73
     2
 40
0.635
 49
0.0
 74
     0
 49
-0.635
 74
     0
  0
ENDTAB
  0
TABLE
  2
LAYER
  5
2
330
0
100
AcDbSymbolTable
 70
     2
  0
LAYER
  5
10
330
2
100
AcDbSymbolTableRecord
100
AcDbLayerTableRecord
  2
0
 70
     0
 62
     7
  6
Continuous
370
    -3
390
F
  0
LAYER
  5
63
330
2
100
AcDbSymbolTableRecord
100
AcDbLayerTableRecord
  2
FORMAT
 70
     0
 62
     7
  6
Continuous
370
    -3
390
F
  0
ENDTAB
  0
TABLE
  2
STYLE
  5
3
330
0
100
AcDbSymbolTable
 70
     2
  0
STYLE
  5
11
330
3
100
AcDbSymbolTableRecord
100
AcDbTextStyleTableRecord
  2
Standard
 70
     0
 40
0.0
 41
1.0
 50
0.0
 71
     0
 42
1.7638888889
  3
txt
  4
bigfont
  0
STYLE
  5
64
330
3
100
AcDbSymbolTableRecord
100
AcDbTextStyleTableRecord
  2
SLDTEXTSTYLE0
 70
     0
 40
0.0
 41
0.7
 50
0.0
 71
     0
 42
1.7638888889
  3
TXT
  4
bigfont
  0
ENDTAB
  0
TABLE
  2
VIEW
  5
6
330
0
100
AcDbSymbolTable
 70
     0
  0
ENDTAB
  0
TABLE
  2
UCS
  5
7
330
0
100
AcDbSymbolTable
 70
     0
  0
ENDTAB
  0
TABLE
  2
APPID
  5
9
330
0
100
AcDbSymbolTable
 70
     1
  0
APPID
  5
12
330
9
100
AcDbSymbolTableRecord
100
AcDbRegAppTableRecord
  2
ACAD
 70
     0
  0
ENDTAB
  0
TABLE
  2
DIMSTYLE
  5
A
330
0
100
AcDbSymbolTable
 70
     1
100
AcDbDimStyleTable
  0
DIMSTYLE
105
27
330
A
100
AcDbSymbolTableRecord
100
AcDbDimStyleTableRecord
  2
ISO-25
 70
     0
 41
2.5
 42
0.625
 43
3.75
 44
1.25
 73
     0
 74
     0
 77
     1
 78
     8
140
2.5
141
2.5
143
0.0393700787
147
0.625
171
     3
172
     1
178
     0
271
     2
272
     2
274
     3
278
    44
283
     0
284
     8
340
11
  0
ENDTAB
  0
TABLE
  2
BLOCK_RECORD
  5
1
330
0
100
AcDbSymbolTable
 70
     2
  0
BLOCK_RECORD
  5
1F
330
1
100
AcDbSymbolTableRecord
100
AcDbBlockTableRecord
  2
*Model_Space
340
22
  0
BLOCK_RECORD
  5
1B
330
1
100
AcDbSymbolTableRecord
100
AcDbBlockTableRecord
  2
*Paper_Space
340
1E
  0
BLOCK_RECORD
  5
23
330
1
100
AcDbSymbolTableRecord
100
AcDbBlockTableRecord
  2
*Paper_Space0
340
26
  0
BLOCK_RECORD
  5
FB
330
1
100
AcDbSymbolTableRecord
100
AcDbBlockTableRecord
  2
SW_CENTERMARKSYMBOL_0
340
0
102
{BLKREFS
331
106
102
}
  0
ENDTAB
  0
ENDSEC
  0
SECTION
  2
BLOCKS
  0
BLOCK
  5
20
330
1F
100
AcDbEntity
  8
0
100
AcDbBlockBegin
  2
*Model_Space
 70
     0
 10
0.0
 20
0.0
 30
0.0
  3
*Model_Space
  1

  0
ENDBLK
  5
21
330
1F
100
AcDbEntity
  8
0
100
AcDbBlockEnd
  0
BLOCK
  5
1C
330
1B
100
AcDbEntity
 67
     1
  8
0
100
AcDbBlockBegin
  2
*Paper_Space
 70
     0
 10
0.0
 20
0.0
 30
0.0
  3
*Paper_Space
  1

  0
ENDBLK
  5
1D
330
1B
100
AcDbEntity
 67
     1
  8
0
100
AcDbBlockEnd
  0
BLOCK
  5
24
330
23
100
AcDbEntity
  8
0
100
AcDbBlockBegin
  2
*Paper_Space0
 70
     0
 10
0.0
 20
0.0
 30
0.0
  3
*Paper_Space0
  1

  0
ENDBLK
  5
25
330
23
100
AcDbEntity
  8
0
100
AcDbBlockEnd
  0
BLOCK
  5
FC
330
FB
100
AcDbEntity
  8
0
100
AcDbBlockBegin
  2
SW_CENTERMARKSYMBOL_0
 70
     0
 10
0.0
 20
0.0
 30
0.0
  3
SW_CENTERMARKSYMBOL_0
  1

  0
LINE
  5
FE
330
FB
100
AcDbEntity
  8
FORMAT
 62
     0
100
AcDbLine
 10
0.0
 20
0.0
 30
0.0
 11
0.0
 21
2.5
 31
0.0
  0
LINE
  5
FF
330
FB
100
AcDbEntity
  8
FORMAT
 62
     0
100
AcDbLine
 10
0.0
 20
0.0
 30
0.0
 11
-2.5
 21
0.0
 31
0.0
  0
LINE
  5
100
330
FB
100
AcDbEntity
  8
FORMAT
 62
     0
100
AcDbLine
 10
0.0
 20
0.0
 30
0.0
 11
0.0
 21
-2.5
 31
0.0
  0
LINE
  5
101
330
FB
100
AcDbEntity
  8
FORMAT
 62
     0
100
AcDbLine
 10
0.0
 20
0.0
 30
0.0
 11
2.5
 21
0.0
 31
0.0
  0
LINE
  5
102
330
FB
100
AcDbEntity
  8
FORMAT
 62
     0
100
AcDbLine
 10
0.0
 20
5.0
 30
0.0
 11
0.0
 21
10.75
 31
0.0
  0
LINE
  5
103
330
FB
100
AcDbEntity
  8
FORMAT
 62
     0
100
AcDbLine
 10
-5.0
 20
0.0
 30
0.0
 11
-10.75
 21
0.0
 31
0.0
  0
LINE
  5
104
330
FB
100
AcDbEntity
  8
FORMAT
 62
     0
100
AcDbLine
 10
0.0
 20
-5.0
 30
0.0
 11
0.0
 21
-10.75
 31
0.0
  0
LINE
  5
105
330
FB
100
AcDbEntity
  8
FORMAT
 62
     0
100
AcDbLine
 10
5.0
 20
0.0
 30
0.0
 11
10.75
 21
0.0
 31
0.0
  0
ENDBLK
  5
FD
330
FB
100
AcDbEntity
  8
0
100
AcDbBlockEnd
  0
ENDSEC
  0
SECTION
  2
ENTITIES
  0
MTEXT
  5
65
330
1F
100
AcDbEntity
  8
FORMAT
100
AcDbMText
 10
86.888987458
 20
54.8051096394
 30
0.0
 40
2.1166666667
 41
0.0
 71
     1
 72
     1
  1
5R-NB1421
  7
SLDTEXTSTYLE0
 73
     1
 44
1.0
  0
LINE
  5
66
330
1F
100
AcDbEntity
  8
0
  6
Continuous
 62
     7
370
    25
100
AcDbLine
 10
74.8151920214
 20
47.6947296577
 30
0.0
 11
73.9116650755
 21
46.1297750815
 31
0.0
  0
LINE
  5
67
330
1F
100
AcDbEntity
  8
0
  6
Continuous
 62
     7
370
    25
100
AcDbLine
 10
73.9116650755
 20
29.6297750815
 30
0.0
 11
74.8151920214
 21
28.0648205053
 31
0.0
  0
LINE
  5
68
330
1F
100
AcDbEntity
  8
0
  6
Continuous
 62
     7
370
    25
100
AcDbLine
 10
78.0081381297
 20
28.0648205053
 30
0.0
 11
78.9116650755
 21
29.6297750815
 31
0.0
  0
LINE
  5
69
330
1F
100
AcDbEntity
  8
0
  6
Continuous
 62
     7
370
    25
100
AcDbLine
 10
78.9116650755
 20
46.1297750815
 30
0.0
 11
78.0081381297
 21
47.6947296577
 31
0.0
  0
LINE
  5
6A
330
1F
100
AcDbEntity
  8
0
  6
Continuous
 62
     7
370
    25
100
AcDbLine
 10
73.9116650755
 20
44.9132125815
 30
0.0
 11
63.433523382
 21
44.5857706536
 31
0.0
  0
LINE
  5
6B
330
1F
100
AcDbEntity
  8
0
  6
Continuous
 62
     7
370
    25
100
AcDbLine
 10
63.433523382
 20
31.1737795094
 30
0.0
 11
73.9116650755
 21
30.8463375815
 31
0.0
  0
LINE
  5
6C
330
1F
100
AcDbEntity
  8
0
  6
Continuous
 62
     7
370
    25
100
AcDbLine
 10
63.433523382
 20
44.5857706536
 30
0.0
 11
60.9116650755
 21
43.1297750815
 31
0.0
  0
LINE
  5
6D
330
1F
100
AcDbEntity
  8
0
  6
Continuous
 62
     7
370
    25
100
AcDbLine
 10
60.9116650755
 20
32.6297750815
 30
0.0
 11
63.433523382
 21
31.1737795094
 31
0.0
  0
SPLINE
  5
6E
330
1F
100
AcDbEntity
  8
0
  6
Continuous
 62
     7
370
    25
100
AcDbSpline
210
0.0
220
0.0
230
1.0
 70
     8
 71
     3
 72
    16
 73
    12
 74
     0
 42
0.00000001
 43
0.00000001
 40
0.0
 40
0.0
 40
0.0
 40
0.0
 40
0.2500000000000001
 40
0.2500000000000001
 40
0.5
 40
0.5
 40
0.625
 40
0.625
 40
0.75
 40
0.75
 40
1.0
 40
1.0
 40
1.0
 40
1.0
 10
74.81519202137461
 20
28.06482050529477
 30
0.0
 10
74.58387726769197
 20
28.46546941121336
 30
0.0
 10
74.39323197436154
 20
28.86903940089821
 30
0.0
 10
74.12912631795423
 20
29.68459618723929
 30
0.0
 10
74.05653712664028
 20
30.0966455558026
 30
0.0
 10
74.05573988054932
 20
30.72248292385221
 30
0.0
 10
74.07348513717277
 20
30.93207690731533
 30
0.0
 10
74.14268222070255
 20
31.34667592469156
 30
0.0
 10
74.19406382676485
 20
31.55258543671373
 30
0.0
 10
74.39247182550146
 20
32.16664803476689
 30
0.0
 10
74.58358892720541
 20
32.57114946711508
 30
0.0
 10
74.81519202137481
 20
32.97229779340663
 30
0.0
  0
LINE
  5
6F
330
1F
100
AcDbEntity
  8
0
  6
Continuous
 62
     7
370
    25
100
AcDbLine
 10
74.8151920214
 20
32.9722977934
 30
0.0
 11
78.0081381297
 21
32.9722977934
 31
0.0
  0
SPLINE
  5
70
330
1F
100
AcDbEntity
  8
0
  6
Continuous
 62
     7
370
    25
100
AcDbSpline
210
0.0
220
0.0
230
1.0
 70
     8
 71
     3
 72
    16
 73
    12
 74
     0
 42
0.00000001
 43
0.00000001
 40
0.0
 40
0.0
 40
0.0
 40
0.0
 40
0.2500000000000001
 40
0.2500000000000001
 40
0.5
 40
0.5
 40
0.625
 40
0.625
 40
0.75
 40
0.75
 40
1.0
 40
1.0
 40
1.0
 40
1.0
 10
78.00813812967091
 20
28.06482050529477
 30
0.0
 10
78.23945288335355
 20
28.46546941121336
 30
0.0
 10
78.43009817668398
 20
28.86903940089821
 30
0.0
 10
78.6942038330913
 20
29.68459618723929
 30
0.0
 10
78.76679302440526
 20
30.0966455558026
 30
0.0
 10
78.76759027049621
 20
30.72248292385221
 30
0.0
 10
78.74984501387276
 20
30.93207690731533
 30
0.0
 10
78.68064793034297
 20
31.34667592469156
 30
0.0
 10
78.62926632428069
 20
31.55258543671373
 30
0.0
 10
78.43085832554408
 20
32.16664803476689
 30
0.0
 10
78.23974122384011
 20
32.57114946711508
 30
0.0
 10
78.00813812967073
 20
32.97229779340663
 30
0.0
  0
LINE
  5
71
330
1F
100
AcDbEntity
  8
0
  6
Continuous
 62
     7
370
    25
100
AcDbLine
 10
74.8151920214
 20
28.0648205053
 30
0.0
 11
78.0081381297
 21
28.0648205053
 31
0.0
  0
SPLINE
  5
72
330
1F
100
AcDbEntity
  8
0
  6
Continuous
 62
     7
370
    25
100
AcDbSpline
210
0.0
220
0.0
230
1.0
 70
     8
 71
     3
 72
    14
 73
    10
 74
     0
 42
0.00000001
 43
0.00000001
 40
0.0
 40
0.0
 40
0.0
 40
0.0
 40
0.2500000000000001
 40
0.2500000000000001
 40
0.5000000000000001
 40
0.5000000000000001
 40
0.7500000000000002
 40
0.7500000000000002
 40
1.0
 40
1.0
 40
1.0
 40
1.0
 10
74.81519202137501
 20
32.97229779340662
 30
0.0
 10
74.5845791097274
 20
33.7711643531167
 30
0.0
 10
74.39386025717097
 20
34.57741274745979
 30
0.0
 10
74.12909315536638
 20
36.21149779063234
 30
0.0
 10
74.05593111658929
 20
37.0403431507568
 30
0.0
 10
74.05607427578215
 20
38.72171407536145
 30
0.0
 10
74.12923294309861
 20
39.54911746069227
 30
0.0
 10
74.39393721014488
 20
41.18240983807615
 30
0.0
 10
74.58460029807846
 20
41.98845920852123
 30
0.0
 10
74.81519202137501
 20
42.78725236963025
 30
0.0
  0
LINE
  5
73
330
1F
100
AcDbEntity
  8
0
  6
Continuous
 62
     7
370
    25
100
AcDbLine
 10
74.8151920214
 20
42.7872523696
 30
0.0
 11
78.0081381297
 21
42.7872523696
 31
0.0
  0
SPLINE
  5
74
330
1F
100
AcDbEntity
  8
0
  6
Continuous
 62
     7
370
    25
100
AcDbSpline
210
0.0
220
0.0
230
1.0
 70
     8
 71
     3
 72
    14
 73
    10
 74
     0
 42
0.00000001
 43
0.00000001
 40
0.0
 40
0.0
 40
0.0
 40
0.0
 40
0.2500000000000001
 40
0.2500000000000001
 40
0.5000000000000001
 40
0.5000000000000001
 40
0.7500000000000002
 40
0.7500000000000002
 40
1.0
 40
1.0
 40
1.0
 40
1.0
 10
78.00813812967051
 20
32.97229779340662
 30
0.0
 10
78.23875104131811
 20
33.7711643531167
 30
0.0
 10
78.42946989387455
 20
34.57741274745979
 30
0.0
 10
78.69423699567915
 20
36.21149779063234
 30
0.0
 10
78.76739903445625
 20
37.0403431507568
 30
0.0
 10
78.76725587526339
 20
38.72171407536145
 30
0.0
 10
78.69409720794691
 20
39.54911746069227
 30
0.0
 10
78.42939294090066
 20
41.18240983807615
 30
0.0
 10
78.23872985296708
 20
41.98845920852123
 30
0.0
 10
78.00813812967051
 20
42.78725236963025
 30
0.0
  0
LINE
  5
75
330
1F
100
AcDbEntity
  8
0
  6
Continuous
 62
     7
370
    25
100
AcDbLine
 10
75.9394643033
 20
34.9247041071
 30
0.0
 11
77.1278812917
 21
34.9247041071
 31
0.0
  0
LINE
  5
76
330
1F
100
AcDbEntity
  8
0
  6
Continuous
 62
     7
370
    25
100
AcDbLine
 10
75.9394643033
 20
34.7602253426
 30
0.0
 11
75.9394643033
 21
34.9247041071
 31
0.0
  0
LINE
  5
77
330
1F
100
AcDbEntity
  8
0
  6
Continuous
 62
     7
370
    25
100
AcDbLine
 10
76.4542648181
 20
34.7602253426
 30
0.0
 11
75.9394643033
 21
34.7602253426
 31
0.0
  0
LINE
  5
78
330
1F
100
AcDbEntity
  8
0
  6
Continuous
 62
     7
370
    25
100
AcDbLine
 10
76.4542648181
 20
34.3988353812
 30
0.0
 11
76.4542648181
 21
34.7602253426
 31
0.0
  0
LINE
  5
79
330
1F
100
AcDbEntity
  8
0
  6
Continuous
 62
     7
370
    25
100
AcDbLine
 10
75.9394643033
 20
34.148642331
 30
0.0
 11
76.4542648181
 21
34.3988353812
 31
0.0
  0
LINE
  5
7A
330
1F
100
AcDbEntity
  8
0
  6
Continuous
 62
     7
370
    25
100
AcDbLine
 10
76.4745994385
 20
34.2459396283
 30
0.0
 11
75.9394643033
 21
33.9748971573
 31
0.0
  0
SPLINE
  5
7B
330
1F
100
AcDbEntity
  8
0
  6
Continuous
 62
     7
370
    25
100
AcDbSpline
210
0.0
220
0.0
230
1.0
 70
     8
 71
     3
 72
    11
 73
     7
 74
     0
 42
0.00000001
 43
0.00000001
 40
0.0
 40
0.0
 40
0.0
 40
0.0
 40
0.2256209836966685
 40
0.46297079842823
 40
0.7196090303667889
 40
1.0
 40
1.0
 40
1.0
 40
1.0
 10
76.5371477010054
 20
34.10694348932137
 30
0.0
 10
76.52939584175557
 20
34.11568553611964
 30
0.0
 10
76.51348914545721
 20
34.13362408208187
 30
0.0
 10
76.49608946569097
 20
34.16674806850299
 30
0.0
 10
76.4820835140691
 20
34.20433067893433
 30
0.0
 10
76.47716662151863
 20
34.2316669518239
 30
0.0
 10
76.47459943845713
 20
34.24593962831752
 30
0.0
  0
SPLINE
  5
7C
330
1F
100
AcDbEntity
  8
0
  6
Continuous
 62
     7
370
    25
100
AcDbSpline
210
0.0
220
0.0
230
1.0
 70
     8
 71
     3
 72
    15
 73
    11
 74
     0
 42
0.00000001
 43
0.00000001
 40
0.0
 40
0.0
 40
0.0
 40
0.0
 40
0.1423455204062214
 40
0.2780244263979212
 40
0.4068124412900599
 40
0.5301826523562203
 40
0.6505629722368657
 40
0.7677901753368302
 40
0.883887442145379
 40
1.0
 40
1.0
 40
1.0
 40
1.0
 10
76.78734075119844
 20
34.01659599897388
 30
0.0
 10
76.77436914578284
 20
34.01677838215262
 30
0.0
 10
76.7490334475126
 20
34.01713460677076
 30
0.0
 10
76.71222606711669
 20
34.02178569371566
 30
0.0
 10
76.67748364733511
 20
34.02841695194179
 30
0.0
 10
76.64510348611948
 20
34.03874564460649
 30
0.0
 10
76.61462304913839
 20
34.05117422467163
 30
0.0
 10
76.58631316233267
 20
34.06669897429458
 30
0.0
 10
76.56039663669553
 20
34.08533086801395
 30
0.0
 10
76.54489768643805
 20
34.09973896596055
 30
0.0
 10
76.5371477010054
 20
34.10694348932137
 30
0.0
  0
SPLINE
  5
7D
330
1F
100
AcDbEntity
  8
0
  6
Continuous
 62
     7
370
    25
100
AcDbSpline
210
0.0
220
0.0
230
1.0
 70
     8
 71
     3
 72
    15
 73
    11
 74
     0
 42
0.00000001
 43
0.00000001
 40
0.0
 40
0.0
 40
0.0
 40
0.0
 40
0.1161090580639838
 40
0.2322028255427881
 40
0.3494264952551895
 40
0.4689336287943349
 40
0.5931998205909935
 40
0.7219839536369559
 40
0.8576587700816364
 40
1.0
 40
1.0
 40
1.0
 40
1.0
 10
77.03753380139149
 20
34.10694348932137
 30
0.0
 10
77.02978350477775
 20
34.09973975046316
 30
0.0
 10
77.01428393219908
 20
34.08533322141849
 30
0.0
 10
76.98837208863958
 20
34.06668952395423
 30
0.0
 10
76.96011372611649
 20
34.05124851154825
 30
0.0
 10
76.92970643738863
 20
34.03863022314857
 30
0.0
 10
76.89726466903733
 20
34.02847355550933
 30
0.0
 10
76.86245938328463
 20
34.0217738870332
 30
0.0
 10
76.82564698865501
 20
34.01713779537676
 30
0.0
 10
76.80031199556787
 20
34.01677946187723
 30
0.0
 10
76.78734075119844
 20
34.01659599897388
 30
0.0
  0
SPLINE
  5
7E
330
1F
100
AcDbEntity
  8
0
  6
Continuous
 62
     7
370
    25
100
AcDbSpline
210
0.0
220
0.0
230
1.0
 70
     8
 71
     3
 72
    15
 73
    11
 74
     0
 42
0.00000001
 43
0.00000001
 40
0.0
 40
0.0
 40
0.0
 40
0.0
 40
0.1342477572737633
 40
0.2634617725756843
 40
0.3884666271730297
 40
0.5118790511869584
 40
0.632408074152589
 40
0.7535525248235468
 40
0.8755084805282746
 40
1.0
 40
1.0
 40
1.0
 40
1.0
 10
77.12788129173897
 20
34.33628711866501
 30
0.0
 10
77.1276951891234
 20
34.32494411645306
 30
0.0
 10
77.12732996197941
 20
34.30268342823168
 30
0.0
 10
77.12265333459312
 20
34.27015697737343
 30
0.0
 10
77.1158981973929
 20
34.23895929108715
 30
0.0
 10
77.10577317463837
 20
34.20942980237022
 30
0.0
 10
77.0930410386132
 20
34.18131894689506
 30
0.0
 10
77.07766748896834
 20
34.15467062301946
 30
0.0
 10
77.05890925825072
 20
34.12984627161743
 30
0.0
 10
77.0447076578536
 20
34.11462993428754
 30
0.0
 10
77.03753380139149
 20
34.10694348932137
 30
0.0
  0
LINE
  5
7F
330
1F
100
AcDbEntity
  8
0
  6
Continuous
 62
     7
370
    25
100
AcDbLine
 10
77.1278812917
 20
34.9247041071
 30
0.0
 11
77.1278812917
 21
34.3362871187
 31
0.0
  0
LINE
  5
80
330
1F
100
AcDbEntity
  8
0
  6
Continuous
 62
     7
370
    25
100
AcDbLine
 10
76.947186311
 20
35.7679473503
 30
0.0
 11
76.947186311
 21
35.7053990878
 31
0.0
  0
LINE
  5
81
330
1F
100
AcDbEntity
  8
0
  6
Continuous
 62
     7
370
    25
100
AcDbLine
 10
76.8650756289
 20
35.7679473503
 30
0.0
 11
76.947186311
 21
35.7679473503
 31
0.0
  0
LINE
  5
82
330
1F
100
AcDbEntity
  8
0
  6
Continuous
 62
     7
370
    25
100
AcDbLine
 10
76.8650756289
 20
35.5640863465
 30
0.0
 11
76.8650756289
 21
35.7679473503
 31
0.0
  0
LINE
  5
83
330
1F
100
AcDbEntity
  8
0
  6
Continuous
 62
     7
370
    25
100
AcDbLine
 10
75.9394643033
 20
35.5640863465
 30
0.0
 11
76.8650756289
 21
35.5640863465
 31
0.0
  0
LINE
  5
84
330
1F
100
AcDbEntity
  8
0
  6
Continuous
 62
     7
370
    25
100
AcDbLine
 10
75.9394643033
 20
35.399607582
 30
0.0
 11
75.9394643033
 21
35.5640863465
 31
0.0
  0
LINE
  5
85
330
1F
100
AcDbEntity
  8
0
  6
Continuous
 62
     7
370
    25
100
AcDbLine
 10
77.1417809056
 20
35.399607582
 30
0.0
 11
75.9394643033
 21
35.399607582
 31
0.0
  0
LINE
  5
86
330
1F
100
AcDbEntity
  8
0
  6
Continuous
 62
     7
370
    25
100
AcDbLine
 10
77.1417809056
 20
35.4830052654
 30
0.0
 11
77.1417809056
 21
35.399607582
 31
0.0
  0
LINE
  5
87
330
1F
100
AcDbEntity
  8
0
  6
Continuous
 62
     7
370
    25
100
AcDbLine
 10
76.7178426817
 20
36.5671751496
 30
0.0
 11
76.7178426817
 21
36.7270207094
 31
0.0
  0
SPLINE
  5
88
330
1F
100
AcDbEntity
  8
0
  6
Continuous
 62
     7
370
    25
100
AcDbSpline
210
0.0
220
0.0
230
1.0
 70
     8
 71
     3
 72
    15
 73
    11
 74
     0
 42
0.00000001
 43
0.00000001
 40
0.0
 40
0.0
 40
0.0
 40
0.0
 40
0.1046424622149465
 40
0.2111208971546082
 40
0.3233806047009379
 40
0.4420520864308684
 40
0.5671630372768656
 40
0.7019710430082279
 40
0.8453718683440634
 40
1.0
 40
1.0
 40
1.0
 40
1.0
 10
76.96108592494362
 20
36.49072727310516
 30
0.0
 10
76.9543807650718
 20
36.49692947150505
 30
0.0
 10
76.94085280197021
 20
36.50944268710413
 30
0.0
 10
76.91716040591096
 20
36.52493985994727
 30
0.0
 10
76.89077312912377
 20
36.53802700420184
 30
0.0
 10
76.86161396935789
 20
36.54882528053713
 30
0.0
 10
76.82959546380629
 20
36.55701456688768
 30
0.0
 10
76.7948896163992
 20
36.56278882528087
 30
0.0
 10
76.7573027329866
 20
36.56645938317148
 30
0.0
 10
76.73132227620681
 20
36.56693064301363
 30
0.0
 10
76.71784268170038
 20
36.56717514955304
 30
0.0
  0
SPLINE
  5
89
330
1F
100
AcDbEntity
  8
0
  6
Continuous
 62
     7
370
    25
100
AcDbSpline
210
0.0
220
0.0
230
1.0
 70
     8
 71
     3
 72
    11
 73
     7
 74
     0
 42
0.00000001
 43
0.00000001
 40
0.0
 40
0.0
 40
0.0
 40
0.0
 40
0.2497828004743473
 40
0.4924940338313434
 40
0.7395338078652252
 40
1.0
 40
1.0
 40
1.0
 40
1.0
 10
77.00278476664246
 20
36.39342997580786
 30
0.0
 10
77.00231012289923
 20
36.40249822942129
 30
0.0
 10
77.00137427298769
 20
36.42037800654528
 30
0.0
 10
76.99325534121796
 20
36.4461889149444
 30
0.0
 10
76.97994146612183
 20
36.47015469172301
 30
0.0
 10
76.9674809888248
 20
36.48374985618053
 30
0.0
 10
76.96108592494362
 20
36.49072727310516
 30
0.0
  0
SPLINE
  5
8A
330
1F
100
AcDbEntity
  8
0
  6
Continuous
 62
     7
370
    25
100
AcDbSpline
210
0.0
220
0.0
230
1.0
 70
     8
 71
     3
 72
    11
 73
     7
 74
     0
 42
0.00000001
 43
0.00000001
 40
0.0
 40
0.0
 40
0.0
 40
0.0
 40
0.2490517621318987
 40
0.4918163964483698
 40
0.7399854914835413
 40
1.0
 40
1.0
 40
1.0
 40
1.0
 10
76.96108592494362
 20
36.28918287156075
 30
0.0
 10
76.96750642728284
 20
36.29632044109693
 30
0.0
 10
76.98018535112116
 20
36.31041539749727
 30
0.0
 10
76.99347622826703
 20
36.33586895630482
 30
0.0
 10
77.0013940948598
 20
36.36386814503156
 30
0.0
 10
77.00231406145014
 20
36.38342408698909
 30
0.0
 10
77.00278476664246
 20
36.39342997580786
 30
0.0
  0
SPLINE
  5
8B
330
1F
100
AcDbEntity
  8
0
  6
Continuous
 62
     7
370
    25
100
AcDbSpline
210
0.0
220
0.0
230
1.0
 70
     8
 71
     3
 72
    15
 73
    11
 74
     0
 42
0.00000001
 43
0.00000001
 40
0.0
 40
0.0
 40
0.0
 40
0.0
 40
0.1322900133483151
 40
0.2607898618052659
 40
0.3858441649046989
 40
0.508090445116651
 40
0.6294055086180658
 40
0.7510893117646902
 40
0.8732553966668101
 40
1.0
 40
1.0
 40
1.0
 40
1.0
 10
76.82208978594747
 20
36.23358441596231
 30
0.0
 10
76.82888286234545
 20
36.23366979749383
 30
0.0
 10
76.84227439062653
 20
36.23383811433986
 30
0.0
 10
76.86183095291979
 20
36.23705433369621
 30
0.0
 10
76.88077016154647
 20
36.24079254890117
 30
0.0
 10
76.8985624904132
 20
36.24729190234594
 30
0.0
 10
76.91577676956042
 20
36.25477778592341
 30
0.0
 10
76.93158057560437
 20
36.26488963180021
 30
0.0
 10
76.94716279888672
 20
36.27582910069184
 30
0.0
 10
76.95638831751242
 20
36.2846773623086
 30
0.0
 10
76.96108592494362
 20
36.28918287156075
 30
0.0
  0
SPLINE
  5
8C
330
1F
100
AcDbEntity
  8
0
  6
Continuous
 62
     7
370
    25
100
AcDbSpline
210
0.0
220
0.0
230
1.0
 70
     8
 71
     3
 72
    15
 73
    11
 74
     0
 42
0.00000001
 43
0.00000001
 40
0.0
 40
0.0
 40
0.0
 40
0.0
 40
0.1414377028612578
 40
0.2759868619651538
 40
0.4050827468357284
 40
0.5293092515363199
 40
0.6494060973408684
 40
0.7665008015291709
 40
0.8835214776401927
 40
1.0
 40
1.0
 40
1.0
 40
1.0
 10
76.55799712185481
 20
36.35173113410902
 30
0.0
 10
76.56830655377587
 20
36.34227680406894
 30
0.0
 10
76.58842330982449
 20
36.32382860513075
 30
0.0
 10
76.62060188156697
 20
36.29990169155366
 30
0.0
 10
76.6530090596726
 20
36.2793304861014
 30
0.0
 10
76.68610517712779
 20
36.26285664046146
 30
0.0
 10
76.71943115346464
 20
36.24983611607665
 30
0.0
 10
76.75322219982203
 20
36.24049724582196
 30
0.0
 10
76.78747415569593
 20
36.2345685735197
 30
0.0
 10
76.81056911699551
 20
36.23391196029222
 30
0.0
 10
76.82208978594747
 20
36.23358441596231
 30
0.0
  0
SPLINE
  5
8D
330
1F
100
AcDbEntity
  8
0
  6
Continuous
 62
     7
370
    25
100
AcDbSpline
210
0.0
220
0.0
230
1.0
 70
     8
 71
     3
 72
    15
 73
    11
 74
     0
 42
0.00000001
 43
0.00000001
 40
0.0
 40
0.0
 40
0.0
 40
0.0
 40
0.1476613860734704
 40
0.2888924423695144
 40
0.4241065500574236
 40
0.5519955532306792
 40
0.6738679309355683
 40
0.78931626654778
 40
0.8978915155028957
 40
1.0
 40
1.0
 40
1.0
 40
1.0
 10
76.2452558091135
 20
36.6366732190511
 30
0.0
 10
76.2605120559315
 20
36.62249869513155
 30
0.0
 10
76.2903601734512
 20
36.594766916747
 30
0.0
 10
76.33445105882913
 20
36.55435064594152
 30
0.0
 10
76.37655309821695
 20
36.51589198786531
 30
0.0
 10
76.41656349699733
 20
36.47919179586199
 30
0.0
 10
76.45457752145576
 20
36.4444385712862
 30
0.0
 10
76.49084777121676
 20
36.41181706395813
 30
0.0
 10
76.52515183835301
 20
36.38117861789794
 30
0.0
 10
76.54727504525317
 20
36.36134402653215
 30
0.0
 10
76.55799712185481
 20
36.35173113410902
 30
0.0
  0
SPLINE
  5
8E
330
1F
100
AcDbEntity
  8
0
  6
Continuous
 62
     7
370
    25
100
AcDbSpline
210
0.0
220
0.0
230
1.0
 70
     8
 71
     3
 72
    15
 73
    11
 74
     0
 42
0.00000001
 43
0.00000001
 40
0.0
 40
0.0
 40
0.0
 40
0.0
 40
0.0824284987423309
 40
0.1761528009252869
 40
0.2809817587265287
 40
0.3985256681357572
 40
0.5291842754648528
 40
0.6726050610319606
 40
0.8293989194531024
 40
0.9999999999999999
 40
0.9999999999999999
 40
0.9999999999999999
 40
0.9999999999999999
 10
76.05066121451891
 20
36.75481993719783
 30
0.0
 10
76.05679329048348
 20
36.75332161208134
 30
0.0
 10
76.06989776737107
 20
36.75011963497398
 30
0.0
 10
76.0899206858285
 20
36.74213010287965
 30
0.0
 10
76.11162065402976
 20
36.7314378121618
 30
0.0
 10
76.13505387935001
 20
36.71796744364797
 30
0.0
 10
76.16017308774869
 20
36.70162630708554
 30
0.0
 10
76.18732296500512
 20
36.68291451913709
 30
0.0
 10
76.21582726464537
 20
36.66086969355921
 30
0.0
 10
76.23517431992795
 20
36.64496233088081
 30
0.0
 10
76.2452558091135
 20
36.6366732190511
 30
0.0
  0
LINE
  5
8F
330
1F
100
AcDbEntity
  8
0
  6
Continuous
 62
     7
370
    25
100
AcDbLine
 10
75.9330292969
 20
36.7548199372
 30
0.0
 11
76.0506612145
 21
36.7548199372
 31
0.0
  0
LINE
  5
90
330
1F
100
AcDbEntity
  8
0
  6
Continuous
 62
     7
370
    25
100
AcDbLine
 10
75.9330292969
 20
36.0459396283
 30
0.0
 11
75.9330292969
 21
36.7548199372
 31
0.0
  0
LINE
  5
91
330
1F
100
AcDbEntity
  8
0
  6
Continuous
 62
     7
370
    25
100
AcDbLine
 10
76.0645608284
 20
36.0459396283
 30
0.0
 11
75.9330292969
 21
36.0459396283
 31
0.0
  0
LINE
  5
92
330
1F
100
AcDbEntity
  8
0
  6
Continuous
 62
     7
370
    25
100
AcDbLine
 10
76.0645608284
 20
36.5671751496
 30
0.0
 11
76.0645608284
 21
36.0459396283
 31
0.0
  0
SPLINE
  5
93
330
1F
100
AcDbEntity
  8
0
  6
Continuous
 62
     7
370
    25
100
AcDbSpline
210
0.0
220
0.0
230
1.0
 70
     8
 71
     3
 72
     9
 73
     5
 74
     0
 42
0.00000001
 43
0.00000001
 40
0.0
 40
0.0
 40
0.0
 40
0.0
 40
0.5155288090837092
 40
1.0
 40
1.0
 40
1.0
 40
1.0
 10
76.17575773961543
 20
36.48377746615535
 30
0.0
 10
76.15753116298002
 20
36.49928770266971
 30
0.0
 10
76.12217605514849
 20
36.52937377398341
 30
0.0
 10
76.08336410171853
 20
36.55483831368007
 30
0.0
 10
76.06456082841852
 20
36.56717514955304
 30
0.0
  0
LINE
  5
94
330
1F
100
AcDbEntity
  8
0
  6
Continuous
 62
     7
370
    25
100
AcDbLine
 10
76.3008542647
 20
36.372580555
 30
0.0
 11
76.1757577396
 21
36.4837774662
 31
0.0
  0
SPLINE
  5
95
330
1F
100
AcDbEntity
  8
0
  6
Continuous
 62
     7
370
    25
100
AcDbSpline
210
0.0
220
0.0
230
1.0
 70
     8
 71
     3
 72
     9
 73
     5
 74
     0
 42
0.00000001
 43
0.00000001
 40
0.0
 40
0.0
 40
0.0
 40
0.0
 40
0.5004988252029442
 40
1.0
 40
1.0
 40
1.0
 40
1.0
 10
76.53019789405559
 20
36.17103615341404
 30
0.0
 10
76.49115595319553
 20
36.20377298985144
 30
0.0
 10
76.4131498942518
 20
36.26918140799133
 30
0.0
 10
76.33826123699214
 20
36.33813710386207
 30
0.0
 10
76.30085426471194
 20
36.37258055495844
 30
0.0
  0
SPLINE
  5
96
330
1F
100
AcDbEntity
  8
0
  6
Continuous
 62
     7
370
    25
100
AcDbSpline
210
0.0
220
0.0
230
1.0
 70
     8
 71
     3
 72
    15
 73
    11
 74
     0
 42
0.00000001
 43
0.00000001
 40
0.0
 40
0.0
 40
0.0
 40
0.0
 40
0.1476270724396861
 40
0.28648105927149
 40
0.4181894659268071
 40
0.5428808841137353
 40
0.6619178330920032
 40
0.7770087505932005
 40
0.8893050437597243
 40
1.0
 40
1.0
 40
1.0
 40
1.0
 10
76.71784268170038
 20
36.72702070939859
 30
0.0
 10
76.73527242580204
 20
36.7266718239476
 30
0.0
 10
76.76909611051352
 20
36.72599478638321
 30
0.0
 10
76.81826680085092
 20
36.72085534170671
 30
0.0
 10
76.86415280750381
 20
36.71213388825893
 30
0.0
 10
76.90691027691432
 20
36.70018858179765
 30
0.0
 10
76.94628477290316
 20
36.68434418443353
 30
0.0
 10
76.98256088341803
 20
36.6653272598087
 30
0.0
 10
77.01562235945514
 20
36.64269752806285
 30
0.0
 10
77.03490935975557
 20
36.62473871976767
 30
0.0
 10
77.04448360834131
 20
36.61582379820168
 30
0.0
  0
LINE
  5
97
330
1F
100
AcDbEntity
  8
0
  6
Continuous
 62
     7
370
    25
100
AcDbLine
 10
76.3773021412
 20
37.6721944546
 30
0.0
 11
77.1348310987
 21
37.2065573889
 31
0.0
  0
LINE
  5
98
330
1F
100
AcDbEntity
  8
0
  6
Continuous
 62
     7
370
    25
100
AcDbLine
 10
76.2388208027
 20
37.6721944546
 30
0.0
 11
76.3773021412
 21
37.6721944546
 31
0.0
  0
LINE
  5
99
330
1F
100
AcDbEntity
  8
0
  6
Continuous
 62
     7
370
    25
100
AcDbLine
 10
76.2388208027
 20
37.2111905936
 30
0.0
 11
76.2388208027
 21
37.6721944546
 31
0.0
  0
LINE
  5
9A
330
1F
100
AcDbEntity
  8
0
  6
Continuous
 62
     7
370
    25
100
AcDbLine
 10
75.9325144964
 20
37.2111905936
 30
0.0
 11
76.2388208027
 21
37.2111905936
 31
0.0
  0
LINE
  5
9B
330
1F
100
AcDbEntity
  8
0
  6
Continuous
 62
     7
370
    25
100
AcDbLine
 10
75.9325144964
 20
37.0467118291
 30
0.0
 11
75.9325144964
 21
37.2111905936
 31
0.0
  0
LINE
  5
9C
330
1F
100
AcDbEntity
  8
0
  6
Continuous
 62
     7
370
    25
100
AcDbLine
 10
76.2388208027
 20
37.0467118291
 30
0.0
 11
75.9325144964
 21
37.0467118291
 31
0.0
  0
LINE
  5
9D
330
1F
100
AcDbEntity
  8
0
  6
Continuous
 62
     7
370
    25
100
AcDbLine
 10
76.2388208027
 20
36.9007658831
 30
0.0
 11
76.2388208027
 21
37.0467118291
 31
0.0
  0
LINE
  5
9E
330
1F
100
AcDbEntity
  8
0
  6
Continuous
 62
     7
370
    25
100
AcDbLine
 10
76.3703523342
 20
36.9007658831
 30
0.0
 11
76.2388208027
 21
36.9007658831
 31
0.0
  0
LINE
  5
9F
330
1F
100
AcDbEntity
  8
0
  6
Continuous
 62
     7
370
    25
100
AcDbLine
 10
76.3703523342
 20
37.0467118291
 30
0.0
 11
76.3703523342
 21
36.9007658831
 31
0.0
  0
LINE
  5
A0
330
1F
100
AcDbEntity
  8
0
  6
Continuous
 62
     7
370
    25
100
AcDbLine
 10
77.1348310987
 20
37.0467118291
 30
0.0
 11
76.3703523342
 21
37.0467118291
 31
0.0
  0
LINE
  5
A1
330
1F
100
AcDbEntity
  8
0
  6
Continuous
 62
     7
370
    25
100
AcDbLine
 10
77.1348310987
 20
37.2065573889
 30
0.0
 11
77.1348310987
 21
37.0467118291
 31
0.0
  0
SPLINE
  5
A2
330
1F
100
AcDbEntity
  8
0
  6
Continuous
 62
     7
370
    25
100
AcDbSpline
210
0.0
220
0.0
230
1.0
 70
     8
 71
     3
 72
    15
 73
    11
 74
     0
 42
0.00000001
 43
0.00000001
 40
0.0
 40
0.0
 40
0.0
 40
0.0
 40
0.1418032572055078
 40
0.2768956124422277
 40
0.4056005815718945
 40
0.5283792299702871
 40
0.6485398625937333
 40
0.767199981070281
 40
0.8821728056706526
 40
1.0
 40
1.0
 40
1.0
 40
1.0
 10
76.94718631104399
 20
38.37412495650285
 30
0.0
 10
76.94726649241416
 20
38.36621796765612
 30
0.0
 10
76.9474230605356
 20
38.35077819171279
 30
0.0
 10
76.95062183644015
 20
38.32838599879422
 30
0.0
 10
76.95432828503749
 20
38.30713878293217
 30
0.0
 10
76.9608436276706
 20
38.28744817501172
 30
0.0
 10
76.96832739001056
 20
38.26870703462761
 30
0.0
 10
76.97827996149518
 20
38.25165194393377
 30
0.0
 10
76.989365049966
 20
38.23545721189318
 30
0.0
 10
76.99827511221494
 20
38.22601048193875
 30
0.0
 10
77.00278476664246
 20
38.22122920360709
 30
0.0
  0
LINE
  5
A3
330
1F
100
AcDbEntity
  8
0
  6
Continuous
 62
     7
370
    25
100
AcDbLine
 10
76.947186311
 20
38.4366732191
 30
0.0
 11
76.947186311
 21
38.3741249565
 31
0.0
  0
LINE
  5
A4
330
1F
100
AcDbEntity
  8
0
  6
Continuous
 62
     7
370
    25
100
AcDbLine
 10
76.8650756289
 20
38.4366732191
 30
0.0
 11
76.947186311
 21
38.4366732191
 31
0.0
  0
LINE
  5
A5
330
1F
100
AcDbEntity
  8
0
  6
Continuous
 62
     7
370
    25
100
AcDbLine
 10
76.8650756289
 20
38.2328122152
 30
0.0
 11
76.8650756289
 21
38.4366732191
 31
0.0
  0
LINE
  5
A6
330
1F
100
AcDbEntity
  8
0
  6
Continuous
 62
     7
370
    25
100
AcDbLine
 10
75.9394643033
 20
38.2328122152
 30
0.0
 11
76.8650756289
 21
38.2328122152
 31
0.0
  0
LINE
  5
A7
330
1F
100
AcDbEntity
  8
0
  6
Continuous
 62
     7
370
    25
100
AcDbLine
 10
75.9394643033
 20
38.0683334507
 30
0.0
 11
75.9394643033
 21
38.2328122152
 31
0.0
  0
LINE
  5
A8
330
1F
100
AcDbEntity
  8
0
  6
Continuous
 62
     7
370
    25
100
AcDbLine
 10
77.1417809056
 20
38.0683334507
 30
0.0
 11
75.9394643033
 21
38.0683334507
 31
0.0
  0
LINE
  5
A9
330
1F
100
AcDbEntity
  8
0
  6
Continuous
 62
     7
370
    25
100
AcDbLine
 10
77.1417809056
 20
38.1517311341
 30
0.0
 11
77.1417809056
 21
38.0683334507
 31
0.0
  0
SPLINE
  5
AA
330
1F
100
AcDbEntity
  8
0
  6
Continuous
 62
     7
370
    25
100
AcDbSpline
210
0.0
220
0.0
230
1.0
 70
     8
 71
     3
 72
    11
 73
     7
 74
     0
 42
0.00000001
 43
0.00000001
 40
0.0
 40
0.0
 40
0.0
 40
0.0
 40
0.2682823389612927
 40
0.5197997967341367
 40
0.7604656312619601
 40
1.0
 40
1.0
 40
1.0
 40
1.0
 10
77.00278476664246
 20
38.22122920360709
 30
0.0
 10
77.01320557131262
 20
38.21157141117941
 30
0.0
 10
77.03339598776095
 20
38.19285933881473
 30
0.0
 10
77.0679466203734
 20
38.17193207372502
 30
0.0
 10
77.104020420816
 20
38.1571877183268
 30
0.0
 10
77.12921386461117
 20
38.15354713615605
 30
0.0
 10
77.1417809056386
 20
38.15173113410902
 30
0.0
  0
LINE
  5
AB
330
1F
100
AcDbEntity
  8
0
  6
Continuous
 62
     7
370
    25
100
AcDbLine
 10
76.4846380485
 20
39.4652446476
 30
0.0
 11
76.5996959636
 21
39.4652446476
 31
0.0
  0
LINE
  5
AC
330
1F
100
AcDbEntity
  8
0
  6
Continuous
 62
     7
370
    25
100
AcDbLine
 10
76.4846380485
 20
38.6729666553
 30
0.0
 11
76.4846380485
 21
39.4652446476
 31
0.0
  0
LINE
  5
AD
330
1F
100
AcDbEntity
  8
0
  6
Continuous
 62
     7
370
    25
100
AcDbLine
 10
76.5996959636
 20
38.6729666553
 30
0.0
 11
76.4846380485
 21
38.6729666553
 31
0.0
  0
LINE
  5
AE
330
1F
100
AcDbEntity
  8
0
  6
Continuous
 62
     7
370
    25
100
AcDbLine
 10
76.5996959636
 20
39.4652446476
 30
0.0
 11
76.5996959636
 21
38.6729666553
 31
0.0
  0
LINE
  5
AF
330
1F
100
AcDbEntity
  8
0
  6
Continuous
 62
     7
370
    25
100
AcDbLine
 10
75.9330292969
 20
40.5370593194
 30
0.0
 11
77.1209314848
 21
40.5370593194
 31
0.0
  0
LINE
  5
B0
330
1F
100
AcDbEntity
  8
0
  6
Continuous
 62
     7
370
    25
100
AcDbLine
 10
75.9330292969
 20
39.9833913658
 30
0.0
 11
75.9330292969
 21
40.5370593194
 31
0.0
  0
SPLINE
  5
B1
330
1F
100
AcDbEntity
  8
0
  6
Continuous
 62
     7
370
    25
100
AcDbSpline
210
0.0
220
0.0
230
1.0
 70
     8
 71
     3
 72
    15
 73
    11
 74
     0
 42
0.00000001
 43
0.00000001
 40
0.0
 40
0.0
 40
0.0
 40
0.0
 40
0.1086277469152497
 40
0.2195300404679355
 40
0.33405835949625
 40
0.4525037346025809
 40
0.57816603210288
 40
0.7098017975268058
 40
0.8504665399585425
 40
1.0
 40
1.0
 40
1.0
 40
1.0
 10
76.01591217976987
 20
39.7331983155762
 30
0.0
 10
76.00930257148414
 20
39.7404326154827
 30
0.0
 10
75.99594495691835
 20
39.75505269365177
 30
0.0
 10
75.97887410916448
 20
39.77999433536871
 30
0.0
 10
75.96482697232179
 20
39.80769568541885
 30
0.0
 10
75.95320100841558
 20
39.83790365248077
 30
0.0
 10
75.94392169814198
 20
39.87053097467061
 30
0.0
 10
75.93761527000903
 20
39.90588513289003
 30
0.0
 10
75.93370775532114
 20
39.94374886861829
 30
0.0
 10
75.93326001085599
 20
39.9699106904643
 30
0.0
 10
75.93302929688699
 20
39.98339136576926
 30
0.0
  0
SPLINE
  5
B2
330
1F
100
AcDbEntity
  8
0
  6
Continuous
 62
     7
370
    25
100
AcDbSpline
210
0.0
220
0.0
230
1.0
 70
     8
 71
     3
 72
    15
 73
    11
 74
     0
 42
0.00000001
 43
0.00000001
 40
0.0
 40
0.0
 40
0.0
 40
0.0
 40
0.1319114978615547
 40
0.2585593955794498
 40
0.3829282045992123
 40
0.5051155152535456
 40
0.6266776175559878
 40
0.7489849223246641
 40
0.8728415720964471
 40
1.0
 40
1.0
 40
1.0
 40
1.0
 10
76.27305503691272
 20
39.6289512113291
 30
0.0
 10
76.26051156380265
 20
39.6292144751813
 30
0.0
 10
76.23592513367045
 20
39.62973049799664
 30
0.0
 10
76.19979686143996
 20
39.6347884631703
 30
0.0
 10
76.16525261079497
 20
39.64303337249539
 30
0.0
 10
76.13208065039206
 20
39.65434313583879
 30
0.0
 10
76.10048567125843
 20
39.6690934860077
 30
0.0
 10
76.07059311078987
 20
39.68729125229801
 30
0.0
 10
76.0419459573547
 20
39.70837006456399
 30
0.0
 10
76.02466587134593
 20
39.724849974617
 30
0.0
 10
76.01591217976987
 20
39.7331983155762
 30
0.0
  0
SPLINE
  5
B3
330
1F
100
AcDbEntity
  8
0
  6
Continuous
 62
     7
370
    25
100
AcDbSpline
210
0.0
220
0.0
230
1.0
 70
     8
 71
     3
 72
    15
 73
    11
 74
     0
 42
0.00000001
 43
0.00000001
 40
0.0
 40
0.0
 40
0.0
 40
0.0
 40
0.1263812889588914
 40
0.2491049464973164
 40
0.3706105362999229
 40
0.4913917559424304
 40
0.6138158455532666
 40
0.7388355742356973
 40
0.8671181754268789
 40
1.0
 40
1.0
 40
1.0
 40
1.0
 10
76.48154924540694
 20
39.71234889472678
 30
0.0
 10
76.474457709707
 20
39.70569756331708
 30
0.0
 10
76.46047987615529
 20
39.69258739828711
 30
0.0
 10
76.43767831830137
 20
39.67534584198982
 30
0.0
 10
76.41328593620918
 20
39.66137687843982
 30
0.0
 10
76.38797536452942
 20
39.64916641242489
 30
0.0
 10
76.36098548851116
 20
39.64039402238443
 30
0.0
 10
76.33288863241968
 20
39.63352572724246
 30
0.0
 10
76.30336302428454
 20
39.62968220203869
 30
0.0
 10
76.283275615481
 20
39.62919771888792
 30
0.0
 10
76.27305503691272
 20
39.6289512113291
 30
0.0
  0
SPLINE
  5
B4
330
1F
100
AcDbEntity
  8
0
  6
Continuous
 62
     7
370
    25
100
AcDbSpline
210
0.0
220
0.0
230
1.0
 70
     8
 71
     3
 72
    11
 73
     7
 74
     0
 42
0.00000001
 43
0.00000001
 40
0.0
 40
0.0
 40
0.0
 40
0.0
 40
0.2758864184465399
 40
0.5310076877713092
 40
0.7722766677115256
 40
1.0
 40
1.0
 40
1.0
 40
1.0
 10
76.55799712185481
 20
39.84439522677312
 30
0.0
 10
76.55322472967161
 20
39.83106016866756
 30
0.0
 10
76.5440391490526
 20
39.80539374256799
 30
0.0
 10
76.52599562346732
 20
39.7700349383574
 30
0.0
 10
76.50564189172657
 20
39.73880556834758
 30
0.0
 10
76.48942398992678
 20
39.72099632775862
 30
0.0
 10
76.48154924540694
 20
39.71234889472678
 30
0.0
  0
SPLINE
  5
B5
330
1F
100
AcDbEntity
  8
0
  6
Continuous
 62
     7
370
    25
100
AcDbSpline
210
0.0
220
0.0
230
1.0
 70
     8
 71
     3
 72
    11
 73
     7
 74
     0
 42
0.00000001
 43
0.00000001
 40
0.0
 40
0.0
 40
0.0
 40
0.0
 40
0.240927797421734
 40
0.4854864172424159
 40
0.7380410464993943
 40
1.0
 40
1.0
 40
1.0
 40
1.0
 10
76.62054538440307
 20
39.74014812252602
 30
0.0
 10
76.61383443294842
 20
39.74736953791501
 30
0.0
 10
76.60031139487279
 20
39.76192119663661
 30
0.0
 10
76.5832747370973
 20
39.78695742433586
 30
0.0
 10
76.56912948788798
 20
39.81465529197257
 30
0.0
 10
76.56175285411817
 20
39.83436184911488
 30
0.0
 10
76.55799712185481
 20
39.84439522677311
 30
0.0
  0
SPLINE
  5
B6
330
1F
100
AcDbEntity
  8
0
  6
Continuous
 62
     7
370
    25
100
AcDbSpline
210
0.0
220
0.0
230
1.0
 70
     8
 71
     3
 72
    15
 73
    11
 74
     0
 42
0.00000001
 43
0.00000001
 40
0.0
 40
0.0
 40
0.0
 40
0.0
 40
0.131207293287142
 40
0.2585055422472042
 40
0.3817646425439864
 40
0.503369267050067
 40
0.6250492974901232
 40
0.7476118725723033
 40
0.8722462138971596
 40
1.0
 40
1.0
 40
1.0
 40
1.0
 10
76.80819017204786
 20
39.66370024607814
 30
0.0
 10
76.79908357165063
 20
39.66395981498997
 30
0.0
 10
76.78114168279113
 20
39.66447121950583
 30
0.0
 10
76.75484763096546
 20
39.66814030465603
 30
0.0
 10
76.72968384876303
 20
39.67408630823576
 30
0.0
 10
76.70555635250045
 20
39.68229564349853
 30
0.0
 10
76.68257948786875
 20
39.69322140290223
 30
0.0
 10
76.66063745308739
 20
39.70645034763194
 30
0.0
 10
76.63954680451025
 20
39.72181013681985
 30
0.0
 10
76.62693116632718
 20
39.73398530011661
 30
0.0
 10
76.62054538440307
 20
39.74014812252602
 30
0.0
  0
SPLINE
  5
B7
330
1F
100
AcDbEntity
  8
0
  6
Continuous
 62
     7
370
    25
100
AcDbSpline
210
0.0
220
0.0
230
1.0
 70
     8
 71
     3
 72
    15
 73
    11
 74
     0
 42
0.00000001
 43
0.00000001
 40
0.0
 40
0.0
 40
0.0
 40
0.0
 40
0.1195027114365309
 40
0.2380939422658886
 40
0.3566476293726336
 40
0.4775806195769142
 40
0.6003630199241493
 40
0.7278327340041406
 40
0.8606471500295811
 40
0.9999999999999999
 40
0.9999999999999999
 40
0.9999999999999999
 40
0.9999999999999999
 10
77.03058399444168
 20
39.74709792947582
 30
0.0
 10
77.02351718165993
 20
39.74041423726137
 30
0.0
 10
77.00943745665418
 20
39.72709783122254
 30
0.0
 10
76.98584264192839
 20
39.71005641475333
 30
0.0
 10
76.96033453449073
 20
39.69592015556559
 30
0.0
 10
76.93335316208112
 20
39.68393936583515
 30
0.0
 10
76.9044445867923
 20
39.675060475567
 30
0.0
 10
76.87401054759061
 20
39.66823782157141
 30
0.0
 10
76.84166376725807
 20
39.66441846186701
 30
0.0
 10
76.81952531876443
 20
39.66394345512963
 30
0.0
 10
76.80819017204786
 20
39.66370024607814
 30
0.0
  0
SPLINE
  5
B8
330
1F
100
AcDbEntity
  8
0
  6
Continuous
 62
     7
370
    25
100
AcDbSpline
210
0.0
220
0.0
230
1.0
 70
     8
 71
     3
 72
    15
 73
    11
 74
     0
 42
0.00000001
 43
0.00000001
 40
0.0
 40
0.0
 40
0.0
 40
0.0
 40
0.1342477572737651
 40
0.2634617725756845
 40
0.3884666271730299
 40
0.5118790511869589
 40
0.6324080741525888
 40
0.7535525248235474
 40
0.8755084805282746
 40
1.0
 40
1.0
 40
1.0
 40
1.0
 10
77.12093148478917
 20
39.97644155881945
 30
0.0
 10
77.12074538217361
 20
39.96509855660749
 30
0.0
 10
77.12038015502961
 20
39.94283786838611
 30
0.0
 10
77.11570352764332
 20
39.91031141752788
 30
0.0
 10
77.10894839044309
 20
39.87911373124159
 30
0.0
 10
77.09882336768855
 20
39.84958424252466
 30
0.0
 10
77.08609123166337
 20
39.8214733870495
 30
0.0
 10
77.07071768201854
 20
39.79482506317389
 30
0.0
 10
77.05195945130092
 20
39.77000071177187
 30
0.0
 10
77.0377578509038
 20
39.75478437444198
 30
0.0
 10
77.03058399444168
 20
39.74709792947582
 30
0.0
  0
LINE
  5
B9
330
1F
100
AcDbEntity
  8
0
  6
Continuous
 62
     7
370
    25
100
AcDbLine
 10
77.1209314848
 20
40.5370593194
 30
0.0
 11
77.1209314848
 21
39.9764415588
 31
0.0
  0
LINE
  5
BA
330
1F
100
AcDbEntity
  8
0
  6
Continuous
 62
     7
370
    25
100
AcDbLine
 10
75.9325144964
 20
41.6667890492
 30
0.0
 11
77.1209314848
 21
41.6667890492
 31
0.0
  0
LINE
  5
BB
330
1F
100
AcDbEntity
  8
0
  6
Continuous
 62
     7
370
    25
100
AcDbLine
 10
75.9325144964
 20
41.5023102847
 30
0.0
 11
75.9325144964
 21
41.6667890492
 31
0.0
  0
LINE
  5
BC
330
1F
100
AcDbEntity
  8
0
  6
Continuous
 62
     7
370
    25
100
AcDbLine
 10
76.8707384346
 20
41.5023102847
 30
0.0
 11
75.9325144964
 21
41.5023102847
 31
0.0
  0
LINE
  5
BD
330
1F
100
AcDbEntity
  8
0
  6
Continuous
 62
     7
370
    25
100
AcDbLine
 10
75.9325144964
 20
40.9463257287
 30
0.0
 11
76.8707384346
 21
41.5023102847
 31
0.0
  0
LINE
  5
BE
330
1F
100
AcDbEntity
  8
0
  6
Continuous
 62
     7
370
    25
100
AcDbLine
 10
75.9325144964
 20
40.772580555
 30
0.0
 11
75.9325144964
 21
40.9463257287
 31
0.0
  0
LINE
  5
BF
330
1F
100
AcDbEntity
  8
0
  6
Continuous
 62
     7
370
    25
100
AcDbLine
 10
77.1209314848
 20
40.772580555
 30
0.0
 11
75.9325144964
 21
40.772580555
 31
0.0
  0
LINE
  5
C0
330
1F
100
AcDbEntity
  8
0
  6
Continuous
 62
     7
370
    25
100
AcDbLine
 10
77.1209314848
 20
40.9370593194
 30
0.0
 11
77.1209314848
 21
40.772580555
 31
0.0
  0
LINE
  5
C1
330
1F
100
AcDbEntity
  8
0
  6
Continuous
 62
     7
370
    25
100
AcDbLine
 10
76.1827075466
 20
40.9370593194
 30
0.0
 11
77.1209314848
 21
40.9370593194
 31
0.0
  0
LINE
  5
C2
330
1F
100
AcDbEntity
  8
0
  6
Continuous
 62
     7
370
    25
100
AcDbLine
 10
77.1209314848
 20
41.4884106708
 30
0.0
 11
76.1827075466
 21
40.9370593194
 31
0.0
  0
LINE
  5
C3
330
1F
100
AcDbEntity
  8
0
  6
Continuous
 62
     7
370
    25
100
AcDbLine
 10
77.1209314848
 20
41.6667890492
 30
0.0
 11
77.1209314848
 21
41.4884106708
 31
0.0
  0
SPLINE
  5
C4
330
1F
100
AcDbEntity
  8
0
  6
Continuous
 62
     7
370
    25
100
AcDbSpline
210
0.0
220
0.0
230
1.0
 70
     8
 71
     3
 72
    15
 73
    11
 74
     0
 42
0.00000001
 43
0.00000001
 40
0.0
 40
0.0
 40
0.0
 40
0.0
 40
0.1293972986426973
 40
0.2563931032053939
 40
0.3803289534191741
 40
0.5027804241113404
 40
0.6257089540099043
 40
0.7486563126058704
 40
0.8729651434356742
 40
1.0
 40
1.0
 40
1.0
 40
1.0
 10
76.82208978594747
 20
36.06678904916694
 30
0.0
 10
76.80843344502536
 20
36.06706476183845
 30
0.0
 10
76.78137421222699
 20
36.06761107020949
 30
0.0
 10
76.7414818576138
 20
36.07259873881619
 30
0.0
 10
76.70292921278514
 20
36.08089491276407
 30
0.0
 10
76.66561120249175
 20
36.09225808245666
 30
0.0
 10
76.62952881074457
 20
36.10686425782151
 30
0.0
 10
76.59495782652253
 20
36.12512657309247
 30
0.0
 10
76.561443255104
 20
36.14614387519907
 30
0.0
 10
76.5406880500712
 20
36.16267894859075
 30
0.0
 10
76.53019789405559
 20
36.17103615341404
 30
0.0
  0
SPLINE
  5
C5
330
1F
100
AcDbEntity
  8
0
  6
Continuous
 62
     7
370
    25
100
AcDbSpline
210
0.0
220
0.0
230
1.0
 70
     8
 71
     3
 72
    15
 73
    11
 74
     0
 42
0.00000001
 43
0.00000001
 40
0.0
 40
0.0
 40
0.0
 40
0.0
 40
0.1270527522076896
 40
0.2522753243044989
 40
0.3739697899787141
 40
0.4948832629277697
 40
0.617655677279456
 40
0.7419399124466164
 40
0.8684128160693881
 40
1.0
 40
1.0
 40
1.0
 40
1.0
 10
77.04448360834131
 20
36.15713653951443
 30
0.0
 10
77.0368974397367
 20
36.14994399776462
 30
0.0
 10
77.02183438040346
 20
36.13566252199193
 30
0.0
 10
76.99712337737475
 20
36.11724342872488
 30
0.0
 10
76.97117837630111
 20
36.10160131878586
 30
0.0
 10
76.9438729586645
 20
36.08896509313929
 30
0.0
 10
76.9153204734949
 20
36.07875940825173
 30
0.0
 10
76.8853012918693
 20
36.07207493478295
 30
0.0
 10
76.85415822299983
 20
36.06732912088864
 30
0.0
 10
76.83291956876286
 20
36.06697143596182
 30
0.0
 10
76.82208978594747
 20
36.06678904916694
 30
0.0
  0
SPLINE
  5
C6
330
1F
100
AcDbEntity
  8
0
  6
Continuous
 62
     7
370
    25
100
AcDbSpline
210
0.0
220
0.0
230
1.0
 70
     8
 71
     3
 72
    15
 73
    11
 74
     0
 42
0.00000001
 43
0.00000001
 40
0.0
 40
0.0
 40
0.0
 40
0.0
 40
0.1401156952848869
 40
0.273436951589745
 40
0.4007170918852055
 40
0.5244111544238703
 40
0.6451326608364121
 40
0.7627629456192488
 40
0.8809824433211497
 40
1.0
 40
1.0
 40
1.0
 40
1.0
 10
77.13483109868879
 20
36.40037978275767
 30
0.0
 10
77.13464947773855
 20
36.38792238014708
 30
0.0
 10
77.13429504293468
 20
36.36361165473092
 30
0.0
 10
77.12963365991718
 20
36.32825913649171
 30
0.0
 10
77.12293721428601
 20
36.29473142145233
 30
0.0
 10
77.11268148712027
 20
36.26328027684032
 30
0.0
 10
77.10026527699881
 20
36.23355189683014
 30
0.0
 10
77.08458443745994
 20
36.20594293131878
 30
0.0
 10
77.06603219548826
 20
36.18034968400652
 30
0.0
 10
77.05168256131621
 20
36.16489158788296
 30
0.0
 10
77.04448360834131
 20
36.15713653951443
 30
0.0
  0
SPLINE
  5
C7
330
1F
100
AcDbEntity
  8
0
  6
Continuous
 62
     7
370
    25
100
AcDbSpline
210
0.0
220
0.0
230
1.0
 70
     8
 71
     3
 72
    15
 73
    11
 74
     0
 42
0.00000001
 43
0.00000001
 40
0.0
 40
0.0
 40
0.0
 40
0.0
 40
0.1305450777958563
 40
0.2575006610529009
 40
0.3807062916981838
 40
0.5030034727056808
 40
0.6241056847467478
 40
0.7465907263580774
 40
0.8722950368812801
 40
1.0
 40
1.0
 40
1.0
 40
1.0
 10
77.04448360834131
 20
36.61582379820168
 30
0.0
 10
77.05165445564285
 20
36.608220362616
 30
0.0
 10
77.06579897914109
 20
36.59322255708673
 30
0.0
 10
77.0843773344608
 20
36.5690025777713
 30
0.0
 10
77.10002646903867
 20
36.54356229808767
 30
0.0
 10
77.11248065047617
 20
36.51696054467623
 30
0.0
 10
77.12287773662497
 20
36.48952308054052
 30
0.0
 10
77.12956904292659
 20
36.46068615111077
 30
0.0
 10
77.13425066795746
 20
36.43090647673868
 30
0.0
 10
77.13463660612464
 20
36.41060876386873
 30
0.0
 10
77.13483109868879
 20
36.40037978275767
 30
0.0
  0
LINE
  5
C8
330
1F
100
AcDbEntity
  8
0
  6
Continuous
 62
     7
370
    25
100
AcDbLine
 10
75.9394643033
 20
33.9748971573
 30
0.0
 11
75.9394643033
 21
34.148642331
 31
0.0
  0
SPLINE
  5
C9
330
1F
100
AcDbEntity
  8
0
  6
Continuous
 62
     7
370
    25
100
AcDbSpline
210
0.0
220
0.0
230
1.0
 70
     8
 71
     3
 72
    11
 73
     7
 74
     0
 42
0.00000001
 43
0.00000001
 40
0.0
 40
0.0
 40
0.0
 40
0.0
 40
0.2682823389612922
 40
0.519799796734136
 40
0.7604656312619602
 40
1.0
 40
1.0
 40
1.0
 40
1.0
 10
77.00278476664246
 20
35.55250333488122
 30
0.0
 10
77.01320557131262
 20
35.54284554245354
 30
0.0
 10
77.03339598776095
 20
35.52413347008886
 30
0.0
 10
77.0679466203734
 20
35.50320620499915
 30
0.0
 10
77.104020420816
 20
35.48846184960094
 30
0.0
 10
77.12921386461117
 20
35.48482126743018
 30
0.0
 10
77.1417809056386
 20
35.48300526538316
 30
0.0
  0
SPLINE
  5
CA
330
1F
100
AcDbEntity
  8
0
  6
Continuous
 62
     7
370
    25
100
AcDbSpline
210
0.0
220
0.0
230
1.0
 70
     8
 71
     3
 72
    15
 73
    11
 74
     0
 42
0.00000001
 43
0.00000001
 40
0.0
 40
0.0
 40
0.0
 40
0.0
 40
0.1418032572055069
 40
0.2768956124422257
 40
0.4056005815718937
 40
0.5283792299702855
 40
0.6485398625937331
 40
0.7671999810702814
 40
0.882172805670652
 40
1.0
 40
1.0
 40
1.0
 40
1.0
 10
76.94718631104399
 20
35.70539908777698
 30
0.0
 10
76.94726649241416
 20
35.69749209893025
 30
0.0
 10
76.9474230605356
 20
35.68205232298693
 30
0.0
 10
76.95062183644015
 20
35.65966013006835
 30
0.0
 10
76.95432828503749
 20
35.63841291420629
 30
0.0
 10
76.9608436276706
 20
35.61872230628585
 30
0.0
 10
76.96832739001056
 20
35.59998116590174
 30
0.0
 10
76.97827996149518
 20
35.58292607520791
 30
0.0
 10
76.989365049966
 20
35.56673134316732
 30
0.0
 10
76.99827511221494
 20
35.55728461321288
 30
0.0
 10
77.00278476664246
 20
35.55250333488122
 30
0.0
  0
SPLINE
  5
CB
330
1F
100
AcDbEntity
  8
0
  6
Continuous
 62
     7
370
    25
100
AcDbSpline
210
0.0
220
0.0
230
1.0
 70
     8
 71
     3
 72
    16
 73
    12
 74
     0
 42
0.00000001
 43
0.00000001
 40
0.0
 40
0.0
 40
0.0
 40
0.0
 40
0.2500000000000002
 40
0.2500000000000002
 40
0.5000000000000003
 40
0.5000000000000003
 40
0.6250000000000002
 40
0.6250000000000002
 40
0.7500000000000002
 40
0.7500000000000002
 40
1.0
 40
1.0
 40
1.0
 40
1.0
 10
74.8151920213746
 20
42.78725236963022
 30
0.0
 10
74.58387726769197
 20
43.18790127554881
 30
0.0
 10
74.39323197436154
 20
43.59147126523366
 30
0.0
 10
74.12912631795423
 20
44.40702805157476
 30
0.0
 10
74.05653712664028
 20
44.81907742013807
 30
0.0
 10
74.05573988054932
 20
45.44491478818767
 30
0.0
 10
74.07348513717277
 20
45.6545087716508
 30
0.0
 10
74.14268222070255
 20
46.06910778902702
 30
0.0
 10
74.19406382676485
 20
46.2750173010492
 30
0.0
 10
74.39247182550146
 20
46.88907989910236
 30
0.0
 10
74.58358892720541
 20
47.29358133145054
 30
0.0
 10
74.81519202137481
 20
47.69472965774209
 30
0.0
  0
LINE
  5
CC
330
1F
100
AcDbEntity
  8
0
  6
Continuous
 62
     7
370
    25
100
AcDbLine
 10
73.9116650755
 20
37.8797750815
 30
0.0
 11
73.9116650755
 21
46.1297750815
 31
0.0
  0
LINE
  5
CD
330
1F
100
AcDbEntity
  8
0
  6
Continuous
 62
     7
370
    25
100
AcDbLine
 10
73.9116650755
 20
29.6297750815
 30
0.0
 11
73.9116650755
 21
37.8797750815
 31
0.0
  0
SPLINE
  5
CE
330
1F
100
AcDbEntity
  8
0
  6
Continuous
 62
     7
370
    25
100
AcDbSpline
210
0.0
220
0.0
230
1.0
 70
     8
 71
     3
 72
    16
 73
    12
 74
     0
 42
0.00000001
 43
0.00000001
 40
0.0
 40
0.0
 40
0.0
 40
0.0
 40
0.2500000000000002
 40
0.2500000000000002
 40
0.5000000000000003
 40
0.5000000000000003
 40
0.6250000000000002
 40
0.6250000000000002
 40
0.7500000000000002
 40
0.7500000000000002
 40
1.0
 40
1.0
 40
1.0
 40
1.0
 10
78.00813812967091
 20
42.78725236963022
 30
0.0
 10
78.23945288335355
 20
43.18790127554881
 30
0.0
 10
78.43009817668398
 20
43.59147126523366
 30
0.0
 10
78.6942038330913
 20
44.40702805157476
 30
0.0
 10
78.76679302440526
 20
44.81907742013807
 30
0.0
 10
78.76759027049621
 20
45.44491478818767
 30
0.0
 10
78.74984501387276
 20
45.6545087716508
 30
0.0
 10
78.68064793034297
 20
46.06910778902702
 30
0.0
 10
78.62926632428069
 20
46.2750173010492
 30
0.0
 10
78.43085832554408
 20
46.88907989910236
 30
0.0
 10
78.23974122384011
 20
47.29358133145054
 30
0.0
 10
78.00813812967073
 20
47.69472965774209
 30
0.0
  0
LINE
  5
CF
330
1F
100
AcDbEntity
  8
0
  6
Continuous
 62
     7
370
    25
100
AcDbLine
 10
78.9116650755
 20
37.8797750815
 30
0.0
 11
78.9116650755
 21
46.1297750815
 31
0.0
  0
LINE
  5
D0
330
1F
100
AcDbEntity
  8
0
  6
Continuous
 62
     7
370
    25
100
AcDbLine
 10
78.9116650755
 20
29.6297750815
 30
0.0
 11
78.9116650755
 21
37.8797750815
 31
0.0
  0
LINE
  5
D1
330
1F
100
AcDbEntity
  8
0
  6
Continuous
 62
     7
370
    25
100
AcDbLine
 10
76.8776882415
 20
37.2111905936
 30
0.0
 11
76.3703523342
 21
37.5192987017
 31
0.0
  0
LINE
  5
D2
330
1F
100
AcDbEntity
  8
0
  6
Continuous
 62
     7
370
    25
100
AcDbLine
 10
76.3703523342
 20
37.2111905936
 30
0.0
 11
76.8776882415
 21
37.2111905936
 31
0.0
  0
LINE
  5
D3
330
1F
100
AcDbEntity
  8
0
  6
Continuous
 62
     7
370
    25
100
AcDbLine
 10
76.3703523342
 20
37.5192987017
 30
0.0
 11
76.3703523342
 21
37.2111905936
 31
0.0
  0
LINE
  5
D4
330
1F
100
AcDbEntity
  8
0
  6
Continuous
 62
     7
370
    25
100
AcDbLine
 10
76.9963497602
 20
34.7602253426
 30
0.0
 11
76.5857963497
 21
34.7602253426
 31
0.0
  0
LINE
  5
D5
330
1F
100
AcDbEntity
  8
0
  6
Continuous
 62
     7
370
    25
100
AcDbLine
 10
76.9963497602
 20
34.3710361534
 30
0.0
 11
76.9963497602
 21
34.7602253426
 31
0.0
  0
SPLINE
  5
D6
330
1F
100
AcDbEntity
  8
0
  6
Continuous
 62
     7
370
    25
100
AcDbSpline
210
0.0
220
0.0
230
1.0
 70
     8
 71
     3
 72
    15
 73
    11
 74
     0
 42
0.00000001
 43
0.00000001
 40
0.0
 40
0.0
 40
0.0
 40
0.0
 40
0.1309133268193504
 40
0.257977153454407
 40
0.3819342897628136
 40
0.5044826360738954
 40
0.6264704025122011
 40
0.7488072761095285
 40
0.8724814751031159
 40
1.0
 40
1.0
 40
1.0
 40
1.0
 10
76.94023650409419
 20
34.23898982136772
 30
0.0
 10
76.94472036156623
 20
34.243615396126
 30
0.0
 10
76.95355622889336
 20
34.25273053083556
 30
0.0
 10
76.96477406602543
 20
34.267836879623
 30
0.0
 10
76.97472523307756
 20
34.2832878290183
 30
0.0
 10
76.98281483337422
 20
34.2995572841896
 30
0.0
 10
76.98861681501792
 20
34.31667663241332
 30
0.0
 10
76.99298083003849
 20
34.33423736174311
 30
0.0
 10
76.99606692336577
 20
34.35239585393602
 30
0.0
 10
76.99625452422767
 20
34.36475964723503
 30
0.0
 10
76.99634976020745
 20
34.37103615341405
 30
0.0
  0
SPLINE
  5
D7
330
1F
100
AcDbEntity
  8
0
  6
Continuous
 62
     7
370
    25
100
AcDbSpline
210
0.0
220
0.0
230
1.0
 70
     8
 71
     3
 72
    15
 73
    11
 74
     0
 42
0.00000001
 43
0.00000001
 40
0.0
 40
0.0
 40
0.0
 40
0.0
 40
0.1417962611116211
 40
0.2768819513476974
 40
0.4055805706087828
 40
0.5298229690785619
 40
0.6485572024501438
 40
0.7672114666371231
 40
0.8821786188665556
 40
1.0
 40
1.0
 40
1.0
 40
1.0
 10
76.78734075119844
 20
34.18339136576925
 30
0.0
 10
76.79524737241555
 20
34.18347264179326
 30
0.0
 10
76.81068643049785
 20
34.18363134741741
 30
0.0
 10
76.83308373178814
 20
34.18681491263618
 30
0.0
 10
76.85439360743415
 20
34.19058943408297
 30
0.0
 10
76.87414640743711
 20
34.19693268951988
 30
0.0
 10
76.89281265749634
 20
34.20460891511023
 30
0.0
 10
76.90981749093957
 20
34.21447562822107
 30
0.0
 10
76.92600754959236
 20
34.22557248801906
 30
0.0
 10
76.93545490778965
 20
34.23448096785016
 30
0.0
 10
76.94023650409419
 20
34.23898982136772
 30
0.0
  0
SPLINE
  5
D8
330
1F
100
AcDbEntity
  8
0
  6
Continuous
 62
     7
370
    25
100
AcDbSpline
210
0.0
220
0.0
230
1.0
 70
     8
 71
     3
 72
    15
 73
    11
 74
     0
 42
0.00000001
 43
0.00000001
 40
0.0
 40
0.0
 40
0.0
 40
0.0
 40
0.1053643999148118
 40
0.2134004501006505
 40
0.3253299308157709
 40
0.4441520831794067
 40
0.5701116073912011
 40
0.7035881731039111
 40
0.8466305078268435
 40
1.0
 40
1.0
 40
1.0
 40
1.0
 10
76.63444499830268
 20
34.2320400144179
 30
0.0
 10
76.63874104054906
 20
34.22816960160558
 30
0.0
 10
76.6474420567345
 20
34.22033063667158
 30
0.0
 10
76.66220320080272
 20
34.2101663036253
 30
0.0
 10
76.67896480518068
 20
34.20205781554932
 30
0.0
 10
76.69723112297841
 20
34.19494081529758
 30
0.0
 10
76.71743778487046
 20
34.19005620419865
 30
0.0
 10
76.73916376103989
 20
34.18609543681459
 30
0.0
 10
76.76266763034235
 20
34.18380384954724
 30
0.0
 10
76.77892754270002
 20
34.18353201729229
 30
0.0
 10
76.78734075119844
 20
34.18339136576925
 30
0.0
  0
SPLINE
  5
D9
330
1F
100
AcDbEntity
  8
0
  6
Continuous
 62
     7
370
    25
100
AcDbSpline
210
0.0
220
0.0
230
1.0
 70
     8
 71
     3
 72
    11
 73
     7
 74
     0
 42
0.00000001
 43
0.00000001
 40
0.0
 40
0.0
 40
0.0
 40
0.0
 40
0.2562600332085403
 40
0.5016208045865238
 40
0.7449078564687258
 40
1.0
 40
1.0
 40
1.0
 40
1.0
 10
76.58579634965405
 20
34.35018673256462
 30
0.0
 10
76.58637808638966
 20
34.33896719543669
 30
0.0
 10
76.58751681741111
 20
34.31700531097608
 30
0.0
 10
76.59685295035162
 20
34.2855104093128
 30
0.0
 10
76.61230313201929
 20
34.25656373731527
 30
0.0
 10
76.62694873953335
 20
34.24034266472179
 30
0.0
 10
76.63444499830268
 20
34.2320400144179
 30
0.0
  0
LINE
  5
DA
330
1F
100
AcDbEntity
  8
0
  6
Continuous
 62
     7
370
    25
100
AcDbLine
 10
76.5857963497
 20
34.7602253426
 30
0.0
 11
76.5857963497
 21
34.3501867326
 31
0.0
  0
LINE
  5
DB
330
1F
100
AcDbEntity
  8
0
  6
Continuous
 62
     7
370
    25
100
AcDbLine
 10
74.8151920214
 20
47.6947296577
 30
0.0
 11
78.0081381297
 21
47.6947296577
 31
0.0
  0
LINE
  5
DC
330
1F
100
AcDbEntity
  8
0
  6
Continuous
 62
     7
370
    25
100
AcDbLine
 10
76.4890138529
 20
40.372580555
 30
0.0
 11
76.0645608284
 21
40.372580555
 31
0.0
  0
SPLINE
  5
DD
330
1F
100
AcDbEntity
  8
0
  6
Continuous
 62
     7
370
    25
100
AcDbSpline
210
0.0
220
0.0
230
1.0
 70
     8
 71
     3
 72
    15
 73
    11
 74
     0
 42
0.00000001
 43
0.00000001
 40
0.0
 40
0.0
 40
0.0
 40
0.0
 40
0.1193556939378553
 40
0.2390663805212342
 40
0.3573840708360848
 40
0.4787728926029021
 40
0.6013911634438125
 40
0.7292416297469775
 40
0.8608048514681792
 40
1.0
 40
1.0
 40
1.0
 40
1.0
 10
76.42595078980848
 20
39.85134503372292
 30
0.0
 10
76.43096956403407
 20
39.85664181950737
 30
0.0
 10
76.44102203953132
 20
39.86725114499579
 30
0.0
 10
76.45374357069288
 20
39.88506551731644
 30
0.0
 10
76.46474330904536
 20
39.90409708006798
 30
0.0
 10
76.47368609229795
 20
39.9243846142939
 30
0.0
 10
76.4807501435301
 20
39.94601216412811
 30
0.0
 10
76.48553495525672
 20
39.96888744118615
 30
0.0
 10
76.4884043177579
 20
39.99309958520336
 30
0.0
 10
76.48880689201673
 20
40.0096380707482
 30
0.0
 10
76.48901385287155
 20
40.01814040051829
 30
0.0
  0
SPLINE
  5
DE
330
1F
100
AcDbEntity
  8
0
  6
Continuous
 62
     7
370
    25
100
AcDbSpline
210
0.0
220
0.0
230
1.0
 70
     8
 71
     3
 72
    15
 73
    11
 74
     0
 42
0.00000001
 43
0.00000001
 40
0.0
 40
0.0
 40
0.0
 40
0.0
 40
0.1417962611116215
 40
0.2768819513476977
 40
0.4055805706087828
 40
0.5298229690785616
 40
0.648557202450145
 40
0.7672114666371235
 40
0.8821786188665551
 40
1.0
 40
1.0
 40
1.0
 40
1.0
 10
76.27305503691272
 20
39.79574657812447
 30
0.0
 10
76.28096165812983
 20
39.79582785414846
 30
0.0
 10
76.29640071621213
 20
39.79598655977262
 30
0.0
 10
76.31879801750242
 20
39.79917012499138
 30
0.0
 10
76.34010789314843
 20
39.80294464643818
 30
0.0
 10
76.3598606931514
 20
39.80928790187509
 30
0.0
 10
76.37852694321062
 20
39.81696412746544
 30
0.0
 10
76.39553177665385
 20
39.82683084057628
 30
0.0
 10
76.41172183530665
 20
39.83792770037427
 30
0.0
 10
76.42116919350393
 20
39.84683618020536
 30
0.0
 10
76.42595078980848
 20
39.85134503372292
 30
0.0
  0
SPLINE
  5
DF
330
1F
100
AcDbEntity
  8
0
  6
Continuous
 62
     7
370
    25
100
AcDbSpline
210
0.0
220
0.0
230
1.0
 70
     8
 71
     3
 72
    15
 73
    11
 74
     0
 42
0.00000001
 43
0.00000001
 40
0.0
 40
0.0
 40
0.0
 40
0.0
 40
0.1277118540336141
 40
0.2523621141955302
 40
0.374853765056625
 40
0.4969693854038489
 40
0.6192731655242182
 40
0.7424854443019968
 40
0.8694478780376611
 40
1.0
 40
1.0
 40
1.0
 40
1.0
 10
76.12015928401696
 20
39.85829484067273
 30
0.0
 10
76.12536895127212
 20
39.85327507659776
 30
0.0
 10
76.13566339615913
 20
39.84335588558525
 30
0.0
 10
76.15286746695676
 20
39.8308694597626
 30
0.0
 10
76.1706368528274
 20
39.819819639935
 30
0.0
 10
76.18956253625845
 20
39.81118012864666
 30
0.0
 10
76.20915521126398
 20
39.8041110223017
 30
0.0
 10
76.22969691289539
 20
39.79920890912139
 30
0.0
 10
76.25109690110622
 20
39.79638988356776
 30
0.0
 10
76.2656679527107
 20
39.79596299683683
 30
0.0
 10
76.27305503691272
 20
39.79574657812447
 30
0.0
  0
SPLINE
  5
E0
330
1F
100
AcDbEntity
  8
0
  6
Continuous
 62
     7
370
    25
100
AcDbSpline
210
0.0
220
0.0
230
1.0
 70
     8
 71
     3
 72
    15
 73
    11
 74
     0
 42
0.00000001
 43
0.00000001
 40
0.0
 40
0.0
 40
0.0
 40
0.0
 40
0.1452459980297209
 40
0.2839773123111047
 40
0.4135645357275256
 40
0.5387150251446075
 40
0.6570052502158968
 40
0.7736984629726797
 40
0.8866940707303826
 40
1.0
 40
1.0
 40
1.0
 40
1.0
 10
76.06456082841852
 20
40.01814040051828
 30
0.0
 10
76.06464518090665
 20
40.00972019764249
 30
0.0
 10
76.0648101024411
 20
39.99325746122136
 30
0.0
 10
76.06794033578092
 20
39.96947927081266
 30
0.0
 10
76.07176808420071
 20
39.94698499168187
 30
0.0
 10
76.07806552691275
 20
39.92627712917733
 30
0.0
 10
76.0857075525709
 20
39.90681576037855
 30
0.0
 10
76.09566880412603
 20
39.88926197475065
 30
0.0
 10
76.10658086908278
 20
39.8725811066377
 30
0.0
 10
76.11562900987752
 20
39.863061280759
 30
0.0
 10
76.12015928401696
 20
39.85829484067273
 30
0.0
  0
LINE
  5
E1
330
1F
100
AcDbEntity
  8
0
  6
Continuous
 62
     7
370
    25
100
AcDbLine
 10
76.4890138529
 20
40.0181404005
 30
0.0
 11
76.4890138529
 21
40.372580555
 31
0.0
  0
LINE
  5
E2
330
1F
100
AcDbEntity
  8
0
  6
Continuous
 62
     7
370
    25
100
AcDbLine
 10
76.0645608284
 20
40.372580555
 30
0.0
 11
76.0645608284
 21
40.0181404005
 31
0.0
  0
LINE
  5
E3
330
1F
100
AcDbEntity
  8
0
  6
Continuous
 62
     7
370
    25
100
AcDbLine
 10
76.9893999533
 20
40.372580555
 30
0.0
 11
76.6205453844
 21
40.372580555
 31
0.0
  0
LINE
  5
E4
330
1F
100
AcDbEntity
  8
0
  6
Continuous
 62
     7
370
    25
100
AcDbLine
 10
76.9893999533
 20
39.9833913658
 30
0.0
 11
76.9893999533
 21
40.372580555
 31
0.0
  0
SPLINE
  5
E5
330
1F
100
AcDbEntity
  8
0
  6
Continuous
 62
     7
370
    25
100
AcDbSpline
210
0.0
220
0.0
230
1.0
 70
     8
 71
     3
 72
    11
 73
     7
 74
     0
 42
0.00000001
 43
0.00000001
 40
0.0
 40
0.0
 40
0.0
 40
0.0
 40
0.2499695538886859
 40
0.4922399851273401
 40
0.7405148106355971
 40
1.0
 40
1.0
 40
1.0
 40
1.0
 10
76.94718631104399
 20
39.87914426152215
 30
0.0
 10
76.9537164204245
 20
39.88626625840632
 30
0.0
 10
76.96657551023894
 20
39.90029089295002
 30
0.0
 10
76.97975135234105
 20
39.92588362572504
 30
0.0
 10
76.98809447544032
 20
39.95377976692536
 30
0.0
 10
76.9889584357913
 20
39.97337661260956
 30
0.0
 10
76.98939995325765
 20
39.98339136576926
 30
0.0
  0
SPLINE
  5
E6
330
1F
100
AcDbEntity
  8
0
  6
Continuous
 62
     7
370
    25
100
AcDbSpline
210
0.0
220
0.0
230
1.0
 70
     8
 71
     3
 72
    11
 73
     7
 74
     0
 42
0.00000001
 43
0.00000001
 40
0.0
 40
0.0
 40
0.0
 40
0.0
 40
0.2516095171558486
 40
0.4964930798665582
 40
0.7426069856111288
 40
1.0
 40
1.0
 40
1.0
 40
1.0
 10
76.81513997899766
 20
39.8235458059237
 30
0.0
 10
76.827482483841
 20
39.82425841632368
 30
0.0
 10
76.85183755717924
 20
39.82566458782399
 30
0.0
 10
76.88698848866136
 20
39.83630439931243
 30
0.0
 10
76.91940821484091
 20
39.85412677339919
 30
0.0
 10
76.93778969055384
 20
39.87068148423929
 30
0.0
 10
76.94718631104399
 20
39.87914426152215
 30
0.0
  0
SPLINE
  5
E7
330
1F
100
AcDbEntity
  8
0
  6
Continuous
 62
     7
370
    25
100
AcDbSpline
210
0.0
220
0.0
230
1.0
 70
     8
 71
     3
 72
    15
 73
    11
 74
     0
 42
0.00000001
 43
0.00000001
 40
0.0
 40
0.0
 40
0.0
 40
0.0
 40
0.1215042446907356
 40
0.2399194382132715
 40
0.3607014484775902
 40
0.4813982058565628
 40
0.60466865435653
 40
0.7308278400410382
 40
0.8619579002966851
 40
0.9999999999999999
 40
0.9999999999999999
 40
0.9999999999999999
 40
0.9999999999999999
 10
76.66919403305172
 20
39.87914426152215
 30
0.0
 10
76.67388717568964
 20
39.87463366890096
 30
0.0
 10
76.683154145317
 20
39.86572715826474
 30
0.0
 10
76.69904998230456
 20
39.85470716853435
 30
0.0
 10
76.71556581085498
 20
39.84475035849569
 30
0.0
 10
76.73359504033833
 20
39.83719158567168
 30
0.0
 10
76.75236283686648
 20
39.83076418430347
 30
0.0
 10
76.77239651460587
 20
39.82698827987272
 30
0.0
 10
76.7933311606814
 20
39.82378034222919
 30
0.0
 10
76.80774697887306
 20
39.82362531169566
 30
0.0
 10
76.81513997899766
 20
39.8235458059237
 30
0.0
  0
SPLINE
  5
E8
330
1F
100
AcDbEntity
  8
0
  6
Continuous
 62
     7
370
    25
100
AcDbSpline
210
0.0
220
0.0
230
1.0
 70
     8
 71
     3
 72
    11
 73
     7
 74
     0
 42
0.00000001
 43
0.00000001
 40
0.0
 40
0.0
 40
0.0
 40
0.0
 40
0.2562600332085403
 40
0.5016208045865207
 40
0.7449078564687257
 40
1.0
 40
1.0
 40
1.0
 40
1.0
 10
76.62054538440307
 20
39.99729097966886
 30
0.0
 10
76.6211271211387
 20
39.98607144254094
 30
0.0
 10
76.62226585216015
 20
39.96410955808032
 30
0.0
 10
76.63160198510066
 20
39.93261465641704
 30
0.0
 10
76.64705216676833
 20
39.90366798441951
 30
0.0
 10
76.66169777428237
 20
39.88744691182603
 30
0.0
 10
76.66919403305172
 20
39.87914426152215
 30
0.0
  0
LINE
  5
E9
330
1F
100
AcDbEntity
  8
0
  6
Continuous
 62
     7
370
    25
100
AcDbLine
 10
76.6205453844
 20
40.372580555
 30
0.0
 11
76.6205453844
 21
39.9972909797
 31
0.0
  0
LINE
  5
EA
330
1F
100
AcDbEntity
  8
0
  6
Continuous
 62
     7
370
    25
100
AcDbLine
 10
63.433523382
 20
31.1737795094
 30
0.0
 11
63.433523382
 21
44.5857706536
 31
0.0
  0
LINE
  5
EB
330
1F
100
AcDbEntity
  8
0
  6
Continuous
 62
     7
370
    25
100
AcDbLine
 10
60.9116650755
 20
37.8797750815
 30
0.0
 11
60.9116650755
 21
43.1297750815
 31
0.0
  0
LINE
  5
EC
330
1F
100
AcDbEntity
  8
0
  6
Continuous
 62
     7
370
    25
100
AcDbLine
 10
60.9116650755
 20
32.6297750815
 30
0.0
 11
60.9116650755
 21
37.8797750815
 31
0.0
  0
LINE
  5
ED
330
1F
100
AcDbEntity
  8
0
  6
Continuous
 62
     7
370
    18
100
AcDbLine
 10
61.55292447
 20
43.5000063655
 30
0.0
 11
72.5116650755
 21
43.8424670094
 31
0.0
  0
LINE
  5
EE
330
1F
100
AcDbEntity
  8
0
  6
Continuous
 62
     7
370
    18
100
AcDbLine
 10
61.55292447
 20
32.2595437975
 30
0.0
 11
72.5116650755
 21
31.9170831536
 31
0.0
  0
LINE
  5
EF
330
1F
100
AcDbEntity
  8
0
  6
Continuous
 62
     7
370
    25
100
AcDbLine
 10
72.5116650755
 20
30.8900875815
 30
0.0
 11
72.5116650755
 21
44.8694625815
 31
0.0
  0
LINE
  5
F0
330
1F
100
AcDbEntity
  8
FORMAT
  6
CENTERX2
370
    18
100
AcDbLine
 10
80.0505267608
 20
37.8797750815
 30
0.0
 11
59.9116650755
 21
37.8797750815
 31
0.0
  0
SPLINE
  5
F1
330
1F
100
AcDbEntity
  8
0
  6
Continuous
 62
     7
370
    25
100
AcDbSpline
210
0.0
220
0.0
230
1.0
 70
    24
 71
     3
 72
    16
 73
    12
 74
     0
 42
0.00000001
 43
0.00000001
 40
0.0
 40
0.0
 40
0.0
 40
0.0
 40
0.2500000000000002
 40
0.2500000000000002
 40
0.5000000000000003
 40
0.5000000000000003
 40
0.6250000000000002
 40
0.6250000000000002
 40
0.7500000000000002
 40
0.7500000000000002
 40
1.0
 40
1.0
 40
1.0
 40
1.0
 10
85.46198814287854
 20
42.78725236963022
 30
0.0
 10
86.15593240392643
 20
43.18790127554881
 30
0.0
 10
86.85493613047065
 20
43.59147126523366
 30
0.0
 10
88.26752192087099
 20
44.40702805157476
 30
0.0
 10
88.98121236244933
 20
44.81907742013807
 30
0.0
 10
90.06519448118642
 20
45.44491478818767
 30
0.0
 10
90.4282219095053
 20
45.6545087716508
 30
0.0
 10
91.14632847236906
 20
46.06910778902702
 30
0.0
 10
91.50297420895318
 20
46.2750173010492
 30
0.0
 10
92.56656182780901
 20
46.88907989910236
 30
0.0
 10
93.26717886037045
 20
47.29358133145054
 30
0.0
 10
93.96198814287862
 20
47.69472965774209
 30
0.0
  0
SPLINE
  5
F2
330
1F
100
AcDbEntity
  8
0
  6
Continuous
 62
     7
370
    25
100
AcDbSpline
210
0.0
220
0.0
230
1.0
 70
    24
 71
     3
 72
    16
 73
    12
 74
     0
 42
0.00000001
 43
0.00000001
 40
0.0
 40
0.0
 40
0.0
 40
0.0
 40
0.2500000000000003
 40
0.2500000000000003
 40
0.5000000000000004
 40
0.5000000000000004
 40
0.6250000000000003
 40
0.6250000000000003
 40
0.7500000000000002
 40
0.7500000000000002
 40
1.0
 40
1.0
 40
1.0
 40
1.0
 10
93.96198814287855
 20
47.6947296577421
 30
0.0
 10
94.65593240392641
 20
47.29408075182352
 30
0.0
 10
95.35493613047063
 20
46.89051076213867
 30
0.0
 10
96.767521920871
 20
46.07495397579758
 30
0.0
 10
97.48121236244933
 20
45.66290460723427
 30
0.0
 10
98.56519448118642
 20
45.03706723918467
 30
0.0
 10
98.9282219095053
 20
44.82747325572155
 30
0.0
 10
99.64632847236906
 20
44.41287423834532
 30
0.0
 10
100.0029742089532
 20
44.20696472632314
 30
0.0
 10
101.066561827809
 20
43.59290212826998
 30
0.0
 10
101.7671788603704
 20
43.18840069592179
 30
0.0
 10
102.4619881428786
 20
42.78725236963024
 30
0.0
  0
SPLINE
  5
F3
330
1F
100
AcDbEntity
  8
0
  6
Continuous
 62
     7
370
    25
100
AcDbSpline
210
0.0
220
0.0
230
1.0
 70
    24
 71
     3
 72
    14
 73
    10
 74
     0
 42
0.00000001
 43
0.00000001
 40
0.0
 40
0.0
 40
0.0
 40
0.0
 40
0.25
 40
0.25
 40
0.5
 40
0.5
 40
0.75
 40
0.75
 40
1.0
 40
1.0
 40
1.0
 40
1.0
 10
102.4619881428786
 20
42.78725236963025
 30
0.0
 10
102.4619881428786
 20
41.98838580992017
 30
0.0
 10
102.4619881428786
 20
41.18213741557708
 30
0.0
 10
102.4619881428786
 20
39.54805237240453
 30
0.0
 10
102.4619881428786
 20
38.71920701228007
 30
0.0
 10
102.4619881428786
 20
37.03783608767542
 30
0.0
 10
102.4619881428786
 20
36.2104327023446
 30
0.0
 10
102.4619881428786
 20
34.57714032496072
 30
0.0
 10
102.4619881428786
 20
33.77109095451564
 30
0.0
 10
102.4619881428786
 20
32.97229779340662
 30
0.0
  0
SPLINE
  5
F4
330
1F
100
AcDbEntity
  8
0
  6
Continuous
 62
     7
370
    25
100
AcDbSpline
210
0.0
220
0.0
230
1.0
 70
    24
 71
     3
 72
    16
 73
    12
 74
     0
 42
0.00000001
 43
0.00000001
 40
0.0
 40
0.0
 40
0.0
 40
0.0
 40
0.25
 40
0.25
 40
0.5
 40
0.5
 40
0.625
 40
0.625
 40
0.75
 40
0.75
 40
1.0
 40
1.0
 40
1.0
 40
1.0
 10
102.4619881428787
 20
32.97229779340665
 30
0.0
 10
101.7680438818308
 20
32.57164888748806
 30
0.0
 10
101.0690401552866
 20
32.16807889780321
 30
0.0
 10
99.65645436488622
 20
31.35252211146212
 30
0.0
 10
98.94276392330787
 20
30.9404727428988
 30
0.0
 10
97.85878180457078
 20
30.3146353748492
 30
0.0
 10
97.49575437625191
 20
30.10504139138608
 30
0.0
 10
96.77764781338813
 20
29.69044237400985
 30
0.0
 10
96.42100207680402
 20
29.48453286198768
 30
0.0
 10
95.3574144579482
 20
28.87047026393451
 30
0.0
 10
94.65679742538676
 20
28.46596883158633
 30
0.0
 10
93.96198814287857
 20
28.06482050529478
 30
0.0
  0
SPLINE
  5
F5
330
1F
100
AcDbEntity
  8
0
  6
Continuous
 62
     7
370
    25
100
AcDbSpline
210
0.0
220
0.0
230
1.0
 70
    24
 71
     3
 72
    16
 73
    12
 74
     0
 42
0.00000001
 43
0.00000001
 40
0.0
 40
0.0
 40
0.0
 40
0.0
 40
0.2500000000000001
 40
0.2500000000000001
 40
0.5
 40
0.5
 40
0.625
 40
0.625
 40
0.75
 40
0.75
 40
1.0
 40
1.0
 40
1.0
 40
1.0
 10
93.96198814287865
 20
28.06482050529477
 30
0.0
 10
93.26804388183076
 20
28.46546941121336
 30
0.0
 10
92.56904015528656
 20
28.86903940089821
 30
0.0
 10
91.1564543648862
 20
29.68459618723929
 30
0.0
 10
90.44276392330787
 20
30.0966455558026
 30
0.0
 10
89.35878180457077
 20
30.72248292385221
 30
0.0
 10
88.9957543762519
 20
30.93207690731533
 30
0.0
 10
88.27764781338813
 20
31.34667592469156
 30
0.0
 10
87.92100207680402
 20
31.55258543671373
 30
0.0
 10
86.8574144579482
 20
32.16664803476689
 30
0.0
 10
86.15679742538676
 20
32.57114946711508
 30
0.0
 10
85.46198814287857
 20
32.97229779340663
 30
0.0
  0
SPLINE
  5
F6
330
1F
100
AcDbEntity
  8
0
  6
Continuous
 62
     7
370
    25
100
AcDbSpline
210
0.0
220
0.0
230
1.0
 70
    24
 71
     3
 72
    14
 73
    10
 74
     0
 42
0.00000001
 43
0.00000001
 40
0.0
 40
0.0
 40
0.0
 40
0.0
 40
0.2500000000000001
 40
0.2500000000000001
 40
0.5000000000000001
 40
0.5000000000000001
 40
0.7500000000000002
 40
0.7500000000000002
 40
1.0
 40
1.0
 40
1.0
 40
1.0
 10
85.4619881428786
 20
32.97229779340662
 30
0.0
 10
85.4619881428786
 20
33.7711643531167
 30
0.0
 10
85.4619881428786
 20
34.57741274745979
 30
0.0
 10
85.4619881428786
 20
36.21149779063234
 30
0.0
 10
85.4619881428786
 20
37.0403431507568
 30
0.0
 10
85.4619881428786
 20
38.72171407536145
 30
0.0
 10
85.4619881428786
 20
39.54911746069227
 30
0.0
 10
85.4619881428786
 20
41.18240983807615
 30
0.0
 10
85.4619881428786
 20
41.98845920852123
 30
0.0
 10
85.4619881428786
 20
42.78725236963025
 30
0.0
  0
CIRCLE
  5
F7
330
1F
100
AcDbEntity
  8
0
  6
Continuous
 62
     7
370
    25
100
AcDbCircle
 10
93.9619881429
 20
37.8797750815
 30
0.0
 40
8.25
  0
CIRCLE
  5
F8
330
1F
100
AcDbEntity
  8
0
  6
Continuous
 62
     7
370
    25
100
AcDbCircle
 10
93.9619881429
 20
37.8797750815
 30
0.0
 40
5.0
  0
CIRCLE
  5
F9
330
1F
100
AcDbEntity
  8
0
  6
Continuous
 62
     7
370
    25
100
AcDbCircle
 10
93.9619881429
 20
37.8797750815
 30
0.0
 40
4.366348500000001
  0
CIRCLE
  5
FA
330
1F
100
AcDbEntity
  8
0
  6
Continuous
 62
     7
370
    25
100
AcDbCircle
 10
93.9619881429
 20
37.8797750815
 30
0.0
 40
4.100000000000009
  0
INSERT
  5
106
330
1F
100
AcDbEntity
  8
FORMAT
100
AcDbBlockReference
  2
SW_CENTERMARKSYMBOL_0
 10
93.9619881429
 20
37.8797750815
 30
0.0
  0
ARC
  5
107
330
1F
100
AcDbEntity
  8
0
  6
Continuous
 62
     7
370
    18
100
AcDbCircle
 10
93.9619881429
 20
37.8797750815
 30
0.0
 40
4.946782879796866
100
AcDbArc
 50
75.0
 51
345.0
  0
LINE
  5
108
330
1F
100
AcDbEntity
  8
0
  6
Continuous
 62
     7
370
    25
100
AcDbLine
 10
78.7673275082
 20
54.8448230352
 30
0.0
 11
78.9116650755
 21
55.0948230352
 31
0.0
  0
LINE
  5
109
330
1F
100
AcDbEntity
  8
0
  6
Continuous
 62
     7
370
    25
100
AcDbLine
 10
78.9116650755
 20
71.5948230352
 30
0.0
 11
78.7673275082
 21
71.8448230352
 31
0.0
  0
LINE
  5
10A
330
1F
100
AcDbEntity
  8
0
  6
Continuous
 62
     7
370
    25
100
AcDbLine
 10
74.0560026428
 20
71.8448230352
 30
0.0
 11
73.9116650755
 21
71.5948230352
 31
0.0
  0
LINE
  5
10B
330
1F
100
AcDbEntity
  8
0
  6
Continuous
 62
     7
370
    25
100
AcDbLine
 10
73.9116650755
 20
55.0948230352
 30
0.0
 11
74.0560026428
 21
54.8448230352
 31
0.0
  0
LINE
  5
10C
330
1F
100
AcDbEntity
  8
0
  6
Continuous
 62
     7
370
    25
100
AcDbLine
 10
73.9116650755
 20
70.3782605352
 30
0.0
 11
63.433523382
 21
70.0508186073
 31
0.0
  0
LINE
  5
10D
330
1F
100
AcDbEntity
  8
0
  6
Continuous
 62
     7
370
    25
100
AcDbLine
 10
63.433523382
 20
56.6388274631
 30
0.0
 11
73.9116650755
 21
56.3113855352
 31
0.0
  0
LINE
  5
10E
330
1F
100
AcDbEntity
  8
0
  6
Continuous
 62
     7
370
    25
100
AcDbLine
 10
63.433523382
 20
70.0508186073
 30
0.0
 11
60.9116650755
 21
68.5948230352
 31
0.0
  0
LINE
  5
10F
330
1F
100
AcDbEntity
  8
0
  6
Continuous
 62
     7
370
    25
100
AcDbLine
 10
60.9116650755
 20
58.0948230352
 30
0.0
 11
63.433523382
 21
56.6388274631
 31
0.0
  0
SPLINE
  5
110
330
1F
100
AcDbEntity
  8
0
  6
Continuous
 62
     7
370
    25
100
AcDbSpline
210
0.0
220
0.0
230
1.0
 70
     8
 71
     3
 72
    16
 73
    12
 74
     0
 42
0.00000001
 43
0.00000001
 40
0.0
 40
0.0
 40
0.0
 40
0.0
 40
0.2500000000000002
 40
0.2500000000000002
 40
0.5000000000000003
 40
0.5000000000000003
 40
0.6250000000000002
 40
0.6250000000000002
 40
0.7500000000000002
 40
0.7500000000000002
 40
1.0
 40
1.0
 40
1.0
 40
1.0
 10
78.00813812967091
 20
54.84482303518929
 30
0.0
 10
78.23945288335355
 20
55.53876729623716
 30
0.0
 10
78.43009817668398
 20
56.23777102278137
 30
0.0
 10
78.6942038330913
 20
57.65035681318173
 30
0.0
 10
78.76679302440526
 20
58.36404725476006
 30
0.0
 10
78.76759027049621
 20
59.44802937349716
 30
0.0
 10
78.74984501387276
 20
59.81105680181603
 30
0.0
 10
78.68064793034297
 20
60.5291633646798
 30
0.0
 10
78.62926632428069
 20
60.88580910126392
 30
0.0
 10
78.43085832554408
 20
61.94939672011973
 30
0.0
 10
78.23974122384011
 20
62.65001375268117
 30
0.0
 10
78.00813812967073
 20
63.34482303518936
 30
0.0
  0
SPLINE
  5
111
330
1F
100
AcDbEntity
  8
0
  6
Continuous
 62
     7
370
    25
100
AcDbSpline
210
0.0
220
0.0
230
1.0
 70
     8
 71
     3
 72
    16
 73
    12
 74
     0
 42
0.00000001
 43
0.00000001
 40
0.0
 40
0.0
 40
0.0
 40
0.0
 40
0.2500000000000003
 40
0.2500000000000003
 40
0.5000000000000004
 40
0.5000000000000004
 40
0.6250000000000003
 40
0.6250000000000003
 40
0.7500000000000002
 40
0.7500000000000002
 40
1.0
 40
1.0
 40
1.0
 40
1.0
 10
78.00813812967091
 20
63.34482303518928
 30
0.0
 10
78.23945288335355
 20
64.03876729623715
 30
0.0
 10
78.43009817668398
 20
64.73777102278137
 30
0.0
 10
78.6942038330913
 20
66.15035681318173
 30
0.0
 10
78.76679302440526
 20
66.86404725476005
 30
0.0
 10
78.76759027049621
 20
67.94802937349716
 30
0.0
 10
78.74984501387276
 20
68.31105680181602
 30
0.0
 10
78.68064793034297
 20
69.0291633646798
 30
0.0
 10
78.62926632428069
 20
69.3858091012639
 30
0.0
 10
78.43085832554408
 20
70.44939672011974
 30
0.0
 10
78.23974122384011
 20
71.15001375268118
 30
0.0
 10
78.00813812967073
 20
71.84482303518936
 30
0.0
  0
SPLINE
  5
112
330
1F
100
AcDbEntity
  8
0
  6
Continuous
 62
     7
370
    25
100
AcDbSpline
210
0.0
220
0.0
230
1.0
 70
    24
 71
     3
 72
    14
 73
    10
 74
     0
 42
0.00000001
 43
0.00000001
 40
0.0
 40
0.0
 40
0.0
 40
0.0
 40
0.1638183221145663
 40
0.3276822632941948
 40
0.491462539743855
 40
0.6582745603501278
 40
0.8251905007315702
 40
0.9919717979601547
 40
1.0
 40
1.0
 40
1.0
 40
1.0
 10
78.00813812967051
 20
71.84482303518932
 30
0.0
 10
78.08118129257505
 20
71.84482303518932
 30
0.0
 10
78.2272879589709
 20
71.84482303518934
 30
0.0
 10
78.41063210946284
 20
71.84482303518932
 30
0.0
 10
78.56300323547565
 20
71.84482303518934
 30
0.0
 10
78.67799508451309
 20
71.84482303518934
 30
0.0
 10
78.74556120086935
 20
71.84482303518934
 30
0.0
 10
78.77440325846827
 20
71.84482303518932
 30
0.0
 10
78.7666041747596
 20
71.84482303518932
 30
0.0
 10
78.76624599845913
 20
71.84482303518932
 30
0.0
  0
SPLINE
  5
113
330
1F
100
AcDbEntity
  8
0
  6
Continuous
 62
     7
370
    25
100
AcDbSpline
210
0.0
220
0.0
230
1.0
 70
    24
 71
     3
 72
    13
 73
     9
 74
     0
 42
0.00000001
 43
0.00000001
 40
0.0
 40
0.0
 40
0.0
 40
0.0
 40
0.1580736792365672
 40
0.3243087548702502
 40
0.4904390740748464
 40
0.6602462230940723
 40
0.830148623820693
 40
1.0
 40
1.0
 40
1.0
 40
1.0
 10
78.76624599845913
 20
54.84482303518933
 30
0.0
 10
78.7625020421236
 20
54.84482303518933
 30
0.0
 10
78.7548208277473
 20
54.84482303518933
 30
0.0
 10
78.68598419384858
 20
54.84482303518933
 30
0.0
 10
78.57633741922677
 20
54.84482303518934
 30
0.0
 10
78.42325749624426
 20
54.84482303518933
 30
0.0
 10
78.23511504224125
 20
54.84482303518933
 30
0.0
 10
78.08378952512378
 20
54.84482303518934
 30
0.0
 10
78.00813812967051
 20
54.84482303518933
 30
0.0
  0
LINE
  5
114
330
1F
100
AcDbEntity
  8
0
  6
Continuous
 62
     7
370
    25
100
AcDbLine
 10
78.9116650755
 20
55.0948230352
 30
0.0
 11
78.9116650755
 21
71.5948230352
 31
0.0
  0
SPLINE
  5
115
330
1F
100
AcDbEntity
  8
0
  6
Continuous
 62
     7
370
    25
100
AcDbSpline
210
0.0
220
0.0
230
1.0
 70
    24
 71
     3
 72
    13
 73
     9
 74
     0
 42
0.00000001
 43
0.00000001
 40
0.0
 40
0.0
 40
0.0
 40
0.0
 40
0.1580736792365672
 40
0.3243087548702502
 40
0.4904390740748464
 40
0.6602462230940723
 40
0.830148623820693
 40
1.0
 40
1.0
 40
1.0
 40
1.0
 10
74.0570841525864
 20
54.84482303518933
 30
0.0
 10
74.06082810892194
 20
54.84482303518933
 30
0.0
 10
74.06850932329824
 20
54.84482303518933
 30
0.0
 10
74.13734595719696
 20
54.84482303518933
 30
0.0
 10
74.24699273181875
 20
54.84482303518934
 30
0.0
 10
74.40007265480126
 20
54.84482303518933
 30
0.0
 10
74.58821510880428
 20
54.84482303518933
 30
0.0
 10
74.73954062592175
 20
54.84482303518934
 30
0.0
 10
74.81519202137501
 20
54.84482303518933
 30
0.0
  0
SPLINE
  5
116
330
1F
100
AcDbEntity
  8
0
  6
Continuous
 62
     7
370
    25
100
AcDbSpline
210
0.0
220
0.0
230
1.0
 70
    24
 71
     3
 72
    14
 73
    10
 74
     0
 42
0.00000001
 43
0.00000001
 40
0.0
 40
0.0
 40
0.0
 40
0.0
 40
0.1638183221145663
 40
0.3276822632941948
 40
0.491462539743855
 40
0.6582745603501278
 40
0.8251905007315702
 40
0.9919717979601547
 40
1.0
 40
1.0
 40
1.0
 40
1.0
 10
74.81519202137501
 20
71.84482303518932
 30
0.0
 10
74.74214885847049
 20
71.84482303518932
 30
0.0
 10
74.59604219207462
 20
71.84482303518934
 30
0.0
 10
74.4126980415827
 20
71.84482303518932
 30
0.0
 10
74.26032691556989
 20
71.84482303518934
 30
0.0
 10
74.14533506653244
 20
71.84482303518934
 30
0.0
 10
74.0777689501762
 20
71.84482303518934
 30
0.0
 10
74.04892689257726
 20
71.84482303518932
 30
0.0
 10
74.05672597628592
 20
71.84482303518932
 30
0.0
 10
74.05708415258641
 20
71.84482303518932
 30
0.0
  0
SPLINE
  5
117
330
1F
100
AcDbEntity
  8
0
  6
Continuous
 62
     7
370
    25
100
AcDbSpline
210
0.0
220
0.0
230
1.0
 70
     8
 71
     3
 72
    16
 73
    12
 74
     0
 42
0.00000001
 43
0.00000001
 40
0.0
 40
0.0
 40
0.0
 40
0.0
 40
0.2500000000000003
 40
0.2500000000000003
 40
0.5000000000000004
 40
0.5000000000000004
 40
0.6250000000000003
 40
0.6250000000000003
 40
0.7500000000000002
 40
0.7500000000000002
 40
1.0
 40
1.0
 40
1.0
 40
1.0
 10
74.81519202137461
 20
63.34482303518928
 30
0.0
 10
74.58387726769197
 20
64.03876729623715
 30
0.0
 10
74.39323197436154
 20
64.73777102278137
 30
0.0
 10
74.12912631795423
 20
66.15035681318173
 30
0.0
 10
74.05653712664028
 20
66.86404725476005
 30
0.0
 10
74.05573988054932
 20
67.94802937349716
 30
0.0
 10
74.07348513717277
 20
68.31105680181602
 30
0.0
 10
74.14268222070255
 20
69.0291633646798
 30
0.0
 10
74.19406382676485
 20
69.3858091012639
 30
0.0
 10
74.39247182550146
 20
70.44939672011974
 30
0.0
 10
74.58358892720541
 20
71.15001375268118
 30
0.0
 10
74.81519202137481
 20
71.84482303518936
 30
0.0
  0
SPLINE
  5
118
330
1F
100
AcDbEntity
  8
0
  6
Continuous
 62
     7
370
    25
100
AcDbSpline
210
0.0
220
0.0
230
1.0
 70
     8
 71
     3
 72
    16
 73
    12
 74
     0
 42
0.00000001
 43
0.00000001
 40
0.0
 40
0.0
 40
0.0
 40
0.0
 40
0.2500000000000002
 40
0.2500000000000002
 40
0.5000000000000003
 40
0.5000000000000003
 40
0.6250000000000002
 40
0.6250000000000002
 40
0.7500000000000002
 40
0.7500000000000002
 40
1.0
 40
1.0
 40
1.0
 40
1.0
 10
74.8151920213746
 20
54.84482303518929
 30
0.0
 10
74.58387726769197
 20
55.53876729623716
 30
0.0
 10
74.39323197436154
 20
56.23777102278137
 30
0.0
 10
74.12912631795423
 20
57.65035681318173
 30
0.0
 10
74.05653712664028
 20
58.36404725476006
 30
0.0
 10
74.05573988054932
 20
59.44802937349716
 30
0.0
 10
74.07348513717277
 20
59.81105680181603
 30
0.0
 10
74.14268222070255
 20
60.5291633646798
 30
0.0
 10
74.19406382676485
 20
60.88580910126392
 30
0.0
 10
74.39247182550146
 20
61.94939672011973
 30
0.0
 10
74.58358892720541
 20
62.65001375268117
 30
0.0
 10
74.81519202137481
 20
63.34482303518936
 30
0.0
  0
LINE
  5
119
330
1F
100
AcDbEntity
  8
0
  6
Continuous
 62
     7
370
    25
100
AcDbLine
 10
73.9116650755
 20
55.0948230352
 30
0.0
 11
73.9116650755
 21
71.5948230352
 31
0.0
  0
LINE
  5
11A
330
1F
100
AcDbEntity
  8
0
  6
Continuous
 62
     7
370
    25
100
AcDbLine
 10
74.8151920214
 20
71.8448230352
 30
0.0
 11
78.0081381297
 21
71.8448230352
 31
0.0
  0
LINE
  5
11B
330
1F
100
AcDbEntity
  8
0
  6
Continuous
 62
     7
370
    25
100
AcDbLine
 10
74.8151920214
 20
63.3448230352
 30
0.0
 11
78.0081381297
 21
63.3448230352
 31
0.0
  0
LINE
  5
11C
330
1F
100
AcDbEntity
  8
0
  6
Continuous
 62
     7
370
    25
100
AcDbLine
 10
74.8151920214
 20
54.8448230352
 30
0.0
 11
78.0081381297
 21
54.8448230352
 31
0.0
  0
LINE
  5
11D
330
1F
100
AcDbEntity
  8
0
  6
Continuous
 62
     7
370
    25
100
AcDbLine
 10
63.433523382
 20
63.3448230352
 30
0.0
 11
63.433523382
 21
70.0508186073
 31
0.0
  0
LINE
  5
11E
330
1F
100
AcDbEntity
  8
0
  6
Continuous
 62
     7
370
    25
100
AcDbLine
 10
63.433523382
 20
56.6388274631
 30
0.0
 11
63.433523382
 21
63.3448230352
 31
0.0
  0
LINE
  5
11F
330
1F
100
AcDbEntity
  8
0
  6
Continuous
 62
     7
370
    25
100
AcDbLine
 10
60.9116650755
 20
58.0948230352
 30
0.0
 11
60.9116650755
 21
68.5948230352
 31
0.0
  0
LINE
  5
120
330
1F
100
AcDbEntity
  8
0
  6
Continuous
 62
     7
370
    18
100
AcDbLine
 10
61.55292447
 20
68.9650543192
 30
0.0
 11
72.5116650755
 21
69.3075149631
 31
0.0
  0
LINE
  5
121
330
1F
100
AcDbEntity
  8
0
  6
Continuous
 62
     7
370
    18
100
AcDbLine
 10
61.55292447
 20
57.7245917512
 30
0.0
 11
72.5116650755
 21
57.3821311073
 31
0.0
  0
LINE
  5
122
330
1F
100
AcDbEntity
  8
0
  6
Continuous
 62
     7
370
    25
100
AcDbLine
 10
72.5116650755
 20
56.3551355352
 30
0.0
 11
72.5116650755
 21
70.3345105352
 31
0.0
  0
LINE
  5
123
330
1F
100
AcDbEntity
  8
FORMAT
  6
CENTERX2
370
    18
100
AcDbLine
 10
79.5562605404
 20
63.3448230352
 30
0.0
 11
59.9116650755
 21
63.3448230352
 31
0.0
  0
ENDSEC
  0
SECTION
  2
OBJECTS
  0
DICTIONARY
  5
C
330
0
100
AcDbDictionary
281
     1
  3
ACAD_GROUP
350
D
  3
ACAD_LAYOUT
350
1A
  3
ACAD_MLINESTYLE
350
17
  3
ACAD_PLOTSETTINGS
350
19
  3
ACAD_PLOTSTYLENAME
350
E
  3
ACAD_SCALELIST
350
47
  3
DWGPROPS
350
124
  0
DICTIONARY
  5
D
102
{ACAD_REACTORS
330
C
102
}
330
C
100
AcDbDictionary
281
     1
  0
DICTIONARY
  5
1A
102
{ACAD_REACTORS
330
C
102
}
330
C
100
AcDbDictionary
281
     1
  3
Layout1
350
1E
  3
Layout2
350
26
  3
Model
350
22
  0
DICTIONARY
  5
17
102
{ACAD_REACTORS
330
C
102
}
330
C
100
AcDbDictionary
281
     1
  3
Standard
350
18
  0
DICTIONARY
  5
19
102
{ACAD_REACTORS
330
C
102
}
330
C
100
AcDbDictionary
281
     1
  0
ACDBDICTIONARYWDFLT
  5
E
102
{ACAD_REACTORS
330
C
102
}
330
C
100
AcDbDictionary
281
     1
  3
Normal
350
F
100
AcDbDictionaryWithDefault
340
F
  0
DICTIONARY
  5
47
102
{ACAD_REACTORS
330
C
102
}
330
C
100
AcDbDictionary
281
     1
  3
A0
350
48
  3
A1
350
49
  3
A2
350
4A
  3
A3
350
4B
  3
A4
350
4C
  3
A5
350
4D
  3
A6
350
4E
  3
A7
350
4F
  3
A8
350
50
  3
A9
350
51
  3
B0
350
52
  3
B1
350
53
  3
B2
350
54
  3
B3
350
55
  3
B4
350
56
  3
B5
350
57
  3
B6
350
58
  0
XRECORD
  5
124
102
{ACAD_REACTORS
330
C
102
}
330
C
100
AcDbXrecord
280
     1
  1
DWGPROPS COOKIE
  2

  3

  4

  6

  7

  8
user28
  9

300
=
301
=
302
=
303
=
304
=
305
=
306
=
307
=
308
=
309
=
 40
0.0
 41
2460406.309713241
 42
2460406.309713704
  1

 90
        0
  0
LAYOUT
  5
1E
102
{ACAD_REACTORS
330
1A
102
}
330
1A
100
AcDbPlotSettings
  1

  2
none_device
  4

  6

 40
0.0
 41
0.0
 42
0.0
 43
0.0
 44
0.0
 45
0.0
 46
0.0
 47
0.0
 48
0.0
 49
0.0
140
0.0
141
0.0
142
1.0
143
1.0
 70
   688
 72
     1
 73
     0
 74
     5
  7

 75
    16
147
1.0
148
0.0
149
0.0
100
AcDbLayout
  1
Layout1
 70
     1
 71
     1
 10
0.0
 20
0.0
 11
420.0
 21
297.0
 12
0.0
 22
0.0
 32
0.0
 14
1.0000000000E+20
 24
1.0000000000E+20
 34
1.0000000000E+20
 15
-1.0000000000E+20
 25
-1.0000000000E+20
 35
-1.0000000000E+20
146
0.0
 13
0.0
 23
0.0
 33
0.0
 16
1.0
 26
0.0
 36
0.0
 17
0.0
 27
1.0
 37
0.0
 76
     0
330
1B
  0
LAYOUT
  5
26
102
{ACAD_REACTORS
330
1A
102
}
330
1A
100
AcDbPlotSettings
  1

  2
none_device
  4

  6

 40
0.0
 41
0.0
 42
0.0
 43
0.0
 44
0.0
 45
0.0
 46
0.0
 47
0.0
 48
0.0
 49
0.0
140
0.0
141
0.0
142
1.0
143
1.0
 70
   688
 72
     1
 73
     0
 74
     5
  7

 75
    16
147
1.0
148
0.0
149
0.0
100
AcDbLayout
  1
Layout2
 70
     1
 71
     2
 10
0.0
 20
0.0
 11
0.0
 21
0.0
 12
0.0
 22
0.0
 32
0.0
 14
0.0
 24
0.0
 34
0.0
 15
0.0
 25
0.0
 35
0.0
146
0.0
 13
0.0
 23
0.0
 33
0.0
 16
1.0
 26
0.0
 36
0.0
 17
0.0
 27
1.0
 37
0.0
 76
     0
330
23
  0
LAYOUT
  5
22
102
{ACAD_REACTORS
330
1A
102
}
330
1A
100
AcDbPlotSettings
  1

  2
none_device
  4
Letter_(8.50_x_11.00_Inches)
  6

 40
6.35
 41
6.35
 42
6.35000508
 43
6.35000508
 44
215.9
 45
279.4
 46
0.0
 47
0.0
 48
0.0
 49
0.0
140
0.0
141
0.0
142
1.0
143
1.0
 70
  1712
 72
     1
 73
     0
 74
     0
  7

 75
     0
147
1.0
148
0.0
149
0.0
100
AcDbLayout
  1
Model
 70
     1
 71
     0
 10
0.0
 20
0.0
 11
148.5
 21
105.0
 12
0.0
 22
0.0
 32
0.0
 14
0.0
 24
0.0
 34
0.0
 15
148.5
 25
105.0
 35
0.0
146
0.0
 13
0.0
 23
0.0
 33
0.0
 16
1.0
 26
0.0
 36
0.0
 17
0.0
 27
1.0
 37
0.0
 76
     0
330
1F
331
29
  0
MLINESTYLE
  5
18
102
{ACAD_REACTORS
330
17
102
}
330
17
100
AcDbMlineStyle
  2
Standard
 70
     0
  3

 62
   256
 51
90.0
 52
90.0
 71
     2
 49
0.5
 62
   256
  6
BYLAYER
 49
-0.5
 62
   256
  6
BYLAYER
  0
ACDBPLACEHOLDER
  5
F
102
{ACAD_REACTORS
330
E
102
}
330
E
  0
SCALE
  5
48
102
{ACAD_REACTORS
330
47
102
}
330
47
100
AcDbScale
 70
     0
300
1:1
140
1.0
141
1.0
290
     1
  0
SCALE
  5
49
102
{ACAD_REACTORS
330
47
102
}
330
47
100
AcDbScale
 70
     0
300
1:2
140
1.0
141
2.0
290
     0
  0
SCALE
  5
4A
102
{ACAD_REACTORS
330
47
102
}
330
47
100
AcDbScale
 70
     0
300
1:4
140
1.0
141
4.0
290
     0
  0
SCALE
  5
4B
102
{ACAD_REACTORS
330
47
102
}
330
47
100
AcDbScale
 70
     0
300
1:5
140
1.0
141
5.0
290
     0
  0
SCALE
  5
4C
102
{ACAD_REACTORS
330
47
102
}
330
47
100
AcDbScale
 70
     0
300
1:8
140
1.0
141
8.0
290
     0
  0
SCALE
  5
4D
102
{ACAD_REACTORS
330
47
102
}
330
47
100
AcDbScale
 70
     0
300
1:10
140
1.0
141
10.0
290
     0
  0
SCALE
  5
4E
102
{ACAD_REACTORS
330
47
102
}
330
47
100
AcDbScale
 70
     0
300
1:16
140
1.0
141
16.0
290
     0
  0
SCALE
  5
4F
102
{ACAD_REACTORS
330
47
102
}
330
47
100
AcDbScale
 70
     0
300
1:20
140
1.0
141
20.0
290
     0
  0
SCALE
  5
50
102
{ACAD_REACTORS
330
47
102
}
330
47
100
AcDbScale
 70
     0
300
1:30
140
1.0
141
30.0
290
     0
  0
SCALE
  5
51
102
{ACAD_REACTORS
330
47
102
}
330
47
100
AcDbScale
 70
     0
300
1:40
140
1.0
141
40.0
290
     0
  0
SCALE
  5
52
102
{ACAD_REACTORS
330
47
102
}
330
47
100
AcDbScale
 70
     0
300
1:50
140
1.0
141
50.0
290
     0
  0
SCALE
  5
53
102
{ACAD_REACTORS
330
47
102
}
330
47
100
AcDbScale
 70
     0
300
1:100
140
1.0
141
100.0
290
     0
  0
SCALE
  5
54
102
{ACAD_REACTORS
330
47
102
}
330
47
100
AcDbScale
 70
     0
300
2:1
140
2.0
141
1.0
290
     0
  0
SCALE
  5
55
102
{ACAD_REACTORS
330
47
102
}
330
47
100
AcDbScale
 70
     0
300
4:1
140
4.0
141
1.0
290
     0
  0
SCALE
  5
56
102
{ACAD_REACTORS
330
47
102
}
330
47
100
AcDbScale
 70
     0
300
8:1
140
8.0
141
1.0
290
     0
  0
SCALE
  5
57
102
{ACAD_REACTORS
330
47
102
}
330
47
100
AcDbScale
 70
     0
300
10:1
140
10.0
141
1.0
290
     0
  0
SCALE
  5
58
102
{ACAD_REACTORS
330
47
102
}
330
47
100
AcDbScale
 70
     0
300
100:1
140
100.0
141
1.0
290
     0
  0
ENDSEC
  0
EOF
