  0
SECTION
  2
HEADER
  9
$ACADVER
  1
AC1015
  9
$ACADMAINTVER
 70
     6
  9
$DWGCODEPAGE
  3
DOS932
  9
$INSBASE
 10
0.0
 20
0.0
 30
0.0
  9
$EXTMIN
 10
0.0
 20
0.0
 30
0.0
  9
$EXTMAX
 10
297.0
 20
210.0
 30
0.0
  9
$LIMMIN
 10
0.0
 20
0.0
  9
$LIMMAX
 10
297.0
 20
210.0
  9
$ORTHOMODE
 70
     0
  9
$REGENMODE
 70
     1
  9
$FILLMODE
 70
     1
  9
$QTEXTMODE
 70
     0
  9
$MIRRTEXT
 70
     1
  9
$LTSCALE
 40
1.0
  9
$ATTMODE
 70
     1
  9
$TEXTSIZE
 40
3.5277777778
  9
$TRACEWID
 40
1.0
  9
$TEXTSTYLE
  7
Standard
  9
$CLAYER
  8
0
  9
$CELTYPE
  6
ByLayer
  9
$CECOLOR
 62
   256
  9
$CELTSCALE
 40
1.0
  9
$DISPSILH
 70
     0
  9
$DIMSCALE
 40
1.0
  9
$DIMASZ
 40
2.728515625
  9
$DIMEXO
 40
1.0
  9
$DIMDLI
 40
3.75
  9
$DIMRND
 40
0.0
  9
$DIMDLE
 40
0.0
  9
$DIMEXE
 40
1.0
  9
$DIMTP
 40
0.0
  9
$DIMTM
 40
0.0
  9
$DIMTXT
 40
3.5277777778
  9
$DIMCEN
 40
2.5
  9
$DIMTSZ
 40
0.0
  9
$DIMTOL
 70
     0
  9
$DIMLIM
 70
     0
  9
$DIMTIH
 70
     1
  9
$DIMTOH
 70
     1
  9
$DIMSE1
 70
     0
  9
$DIMSE2
 70
     0
  9
$DIMTAD
 70
     1
  9
$DIMZIN
 70
     0
  9
$DIMBLK
  1

  9
$DIMASO
 70
     1
  9
$DIMSHO
 70
     1
  9
$DIMPOST
  1

  9
$DIMAPOST
  1

  9
$DIMALT
 70
     0
  9
$DIMALTD
 70
     3
  9
$DIMALTF
 40
0.0393700787
  9
$DIMLFAC
 40
1.0
  9
$DIMTOFL
 70
     1
  9
$DIMTVP
 40
0.0
  9
$DIMTIX
 70
     0
  9
$DIMSOXD
 70
     0
  9
$DIMSAH
 70
     0
  9
$DIMBLK1
  1

  9
$DIMBLK2
  1

  9
$DIMSTYLE
  2
ISO-25
  9
$DIMCLRD
 70
     0
  9
$DIMCLRE
 70
     0
  9
$DIMCLRT
 70
     0
  9
$DIMTFAC
 40
1.0
  9
$DIMGAP
 40
1.524
  9
$DIMJUST
 70
     0
  9
$DIMSD1
 70
     0
  9
$DIMSD2
 70
     0
  9
$DIMTOLJ
 70
     0
  9
$DIMTZIN
 70
     0
  9
$DIMALTZ
 70
     0
  9
$DIMALTTZ
 70
     0
  9
$DIMUPT
 70
     0
  9
$DIMDEC
 70
     2
  9
$DIMTDEC
 70
     2
  9
$DIMALTU
 70
     2
  9
$DIMALTTD
 70
     3
  9
$DIMTXSTY
  7
Standard
  9
$DIMAUNIT
 70
     0
  9
$DIMADEC
 70
     2
  9
$DIMALTRND
 40
0.0
  9
$DIMAZIN
 70
     0
  9
$DIMDSEP
 70
    44
  9
$DIMATFIT
 70
     3
  9
$DIMFRAC
 70
     0
  9
$DIMLDRBLK
  1

  9
$DIMLUNIT
 70
     2
  9
$DIMLWD
 70
    -2
  9
$DIMLWE
 70
    -2
  9
$DIMTMOVE
 70
     0
  9
$LUNITS
 70
     2
  9
$LUPREC
 70
     2
  9
$SKETCHINC
 40
1.0
  9
$FILLETRAD
 40
0.0
  9
$AUNITS
 70
     0
  9
$AUPREC
 70
     2
  9
$MENU
  1
.
  9
$ELEVATION
 40
0.0
  9
$PELEVATION
 40
0.0
  9
$THICKNESS
 40
0.0
  9
$LIMCHECK
 70
     0
  9
$CHAMFERA
 40
0.0
  9
$CHAMFERB
 40
0.0
  9
$CHAMFERC
 40
0.0
  9
$CHAMFERD
 40
0.0
  9
$SKPOLY
 70
     0
  9
$TDCREATE
 40
2460406.682795695
  9
$TDUCREATE
 40
2460406.307795695
  9
$TDUPDATE
 40
2460406.682796215
  9
$TDUUPDATE
 40
2460406.307796215
  9
$TDINDWG
 40
0.0000000116
  9
$TDUSRTIMER
 40
0.0000000116
  9
$USRTIMER
 70
     1
  9
$ANGBASE
 50
0.0
  9
$ANGDIR
 70
     0
  9
$PDMODE
 70
     0
  9
$PDSIZE
 40
-1.0
  9
$PLINEWID
 40
0.0
  9
$SPLFRAME
 70
     0
  9
$SPLINETYPE
 70
     6
  9
$SPLINESEGS
 70
     8
  9
$HANDSEED
  5
144
  9
$SURFTAB1
 70
     6
  9
$SURFTAB2
 70
     6
  9
$SURFTYPE
 70
     6
  9
$SURFU
 70
     6
  9
$SURFV
 70
     6
  9
$UCSBASE
  2

  9
$UCSNAME
  2

  9
$UCSORG
 10
0.0
 20
0.0
 30
0.0
  9
$UCSXDIR
 10
1.0
 20
0.0
 30
0.0
  9
$UCSYDIR
 10
0.0
 20
1.0
 30
0.0
  9
$UCSORTHOREF
  2

  9
$UCSORTHOVIEW
 70
     0
  9
$UCSORGTOP
 10
0.0
 20
0.0
 30
0.0
  9
$UCSORGBOTTOM
 10
0.0
 20
0.0
 30
0.0
  9
$UCSORGLEFT
 10
0.0
 20
0.0
 30
0.0
  9
$UCSORGRIGHT
 10
0.0
 20
0.0
 30
0.0
  9
$UCSORGFRONT
 10
0.0
 20
0.0
 30
0.0
  9
$UCSORGBACK
 10
0.0
 20
0.0
 30
0.0
  9
$PUCSBASE
  2

  9
$PUCSNAME
  2

  9
$PUCSORG
 10
0.0
 20
0.0
 30
0.0
  9
$PUCSXDIR
 10
1.0
 20
0.0
 30
0.0
  9
$PUCSYDIR
 10
0.0
 20
1.0
 30
0.0
  9
$PUCSORTHOREF
  2

  9
$PUCSORTHOVIEW
 70
     0
  9
$PUCSORGTOP
 10
0.0
 20
0.0
 30
0.0
  9
$PUCSORGBOTTOM
 10
0.0
 20
0.0
 30
0.0
  9
$PUCSORGLEFT
 10
0.0
 20
0.0
 30
0.0
  9
$PUCSORGRIGHT
 10
0.0
 20
0.0
 30
0.0
  9
$PUCSORGFRONT
 10
0.0
 20
0.0
 30
0.0
  9
$PUCSORGBACK
 10
0.0
 20
0.0
 30
0.0
  9
$USERI1
 70
     0
  9
$USERI2
 70
     0
  9
$USERI3
 70
     0
  9
$USERI4
 70
     0
  9
$USERI5
 70
     0
  9
$USERR1
 40
0.0
  9
$USERR2
 40
0.0
  9
$USERR3
 40
0.0
  9
$USERR4
 40
0.0
  9
$USERR5
 40
0.0
  9
$WORLDVIEW
 70
     1
  9
$SHADEDGE
 70
     3
  9
$SHADEDIF
 70
    70
  9
$TILEMODE
 70
     1
  9
$MAXACTVP
 70
    64
  9
$PINSBASE
 10
0.0
 20
0.0
 30
0.0
  9
$PLIMCHECK
 70
     0
  9
$PEXTMIN
 10
1.0000000000E+20
 20
1.0000000000E+20
 30
1.0000000000E+20
  9
$PEXTMAX
 10
-1.0000000000E+20
 20
-1.0000000000E+20
 30
-1.0000000000E+20
  9
$PLIMMIN
 10
0.0
 20
0.0
  9
$PLIMMAX
 10
420.0
 20
297.0
  9
$UNITMODE
 70
     0
  9
$VISRETAIN
 70
     1
  9
$PLINEGEN
 70
     0
  9
$PSLTSCALE
 70
     1
  9
$TREEDEPTH
 70
  3020
  9
$CMLSTYLE
  2
Standard
  9
$CMLJUST
 70
     0
  9
$CMLSCALE
 40
20.0
  9
$PROXYGRAPHICS
 70
     1
  9
$MEASUREMENT
 70
     1
  9
$CELWEIGHT
370
    -1
  9
$ENDCAPS
280
     0
  9
$JOINSTYLE
280
     0
  9
$LWDISPLAY
290
     1
  9
$INSUNITS
 70
     4
  9
$HYPERLINKBASE
  1

  9
$STYLESHEET
  1

  9
$XEDIT
290
     1
  9
$CEPSNTYPE
380
     0
  9
$PSTYLEMODE
290
     1
  9
$FINGERPRINTGUID
  2
{69de8d03-4bbd-4f92-a8e6-58b4f3df0609}
  9
$VERSIONGUID
  2
{FAEB1C32-E019-11D5-929B-00C0DF256EC4}
  9
$EXTNAMES
290
     1
  9
$PSVPSCALE
 40
0.0
  9
$OLESTARTUP
290
     0
  0
ENDSEC
  0
SECTION
  2
CLASSES
  0
CLASS
  1
ACDBDICTIONARYWDFLT
  2
AcDbDictionaryWithDefault
  3
ObjectDBX Classes
 90
        0
280
     0
281
     0
  0
CLASS
  1
VISUALSTYLE
  2
AcDbVisualStyle
  3
ObjectDBX Classes
 90
     4095
280
     0
281
     0
  0
CLASS
  1
MATERIAL
  2
AcDbMaterial
  3
ObjectDBX Classes
 90
     1153
280
     0
281
     0
  0
CLASS
  1
SCALE
  2
AcDbScale
  3
ObjectDBX Classes
 90
     1153
280
     0
281
     0
  0
CLASS
  1
TABLESTYLE
  2
AcDbTableStyle
  3
ObjectDBX Classes
 90
     4095
280
     0
281
     0
  0
CLASS
  1
MLEADERSTYLE
  2
AcDbMLeaderStyle
  3
ACDB_MLEADERSTYLE_CLASS
 90
     4095
280
     0
281
     0
  0
CLASS
  1
SUN
  2
AcDbSun
  3
SCENEOE
 90
     1153
280
     0
281
     0
  0
CLASS
  1
ACDBPLACEHOLDER
  2
AcDbPlaceHolder
  3
ObjectDBX Classes
 90
        0
280
     0
281
     0
  0
CLASS
  1
LAYOUT
  2
AcDbLayout
  3
ObjectDBX Classes
 90
        0
280
     0
281
     0
  0
ENDSEC
  0
SECTION
  2
TABLES
  0
TABLE
  2
VPORT
  5
8
330
0
100
AcDbSymbolTable
 70
     1
  0
VPORT
  5
29
330
8
100
AcDbSymbolTableRecord
100
AcDbViewportTableRecord
  2
*Active
 70
     0
 10
0.0
 20
0.0
 11
1.0
 21
1.0
 12
148.5
 22
105.0
 13
0.0
 23
0.0
 14
10.0
 24
10.0
 15
10.0
 25
10.0
 16
0.0
 26
0.0
 36
1.0
 17
0.0
 27
0.0
 37
0.0
 40
210.0
 41
1.4142857143
 42
50.0
 43
0.0
 44
0.0
 50
0.0
 51
0.0
 71
     0
 72
  2000
 73
     1
 74
     3
 75
     0
 76
     0
 77
     0
 78
     0
281
     0
 65
     1
110
0.0
120
0.0
130
0.0
111
1.0
121
0.0
131
0.0
112
0.0
122
1.0
132
0.0
 79
     0
146
0.0
  0
ENDTAB
  0
TABLE
  2
LTYPE
  5
5
330
0
100
AcDbSymbolTable
 70
     6
  0
LTYPE
  5
14
330
5
100
AcDbSymbolTableRecord
100
AcDbLinetypeTableRecord
  2
ByBlock
 70
     0
  3

 72
    65
 73
     0
 40
0.0
  0
LTYPE
  5
15
330
5
100
AcDbSymbolTableRecord
100
AcDbLinetypeTableRecord
  2
ByLayer
 70
     0
  3

 72
    65
 73
     0
 40
0.0
  0
LTYPE
  5
16
330
5
100
AcDbSymbolTableRecord
100
AcDbLinetypeTableRecord
  2
Continuous
 70
     0
  3
Solid line
 72
    65
 73
     0
 40
0.0
  0
LTYPE
  5
5E
330
5
100
AcDbSymbolTableRecord
100
AcDbLinetypeTableRecord
  2
HIDDEN
 70
     0
  3
Hidden __ __ __ __ __ __ __ __ __ __ __ __ __ __
 72
    65
 73
     2
 40
1.905
 49
1.27
 74
     0
 49
-0.635
 74
     0
  0
LTYPE
  5
5F
330
5
100
AcDbSymbolTableRecord
100
AcDbLinetypeTableRecord
  2
PHANTOM
 70
     0
  3
Phantom ______  __  __  ______  __  __  ______
 72
    65
 73
     6
 40
12.7
 49
6.35
 74
     0
 49
-1.27
 74
     0
 49
1.27
 74
     0
 49
-1.27
 74
     0
 49
1.27
 74
     0
 49
-1.27
 74
     0
  0
LTYPE
  5
60
330
5
100
AcDbSymbolTableRecord
100
AcDbLinetypeTableRecord
  2
CENTER
 70
     0
  3
Center ____ _ ____ _ ____ _ ____ _ ____ _ ____
 72
    65
 73
     4
 40
10.16
 49
6.35
 74
     0
 49
-1.27
 74
     0
 49
1.27
 74
     0
 49
-1.27
 74
     0
  0
LTYPE
  5
61
330
5
100
AcDbSymbolTableRecord
100
AcDbLinetypeTableRecord
  2
CENTERX2
 70
     0
  3
Center (2x) ________  __  ________  __  _____
 72
    65
 73
     4
 40
20.32
 49
12.7
 74
     0
 49
-2.54
 74
     0
 49
2.54
 74
     0
 49
-2.54
 74
     0
  0
LTYPE
  5
62
330
5
100
AcDbSymbolTableRecord
100
AcDbLinetypeTableRecord
  2
DOT2
 70
     0
  3
Dot (.5x) ........................................
 72
    65
 73
     2
 40
0.635
 49
0.0
 74
     0
 49
-0.635
 74
     0
  0
ENDTAB
  0
TABLE
  2
LAYER
  5
2
330
0
100
AcDbSymbolTable
 70
     2
  0
LAYER
  5
10
330
2
100
AcDbSymbolTableRecord
100
AcDbLayerTableRecord
  2
0
 70
     0
 62
     7
  6
Continuous
370
    -3
390
F
  0
LAYER
  5
63
330
2
100
AcDbSymbolTableRecord
100
AcDbLayerTableRecord
  2
FORMAT
 70
     0
 62
     7
  6
Continuous
370
    -3
390
F
  0
ENDTAB
  0
TABLE
  2
STYLE
  5
3
330
0
100
AcDbSymbolTable
 70
     2
  0
STYLE
  5
11
330
3
100
AcDbSymbolTableRecord
100
AcDbTextStyleTableRecord
  2
Standard
 70
     0
 40
0.0
 41
1.0
 50
0.0
 71
     0
 42
3.5277777778
  3
txt
  4
bigfont
  0
STYLE
  5
64
330
3
100
AcDbSymbolTableRecord
100
AcDbTextStyleTableRecord
  2
SLDTEXTSTYLE0
 70
     0
 40
0.0
 41
0.7
 50
0.0
 71
     0
 42
3.5277777778
  3
TXT
  4
bigfont
  0
ENDTAB
  0
TABLE
  2
VIEW
  5
6
330
0
100
AcDbSymbolTable
 70
     0
  0
ENDTAB
  0
TABLE
  2
UCS
  5
7
330
0
100
AcDbSymbolTable
 70
     0
  0
ENDTAB
  0
TABLE
  2
APPID
  5
9
330
0
100
AcDbSymbolTable
 70
     1
  0
APPID
  5
12
330
9
100
AcDbSymbolTableRecord
100
AcDbRegAppTableRecord
  2
ACAD
 70
     0
  0
ENDTAB
  0
TABLE
  2
DIMSTYLE
  5
A
330
0
100
AcDbSymbolTable
 70
     1
100
AcDbDimStyleTable
  0
DIMSTYLE
105
27
330
A
100
AcDbSymbolTableRecord
100
AcDbDimStyleTableRecord
  2
ISO-25
 70
     0
 41
2.5
 42
0.625
 43
3.75
 44
1.25
 73
     0
 74
     0
 77
     1
 78
     8
140
2.5
141
2.5
143
0.0393700787
147
0.625
171
     3
172
     1
178
     0
271
     2
272
     2
274
     3
278
    44
283
     0
284
     8
340
11
  0
ENDTAB
  0
TABLE
  2
BLOCK_RECORD
  5
1
330
0
100
AcDbSymbolTable
 70
     2
  0
BLOCK_RECORD
  5
1F
330
1
100
AcDbSymbolTableRecord
100
AcDbBlockTableRecord
  2
*Model_Space
340
22
  0
BLOCK_RECORD
  5
1B
330
1
100
AcDbSymbolTableRecord
100
AcDbBlockTableRecord
  2
*Paper_Space
340
1E
  0
BLOCK_RECORD
  5
23
330
1
100
AcDbSymbolTableRecord
100
AcDbBlockTableRecord
  2
*Paper_Space0
340
26
  0
BLOCK_RECORD
  5
11A
330
1
100
AcDbSymbolTableRecord
100
AcDbBlockTableRecord
  2
SW_CENTERMARKSYMBOL_0
340
0
102
{BLKREFS
331
125
102
}
  0
ENDTAB
  0
ENDSEC
  0
SECTION
  2
BLOCKS
  0
BLOCK
  5
20
330
1F
100
AcDbEntity
  8
0
100
AcDbBlockBegin
  2
*Model_Space
 70
     0
 10
0.0
 20
0.0
 30
0.0
  3
*Model_Space
  1

  0
ENDBLK
  5
21
330
1F
100
AcDbEntity
  8
0
100
AcDbBlockEnd
  0
BLOCK
  5
1C
330
1B
100
AcDbEntity
 67
     1
  8
0
100
AcDbBlockBegin
  2
*Paper_Space
 70
     0
 10
0.0
 20
0.0
 30
0.0
  3
*Paper_Space
  1

  0
ENDBLK
  5
1D
330
1B
100
AcDbEntity
 67
     1
  8
0
100
AcDbBlockEnd
  0
BLOCK
  5
24
330
23
100
AcDbEntity
  8
0
100
AcDbBlockBegin
  2
*Paper_Space0
 70
     0
 10
0.0
 20
0.0
 30
0.0
  3
*Paper_Space0
  1

  0
ENDBLK
  5
25
330
23
100
AcDbEntity
  8
0
100
AcDbBlockEnd
  0
BLOCK
  5
11B
330
11A
100
AcDbEntity
  8
0
100
AcDbBlockBegin
  2
SW_CENTERMARKSYMBOL_0
 70
     0
 10
0.0
 20
0.0
 30
0.0
  3
SW_CENTERMARKSYMBOL_0
  1

  0
LINE
  5
11D
330
11A
100
AcDbEntity
  8
FORMAT
 62
     0
100
AcDbLine
 10
0.0
 20
0.0
 30
0.0
 11
0.0
 21
2.5
 31
0.0
  0
LINE
  5
11E
330
11A
100
AcDbEntity
  8
FORMAT
 62
     0
100
AcDbLine
 10
0.0
 20
0.0
 30
0.0
 11
-2.5
 21
0.0
 31
0.0
  0
LINE
  5
11F
330
11A
100
AcDbEntity
  8
FORMAT
 62
     0
100
AcDbLine
 10
0.0
 20
0.0
 30
0.0
 11
0.0
 21
-2.5
 31
0.0
  0
LINE
  5
120
330
11A
100
AcDbEntity
  8
FORMAT
 62
     0
100
AcDbLine
 10
0.0
 20
0.0
 30
0.0
 11
2.5
 21
0.0
 31
0.0
  0
LINE
  5
121
330
11A
100
AcDbEntity
  8
FORMAT
 62
     0
100
AcDbLine
 10
0.0
 20
5.0
 30
0.0
 11
0.0
 21
18.9508011793
 31
0.0
  0
LINE
  5
122
330
11A
100
AcDbEntity
  8
FORMAT
 62
     0
100
AcDbLine
 10
-5.0
 20
0.0
 30
0.0
 11
-15.9851875
 21
0.0
 31
0.0
  0
LINE
  5
123
330
11A
100
AcDbEntity
  8
FORMAT
 62
     0
100
AcDbLine
 10
0.0
 20
-5.0
 30
0.0
 11
0.0
 21
-19.2022956526
 31
0.0
  0
LINE
  5
124
330
11A
100
AcDbEntity
  8
FORMAT
 62
     0
100
AcDbLine
 10
5.0
 20
0.0
 30
0.0
 11
15.9851875
 21
0.0
 31
0.0
  0
ENDBLK
  5
11C
330
11A
100
AcDbEntity
  8
0
100
AcDbBlockEnd
  0
ENDSEC
  0
SECTION
  2
ENTITIES
  0
MTEXT
  5
65
330
1F
100
AcDbEntity
  8
FORMAT
100
AcDbMText
 10
157.3196314785
 20
110.9077420679
 30
0.0
 40
4.2333333333
 41
0.0
 71
     1
 72
     1
  1
5R-NB1364
  7
SLDTEXTSTYLE0
 73
     1
 44
1.0
  0
LINE
  5
66
330
1F
100
AcDbEntity
  8
0
  6
Continuous
 62
     7
370
    25
100
AcDbLine
 10
140.1969122799
 20
100.4778513978
 30
0.0
 11
138.7128287504
 21
97.9073433221
 31
0.0
  0
LINE
  5
67
330
1F
100
AcDbEntity
  8
0
  6
Continuous
 62
     7
370
    25
100
AcDbLine
 10
138.7128287504
 20
68.4073433221
 30
0.0
 11
140.1969122799
 21
65.8368352464
 31
0.0
  0
LINE
  5
68
330
1F
100
AcDbEntity
  8
0
  6
Continuous
 62
     7
370
    25
100
AcDbLine
 10
144.228745221
 20
65.8368352464
 30
0.0
 11
145.7128287504
 21
68.4073433221
 31
0.0
  0
LINE
  5
69
330
1F
100
AcDbEntity
  8
0
  6
Continuous
 62
     7
370
    25
100
AcDbLine
 10
145.7128287504
 20
97.9073433221
 30
0.0
 11
144.228745221
 21
100.4778513978
 31
0.0
  0
LINE
  5
6A
330
1F
100
AcDbEntity
  8
0
  6
Continuous
 62
     7
370
    25
100
AcDbLine
 10
138.7128287504
 20
96.6425308221
 30
0.0
 11
123.3180050894
 21
96.1614425827
 31
0.0
  0
LINE
  5
6B
330
1F
100
AcDbEntity
  8
0
  6
Continuous
 62
     7
370
    25
100
AcDbLine
 10
123.3180050894
 20
70.1532440615
 30
0.0
 11
138.7128287504
 21
69.6721558221
 31
0.0
  0
LINE
  5
6C
330
1F
100
AcDbEntity
  8
0
  6
Continuous
 62
     7
370
    25
100
AcDbLine
 10
123.3180050894
 20
96.1614425827
 30
0.0
 11
120.7128287504
 21
94.6573433221
 31
0.0
  0
LINE
  5
6D
330
1F
100
AcDbEntity
  8
0
  6
Continuous
 62
     7
370
    25
100
AcDbLine
 10
120.7128287504
 20
71.6573433221
 30
0.0
 11
123.3180050894
 21
70.1532440615
 31
0.0
  0
SPLINE
  5
6E
330
1F
100
AcDbEntity
  8
0
  6
Continuous
 62
     7
370
    25
100
AcDbSpline
210
0.0
220
0.0
230
1.0
 70
     8
 71
     3
 72
    16
 73
    12
 74
     0
 42
0.00000001
 43
0.00000001
 40
0.0
 40
0.0
 40
0.0
 40
0.0
 40
0.2500000000000001
 40
0.2500000000000001
 40
0.5000000000000001
 40
0.5000000000000001
 40
0.625
 40
0.625
 40
0.7499999999999999
 40
0.7499999999999999
 40
1.0
 40
1.0
 40
1.0
 40
1.0
 10
140.1969122798725
 20
91.81759735992145
 30
0.0
 10
139.788709634484
 20
92.52462508151835
 30
0.0
 10
139.4522767939699
 20
93.23680748085376
 30
0.0
 10
138.9862081400951
 20
94.6760249328671
 30
0.0
 10
138.8581096843991
 20
95.40317040222159
 30
0.0
 10
138.8567025423057
 20
96.50758804468104
 30
0.0
 10
138.8880175895343
 20
96.87745999421865
 30
0.0
 10
139.0101299842302
 20
97.60910563263295
 30
0.0
 10
139.1008033831064
 20
97.9724755181881
 30
0.0
 10
139.4509351568434
 20
99.0561158763982
 30
0.0
 10
139.7882007475689
 20
99.76994225817641
 30
0.0
 10
140.1969122798726
 20
100.4778513977659
 30
0.0
  0
LINE
  5
6F
330
1F
100
AcDbEntity
  8
0
  6
Continuous
 62
     7
370
    25
100
AcDbLine
 10
140.1969122799
 20
100.4778513978
 30
0.0
 11
144.228745221
 21
100.4778513978
 31
0.0
  0
SPLINE
  5
70
330
1F
100
AcDbEntity
  8
0
  6
Continuous
 62
     7
370
    25
100
AcDbSpline
210
0.0
220
0.0
230
1.0
 70
     8
 71
     3
 72
    16
 73
    12
 74
     0
 42
0.00000001
 43
0.00000001
 40
0.0
 40
0.0
 40
0.0
 40
0.0
 40
0.2500000000000001
 40
0.2500000000000001
 40
0.5000000000000001
 40
0.5000000000000001
 40
0.625
 40
0.625
 40
0.7499999999999999
 40
0.7499999999999999
 40
1.0
 40
1.0
 40
1.0
 40
1.0
 10
144.2287452209669
 20
91.81759735992145
 30
0.0
 10
144.6369478663554
 20
92.52462508151835
 30
0.0
 10
144.9733807068695
 20
93.23680748085376
 30
0.0
 10
145.4394493607444
 20
94.6760249328671
 30
0.0
 10
145.5675478164403
 20
95.40317040222159
 30
0.0
 10
145.5689549585337
 20
96.50758804468104
 30
0.0
 10
145.5376399113052
 20
96.87745999421865
 30
0.0
 10
145.4155275166092
 20
97.60910563263295
 30
0.0
 10
145.324854117733
 20
97.9724755181881
 30
0.0
 10
144.974722343996
 20
99.0561158763982
 30
0.0
 10
144.6374567532706
 20
99.76994225817641
 30
0.0
 10
144.2287452209668
 20
100.4778513977659
 30
0.0
  0
LINE
  5
71
330
1F
100
AcDbEntity
  8
0
  6
Continuous
 62
     7
370
    25
100
AcDbLine
 10
140.1969122799
 20
91.8175973599
 30
0.0
 11
144.228745221
 21
91.8175973599
 31
0.0
  0
SPLINE
  5
72
330
1F
100
AcDbEntity
  8
0
  6
Continuous
 62
     7
370
    25
100
AcDbSpline
210
0.0
220
0.0
230
1.0
 70
     8
 71
     3
 72
    16
 73
    12
 74
     0
 42
0.00000001
 43
0.00000001
 40
0.0
 40
0.0
 40
0.0
 40
0.0
 40
0.25
 40
0.25
 40
0.5
 40
0.5
 40
0.6249999999999999
 40
0.6249999999999999
 40
0.7499999999999998
 40
0.7499999999999998
 40
1.0
 40
1.0
 40
1.0
 40
1.0
 10
140.1969122798725
 20
65.83683524638828
 30
0.0
 10
139.788709634484
 20
66.54386296798518
 30
0.0
 10
139.4522767939699
 20
67.25604536732058
 30
0.0
 10
138.9862081400951
 20
68.69526281933393
 30
0.0
 10
138.8581096843991
 20
69.4224082886884
 30
0.0
 10
138.8567025423057
 20
70.52682593114785
 30
0.0
 10
138.8880175895343
 20
70.89669788068547
 30
0.0
 10
139.0101299842302
 20
71.62834351909976
 30
0.0
 10
139.1008033831064
 20
71.99171340465493
 30
0.0
 10
139.4509351568434
 20
73.07535376286502
 30
0.0
 10
139.7882007475689
 20
73.78918014464323
 30
0.0
 10
140.1969122798726
 20
74.49708928423269
 30
0.0
  0
LINE
  5
73
330
1F
100
AcDbEntity
  8
0
  6
Continuous
 62
     7
370
    25
100
AcDbLine
 10
140.1969122799
 20
74.4970892842
 30
0.0
 11
144.228745221
 21
74.4970892842
 31
0.0
  0
SPLINE
  5
74
330
1F
100
AcDbEntity
  8
0
  6
Continuous
 62
     7
370
    25
100
AcDbSpline
210
0.0
220
0.0
230
1.0
 70
     8
 71
     3
 72
    16
 73
    12
 74
     0
 42
0.00000001
 43
0.00000001
 40
0.0
 40
0.0
 40
0.0
 40
0.0
 40
0.25
 40
0.25
 40
0.5
 40
0.5
 40
0.6249999999999999
 40
0.6249999999999999
 40
0.7499999999999998
 40
0.7499999999999998
 40
1.0
 40
1.0
 40
1.0
 40
1.0
 10
144.2287452209669
 20
65.83683524638828
 30
0.0
 10
144.6369478663554
 20
66.54386296798518
 30
0.0
 10
144.9733807068695
 20
67.25604536732058
 30
0.0
 10
145.4394493607444
 20
68.69526281933393
 30
0.0
 10
145.5675478164403
 20
69.4224082886884
 30
0.0
 10
145.5689549585337
 20
70.52682593114785
 30
0.0
 10
145.5376399113052
 20
70.89669788068547
 30
0.0
 10
145.4155275166092
 20
71.62834351909976
 30
0.0
 10
145.324854117733
 20
71.99171340465493
 30
0.0
 10
144.974722343996
 20
73.07535376286502
 30
0.0
 10
144.6374567532706
 20
73.78918014464323
 30
0.0
 10
144.2287452209668
 20
74.49708928423269
 30
0.0
  0
LINE
  5
75
330
1F
100
AcDbEntity
  8
0
  6
Continuous
 62
     7
370
    25
100
AcDbLine
 10
140.1969122799
 20
65.8368352464
 30
0.0
 11
144.228745221
 21
65.8368352464
 31
0.0
  0
SPLINE
  5
76
330
1F
100
AcDbEntity
  8
0
  6
Continuous
 62
     7
370
    25
100
AcDbSpline
210
0.0
220
0.0
230
1.0
 70
     8
 71
     3
 72
    14
 73
    10
 74
     0
 42
0.00000001
 43
0.00000001
 40
0.0
 40
0.0
 40
0.0
 40
0.0
 40
0.2500000000000001
 40
0.2500000000000001
 40
0.5000000000000001
 40
0.5000000000000001
 40
0.75
 40
0.75
 40
1.0
 40
1.0
 40
1.0
 40
1.0
 10
140.1969122798727
 20
74.49708928423267
 30
0.0
 10
139.7899439999742
 20
75.90686875993899
 30
0.0
 10
139.4533831543681
 20
77.32966145718773
 30
0.0
 10
138.986153179782
 20
80.21330127802722
 30
0.0
 10
138.8570474647825
 20
81.67580722595416
 30
0.0
 10
138.8572853376211
 20
84.6430449877896
 30
0.0
 10
138.9863910292032
 20
86.1032038689395
 30
0.0
 10
139.4535207780671
 20
88.98552373909428
 30
0.0
 10
139.7899873360343
 20
90.40796800473107
 30
0.0
 10
140.1969122798727
 20
91.81759735992146
 30
0.0
  0
SPLINE
  5
77
330
1F
100
AcDbEntity
  8
0
  6
Continuous
 62
     7
370
    25
100
AcDbSpline
210
0.0
220
0.0
230
1.0
 70
     8
 71
     3
 72
    14
 73
    10
 74
     0
 42
0.00000001
 43
0.00000001
 40
0.0
 40
0.0
 40
0.0
 40
0.0
 40
0.2500000000000001
 40
0.2500000000000001
 40
0.5000000000000001
 40
0.5000000000000001
 40
0.75
 40
0.75
 40
1.0
 40
1.0
 40
1.0
 40
1.0
 10
144.2287452209667
 20
74.49708928423267
 30
0.0
 10
144.6357135008652
 20
75.90686875993899
 30
0.0
 10
144.9722743464714
 20
77.32966145718773
 30
0.0
 10
145.4395043210574
 20
80.21330127802722
 30
0.0
 10
145.5686100360569
 20
81.67580722595416
 30
0.0
 10
145.5683721632183
 20
84.6430449877896
 30
0.0
 10
145.4392664716363
 20
86.1032038689395
 30
0.0
 10
144.9721367227723
 20
88.98552373909428
 30
0.0
 10
144.6356701648051
 20
90.40796800473107
 30
0.0
 10
144.2287452209667
 20
91.81759735992146
 30
0.0
  0
LINE
  5
78
330
1F
100
AcDbEntity
  8
0
  6
Continuous
 62
     7
370
    25
100
AcDbLine
 10
141.2591607968
 20
78.3800169223
 30
0.0
 11
143.2398557774
 21
78.3800169223
 31
0.0
  0
LINE
  5
79
330
1F
100
AcDbEntity
  8
0
  6
Continuous
 62
     7
370
    25
100
AcDbLine
 10
141.2591607968
 20
78.1058856482
 30
0.0
 11
141.2591607968
 21
78.3800169223
 31
0.0
  0
LINE
  5
7A
330
1F
100
AcDbEntity
  8
0
  6
Continuous
 62
     7
370
    25
100
AcDbLine
 10
142.1171616548
 20
78.1058856482
 30
0.0
 11
141.2591607968
 21
78.1058856482
 31
0.0
  0
LINE
  5
7B
330
1F
100
AcDbEntity
  8
0
  6
Continuous
 62
     7
370
    25
100
AcDbLine
 10
142.1171616548
 20
77.5035690459
 30
0.0
 11
142.1171616548
 21
78.1058856482
 31
0.0
  0
LINE
  5
7C
330
1F
100
AcDbEntity
  8
0
  6
Continuous
 62
     7
370
    25
100
AcDbLine
 10
141.2591607968
 20
77.0865806289
 30
0.0
 11
142.1171616548
 21
77.5035690459
 31
0.0
  0
LINE
  5
7D
330
1F
100
AcDbEntity
  8
0
  6
Continuous
 62
     7
370
    25
100
AcDbLine
 10
141.2591607968
 20
76.7970053393
 30
0.0
 11
141.2591607968
 21
77.0865806289
 31
0.0
  0
LINE
  5
7E
330
1F
100
AcDbEntity
  8
0
  6
Continuous
 62
     7
370
    25
100
AcDbLine
 10
142.1510526886
 20
77.2487427911
 30
0.0
 11
141.2591607968
 21
76.7970053393
 31
0.0
  0
SPLINE
  5
7F
330
1F
100
AcDbEntity
  8
0
  6
Continuous
 62
     7
370
    25
100
AcDbSpline
210
0.0
220
0.0
230
1.0
 70
     8
 71
     3
 72
    11
 73
     7
 74
     0
 42
0.00000001
 43
0.00000001
 40
0.0
 40
0.0
 40
0.0
 40
0.0
 40
0.2256209836966698
 40
0.4629707984282278
 40
0.7196090303667886
 40
1.0
 40
1.0
 40
1.0
 40
1.0
 10
142.2552997928908
 20
77.01708255940666
 30
0.0
 10
142.2423800274744
 20
77.03165263740377
 30
0.0
 10
142.2158688669771
 20
77.06155021400748
 30
0.0
 10
142.1868694007001
 20
77.11675685804268
 30
0.0
 10
142.1635261479969
 20
77.17939454209493
 30
0.0
 10
142.1553313270795
 20
77.22495499691085
 30
0.0
 10
142.1510526886436
 20
77.24874279106689
 30
0.0
  0
SPLINE
  5
80
330
1F
100
AcDbEntity
  8
0
  6
Continuous
 62
     7
370
    25
100
AcDbSpline
210
0.0
220
0.0
230
1.0
 70
     8
 71
     3
 72
    15
 73
    11
 74
     0
 42
0.00000001
 43
0.00000001
 40
0.0
 40
0.0
 40
0.0
 40
0.0
 40
0.1423455204062214
 40
0.2780244263979211
 40
0.4068124412900601
 40
0.5301826523562199
 40
0.6505629722368653
 40
0.7677901753368305
 40
0.8838874421453783
 40
1.0
 40
1.0
 40
1.0
 40
1.0
 10
142.6722882098792
 20
76.86650340882751
 30
0.0
 10
142.6506688675198
 20
76.86680738079205
 30
0.0
 10
142.6084427037361
 20
76.86740108848896
 30
0.0
 10
142.5470970697429
 20
76.8751529000638
 30
0.0
 10
142.4891930367736
 20
76.88620499710736
 30
0.0
 10
142.4352261014142
 20
76.90341948488184
 30
0.0
 10
142.3844253731124
 20
76.9241337849904
 30
0.0
 10
142.3372422284363
 20
76.95000836769533
 30
0.0
 10
142.294048019041
 20
76.98106152389428
 30
0.0
 10
142.2682164352785
 20
77.00507502047195
 30
0.0
 10
142.2552997928908
 20
77.01708255940666
 30
0.0
  0
SPLINE
  5
81
330
1F
100
AcDbEntity
  8
0
  6
Continuous
 62
     7
370
    25
100
AcDbSpline
210
0.0
220
0.0
230
1.0
 70
     8
 71
     3
 72
    15
 73
    11
 74
     0
 42
0.00000001
 43
0.00000001
 40
0.0
 40
0.0
 40
0.0
 40
0.0
 40
0.1161090580639843
 40
0.2322028255427877
 40
0.3494264952551896
 40
0.4689336287943349
 40
0.5931998205909937
 40
0.7219839536369559
 40
0.8576587700816362
 40
0.9999999999999999
 40
0.9999999999999999
 40
0.9999999999999999
 40
0.9999999999999999
 10
143.0892766268676
 20
77.01708255940666
 30
0.0
 10
143.0763594658447
 20
77.0050763279763
 30
0.0
 10
143.0505268448802
 20
76.98106544623518
 30
0.0
 10
143.0073404389477
 20
76.94999261712807
 30
0.0
 10
142.9602431680759
 20
76.92425759645145
 30
0.0
 10
142.9095643535295
 20
76.9032271157853
 30
0.0
 10
142.8554947396107
 20
76.88629933638657
 30
0.0
 10
142.7974859300228
 20
76.87513322225968
 30
0.0
 10
142.7361319389734
 20
76.8674064028323
 30
0.0
 10
142.6939069504949
 20
76.86680918033309
 30
0.0
 10
142.6722882098792
 20
76.8665034088275
 30
0.0
  0
SPLINE
  5
82
330
1F
100
AcDbEntity
  8
0
  6
Continuous
 62
     7
370
    25
100
AcDbSpline
210
0.0
220
0.0
230
1.0
 70
     8
 71
     3
 72
    15
 73
    11
 74
     0
 42
0.00000001
 43
0.00000001
 40
0.0
 40
0.0
 40
0.0
 40
0.0
 40
0.1342477572737618
 40
0.2634617725756831
 40
0.3884666271730282
 40
0.5118790511869566
 40
0.6324080741525882
 40
0.7535525248235464
 40
0.8755084805282746
 40
1.0
 40
1.0
 40
1.0
 40
1.0
 10
143.2398557774467
 20
77.39932194164605
 30
0.0
 10
143.2395456064208
 20
77.38041693795945
 30
0.0
 10
143.2389368945141
 20
77.34331579092382
 30
0.0
 10
143.231142515537
 20
77.28910503949342
 30
0.0
 10
143.2198839535366
 20
77.23710889568294
 30
0.0
 10
143.2030089156124
 20
77.18789308115473
 30
0.0
 10
143.1817886889037
 20
77.1410416553628
 30
0.0
 10
143.1561661061623
 20
77.09662778223678
 30
0.0
 10
143.1249023882996
 20
77.0552538632334
 30
0.0
 10
143.1012330543044
 20
77.02989330101693
 30
0.0
 10
143.0892766268676
 20
77.01708255940666
 30
0.0
  0
LINE
  5
83
330
1F
100
AcDbEntity
  8
0
  6
Continuous
 62
     7
370
    25
100
AcDbLine
 10
143.2398557774
 20
78.3800169223
 30
0.0
 11
143.2398557774
 21
77.3993219416
 31
0.0
  0
LINE
  5
84
330
1F
100
AcDbEntity
  8
0
  6
Continuous
 62
     7
370
    25
100
AcDbLine
 10
141.9888905265
 20
79.9939165362
 30
0.0
 11
143.251438789
 21
79.2178547602
 31
0.0
  0
LINE
  5
85
330
1F
100
AcDbEntity
  8
0
  6
Continuous
 62
     7
370
    25
100
AcDbLine
 10
141.7580882957
 20
79.9939165362
 30
0.0
 11
141.9888905265
 21
79.9939165362
 31
0.0
  0
LINE
  5
86
330
1F
100
AcDbEntity
  8
0
  6
Continuous
 62
     7
370
    25
100
AcDbLine
 10
141.7580882957
 20
79.2255767679
 30
0.0
 11
141.7580882957
 21
79.9939165362
 31
0.0
  0
LINE
  5
87
330
1F
100
AcDbEntity
  8
0
  6
Continuous
 62
     7
370
    25
100
AcDbLine
 10
141.2475777852
 20
79.2255767679
 30
0.0
 11
141.7580882957
 21
79.2255767679
 31
0.0
  0
LINE
  5
88
330
1F
100
AcDbEntity
  8
0
  6
Continuous
 62
     7
370
    25
100
AcDbLine
 10
141.2475777852
 20
78.9514454938
 30
0.0
 11
141.2475777852
 21
79.2255767679
 31
0.0
  0
LINE
  5
89
330
1F
100
AcDbEntity
  8
0
  6
Continuous
 62
     7
370
    25
100
AcDbLine
 10
141.7580882957
 20
78.9514454938
 30
0.0
 11
141.2475777852
 21
78.9514454938
 31
0.0
  0
LINE
  5
8A
330
1F
100
AcDbEntity
  8
0
  6
Continuous
 62
     7
370
    25
100
AcDbLine
 10
141.7580882957
 20
78.7082022505
 30
0.0
 11
141.7580882957
 21
78.9514454938
 31
0.0
  0
LINE
  5
8B
330
1F
100
AcDbEntity
  8
0
  6
Continuous
 62
     7
370
    25
100
AcDbLine
 10
141.9773075149
 20
78.7082022505
 30
0.0
 11
141.7580882957
 21
78.7082022505
 31
0.0
  0
LINE
  5
8C
330
1F
100
AcDbEntity
  8
0
  6
Continuous
 62
     7
370
    25
100
AcDbLine
 10
141.9773075149
 20
78.9514454938
 30
0.0
 11
141.9773075149
 21
78.7082022505
 31
0.0
  0
LINE
  5
8D
330
1F
100
AcDbEntity
  8
0
  6
Continuous
 62
     7
370
    25
100
AcDbLine
 10
143.251438789
 20
78.9514454938
 30
0.0
 11
141.9773075149
 21
78.9514454938
 31
0.0
  0
LINE
  5
8E
330
1F
100
AcDbEntity
  8
0
  6
Continuous
 62
     7
370
    25
100
AcDbLine
 10
143.251438789
 20
79.2178547602
 30
0.0
 11
143.251438789
 21
78.9514454938
 31
0.0
  0
SPLINE
  5
8F
330
1F
100
AcDbEntity
  8
0
  6
Continuous
 62
     7
370
    25
100
AcDbSpline
210
0.0
220
0.0
230
1.0
 70
     8
 71
     3
 72
    23
 73
    19
 74
     0
 42
0.00000001
 43
0.00000001
 40
0.0
 40
0.0
 40
0.0
 40
0.0
 40
0.0441906106282862
 40
0.0897849017527571
 40
0.1375220657281902
 40
0.1870790674012528
 40
0.238634432644744
 40
0.2928411155263978
 40
0.3496729339480912
 40
0.4094358303820869
 40
0.4719926205430653
 40
0.537704004592553
 40
0.6060605743707038
 40
0.678160415571394
 40
0.7535848462545451
 40
0.8324062082865282
 40
0.9141977901571281
 40
1.0
 40
1.0
 40
1.0
 40
1.0
 10
141.3981569357479
 20
81.21013275245686
 30
0.0
 10
141.4071649857827
 20
81.21873217129301
 30
0.0
 10
141.4254672195798
 20
81.23620416283958
 30
0.0
 10
141.4562311651945
 20
81.25988501682251
 30
0.0
 10
141.4902496576704
 20
81.28142852809859
 30
0.0
 10
141.5266192035791
 20
81.30236893439503
 30
0.0
 10
141.5664695863065
 20
81.3205236301001
 30
0.0
 10
141.6088772418974
 20
81.33786680804586
 30
0.0
 10
141.6545524689575
 20
81.35305239190963
 30
0.0
 10
141.7029298085913
 20
81.36748708179839
 30
0.0
 10
141.7546250669413
 20
81.37913365045492
 30
0.0
 10
141.8089440876895
 20
81.38996983347835
 30
0.0
 10
141.8663347950556
 20
81.39896909653527
 30
0.0
 10
141.9267253418463
 20
81.40617455847067
 30
0.0
 10
141.9902497789239
 20
81.41175958853856
 30
0.0
 10
142.0566420932405
 20
81.41539618587856
 30
0.0
 10
142.1260041652733
 20
81.418202303202
 30
0.0
 10
142.1732146194936
 20
81.418483167943
 30
0.0
 10
142.1973847349757
 20
81.41862696095106
 30
0.0
  0
SPLINE
  5
90
330
1F
100
AcDbEntity
  8
0
  6
Continuous
 62
     7
370
    25
100
AcDbSpline
210
0.0
220
0.0
230
1.0
 70
     8
 71
     3
 72
    15
 73
    11
 74
     0
 42
0.00000001
 43
0.00000001
 40
0.0
 40
0.0
 40
0.0
 40
0.0
 40
0.119504086310743
 40
0.2383815255843711
 40
0.3571090773014075
 40
0.4777214423508229
 40
0.6009465942306372
 40
0.7281225224148412
 40
0.8606317931271521
 40
1.0
 40
1.0
 40
1.0
 40
1.0
 10
141.2244117620027
 20
80.82789337021747
 30
0.0
 10
141.2248771350189
 20
80.84508427533918
 30
0.0
 10
141.2258054407613
 20
80.8793759411357
 30
0.0
 10
141.2342172789871
 20
80.93019445073922
 30
0.0
 10
141.2481719473056
 20
80.97984378712722
 30
0.0
 10
141.2670130979574
 20
81.02854423790481
 30
0.0
 10
141.2916631132646
 20
81.0759808188453
 30
0.0
 10
141.3221121965689
 20
81.12191976968545
 30
0.0
 10
141.3572777729749
 20
81.16736553040298
 30
0.0
 10
141.3843032812794
 20
81.19563924826741
 30
0.0
 10
141.3981569357479
 20
81.21013275245686
 30
0.0
  0
SPLINE
  5
91
330
1F
100
AcDbEntity
  8
0
  6
Continuous
 62
     7
370
    25
100
AcDbSpline
210
0.0
220
0.0
230
1.0
 70
     8
 71
     3
 72
    15
 73
    11
 74
     0
 42
0.00000001
 43
0.00000001
 40
0.0
 40
0.0
 40
0.0
 40
0.0
 40
0.1171086905579877
 40
0.2333993299620633
 40
0.3506160626962316
 40
0.4711822020542318
 40
0.5946445890795228
 40
0.7237659205994502
 40
0.8581711095996136
 40
1.0
 40
1.0
 40
1.0
 40
1.0
 10
141.3634079009989
 20
80.44565398797809
 30
0.0
 10
141.3522704849709
 20
80.45757862220032
 30
0.0
 10
141.3300734522311
 20
80.481344592294
 30
0.0
 10
141.3015513181518
 20
80.52117016612313
 30
0.0
 10
141.278025187415
 20
80.56458036924235
 30
0.0
 10
141.2580679384253
 20
80.61085404809938
 30
0.0
 10
141.2432966913989
 20
80.66075807736763
 30
0.0
 10
141.2319860088852
 20
80.71349362548318
 30
0.0
 10
141.2255931015395
 20
80.76967813893312
 30
0.0
 10
141.2248125343451
 20
80.80814370986991
 30
0.0
 10
141.2244117620027
 20
80.82789337021748
 30
0.0
  0
SPLINE
  5
92
330
1F
100
AcDbEntity
  8
0
  6
Continuous
 62
     7
370
    25
100
AcDbSpline
210
0.0
220
0.0
230
1.0
 70
     8
 71
     3
 72
    15
 73
    11
 74
     0
 42
0.00000001
 43
0.00000001
 40
0.0
 40
0.0
 40
0.0
 40
0.0
 40
0.1476270724396862
 40
0.2864810592714899
 40
0.418189465926807
 40
0.5428808841137351
 40
0.6619178330920035
 40
0.7770087505932008
 40
0.8893050437597246
 40
1.0
 40
1.0
 40
1.0
 40
1.0
 10
141.9078094454004
 20
80.2603258026499
 30
0.0
 10
141.8787598718976
 20
80.26090727840156
 30
0.0
 10
141.8223870640452
 20
80.26203567434221
 30
0.0
 10
141.7404359134828
 20
80.27060141546973
 30
0.0
 10
141.663959235728
 20
80.28513717121604
 30
0.0
 10
141.5926967867105
 20
80.30504601531815
 30
0.0
 10
141.5270726267291
 20
80.33145334425836
 30
0.0
 10
141.4666124425376
 20
80.36314821863309
 30
0.0
 10
141.4115099824758
 20
80.40086443820948
 30
0.0
 10
141.3793649819751
 20
80.43079578536812
 30
0.0
 10
141.3634079009989
 20
80.44565398797809
 30
0.0
  0
SPLINE
  5
93
330
1F
100
AcDbEntity
  8
0
  6
Continuous
 62
     7
370
    25
100
AcDbSpline
210
0.0
220
0.0
230
1.0
 70
     8
 71
     3
 72
    15
 73
    11
 74
     0
 42
0.00000001
 43
0.00000001
 40
0.0
 40
0.0
 40
0.0
 40
0.0
 40
0.1094376231375986
 40
0.2200197609697443
 40
0.3343721928536028
 40
0.4529129170384311
 40
0.5777009796868826
 40
0.7100641746072381
 40
0.8508042784674904
 40
1.0
 40
1.0
 40
1.0
 40
1.0
 10
142.4290449666359
 20
80.43407097639508
 30
0.0
 10
142.4139397006881
 20
80.4200705982521
 30
0.0
 10
142.3835711957084
 20
80.39192342396056
 30
0.0
 10
142.3311765535514
 20
80.35680148508686
 30
0.0
 10
142.2739786781179
 20
80.32666478052755
 30
0.0
 10
142.211227868025
 20
80.30213361351832
 30
0.0
 10
142.143019900117
 20
80.28347634275529
 30
0.0
 10
142.0694246987259
 20
80.26980296987664
 30
0.0
 10
141.9903637044709
 20
80.26161018509376
 30
0.0
 10
141.9358574012666
 20
80.26076217386208
 30
0.0
 10
141.9078094454004
 20
80.2603258026499
 30
0.0
  0
SPLINE
  5
94
330
1F
100
AcDbEntity
  8
0
  6
Continuous
 62
     7
370
    25
100
AcDbSpline
210
0.0
220
0.0
230
1.0
 70
     8
 71
     3
 72
    15
 73
    11
 74
     0
 42
0.00000001
 43
0.00000001
 40
0.0
 40
0.0
 40
0.0
 40
0.0
 40
0.1328879382642819
 40
0.2611764415433334
 40
0.3862019221938193
 40
0.5075747214113124
 40
0.6293724124715371
 40
0.7508835925619998
 40
0.8736128964297306
 40
1.0
 40
1.0
 40
1.0
 40
1.0
 10
142.5680411056321
 20
80.78156132388543
 30
0.0
 10
142.5676319949922
 20
80.76452638655921
 30
0.0
 10
142.5668279335965
 20
80.7310461146031
 30
0.0
 10
142.5603973661903
 20
80.68184587040177
 30
0.0
 10
142.54907237822
 20
80.63511633115016
 30
0.0
 10
142.5341426672166
 20
80.59025490249024
 30
0.0
 10
142.5141313222326
 20
80.54792534671274
 30
0.0
 10
142.4906982812122
 20
80.50719736952036
 30
0.0
 10
142.4619855844152
 20
80.46918446646293
 30
0.0
 10
142.4401321313332
 20
80.44588948721007
 30
0.0
 10
142.4290449666359
 20
80.43407097639508
 30
0.0
  0
SPLINE
  5
95
330
1F
100
AcDbEntity
  8
0
  6
Continuous
 62
     7
370
    25
100
AcDbSpline
210
0.0
220
0.0
230
1.0
 70
     8
 71
     3
 72
    15
 73
    11
 74
     0
 42
0.00000001
 43
0.00000001
 40
0.0
 40
0.0
 40
0.0
 40
0.0
 40
0.1277118540336142
 40
0.252362114195532
 40
0.3748537650566256
 40
0.4969693854038486
 40
0.6192731655242183
 40
0.7424854443019971
 40
0.8694478780376611
 40
1.0
 40
1.0
 40
1.0
 40
1.0
 10
142.4637940013849
 20
81.03638757871168
 30
0.0
 10
142.4721602748432
 20
81.0277047999531
 30
0.0
 10
142.4886922598641
 20
81.0105473918081
 30
0.0
 10
142.5095029695685
 20
80.9818739404787
 30
0.0
 10
142.5279193359478
 20
80.95225829736097
 30
0.0
 10
142.5423185214284
 20
80.92071549164255
 30
0.0
 10
142.5541003653367
 20
80.88806103330002
 30
0.0
 10
142.5622705539705
 20
80.85382486391431
 30
0.0
 10
142.5669689298932
 20
80.81815821689626
 30
0.0
 10
142.5676804077781
 20
80.7938731308888
 30
0.0
 10
142.5680411056321
 20
80.78156132388543
 30
0.0
  0
SPLINE
  5
96
330
1F
100
AcDbEntity
  8
0
  6
Continuous
 62
     7
370
    25
100
AcDbSpline
210
0.0
220
0.0
230
1.0
 70
     8
 71
     3
 72
    11
 73
     7
 74
     0
 42
0.00000001
 43
0.00000001
 40
0.0
 40
0.0
 40
0.0
 40
0.0
 40
0.2456044615709272
 40
0.4924340960494095
 40
0.7435400941223391
 40
1.0
 40
1.0
 40
1.0
 40
1.0
 10
142.3132148508058
 20
81.1522176945418
 30
0.0
 10
142.3266502119452
 20
81.14427684184045
 30
0.0
 10
142.3535879551584
 20
81.12835552430069
 30
0.0
 10
142.3917791669009
 20
81.10048862487801
 30
0.0
 10
142.4288842815792
 20
81.0701169919435
 30
0.0
 10
142.4520758848758
 20
81.04770950269837
 30
0.0
 10
142.4637940013849
 20
81.03638757871168
 30
0.0
  0
SPLINE
  5
97
330
1F
100
AcDbEntity
  8
0
  6
Continuous
 62
     7
370
    25
100
AcDbSpline
210
0.0
220
0.0
230
1.0
 70
     8
 71
     3
 72
    15
 73
    11
 74
     0
 42
0.00000001
 43
0.00000001
 40
0.0
 40
0.0
 40
0.0
 40
0.0
 40
0.0964433484801641
 40
0.1980702687146752
 40
0.3069659373397292
 40
0.4243879496894926
 40
0.5513513962467959
 40
0.6889628351337205
 40
0.8385011961339892
 40
0.9999999999999999
 40
0.9999999999999999
 40
0.9999999999999999
 40
0.9999999999999999
 10
142.9618634994544
 20
80.96688950921362
 30
0.0
 10
142.945390827714
 20
80.9818420609732
 30
0.0
 10
142.9115601222324
 20
81.01255082411407
 30
0.0
 10
142.8512593361361
 20
81.05015051938415
 30
0.0
 10
142.7825069352689
 20
81.08169931286845
 30
0.0
 10
142.7052999583507
 20
81.10784780742588
 30
0.0
 10
142.6194616620323
 20
81.12761809214095
 30
0.0
 10
142.5251272987662
 20
81.14212904260675
 30
0.0
 10
142.4220470930435
 20
81.1505271173209
 30
0.0
 10
142.3504104890354
 20
81.15163990530017
 30
0.0
 10
142.3132148508058
 20
81.1522176945418
 30
0.0
  0
SPLINE
  5
98
330
1F
100
AcDbEntity
  8
0
  6
Continuous
 62
     7
370
    25
100
AcDbSpline
210
0.0
220
0.0
230
1.0
 70
     8
 71
     3
 72
    11
 73
     7
 74
     0
 42
0.00000001
 43
0.00000001
 40
0.0
 40
0.0
 40
0.0
 40
0.0
 40
0.260014508516459
 40
0.5081836035516297
 40
0.7509482378681012
 40
1.0
 40
1.0
 40
1.0
 40
1.0
 10
143.0313615689525
 20
80.79314433546844
 30
0.0
 10
143.0305770602987
 20
80.80982081683307
 30
0.0
 10
143.0290437826481
 20
80.84241405342894
 30
0.0
 10
143.0158473383268
 20
80.88907936797352
 30
0.0
 10
142.993695876417
 20
80.9315019659861
 30
0.0
 10
142.9725643366865
 20
80.95499355998668
 30
0.0
 10
142.9618634994544
 20
80.96688950921362
 30
0.0
  0
SPLINE
  5
99
330
1F
100
AcDbEntity
  8
0
  6
Continuous
 62
     7
370
    25
100
AcDbSpline
210
0.0
220
0.0
230
1.0
 70
     8
 71
     3
 72
    11
 73
     7
 74
     0
 42
0.00000001
 43
0.00000001
 40
0.0
 40
0.0
 40
0.0
 40
0.0
 40
0.2490517621318995
 40
0.4918163964483693
 40
0.7399854914835428
 40
1.0
 40
1.0
 40
1.0
 40
1.0
 10
142.9618634994544
 20
80.61939916172327
 30
0.0
 10
142.9725643366865
 20
80.63129511095022
 30
0.0
 10
142.993695876417
 20
80.65478670495078
 30
0.0
 10
143.0158473383268
 20
80.69720930296337
 30
0.0
 10
143.0290437826481
 20
80.74387461750793
 30
0.0
 10
143.0305770602987
 20
80.7764678541038
 30
0.0
 10
143.0313615689525
 20
80.79314433546844
 30
0.0
  0
SPLINE
  5
9A
330
1F
100
AcDbEntity
  8
0
  6
Continuous
 62
     7
370
    25
100
AcDbSpline
210
0.0
220
0.0
230
1.0
 70
     8
 71
     3
 72
    15
 73
    11
 74
     0
 42
0.00000001
 43
0.00000001
 40
0.0
 40
0.0
 40
0.0
 40
0.0
 40
0.1575795759530232
 40
0.3051873770201197
 40
0.4403374772752365
 40
0.567104860431745
 40
0.6842314239145103
 40
0.7956973262442261
 40
0.8993807647161652
 40
1.0
 40
1.0
 40
1.0
 40
1.0
 10
142.7302032677942
 20
80.5499010922252
 30
0.0
 10
142.7432193394457
 20
80.55022028182627
 30
0.0
 10
142.7684278142268
 20
80.55083846242826
 30
0.0
 10
142.8047500267211
 20
80.55351326632233
 30
0.0
 10
142.8381570879467
 20
80.55920117116676
 30
0.0
 10
142.8685312178507
 20
80.56691432972899
 30
0.0
 10
142.8964445849975
 20
80.576192830644
 30
0.0
 10
142.9212502776221
 20
80.58812134249476
 30
0.0
 10
142.9432170953959
 20
80.60240668080137
 30
0.0
 10
142.955710491548
 20
80.61379192136025
 30
0.0
 10
142.9618634994544
 20
80.61939916172327
 30
0.0
  0
LINE
  5
9B
330
1F
100
AcDbEntity
  8
0
  6
Continuous
 62
     7
370
    25
100
AcDbLine
 10
142.7302032678
 20
80.2834918258
 30
0.0
 11
142.7302032678
 21
80.5499010922
 31
0.0
  0
SPLINE
  5
9C
330
1F
100
AcDbEntity
  8
0
  6
Continuous
 62
     7
370
    25
100
AcDbSpline
210
0.0
220
0.0
230
1.0
 70
     8
 71
     3
 72
    15
 73
    11
 74
     0
 42
0.00000001
 43
0.00000001
 40
0.0
 40
0.0
 40
0.0
 40
0.0
 40
0.1356800108501683
 40
0.266841589777109
 40
0.3926005974967492
 40
0.5157318537894198
 40
0.636099888417027
 40
0.7560959929543319
 40
0.8771413117267541
 40
1.0
 40
1.0
 40
1.0
 40
1.0
 10
143.2514387890297
 20
80.79314433546844
 30
0.0
 10
143.2510217269904
 20
80.77525405523416
 30
0.0
 10
143.2502014919614
 20
80.74006927901426
 30
0.0
 10
143.2439081693413
 20
80.68856293524703
 30
0.0
 10
143.2323513996571
 20
80.63975333853561
 30
0.0
 10
143.2178295386029
 20
80.59318024016005
 30
0.0
 10
143.1975147244224
 20
80.54965988792492
 30
0.0
 10
143.1740895284671
 20
80.50810248540347
 30
0.0
 10
143.1456488753599
 20
80.46926750744832
 30
0.0
 10
143.1235661185274
 20
80.44586116032643
 30
0.0
 10
143.1124426500336
 20
80.43407097639508
 30
0.0
  0
SPLINE
  5
9D
330
1F
100
AcDbEntity
  8
0
  6
Continuous
 62
     7
370
    25
100
AcDbSpline
210
0.0
220
0.0
230
1.0
 70
     8
 71
     3
 72
    15
 73
    11
 74
     0
 42
0.00000001
 43
0.00000001
 40
0.0
 40
0.0
 40
0.0
 40
0.0
 40
0.1263812889588904
 40
0.2491049464973158
 40
0.370610536299922
 40
0.4913917559424297
 40
0.6138158455532661
 40
0.7388355742356966
 40
0.8671181754268783
 40
1.0
 40
1.0
 40
1.0
 40
1.0
 10
143.1124426500336
 20
81.14063468295879
 30
0.0
 10
143.1235282023831
 20
81.12881545679222
 30
0.0
 10
143.145378477433
 20
81.10551906753936
 30
0.0
 10
143.1741144045952
 20
81.06751647111616
 30
0.0
 10
143.1973960105119
 20
81.02686250096252
 30
0.0
 10
143.2177467872034
 20
80.98467821482959
 30
0.0
 10
143.2323674372709
 20
80.93969508813251
 30
0.0
 10
143.2438145958408
 20
80.89286699464672
 30
0.0
 10
143.2502204711804
 20
80.8436576477548
 30
0.0
 10
143.2510279430984
 20
80.81017863308222
 30
0.0
 10
143.2514387890297
 20
80.79314433546844
 30
0.0
  0
SPLINE
  5
9E
330
1F
100
AcDbEntity
  8
0
  6
Continuous
 62
     7
370
    25
100
AcDbSpline
210
0.0
220
0.0
230
1.0
 70
     8
 71
     3
 72
    23
 73
    19
 74
     0
 42
0.00000001
 43
0.00000001
 40
0.0
 40
0.0
 40
0.0
 40
0.0
 40
0.0796294701120215
 40
0.15668420677995
 40
0.2308342243899714
 40
0.3025278065272979
 40
0.3715101076111978
 40
0.4382633308465717
 40
0.5024649722906294
 40
0.5646604536693952
 40
0.6245612367645357
 40
0.6823215461207701
 40
0.7385115542781728
 40
0.793299587070385
 40
0.8467205107566449
 40
0.8985430522702744
 40
0.9498534420925907
 40
1.0
 40
1.0
 40
1.0
 40
1.0
 10
142.1973847349757
 20
81.41862696095106
 30
0.0
 10
142.2234119320586
 20
81.41830066028221
 30
0.0
 10
142.2746247647437
 20
81.4176586095264
 30
0.0
 10
142.3500537754435
 20
81.41495532022788
 30
0.0
 10
142.4226849466757
 20
81.40902797851447
 30
0.0
 10
142.4925865017261
 20
81.40216020641117
 30
0.0
 10
142.5596629091541
 20
81.39208523741075
 30
0.0
 10
142.6239480607442
 20
81.38022388108718
 30
0.0
 10
142.6854874000882
 20
81.36601445667539
 30
0.0
 10
142.744213045883
 20
81.34981855488321
 30
0.0
 10
142.8000731074028
 20
81.33139997360401
 30
0.0
 10
142.85305002472
 20
81.31075219801392
 30
0.0
 10
142.9033039346129
 20
81.28796921317597
 30
0.0
 10
142.9510980330839
 20
81.26330417864025
 30
0.0
 10
142.9955629577099
 20
81.23566997242352
 30
0.0
 10
143.0376036057882
 20
81.20644706538997
 30
0.0
 10
143.0765660505752
 20
81.17484089055021
 30
0.0
 10
143.1005755895412
 20
81.15194922059146
 30
0.0
 10
143.1124426500336
 20
81.14063468295879
 30
0.0
  0
SPLINE
  5
9F
330
1F
100
AcDbEntity
  8
0
  6
Continuous
 62
     7
370
    25
100
AcDbSpline
210
0.0
220
0.0
230
1.0
 70
     8
 71
     3
 72
    11
 73
     7
 74
     0
 42
0.00000001
 43
0.00000001
 40
0.0
 40
0.0
 40
0.0
 40
0.0
 40
0.2450868805219032
 40
0.4875552456976435
 40
0.7346288455311493
 40
1.0
 40
1.0
 40
1.0
 40
1.0
 10
143.0429445805355
 20
82.32210186442597
 30
0.0
 10
143.0419373445621
 20
82.33908919360441
 30
0.0
 10
143.0399336339536
 20
82.37288235884326
 30
0.0
 10
143.0242357953978
 20
82.42177357312863
 30
0.0
 10
142.9983445571451
 20
82.46764519606101
 30
0.0
 10
142.9743099154848
 20
82.49385646192204
 30
0.0
 10
142.9618634994544
 20
82.50743004975415
 30
0.0
  0
SPLINE
  5
A0
330
1F
100
AcDbEntity
  8
0
  6
Continuous
 62
     7
370
    25
100
AcDbSpline
210
0.0
220
0.0
230
1.0
 70
     8
 71
     3
 72
    11
 73
     7
 74
     0
 42
0.00000001
 43
0.00000001
 40
0.0
 40
0.0
 40
0.0
 40
0.0
 40
0.2388203430261983
 40
0.4777994110081061
 40
0.7288233729769947
 40
1.0
 40
1.0
 40
1.0
 40
1.0
 10
142.9734465110375
 20
82.13677367909779
 30
0.0
 10
142.984189643768
 20
82.14893963628009
 30
0.0
 10
143.005683049338
 20
82.1732796363923
 30
0.0
 10
143.0276594766873
 20
82.21806465180748
 30
0.0
 10
143.0407388152618
 20
82.26830084805152
 30
0.0
 10
143.0421906491459
 20
82.30371265705232
 30
0.0
 10
143.0429445805355
 20
82.32210186442597
 30
0.0
  0
SPLINE
  5
A1
330
1F
100
AcDbEntity
  8
0
  6
Continuous
 62
     7
370
    25
100
AcDbSpline
210
0.0
220
0.0
230
1.0
 70
     8
 71
     3
 72
    15
 73
    11
 74
     0
 42
0.00000001
 43
0.00000001
 40
0.0
 40
0.0
 40
0.0
 40
0.0
 40
0.1380420997033146
 40
0.2691721599589615
 40
0.3953313456434701
 40
0.5186017941434374
 40
0.6392985515224104
 40
0.7600805617867294
 40
0.8784957553092653
 40
1.0
 40
1.0
 40
1.0
 40
1.0
 10
142.7302032677942
 20
82.04410958643368
 30
0.0
 10
142.7425249346686
 20
82.04424209605362
 30
0.0
 10
142.7665512983213
 20
82.04450048027618
 30
0.0
 10
142.8014423751139
 20
82.0498470430154
 30
0.0
 10
142.8348318380129
 20
82.05614021706664
 30
0.0
 10
142.8661114988931
 20
82.06685255268034
 30
0.0
 10
142.8961602146987
 20
82.07945050738704
 30
0.0
 10
142.9236865956161
 20
82.09604519078478
 30
0.0
 10
142.950179657262
 20
82.11441184033544
 30
0.0
 10
142.9656246066409
 20
82.12925602472913
 30
0.0
 10
142.9734465110375
 20
82.13677367909779
 30
0.0
  0
SPLINE
  5
A2
330
1F
100
AcDbEntity
  8
0
  6
Continuous
 62
     7
370
    25
100
AcDbSpline
210
0.0
220
0.0
230
1.0
 70
     8
 71
     3
 72
    15
 73
    11
 74
     0
 42
0.00000001
 43
0.00000001
 40
0.0
 40
0.0
 40
0.0
 40
0.0
 40
0.1133059292696167
 40
0.226301537027319
 40
0.3429947497841045
 40
0.4612849748553934
 40
0.5864354642724735
 40
0.7160226876888954
 40
0.8547540019702777
 40
1.0
 40
1.0
 40
1.0
 40
1.0
 10
142.4637940013849
 20
82.13677367909779
 30
0.0
 10
142.4717380681954
 20
82.1292232221987
 30
0.0
 10
142.4876044446599
 20
82.11414298754077
 30
0.0
 10
142.5154058915148
 20
82.09595621261289
 30
0.0
 10
142.5446622008947
 20
82.07935412668765
 30
0.0
 10
142.5770978155593
 20
82.0666174172574
 30
0.0
 10
142.6116109197336
 20
82.05612167940403
 30
0.0
 10
142.6491013849515
 20
82.04974209870436
 30
0.0
 10
142.6887317022993
 20
82.04452504313798
 30
0.0
 10
142.7161695963345
 20
82.04425017391391
 30
0.0
 10
142.7302032677942
 20
82.04410958643368
 30
0.0
  0
SPLINE
  5
A3
330
1F
100
AcDbEntity
  8
0
  6
Continuous
 62
     7
370
    25
100
AcDbSpline
210
0.0
220
0.0
230
1.0
 70
     8
 71
     3
 72
    11
 73
     7
 74
     0
 42
0.00000001
 43
0.00000001
 40
0.0
 40
0.0
 40
0.0
 40
0.0
 40
0.2322932923175289
 40
0.4682186081034739
 40
0.7217939329173703
 40
1.0
 40
1.0
 40
1.0
 40
1.0
 10
142.3711299087209
 20
82.33368487600897
 30
0.0
 10
142.372354716405
 20
82.31638253206923
 30
0.0
 10
142.3748234822628
 20
82.28150731326471
 30
0.0
 10
142.3932321798135
 20
82.2304187760516
 30
0.0
 10
142.4230329154113
 20
82.18129762587456
 30
0.0
 10
142.4497938075634
 20
82.15206630120748
 30
0.0
 10
142.4637940013849
 20
82.13677367909779
 30
0.0
  0
LINE
  5
A4
330
1F
100
AcDbEntity
  8
0
  6
Continuous
 62
     7
370
    25
100
AcDbLine
 10
142.3711299087
 20
82.4031829455
 30
0.0
 11
142.3711299087
 21
82.333684876
 31
0.0
  0
LINE
  5
A5
330
1F
100
AcDbEntity
  8
0
  6
Continuous
 62
     7
370
    25
100
AcDbLine
 10
142.1742187118
 20
82.4031829455
 30
0.0
 11
142.3711299087
 21
82.4031829455
 31
0.0
  0
LINE
  5
A6
330
1F
100
AcDbEntity
  8
0
  6
Continuous
 62
     7
370
    25
100
AcDbLine
 10
142.1742187118
 20
82.3105188528
 30
0.0
 11
142.1742187118
 21
82.4031829455
 31
0.0
  0
SPLINE
  5
A7
330
1F
100
AcDbEntity
  8
0
  6
Continuous
 62
     7
370
    25
100
AcDbSpline
210
0.0
220
0.0
230
1.0
 70
     8
 71
     3
 72
    11
 73
     7
 74
     0
 42
0.00000001
 43
0.00000001
 40
0.0
 40
0.0
 40
0.0
 40
0.0
 40
0.2676320905605554
 40
0.5177929452577186
 40
0.7570315487829559
 40
0.9999999999999999
 40
0.9999999999999999
 40
0.9999999999999999
 40
0.9999999999999999
 10
142.0815546191456
 20
82.10202464434875
 30
0.0
 10
142.0958685207337
 20
82.11735737262265
 30
0.0
 10
142.1235619010227
 20
82.14702189646636
 30
0.0
 10
142.1520838615167
 20
82.19926281093943
 30
0.0
 10
142.1714138521874
 20
82.25368611938288
 30
0.0
 10
142.1732789497897
 20
82.29147717105178
 30
0.0
 10
142.1742187118097
 20
82.31051885284296
 30
0.0
  0
SPLINE
  5
A8
330
1F
100
AcDbEntity
  8
0
  6
Continuous
 62
     7
370
    25
100
AcDbSpline
210
0.0
220
0.0
230
1.0
 70
     8
 71
     3
 72
    15
 73
    11
 74
     0
 42
0.00000001
 43
0.00000001
 40
0.0
 40
0.0
 40
0.0
 40
0.0
 40
0.1417962611116215
 40
0.2768819513476972
 40
0.4055805706087828
 40
0.5298229690785614
 40
0.6485572024501441
 40
0.7672114666371228
 40
0.8821786188665552
 40
1.0
 40
1.0
 40
1.0
 40
1.0
 10
141.8267283643193
 20
82.00936055168467
 30
0.0
 10
141.8399060663478
 20
82.00949601172465
 30
0.0
 10
141.8656378298183
 20
82.00976052109824
 30
0.0
 10
141.9029666653022
 20
82.01506646312951
 30
0.0
 10
141.9384831247121
 20
82.02135733220753
 30
0.0
 10
141.9714044580504
 20
82.03192942460235
 30
0.0
 10
142.0025148748158
 20
82.04472313391962
 30
0.0
 10
142.0308562638879
 20
82.06116765577102
 30
0.0
 10
142.0578396949759
 20
82.079662422101
 30
0.0
 10
142.0735852919713
 20
82.09450988848616
 30
0.0
 10
142.0815546191456
 20
82.10202464434875
 30
0.0
  0
SPLINE
  5
A9
330
1F
100
AcDbEntity
  8
0
  6
Continuous
 62
     7
370
    25
100
AcDbSpline
210
0.0
220
0.0
230
1.0
 70
     8
 71
     3
 72
    15
 73
    11
 74
     0
 42
0.00000001
 43
0.00000001
 40
0.0
 40
0.0
 40
0.0
 40
0.0
 40
0.1062344532908176
 40
0.2134351374465931
 40
0.326636251532742
 40
0.4454478074346343
 40
0.570912586560857
 40
0.7047818913259152
 40
0.8472638984122984
 40
1.0
 40
1.0
 40
1.0
 40
1.0
 10
141.5371530747441
 20
82.10202464434875
 30
0.0
 10
141.5452344342219
 20
82.09446149902007
 30
0.0
 10
141.561470655311
 20
82.07926641952609
 30
0.0
 10
141.5902589907822
 20
82.06101839815905
 30
0.0
 10
141.6213918285049
 20
82.04431208788321
 30
0.0
 10
141.6565326094245
 20
82.03193708573072
 30
0.0
 10
141.6944092832774
 20
82.02119690469266
 30
0.0
 10
141.7357874223005
 20
82.01504683752593
 30
0.0
 10
141.780117931826
 20
82.00972263292714
 30
0.0
 10
141.8108359012299
 20
82.0094840082259
 30
0.0
 10
141.8267283643193
 20
82.00936055168467
 30
0.0
  0
SPLINE
  5
AA
330
1F
100
AcDbEntity
  8
0
  6
Continuous
 62
     7
370
    25
100
AcDbSpline
210
0.0
220
0.0
230
1.0
 70
     8
 71
     3
 72
    15
 73
    11
 74
     0
 42
0.00000001
 43
0.00000001
 40
0.0
 40
0.0
 40
0.0
 40
0.0
 40
0.1380420997033146
 40
0.2691721599589615
 40
0.3953313456434698
 40
0.5186017941434371
 40
0.6392985515224101
 40
0.7600805617867299
 40
0.8784957553092657
 40
1.0
 40
1.0
 40
1.0
 40
1.0
 10
141.4444889820799
 20
82.34526788759199
 30
0.0
 10
141.4446214916999
 20
82.33294622071764
 30
0.0
 10
141.4448798759225
 20
82.3089198570649
 30
0.0
 10
141.4502264386616
 20
82.27402878027235
 30
0.0
 10
141.4565196127129
 20
82.24063931737335
 30
0.0
 10
141.4672319483266
 20
82.20935965649309
 30
0.0
 10
141.4798299030333
 20
82.17931094068751
 30
0.0
 10
141.496424586431
 20
82.15178455977014
 30
0.0
 10
141.5147912359817
 20
82.12529149812421
 30
0.0
 10
141.5296354203754
 20
82.10984654874528
 30
0.0
 10
141.5371530747441
 20
82.10202464434875
 30
0.0
  0
SPLINE
  5
AB
330
1F
100
AcDbEntity
  8
0
  6
Continuous
 62
     7
370
    25
100
AcDbSpline
210
0.0
220
0.0
230
1.0
 70
     8
 71
     3
 72
    11
 73
     7
 74
     0
 42
0.00000001
 43
0.00000001
 40
0.0
 40
0.0
 40
0.0
 40
0.0
 40
0.2550921435312739
 40
0.498379195413478
 40
0.7437399667914606
 40
1.0
 40
1.0
 40
1.0
 40
1.0
 10
141.525570063161
 20
82.54217908450319
 30
0.0
 10
141.5130762985455
 20
82.52834133399672
 30
0.0
 10
141.4886669526887
 20
82.50130621300758
 30
0.0
 10
141.4629166499092
 20
82.45306175967838
 30
0.0
 10
141.4473564283417
 20
82.40057025690622
 30
0.0
 10
141.445458543306
 20
82.36396711613854
 30
0.0
 10
141.4444889820799
 20
82.34526788759199
 30
0.0
  0
SPLINE
  5
AC
330
1F
100
AcDbEntity
  8
0
  6
Continuous
 62
     7
370
    25
100
AcDbSpline
210
0.0
220
0.0
230
1.0
 70
     8
 71
     3
 72
    15
 73
    11
 74
     0
 42
0.00000001
 43
0.00000001
 40
0.0
 40
0.0
 40
0.0
 40
0.0
 40
0.1305521219623391
 40
0.257514555698003
 40
0.3807268344757818
 40
0.5030306145961515
 40
0.6251462349433743
 40
0.7476378858044687
 40
0.8722881459663864
 40
1.0
 40
1.0
 40
1.0
 40
1.0
 10
141.7803963179873
 20
82.64642618875028
 30
0.0
 10
141.7680845109839
 20
82.64606549089635
 30
0.0
 10
141.7437994249765
 20
82.64535401301147
 30
0.0
 10
141.7081327779584
 20
82.64065563708876
 30
0.0
 10
141.6738966085727
 20
82.63248544845489
 30
0.0
 10
141.6412421502301
 20
82.62070360454662
 30
0.0
 10
141.6096993445117
 20
82.60630441906606
 30
0.0
 10
141.580083701394
 20
82.58788805268674
 30
0.0
 10
141.5514102500646
 20
82.56707734298232
 30
0.0
 10
141.5342528419196
 20
82.55054535796147
 30
0.0
 10
141.525570063161
 20
82.54217908450319
 30
0.0
  0
LINE
  5
AD
330
1F
100
AcDbEntity
  8
0
  6
Continuous
 62
     7
370
    25
100
AcDbLine
 10
141.8614773991
 20
82.6464261888
 30
0.0
 11
141.780396318
 21
82.6464261888
 31
0.0
  0
LINE
  5
AE
330
1F
100
AcDbEntity
  8
0
  6
Continuous
 62
     7
370
    25
100
AcDbLine
 10
141.8614773991
 20
82.9205574629
 30
0.0
 11
141.8614773991
 21
82.6464261888
 31
0.0
  0
LINE
  5
AF
330
1F
100
AcDbEntity
  8
0
  6
Continuous
 62
     7
370
    25
100
AcDbLine
 10
141.7688133064
 20
82.9205574629
 30
0.0
 11
141.8614773991
 21
82.9205574629
 31
0.0
  0
SPLINE
  5
B0
330
1F
100
AcDbEntity
  8
0
  6
Continuous
 62
     7
370
    25
100
AcDbSpline
210
0.0
220
0.0
230
1.0
 70
     8
 71
     3
 72
    15
 73
    11
 74
     0
 42
0.00000001
 43
0.00000001
 40
0.0
 40
0.0
 40
0.0
 40
0.0
 40
0.1339120169181254
 40
0.2615284644313486
 40
0.3861887226529777
 40
0.5091929985924207
 40
0.6296768122270385
 40
0.751255974435348
 40
0.8742965747069021
 40
1.0
 40
1.0
 40
1.0
 40
1.0
 10
141.3865739241649
 20
82.7506732929974
 30
0.0
 10
141.4002012345912
 20
82.76423811931004
 30
0.0
 10
141.4268151983874
 20
82.79073005242752
 30
0.0
 10
141.470232757094
 20
82.82535829010715
 30
0.0
 10
141.5154579484462
 20
82.85474737405323
 30
0.0
 10
141.5626078186308
 20
82.87879810774238
 30
0.0
 10
141.6116630352986
 20
82.89749899421382
 30
0.0
 10
141.6624479093969
 20
82.91066488111564
 30
0.0
 10
141.7150409412622
 20
82.91924042514499
 30
0.0
 10
141.7507617200762
 20
82.92011532833278
 30
0.0
 10
141.7688133064043
 20
82.92055746288158
 30
0.0
  0
SPLINE
  5
B1
330
1F
100
AcDbEntity
  8
0
  6
Continuous
 62
     7
370
    25
100
AcDbSpline
210
0.0
220
0.0
230
1.0
 70
     8
 71
     3
 72
    15
 73
    11
 74
     0
 42
0.00000001
 43
0.00000001
 40
0.0
 40
0.0
 40
0.0
 40
0.0
 40
0.1330514903197375
 40
0.2614008608137413
 40
0.3859789426424562
 40
0.508465614902219
 40
0.6295593452611172
 40
0.7509246542250765
 40
0.8741074588764663
 40
1.0
 40
1.0
 40
1.0
 40
1.0
 10
141.2244117620027
 20
82.34526788759199
 30
0.0
 10
141.2248721342096
 20
82.36517446112371
 30
0.0
 10
141.2257766087922
 20
82.40428409788566
 30
0.0
 10
141.233910902213
 20
82.46152723777753
 30
0.0
 10
141.2459575504184
 20
82.51645112554732
 30
0.0
 10
141.2643597160733
 20
82.56844947936506
 30
0.0
 10
141.2869707981011
 20
82.61822776466744
 30
0.0
 10
141.3153675988207
 20
82.66503240604227
 30
0.0
 10
141.3475960381583
 20
82.71026461664162
 30
0.0
 10
141.3734874031895
 20
82.73710639533064
 30
0.0
 10
141.3865739241649
 20
82.7506732929974
 30
0.0
  0
SPLINE
  5
B2
330
1F
100
AcDbEntity
  8
0
  6
Continuous
 62
     7
370
    25
100
AcDbSpline
210
0.0
220
0.0
230
1.0
 70
     8
 71
     3
 72
    15
 73
    11
 74
     0
 42
0.00000001
 43
0.00000001
 40
0.0
 40
0.0
 40
0.0
 40
0.0
 40
0.1158830802717862
 40
0.2315534497979608
 40
0.3480625771524271
 40
0.4678553783950306
 40
0.5925908197539047
 40
0.721311503017262
 40
0.8571441704632067
 40
1.0
 40
1.0
 40
1.0
 40
1.0
 10
141.3865739241649
 20
81.89353043585454
 30
0.0
 10
141.3734419187718
 20
81.90735481793442
 30
0.0
 10
141.3472020126145
 20
81.93497820656381
 30
0.0
 10
141.3150509934714
 20
81.982489656575
 30
0.0
 10
141.2865723440509
 20
82.03290073605045
 30
0.0
 10
141.2640586518557
 20
82.08791063018225
 30
0.0
 10
141.2458711664281
 20
82.14656892807733
 30
0.0
 10
141.2337727004754
 20
82.20945427421994
 30
0.0
 10
141.2257559320766
 20
82.27599103625042
 30
0.0
 10
141.2248672835668
 20
82.32179087356641
 30
0.0
 10
141.2244117620027
 20
82.34526788759199
 30
0.0
  0
SPLINE
  5
B3
330
1F
100
AcDbEntity
  8
0
  6
Continuous
 62
     7
370
    25
100
AcDbSpline
210
0.0
220
0.0
230
1.0
 70
     8
 71
     3
 72
    15
 73
    11
 74
     0
 42
0.00000001
 43
0.00000001
 40
0.0
 40
0.0
 40
0.0
 40
0.0
 40
0.1354658418109469
 40
0.2653728839126843
 40
0.3915266279918202
 40
0.5146179992444259
 40
0.63536523897052
 40
0.7554358763572421
 40
0.8764282152102186
 40
1.0
 40
1.0
 40
1.0
 40
1.0
 10
141.8035623411533
 20
81.73136827369237
 30
0.0
 10
141.7827982721411
 20
81.73182285901146
 30
0.0
 10
141.7421221813873
 20
81.73271337587897
 30
0.0
 10
141.6826027715047
 20
81.74087946232963
 30
0.0
 10
141.6256722434451
 20
81.75285214312261
 30
0.0
 10
141.5719408636392
 20
81.77123668526238
 30
0.0
 10
141.5208596154112
 20
81.79382938024608
 30
0.0
 10
141.4731531675879
 20
81.822201794542
 30
0.0
 10
141.4274296321521
 20
81.85455052118516
 30
0.0
 10
141.400287915762
 20
81.88044608978474
 30
0.0
 10
141.3865739241649
 20
81.89353043585454
 30
0.0
  0
SPLINE
  5
B4
330
1F
100
AcDbEntity
  8
0
  6
Continuous
 62
     7
370
    25
100
AcDbSpline
210
0.0
220
0.0
230
1.0
 70
     8
 71
     3
 72
    15
 73
    11
 74
     0
 42
0.00000001
 43
0.00000001
 40
0.0
 40
0.0
 40
0.0
 40
0.0
 40
0.1195027114365312
 40
0.2380939422658884
 40
0.3566476293726339
 40
0.477580619576914
 40
0.6003630199241494
 40
0.727832734004141
 40
0.8606471500295815
 40
1.0
 40
1.0
 40
1.0
 40
1.0
 10
142.1742187118097
 20
81.87036441268852
 30
0.0
 10
142.1624406905067
 20
81.85922492566445
 30
0.0
 10
142.1389744821638
 20
81.83703091559973
 30
0.0
 10
142.0996497909542
 20
81.8086285548177
 30
0.0
 10
142.0571362785581
 20
81.78506812283814
 30
0.0
 10
142.0121673245421
 20
81.76510013995407
 30
0.0
 10
141.9639863657274
 20
81.75030198950715
 30
0.0
 10
141.9132629670579
 20
81.7389308995145
 30
0.0
 10
141.8593516665036
 20
81.73256530000718
 30
0.0
 10
141.8224542523476
 20
81.73177362211153
 30
0.0
 10
141.8035623411533
 20
81.73136827369237
 30
0.0
  0
SPLINE
  5
B5
330
1F
100
AcDbEntity
  8
0
  6
Continuous
 62
     7
370
    25
100
AcDbSpline
210
0.0
220
0.0
230
1.0
 70
     8
 71
     3
 72
    11
 73
     7
 74
     0
 42
0.00000001
 43
0.00000001
 40
0.0
 40
0.0
 40
0.0
 40
0.0
 40
0.2570374775372491
 40
0.5073419159098042
 40
0.7523129875772131
 40
1.0
 40
1.0
 40
1.0
 40
1.0
 10
142.2900488276398
 20
82.06727560959972
 30
0.0
 10
142.2838134855658
 20
82.04848785877925
 30
0.0
 10
142.2715061348073
 20
82.01140449806387
 30
0.0
 10
142.2448390226014
 20
81.9598422906456
 30
0.0
 10
142.2130225176671
 20
81.9121438874544
 30
0.0
 10
142.1872007640833
 20
81.88434199332504
 30
0.0
 10
142.1742187118097
 20
81.87036441268852
 30
0.0
  0
SPLINE
  5
B6
330
1F
100
AcDbEntity
  8
0
  6
Continuous
 62
     7
370
    25
100
AcDbSpline
210
0.0
220
0.0
230
1.0
 70
     8
 71
     3
 72
    11
 73
     7
 74
     0
 42
0.00000001
 43
0.00000001
 40
0.0
 40
0.0
 40
0.0
 40
0.0
 40
0.2731656445547252
 40
0.5274113090719882
 40
0.7672619830757377
 40
1.0
 40
1.0
 40
1.0
 40
1.0
 10
142.3827129203039
 20
81.89353043585454
 30
0.0
 10
142.3702389345407
 20
81.90689240021275
 30
0.0
 10
142.346154935356
 20
81.93269085347518
 30
0.0
 10
142.3186341379341
 20
81.97617693696452
 30
0.0
 10
142.298691666952
 20
82.02082579620686
 30
0.0
 10
142.292900722031
 20
82.05194847490426
 30
0.0
 10
142.2900488276398
 20
82.06727560959972
 30
0.0
  0
SPLINE
  5
B7
330
1F
100
AcDbEntity
  8
0
  6
Continuous
 62
     7
370
    25
100
AcDbSpline
210
0.0
220
0.0
230
1.0
 70
     8
 71
     3
 72
    15
 73
    11
 74
     0
 42
0.00000001
 43
0.00000001
 40
0.0
 40
0.0
 40
0.0
 40
0.0
 40
0.149588826051294
 40
0.2896239650819627
 40
0.421929086193719
 40
0.5465682968532922
 40
0.6661289243466404
 40
0.7799971355270191
 40
0.8908038749321942
 40
1.0
 40
1.0
 40
1.0
 40
1.0
 10
142.7302032677942
 20
81.77770032002442
 30
0.0
 10
142.7114519733485
 20
81.77795729290172
 30
0.0
 10
142.6751469605269
 20
81.77845482674569
 30
0.0
 10
142.6225566177881
 20
81.78434078248252
 30
0.0
 10
142.5734786971429
 20
81.79288179952206
 30
0.0
 10
142.5281983514193
 20
81.8062635325674
 30
0.0
 10
142.4858529081897
 20
81.82140079433995
 30
0.0
 10
142.4479163036569
 20
81.84215874271109
 30
0.0
 10
142.4131009262236
 20
81.86556058810469
 30
0.0
 10
142.3927926975826
 20
81.88425276766583
 30
0.0
 10
142.3827129203039
 20
81.89353043585454
 30
0.0
  0
SPLINE
  5
B8
330
1F
100
AcDbEntity
  8
0
  6
Continuous
 62
     7
370
    25
100
AcDbSpline
210
0.0
220
0.0
230
1.0
 70
     8
 71
     3
 72
    15
 73
    11
 74
     0
 42
0.00000001
 43
0.00000001
 40
0.0
 40
0.0
 40
0.0
 40
0.0
 40
0.1195027114365312
 40
0.2380939422658884
 40
0.3566476293726339
 40
0.477580619576914
 40
0.6003630199241494
 40
0.7278327340041406
 40
0.8606471500295815
 40
1.0
 40
1.0
 40
1.0
 40
1.0
 10
143.1008596384506
 20
81.91669645902057
 30
0.0
 10
143.0890816171477
 20
81.90555697199649
 30
0.0
 10
143.0656154088048
 20
81.88336296193177
 30
0.0
 10
143.0262907175951
 20
81.85496060114974
 30
0.0
 10
142.983777205199
 20
81.8314001691702
 30
0.0
 10
142.938808251183
 20
81.81143218628611
 30
0.0
 10
142.8906272923683
 20
81.7966340358392
 30
0.0
 10
142.8399038936988
 20
81.78526294584655
 30
0.0
 10
142.7859925931446
 20
81.77889734633922
 30
0.0
 10
142.7490951789885
 20
81.77810566844359
 30
0.0
 10
142.7302032677942
 20
81.77770032002442
 30
0.0
  0
SPLINE
  5
B9
330
1F
100
AcDbEntity
  8
0
  6
Continuous
 62
     7
370
    25
100
AcDbSpline
210
0.0
220
0.0
230
1.0
 70
     8
 71
     3
 72
    15
 73
    11
 74
     0
 42
0.00000001
 43
0.00000001
 40
0.0
 40
0.0
 40
0.0
 40
0.0
 40
0.1401156952848868
 40
0.2734369515897452
 40
0.4007170918852055
 40
0.5244111544238704
 40
0.6451326608364121
 40
0.762762945619248
 40
0.8809824433211497
 40
1.0
 40
1.0
 40
1.0
 40
1.0
 10
143.2514387890297
 20
82.32210186442597
 30
0.0
 10
143.251136087446
 20
82.30133952674167
 30
0.0
 10
143.2505453627729
 20
82.26082165104806
 30
0.0
 10
143.2427763910771
 20
82.20190078731603
 30
0.0
 10
143.2316156483585
 20
82.1460212622504
 30
0.0
 10
143.2145227697489
 20
82.09360268789705
 30
0.0
 10
143.1938290862131
 20
82.04405538788008
 30
0.0
 10
143.1676943536483
 20
81.99804044536116
 30
0.0
 10
143.1367739503622
 20
81.95538503317404
 30
0.0
 10
143.1128578934088
 20
81.9296215396348
 30
0.0
 10
143.1008596384506
 20
81.91669645902057
 30
0.0
  0
SPLINE
  5
BA
330
1F
100
AcDbEntity
  8
0
  6
Continuous
 62
     7
370
    25
100
AcDbSpline
210
0.0
220
0.0
230
1.0
 70
     8
 71
     3
 72
    15
 73
    11
 74
     0
 42
0.00000001
 43
0.00000001
 40
0.0
 40
0.0
 40
0.0
 40
0.0
 40
0.1270527522076902
 40
0.2522753243044996
 40
0.3739697899787143
 40
0.4948832629277703
 40
0.6176556772794564
 40
0.7419399124466165
 40
0.8684128160693879
 40
1.0
 40
1.0
 40
1.0
 40
1.0
 10
143.1008596384506
 20
82.69275823508234
 30
0.0
 10
143.1128472080336
 20
82.68011462074134
 30
0.0
 10
143.1366496676548
 20
82.6550095218526
 30
0.0
 10
143.1673481564332
 20
82.61382451680475
 30
0.0
 10
143.1934183396649
 20
82.5705828483487
 30
0.0
 10
143.2144787157425
 20
82.52507381895435
 30
0.0
 10
143.2314881905551
 20
82.47748634367169
 30
0.0
 10
143.2426289796697
 20
82.42745437429568
 30
0.0
 10
143.2505386694936
 20
82.37554925951322
 30
0.0
 10
143.2511348110383
 20
82.34015150245159
 30
0.0
 10
143.2514387890297
 20
82.32210186442597
 30
0.0
  0
SPLINE
  5
BB
330
1F
100
AcDbEntity
  8
0
  6
Continuous
 62
     7
370
    25
100
AcDbSpline
210
0.0
220
0.0
230
1.0
 70
     8
 71
     3
 72
    15
 73
    11
 74
     0
 42
0.00000001
 43
0.00000001
 40
0.0
 40
0.0
 40
0.0
 40
0.0
 40
0.1342207616992959
 40
0.2632543584014014
 40
0.3882486178889515
 40
0.5110181775835606
 40
0.6322369822528031
 40
0.7532951172272377
 40
0.8750618099117071
 40
1.0
 40
1.0
 40
1.0
 40
1.0
 10
142.6607051982961
 20
82.86650340882751
 30
0.0
 10
142.6824666681989
 20
82.86605818753061
 30
0.0
 10
142.7251486029801
 20
82.86518495118939
 30
0.0
 10
142.7876629615717
 20
82.85687146448198
 30
0.0
 10
142.8472122559087
 20
82.8430165077439
 30
0.0
 10
142.9041018782532
 20
82.82427434427436
 30
0.0
 10
142.9580650437544
 20
82.7996974816433
 30
0.0
 10
143.0087869210915
 20
82.76939387189297
 30
0.0
 10
143.0570249945428
 20
82.73414012736053
 30
0.0
 10
143.0861233996427
 20
82.70666991298303
 30
0.0
 10
143.1008596384506
 20
82.69275823508234
 30
0.0
  0
SPLINE
  5
BC
330
1F
100
AcDbEntity
  8
0
  6
Continuous
 62
     7
370
    25
100
AcDbSpline
210
0.0
220
0.0
230
1.0
 70
     8
 71
     3
 72
    15
 73
    11
 74
     0
 42
0.00000001
 43
0.00000001
 40
0.0
 40
0.0
 40
0.0
 40
0.0
 40
0.1418032572055078
 40
0.2768956124422277
 40
0.4056005815718942
 40
0.5283792299702869
 40
0.6485398625937335
 40
0.7671999810702804
 40
0.8821728056706524
 40
1.0
 40
1.0
 40
1.0
 40
1.0
 10
142.9386974762884
 20
84.12905167137578
 30
0.0
 10
142.9388311119054
 20
84.11587335663123
 30
0.0
 10
142.9390920587744
 20
84.09014039672569
 30
0.0
 10
142.9444233519487
 20
84.05282007519475
 30
0.0
 10
142.9506007662776
 20
84.01740804875797
 30
0.0
 10
142.9614596706661
 20
83.98459036889057
 30
0.0
 10
142.9739326078994
 20
83.95335513491705
 30
0.0
 10
142.9905202270404
 20
83.92492998376066
 30
0.0
 10
143.0089953744917
 20
83.897938763693
 30
0.0
 10
143.02384547824
 20
83.88219421376895
 30
0.0
 10
143.0313615689525
 20
83.8742254165495
 30
0.0
  0
LINE
  5
BD
330
1F
100
AcDbEntity
  8
0
  6
Continuous
 62
     7
370
    25
100
AcDbLine
 10
142.9386974763
 20
84.2332987756
 30
0.0
 11
142.9386974763
 21
84.1290516714
 31
0.0
  0
LINE
  5
BE
330
1F
100
AcDbEntity
  8
0
  6
Continuous
 62
     7
370
    25
100
AcDbLine
 10
142.8018463394
 20
84.2332987756
 30
0.0
 11
142.9386974763
 21
84.2332987756
 31
0.0
  0
LINE
  5
BF
330
1F
100
AcDbEntity
  8
0
  6
Continuous
 62
     7
370
    25
100
AcDbLine
 10
142.8018463394
 20
83.8935304359
 30
0.0
 11
142.8018463394
 21
84.2332987756
 31
0.0
  0
LINE
  5
C0
330
1F
100
AcDbEntity
  8
0
  6
Continuous
 62
     7
370
    25
100
AcDbLine
 10
141.2591607968
 20
83.8935304359
 30
0.0
 11
142.8018463394
 21
83.8935304359
 31
0.0
  0
LINE
  5
C1
330
1F
100
AcDbEntity
  8
0
  6
Continuous
 62
     7
370
    25
100
AcDbLine
 10
141.2591607968
 20
83.6193991617
 30
0.0
 11
141.2591607968
 21
83.8935304359
 31
0.0
  0
SPLINE
  5
C2
330
1F
100
AcDbEntity
  8
0
  6
Continuous
 62
     7
370
    25
100
AcDbSpline
210
0.0
220
0.0
230
1.0
 70
     8
 71
     3
 72
    11
 73
     7
 74
     0
 42
0.00000001
 43
0.00000001
 40
0.0
 40
0.0
 40
0.0
 40
0.0
 40
0.2682823389612931
 40
0.519799796734137
 40
0.7604656312619598
 40
1.0
 40
1.0
 40
1.0
 40
1.0
 10
143.0313615689525
 20
83.8742254165495
 30
0.0
 10
143.0487295767362
 20
83.85812909583672
 30
0.0
 10
143.0823802708167
 20
83.82694230856225
 30
0.0
 10
143.1399646585041
 20
83.79206353341274
 30
0.0
 10
143.2000876592418
 20
83.76748960774903
 30
0.0
 10
143.2420767322338
 20
83.76142197079778
 30
0.0
 10
143.2630218006128
 20
83.75839530071941
 30
0.0
  0
LINE
  5
C3
330
1F
100
AcDbEntity
  8
0
  6
Continuous
 62
     7
370
    25
100
AcDbLine
 10
142.1677837054
 20
85.9475844899
 30
0.0
 11
142.3595468971
 21
85.9475844899
 31
0.0
  0
LINE
  5
C4
330
1F
100
AcDbEntity
  8
0
  6
Continuous
 62
     7
370
    25
100
AcDbLine
 10
142.1677837054
 20
84.6271211694
 30
0.0
 11
142.1677837054
 21
85.9475844899
 31
0.0
  0
LINE
  5
C5
330
1F
100
AcDbEntity
  8
0
  6
Continuous
 62
     7
370
    25
100
AcDbLine
 10
142.3595468971
 20
84.6271211694
 30
0.0
 11
142.1677837054
 21
84.6271211694
 31
0.0
  0
LINE
  5
C6
330
1F
100
AcDbEntity
  8
0
  6
Continuous
 62
     7
370
    25
100
AcDbLine
 10
142.3595468971
 20
85.9475844899
 30
0.0
 11
142.3595468971
 21
84.6271211694
 31
0.0
  0
LINE
  5
C7
330
1F
100
AcDbEntity
  8
0
  6
Continuous
 62
     7
370
    25
100
AcDbLine
 10
141.248435786
 20
87.7339422763
 30
0.0
 11
143.2282727659
 21
87.7339422763
 31
0.0
  0
LINE
  5
C8
330
1F
100
AcDbEntity
  8
0
  6
Continuous
 62
     7
370
    25
100
AcDbLine
 10
141.248435786
 20
86.8111623535
 30
0.0
 11
141.248435786
 21
87.7339422763
 31
0.0
  0
SPLINE
  5
C9
330
1F
100
AcDbEntity
  8
0
  6
Continuous
 62
     7
370
    25
100
AcDbSpline
210
0.0
220
0.0
230
1.0
 70
     8
 71
     3
 72
    15
 73
    11
 74
     0
 42
0.00000001
 43
0.00000001
 40
0.0
 40
0.0
 40
0.0
 40
0.0
 40
0.1086277469152489
 40
0.2195300404679353
 40
0.3340583594962487
 40
0.4525037346025796
 40
0.5781660321028785
 40
0.7098017975268054
 40
0.8504665399585412
 40
1.0
 40
1.0
 40
1.0
 40
1.0
 10
141.3865739241649
 20
86.39417393649804
 30
0.0
 10
141.3755579103553
 20
86.40623110300886
 30
0.0
 10
141.3532952194123
 20
86.43059789995732
 30
0.0
 10
141.3248438064892
 20
86.47216730281889
 30
0.0
 10
141.3014319117514
 20
86.51833621956912
 30
0.0
 10
141.282055305241
 20
86.56868283133899
 30
0.0
 10
141.2665897881184
 20
86.62306170165537
 30
0.0
 10
141.2560790745635
 20
86.68198529868776
 30
0.0
 10
141.2495665500837
 20
86.74509152490153
 30
0.0
 10
141.2488203093084
 20
86.78869456131154
 30
0.0
 10
141.2484357860268
 20
86.81116235348647
 30
0.0
  0
SPLINE
  5
CA
330
1F
100
AcDbEntity
  8
0
  6
Continuous
 62
     7
370
    25
100
AcDbSpline
210
0.0
220
0.0
230
1.0
 70
     8
 71
     3
 72
    15
 73
    11
 74
     0
 42
0.00000001
 43
0.00000001
 40
0.0
 40
0.0
 40
0.0
 40
0.0
 40
0.1319114978615548
 40
0.2585593955794499
 40
0.3829282045992124
 40
0.5051155152535455
 40
0.6266776175559877
 40
0.7489849223246641
 40
0.8728415720964471
 40
1.0
 40
1.0
 40
1.0
 40
1.0
 10
141.8151453527363
 20
86.22042876275286
 30
0.0
 10
141.7942395642195
 20
86.22086753583987
 30
0.0
 10
141.7532621806658
 20
86.22172757386542
 30
0.0
 10
141.693048393615
 20
86.23015751582153
 30
0.0
 10
141.63547464254
 20
86.24389903136334
 30
0.0
 10
141.5801880418685
 20
86.26274863693568
 30
0.0
 10
141.5275297433124
 20
86.28733255388386
 30
0.0
 10
141.4777088091982
 20
86.31766216436772
 30
0.0
 10
141.4299635534729
 20
86.35279351814434
 30
0.0
 10
141.401163410125
 20
86.38026003489938
 30
0.0
 10
141.3865739241649
 20
86.39417393649804
 30
0.0
  0
SPLINE
  5
CB
330
1F
100
AcDbEntity
  8
0
  6
Continuous
 62
     7
370
    25
100
AcDbSpline
210
0.0
220
0.0
230
1.0
 70
     8
 71
     3
 72
    15
 73
    11
 74
     0
 42
0.00000001
 43
0.00000001
 40
0.0
 40
0.0
 40
0.0
 40
0.0
 40
0.1263812889588909
 40
0.2491049464973157
 40
0.3706105362999224
 40
0.4913917559424299
 40
0.6138158455532663
 40
0.7388355742356973
 40
0.8671181754268787
 40
1.0
 40
1.0
 40
1.0
 40
1.0
 10
142.1626357002267
 20
86.359424901749
 30
0.0
 10
142.1508164740601
 20
86.3483393493995
 30
0.0
 10
142.1275200848072
 20
86.32648907434955
 30
0.0
 10
142.089517488384
 20
86.29775314718741
 30
0.0
 10
142.0488635182304
 20
86.27447154127074
 30
0.0
 10
142.0066792320975
 20
86.25412076457918
 30
0.0
 10
141.9616961054004
 20
86.23950011451176
 30
0.0
 10
141.9148680119146
 20
86.22805295594178
 30
0.0
 10
141.8656586650227
 20
86.2216470806022
 30
0.0
 10
141.8321796503501
 20
86.22083960868424
 30
0.0
 10
141.8151453527363
 20
86.22042876275286
 30
0.0
  0
SPLINE
  5
CC
330
1F
100
AcDbEntity
  8
0
  6
Continuous
 62
     7
370
    25
100
AcDbSpline
210
0.0
220
0.0
230
1.0
 70
     8
 71
     3
 72
    11
 73
     7
 74
     0
 42
0.00000001
 43
0.00000001
 40
0.0
 40
0.0
 40
0.0
 40
0.0
 40
0.2758864184465425
 40
0.5310076877713112
 40
0.7722766677115261
 40
1.0
 40
1.0
 40
1.0
 40
1.0
 10
142.2900488276398
 20
86.57950212182624
 30
0.0
 10
142.2820948406678
 20
86.55727702498363
 30
0.0
 10
142.2667855396361
 20
86.51449964815103
 30
0.0
 10
142.236712996994
 20
86.45556830780005
 30
0.0
 10
142.2027901107594
 20
86.40351935778368
 30
0.0
 10
142.1757602744264
 20
86.37383729013541
 30
0.0
 10
142.1626357002267
 20
86.359424901749
 30
0.0
  0
SPLINE
  5
CD
330
1F
100
AcDbEntity
  8
0
  6
Continuous
 62
     7
370
    25
100
AcDbSpline
210
0.0
220
0.0
230
1.0
 70
     8
 71
     3
 72
    11
 73
     7
 74
     0
 42
0.00000001
 43
0.00000001
 40
0.0
 40
0.0
 40
0.0
 40
0.0
 40
0.2409277974217338
 40
0.485486417242415
 40
0.7380410464993896
 40
0.9999999999999999
 40
0.9999999999999999
 40
0.9999999999999999
 40
0.9999999999999999
 10
142.3942959318869
 20
86.40575694808106
 30
0.0
 10
142.3831110127958
 20
86.41779264039606
 30
0.0
 10
142.3605726160031
 20
86.44204540493206
 30
0.0
 10
142.3321781863773
 20
86.48377245109748
 30
0.0
 10
142.3086027710284
 20
86.52993556382532
 30
0.0
 10
142.296308381412
 20
86.56277982572915
 30
0.0
 10
142.2900488276398
 20
86.57950212182624
 30
0.0
  0
SPLINE
  5
CE
330
1F
100
AcDbEntity
  8
0
  6
Continuous
 62
     7
370
    25
100
AcDbSpline
210
0.0
220
0.0
230
1.0
 70
     8
 71
     3
 72
    15
 73
    11
 74
     0
 42
0.00000001
 43
0.00000001
 40
0.0
 40
0.0
 40
0.0
 40
0.0
 40
0.1312072932871421
 40
0.2585055422472042
 40
0.3817646425439866
 40
0.5033692670500671
 40
0.6250492974901233
 40
0.7476118725723033
 40
0.8722462138971595
 40
1.0
 40
1.0
 40
1.0
 40
1.0
 10
142.7070372446282
 20
86.27834382066793
 30
0.0
 10
142.6918595772995
 20
86.27877643552097
 30
0.0
 10
142.6619564292003
 20
86.27962877638076
 30
0.0
 10
142.6181330094909
 20
86.28574391829774
 30
0.0
 10
142.5761933724868
 20
86.29565392426399
 30
0.0
 10
142.5359808787158
 20
86.30933614970192
 30
0.0
 10
142.4976861043297
 20
86.32754574870809
 30
0.0
 10
142.4611160463608
 20
86.34959398992426
 30
0.0
 10
142.4259649653988
 20
86.37519363857078
 30
0.0
 10
142.4049389017604
 20
86.3954855773987
 30
0.0
 10
142.3942959318869
 20
86.40575694808106
 30
0.0
  0
SPLINE
  5
CF
330
1F
100
AcDbEntity
  8
0
  6
Continuous
 62
     7
370
    25
100
AcDbSpline
210
0.0
220
0.0
230
1.0
 70
     8
 71
     3
 72
    15
 73
    11
 74
     0
 42
0.00000001
 43
0.00000001
 40
0.0
 40
0.0
 40
0.0
 40
0.0
 40
0.1195027114365312
 40
0.2380939422658881
 40
0.3566476293726339
 40
0.4775806195769139
 40
0.6003630199241493
 40
0.7278327340041405
 40
0.8606471500295814
 40
1.0
 40
1.0
 40
1.0
 40
1.0
 10
143.0776936152846
 20
86.41733995966406
 30
0.0
 10
143.0659155939816
 20
86.40620047263998
 30
0.0
 10
143.0424493856387
 20
86.38400646257527
 30
0.0
 10
143.0031246944291
 20
86.35560410179325
 30
0.0
 10
142.960611182033
 20
86.33204366981369
 30
0.0
 10
142.915642228017
 20
86.31207568692962
 30
0.0
 10
142.8674612692022
 20
86.2972775364827
 30
0.0
 10
142.8167378705328
 20
86.28590644649005
 30
0.0
 10
142.7628265699785
 20
86.27954084698273
 30
0.0
 10
142.7259291558225
 20
86.27874916908708
 30
0.0
 10
142.7070372446282
 20
86.27834382066793
 30
0.0
  0
SPLINE
  5
D0
330
1F
100
AcDbEntity
  8
0
  6
Continuous
 62
     7
370
    25
100
AcDbSpline
210
0.0
220
0.0
230
1.0
 70
     8
 71
     3
 72
    15
 73
    11
 74
     0
 42
0.00000001
 43
0.00000001
 40
0.0
 40
0.0
 40
0.0
 40
0.0
 40
0.1342477572737627
 40
0.2634617725756838
 40
0.388466627173029
 40
0.511879051186957
 40
0.6324080741525888
 40
0.7535525248235467
 40
0.8755084805282739
 40
1.0
 40
1.0
 40
1.0
 40
1.0
 10
143.2282727658637
 20
86.79957934190345
 30
0.0
 10
143.2279625948378
 20
86.78067433821685
 30
0.0
 10
143.2273538829311
 20
86.74357319118123
 30
0.0
 10
143.2195595039539
 20
86.68936243975082
 30
0.0
 10
143.2083009419536
 20
86.63736629594035
 30
0.0
 10
143.1914259040294
 20
86.58815048141213
 30
0.0
 10
143.1702056773208
 20
86.5412990556202
 30
0.0
 10
143.1445830945793
 20
86.49688518249418
 30
0.0
 10
143.1133193767166
 20
86.4555112634908
 30
0.0
 10
143.0896500427214
 20
86.43015070127433
 30
0.0
 10
143.0776936152846
 20
86.41733995966406
 30
0.0
  0
LINE
  5
D1
330
1F
100
AcDbEntity
  8
0
  6
Continuous
 62
     7
370
    25
100
AcDbLine
 10
143.2282727659
 20
87.7339422763
 30
0.0
 11
143.2282727659
 21
86.7995793419
 31
0.0
  0
LINE
  5
D2
330
1F
100
AcDbEntity
  8
0
  6
Continuous
 62
     7
370
    25
100
AcDbLine
 10
141.2475777852
 20
89.6168251591
 30
0.0
 11
143.2282727659
 21
89.6168251591
 31
0.0
  0
LINE
  5
D3
330
1F
100
AcDbEntity
  8
0
  6
Continuous
 62
     7
370
    25
100
AcDbLine
 10
141.2475777852
 20
89.342693885
 30
0.0
 11
141.2475777852
 21
89.6168251591
 31
0.0
  0
LINE
  5
D4
330
1F
100
AcDbEntity
  8
0
  6
Continuous
 62
     7
370
    25
100
AcDbLine
 10
142.8112843489
 20
89.342693885
 30
0.0
 11
141.2475777852
 21
89.342693885
 31
0.0
  0
LINE
  5
D5
330
1F
100
AcDbEntity
  8
0
  6
Continuous
 62
     7
370
    25
100
AcDbLine
 10
141.2475777852
 20
88.4160529584
 30
0.0
 11
142.8112843489
 21
89.342693885
 31
0.0
  0
LINE
  5
D6
330
1F
100
AcDbEntity
  8
0
  6
Continuous
 62
     7
370
    25
100
AcDbLine
 10
141.2475777852
 20
88.1264776688
 30
0.0
 11
141.2475777852
 21
88.4160529584
 31
0.0
  0
LINE
  5
D7
330
1F
100
AcDbEntity
  8
0
  6
Continuous
 62
     7
370
    25
100
AcDbLine
 10
143.2282727659
 20
88.1264776688
 30
0.0
 11
141.2475777852
 21
88.1264776688
 31
0.0
  0
LINE
  5
D8
330
1F
100
AcDbEntity
  8
0
  6
Continuous
 62
     7
370
    25
100
AcDbLine
 10
143.2282727659
 20
88.4006089429
 30
0.0
 11
143.2282727659
 21
88.1264776688
 31
0.0
  0
LINE
  5
D9
330
1F
100
AcDbEntity
  8
0
  6
Continuous
 62
     7
370
    25
100
AcDbLine
 10
141.6645662022
 20
88.4006089429
 30
0.0
 11
143.2282727659
 21
88.4006089429
 31
0.0
  0
LINE
  5
DA
330
1F
100
AcDbEntity
  8
0
  6
Continuous
 62
     7
370
    25
100
AcDbLine
 10
143.2282727659
 20
89.3195278619
 30
0.0
 11
141.6645662022
 21
88.4006089429
 31
0.0
  0
LINE
  5
DB
330
1F
100
AcDbEntity
  8
0
  6
Continuous
 62
     7
370
    25
100
AcDbLine
 10
143.2282727659
 20
89.6168251591
 30
0.0
 11
143.2282727659
 21
89.3195278619
 31
0.0
  0
LINE
  5
DC
330
1F
100
AcDbEntity
  8
0
  6
Continuous
 62
     7
370
    25
100
AcDbLine
 10
143.2630218006
 20
83.6193991617
 30
0.0
 11
141.2591607968
 21
83.6193991617
 31
0.0
  0
LINE
  5
DD
330
1F
100
AcDbEntity
  8
0
  6
Continuous
 62
     7
370
    25
100
AcDbLine
 10
143.2630218006
 20
83.7583953007
 30
0.0
 11
143.2630218006
 21
83.6193991617
 31
0.0
  0
SPLINE
  5
DE
330
1F
100
AcDbEntity
  8
0
  6
Continuous
 62
     7
370
    25
100
AcDbSpline
210
0.0
220
0.0
230
1.0
 70
     8
 71
     3
 72
    15
 73
    11
 74
     0
 42
0.00000001
 43
0.00000001
 40
0.0
 40
0.0
 40
0.0
 40
0.0
 40
0.1244915194717251
 40
0.2464474751764524
 40
0.3675919258474105
 40
0.4881209488130424
 40
0.6115333728269706
 40
0.736538227424316
 40
0.8657522427262366
 40
0.9999999999999999
 40
0.9999999999999999
 40
0.9999999999999999
 40
0.9999999999999999
 10
143.1124426500336
 20
80.43407097639508
 30
0.0
 10
143.0996319084233
 20
80.42211454895822
 30
0.0
 10
143.0742713462068
 20
80.39844521496303
 30
0.0
 10
143.0328974272035
 20
80.36718149710033
 30
0.0
 10
142.9884835540775
 20
80.34155891435891
 30
0.0
 10
142.9416321282855
 20
80.32033868765028
 30
0.0
 10
142.8924163137573
 20
80.30346364972607
 30
0.0
 10
142.8404201699469
 20
80.29220508772568
 30
0.0
 10
142.7862094185164
 20
80.28441070874857
 30
0.0
 10
142.7491082714808
 20
80.28380199684187
 30
0.0
 10
142.7302032677942
 20
80.28349182581593
 30
0.0
  0
LINE
  5
DF
330
1F
100
AcDbEntity
  8
0
  6
Continuous
 62
     7
370
    25
100
AcDbLine
 10
142.6607051983
 20
82.611677154
 30
0.0
 11
142.6607051983
 21
82.8665034088
 31
0.0
  0
SPLINE
  5
E0
330
1F
100
AcDbEntity
  8
0
  6
Continuous
 62
     7
370
    25
100
AcDbSpline
210
0.0
220
0.0
230
1.0
 70
     8
 71
     3
 72
    15
 73
    11
 74
     0
 42
0.00000001
 43
0.00000001
 40
0.0
 40
0.0
 40
0.0
 40
0.0
 40
0.1017738366845027
 40
0.2081280746103136
 40
0.3195222361320725
 40
0.4377158324105369
 40
0.564061266821582
 40
0.7002741501736238
 40
0.8452618826189012
 40
1.0
 40
1.0
 40
1.0
 40
1.0
 10
142.9618634994544
 20
82.50743004975415
 30
0.0
 10
142.9537613332363
 20
82.5149595594956
 30
0.0
 10
142.9371923572588
 20
82.53035744972254
 30
0.0
 10
142.9080602593824
 20
82.54944129450202
 30
0.0
 10
142.875611761894
 20
82.5661029168288
 30
0.0
 10
142.8398816072845
 20
82.58098628789641
 30
0.0
 10
142.8000367903624
 20
82.59214664844036
 30
0.0
 10
142.7568446806136
 20
82.60179125985849
 30
0.0
 10
142.7098813551448
 20
82.60793572654876
 30
0.0
 10
142.6774489370298
 20
82.61040325445785
 30
0.0
 10
142.6607051982961
 20
82.61167715400127
 30
0.0
  0
LINE
  5
E1
330
1F
100
AcDbEntity
  8
0
  6
Continuous
 62
     7
370
    25
100
AcDbLine
 10
138.7128287504
 20
83.1573433221
 30
0.0
 11
138.7128287504
 21
97.9073433221
 31
0.0
  0
LINE
  5
E2
330
1F
100
AcDbEntity
  8
0
  6
Continuous
 62
     7
370
    25
100
AcDbLine
 10
138.7128287504
 20
68.4073433221
 30
0.0
 11
138.7128287504
 21
83.1573433221
 31
0.0
  0
LINE
  5
E3
330
1F
100
AcDbEntity
  8
0
  6
Continuous
 62
     7
370
    25
100
AcDbLine
 10
145.7128287504
 20
83.1573433221
 30
0.0
 11
145.7128287504
 21
97.9073433221
 31
0.0
  0
LINE
  5
E4
330
1F
100
AcDbEntity
  8
0
  6
Continuous
 62
     7
370
    25
100
AcDbLine
 10
145.7128287504
 20
68.4073433221
 30
0.0
 11
145.7128287504
 21
83.1573433221
 31
0.0
  0
LINE
  5
E5
330
1F
100
AcDbEntity
  8
0
  6
Continuous
 62
     7
370
    25
100
AcDbLine
 10
142.8228673605
 20
79.2255767679
 30
0.0
 11
141.9773075149
 21
79.7390902814
 31
0.0
  0
LINE
  5
E6
330
1F
100
AcDbEntity
  8
0
  6
Continuous
 62
     7
370
    25
100
AcDbLine
 10
141.9773075149
 20
79.2255767679
 30
0.0
 11
142.8228673605
 21
79.2255767679
 31
0.0
  0
LINE
  5
E7
330
1F
100
AcDbEntity
  8
0
  6
Continuous
 62
     7
370
    25
100
AcDbLine
 10
141.9773075149
 20
79.7390902814
 30
0.0
 11
141.9773075149
 21
79.2255767679
 31
0.0
  0
LINE
  5
E8
330
1F
100
AcDbEntity
  8
0
  6
Continuous
 62
     7
370
    25
100
AcDbLine
 10
143.0206365582
 20
78.1058856482
 30
0.0
 11
142.336380874
 21
78.1058856482
 31
0.0
  0
LINE
  5
E9
330
1F
100
AcDbEntity
  8
0
  6
Continuous
 62
     7
370
    25
100
AcDbLine
 10
143.0206365582
 20
77.4572369996
 30
0.0
 11
143.0206365582
 21
78.1058856482
 31
0.0
  0
SPLINE
  5
EA
330
1F
100
AcDbEntity
  8
0
  6
Continuous
 62
     7
370
    25
100
AcDbSpline
210
0.0
220
0.0
230
1.0
 70
     8
 71
     3
 72
    15
 73
    11
 74
     0
 42
0.00000001
 43
0.00000001
 40
0.0
 40
0.0
 40
0.0
 40
0.0
 40
0.1309133268193501
 40
0.2579771534544059
 40
0.3819342897628122
 40
0.5044826360738934
 40
0.6264704025121989
 40
0.7488072761095269
 40
0.8724814751031148
 40
1.0
 40
1.0
 40
1.0
 40
1.0
 10
142.9271144647054
 20
77.23715977948387
 30
0.0
 10
142.9345875604922
 20
77.2448690707477
 30
0.0
 10
142.9493140060374
 20
77.2600609619303
 30
0.0
 10
142.9680104012575
 20
77.28523820990937
 30
0.0
 10
142.9845956796777
 20
77.31098979223486
 30
0.0
 10
142.9980783468388
 20
77.3381055508537
 30
0.0
 10
143.007748316245
 20
77.36663779789322
 30
0.0
 10
143.0150216746125
 20
77.39590568010952
 30
0.0
 10
143.0201651634914
 20
77.42616983376438
 30
0.0
 10
143.0204778315945
 20
77.44677615592941
 30
0.0
 10
143.0206365582275
 20
77.4572369995611
 30
0.0
  0
SPLINE
  5
EB
330
1F
100
AcDbEntity
  8
0
  6
Continuous
 62
     7
370
    25
100
AcDbSpline
210
0.0
220
0.0
230
1.0
 70
     8
 71
     3
 72
    15
 73
    11
 74
     0
 42
0.00000001
 43
0.00000001
 40
0.0
 40
0.0
 40
0.0
 40
0.0
 40
0.1417962611116216
 40
0.2768819513476976
 40
0.4055805706087828
 40
0.5298229690785621
 40
0.6485572024501437
 40
0.767211466637123
 40
0.8821786188665558
 40
1.0
 40
1.0
 40
1.0
 40
1.0
 10
142.6722882098792
 20
77.1444956868198
 30
0.0
 10
142.6854659119077
 20
77.1446311468598
 30
0.0
 10
142.7111976753782
 20
77.14489565623337
 30
0.0
 10
142.748526510862
 20
77.15020159826466
 30
0.0
 10
142.784042970272
 20
77.15649246734266
 30
0.0
 10
142.8169643036103
 20
77.16706455973748
 30
0.0
 10
142.8480747203757
 20
77.17985826905475
 30
0.0
 10
142.8764161094477
 20
77.19630279090615
 30
0.0
 10
142.9033995405357
 20
77.21479755723612
 30
0.0
 10
142.9191451375312
 20
77.22964502362129
 30
0.0
 10
142.9271144647054
 20
77.23715977948387
 30
0.0
  0
SPLINE
  5
EC
330
1F
100
AcDbEntity
  8
0
  6
Continuous
 62
     7
370
    25
100
AcDbSpline
210
0.0
220
0.0
230
1.0
 70
     8
 71
     3
 72
    15
 73
    11
 74
     0
 42
0.00000001
 43
0.00000001
 40
0.0
 40
0.0
 40
0.0
 40
0.0
 40
0.1053643999148122
 40
0.2134004501006512
 40
0.3253299308157716
 40
0.4441520831794073
 40
0.5701116073912011
 40
0.7035881731039115
 40
0.8466305078268432
 40
1.0
 40
1.0
 40
1.0
 40
1.0
 10
142.4174619550529
 20
77.22557676790088
 30
0.0
 10
142.4246220254635
 20
77.21912607988034
 30
0.0
 10
142.4391237191059
 20
77.20606113832365
 30
0.0
 10
142.4637256258863
 20
77.18912058324652
 30
0.0
 10
142.4916616331829
 20
77.17560643645322
 30
0.0
 10
142.5221054961791
 20
77.163744769367
 30
0.0
 10
142.5557832659992
 20
77.15560375086879
 30
0.0
 10
142.5919932262816
 20
77.14900247189534
 30
0.0
 10
142.6311663417857
 20
77.1451831597831
 30
0.0
 10
142.6582661957152
 20
77.14473010602485
 30
0.0
 10
142.6722882098792
 20
77.1444956868198
 30
0.0
  0
SPLINE
  5
ED
330
1F
100
AcDbEntity
  8
0
  6
Continuous
 62
     7
370
    25
100
AcDbSpline
210
0.0
220
0.0
230
1.0
 70
     8
 71
     3
 72
    11
 73
     7
 74
     0
 42
0.00000001
 43
0.00000001
 40
0.0
 40
0.0
 40
0.0
 40
0.0
 40
0.2562600332085413
 40
0.5016208045865206
 40
0.7449078564687277
 40
1.0
 40
1.0
 40
1.0
 40
1.0
 10
142.3363808739718
 20
77.42248796481206
 30
0.0
 10
142.3373504351979
 20
77.40378873626553
 30
0.0
 10
142.3392483202337
 20
77.36718559549783
 30
0.0
 10
142.3548085418011
 20
77.31469409272569
 30
0.0
 10
142.3805588445806
 20
77.26644963939648
 30
0.0
 10
142.4049681904374
 20
77.23941451840734
 30
0.0
 10
142.4174619550529
 20
77.22557676790088
 30
0.0
  0
LINE
  5
EE
330
1F
100
AcDbEntity
  8
0
  6
Continuous
 62
     7
370
    25
100
AcDbLine
 10
142.336380874
 20
78.1058856482
 30
0.0
 11
142.336380874
 21
77.4224879648
 31
0.0
  0
SPLINE
  5
EF
330
1F
100
AcDbEntity
  8
0
  6
Continuous
 62
     7
370
    25
100
AcDbSpline
210
0.0
220
0.0
230
1.0
 70
     8
 71
     3
 72
    11
 73
     7
 74
     0
 42
0.00000001
 43
0.00000001
 40
0.0
 40
0.0
 40
0.0
 40
0.0
 40
0.2562600332085396
 40
0.5016208045865228
 40
0.7449078564687267
 40
1.0
 40
1.0
 40
1.0
 40
1.0
 10
142.3595468971379
 20
80.80472734705145
 30
0.0
 10
142.3585773359118
 20
80.82342657559799
 30
0.0
 10
142.356679450876
 20
80.86002971636569
 30
0.0
 10
142.3411192293085
 20
80.91252121913783
 30
0.0
 10
142.3153689265291
 20
80.96076567246703
 30
0.0
 10
142.2909595806723
 20
80.98780079345617
 30
0.0
 10
142.2784658160568
 20
81.00163854396264
 30
0.0
  0
SPLINE
  5
F0
330
1F
100
AcDbEntity
  8
0
  6
Continuous
 62
     7
370
    25
100
AcDbSpline
210
0.0
220
0.0
230
1.0
 70
     8
 71
     3
 72
    11
 73
     7
 74
     0
 42
0.00000001
 43
0.00000001
 40
0.0
 40
0.0
 40
0.0
 40
0.0
 40
0.2912484084677858
 40
0.5474762715832003
 40
0.7812177661650652
 40
1.0
 40
1.0
 40
1.0
 40
1.0
 10
142.2784658160568
 20
80.64256518488928
 30
0.0
 10
142.290798283248
 20
80.65577898281627
 30
0.0
 10
142.3139803263459
 20
80.680617713646
 30
0.0
 10
142.340049449112
 20
80.72167628618558
 30
0.0
 10
142.3562108522719
 20
80.76309517701429
 30
0.0
 10
142.3584596621228
 20
80.79115919829023
 30
0.0
 10
142.3595468971379
 20
80.80472734705145
 30
0.0
  0
SPLINE
  5
F1
330
1F
100
AcDbEntity
  8
0
  6
Continuous
 62
     7
370
    25
100
AcDbSpline
210
0.0
220
0.0
230
1.0
 70
     8
 71
     3
 72
    15
 73
    11
 74
     0
 42
0.00000001
 43
0.00000001
 40
0.0
 40
0.0
 40
0.0
 40
0.0
 40
0.1621938662364102
 40
0.3128358862094924
 40
0.4514937848199698
 40
0.57897549921641
 40
0.6959713973784583
 40
0.8040446570061005
 40
0.9042792524989222
 40
1.0
 40
1.0
 40
1.0
 40
1.0
 10
141.9078094454004
 20
80.53831808064218
 30
0.0
 10
141.9291250813554
 20
80.53866396924639
 30
0.0
 10
141.9702382012213
 20
80.5393311114173
 30
0.0
 10
142.0294350849667
 20
80.54393598676678
 30
0.0
 10
142.0836886437392
 20
80.55187889102169
 30
0.0
 10
142.1327305019155
 20
80.56348824241914
 30
0.0
 10
142.1769026963199
 20
80.57778327060656
 30
0.0
 10
142.2156823194722
 20
80.59593759506251
 30
0.0
 10
142.2499952917471
 20
80.61678746419334
 30
0.0
 10
142.2691225069633
 20
80.63410558612786
 30
0.0
 10
142.2784658160568
 20
80.64256518488928
 30
0.0
  0
SPLINE
  5
F2
330
1F
100
AcDbEntity
  8
0
  6
Continuous
 62
     7
370
    25
100
AcDbSpline
210
0.0
220
0.0
230
1.0
 70
     8
 71
     3
 72
    15
 73
    11
 74
     0
 42
0.00000001
 43
0.00000001
 40
0.0
 40
0.0
 40
0.0
 40
0.0
 40
0.0889385933316046
 40
0.1846881048742359
 40
0.290639097524363
 40
0.4070025892724371
 40
0.5351860897525824
 40
0.6768017488293069
 40
0.8315571904058215
 40
1.0
 40
1.0
 40
1.0
 40
1.0
 10
141.502404039995
 20
80.64256518488928
 30
0.0
 10
141.5118691105955
 20
80.63406835483025
 30
0.0
 10
141.531524086981
 20
80.61642400739616
 30
0.0
 10
141.5677261022397
 20
80.5956977543368
 30
0.0
 10
141.6094343356404
 20
80.57767538286602
 30
0.0
 10
141.6574657194863
 20
80.56342199621547
 30
0.0
 10
141.7113627072229
 20
80.5517942907557
 30
0.0
 10
141.7714774695682
 20
80.54392773207994
 30
0.0
 10
141.8376661681133
 20
80.53931219112387
 30
0.0
 10
141.8837774195114
 20
80.53865867620253
 30
0.0
 10
141.9078094454004
 20
80.53831808064218
 30
0.0
  0
SPLINE
  5
F3
330
1F
100
AcDbEntity
  8
0
  6
Continuous
 62
     7
370
    25
100
AcDbSpline
210
0.0
220
0.0
230
1.0
 70
     8
 71
     3
 72
    11
 73
     7
 74
     0
 42
0.00000001
 43
0.00000001
 40
0.0
 40
0.0
 40
0.0
 40
0.0
 40
0.2601257123120319
 40
0.5090133886864473
 40
0.7508417226532322
 40
1.0
 40
1.0
 40
1.0
 40
1.0
 10
141.4329059704969
 20
80.81631035863445
 30
0.0
 10
141.4336325994271
 20
80.79961469418566
 30
0.0
 10
141.4350544652274
 20
80.76694465683362
 30
0.0
 10
141.4490702408298
 20
80.72057739080611
 30
0.0
 10
141.4704595689888
 20
80.67782859474258
 30
0.0
 10
141.4916504301429
 20
80.65443606393882
 30
0.0
 10
141.502404039995
 20
80.64256518488928
 30
0.0
  0
SPLINE
  5
F4
330
1F
100
AcDbEntity
  8
0
  6
Continuous
 62
     7
370
    25
100
AcDbSpline
210
0.0
220
0.0
230
1.0
 70
     8
 71
     3
 72
    11
 73
     7
 74
     0
 42
0.00000001
 43
0.00000001
 40
0.0
 40
0.0
 40
0.0
 40
0.0
 40
0.2767994473675449
 40
0.5300473798609825
 40
0.7673216447737533
 40
1.0
 40
1.0
 40
1.0
 40
1.0
 10
141.513987051578
 20
80.99005553237963
 30
0.0
 10
141.5015644571744
 20
80.9767562060203
 30
0.0
 10
141.4777762463331
 20
80.95128912811346
 30
0.0
 10
141.452155181009
 20
80.90759488055656
 30
0.0
 10
141.4360120566269
 20
80.86246466376039
 30
0.0
 10
141.4339345602364
 20
80.8315944952294
 30
0.0
 10
141.4329059704969
 20
80.81631035863445
 30
0.0
  0
SPLINE
  5
F5
330
1F
100
AcDbEntity
  8
0
  6
Continuous
 62
     7
370
    25
100
AcDbSpline
210
0.0
220
0.0
230
1.0
 70
     8
 71
     3
 72
    15
 73
    11
 74
     0
 42
0.00000001
 43
0.00000001
 40
0.0
 40
0.0
 40
0.0
 40
0.0
 40
0.1493997748286759
 40
0.2899387608175544
 40
0.4216321191698548
 40
0.546926028295161
 40
0.6656128117813254
 40
0.7800387407312265
 40
0.8908418859280361
 40
1.0
 40
1.0
 40
1.0
 40
1.0
 10
141.9309754685664
 20
81.12905167137576
 30
0.0
 10
141.9085121355971
 20
81.12864663523877
 30
0.0
 10
141.8649177531262
 20
81.12786058535492
 30
0.0
 10
141.8017245979114
 20
81.12162450623721
 30
0.0
 10
141.7430237727266
 20
81.11014521122082
 30
0.0
 10
141.6883095171995
 20
81.09571888774038
 30
0.0
 10
141.6382546096884
 20
81.07548011895979
 30
0.0
 10
141.5919800174701
 20
81.05224133198065
 30
0.0
 10
141.550280970699
 20
81.02376235415281
 30
0.0
 10
141.526024555549
 20
81.00123498091459
 30
0.0
 10
141.513987051578
 20
80.99005553237963
 30
0.0
  0
SPLINE
  5
F6
330
1F
100
AcDbEntity
  8
0
  6
Continuous
 62
     7
370
    25
100
AcDbSpline
210
0.0
220
0.0
230
1.0
 70
     8
 71
     3
 72
    15
 73
    11
 74
     0
 42
0.00000001
 43
0.00000001
 40
0.0
 40
0.0
 40
0.0
 40
0.0
 40
0.118286459599598
 40
0.2347934213738277
 40
0.3525293820747456
 40
0.4728657235109879
 40
0.5967540177287657
 40
0.7246940143624927
 40
0.858807397913268
 40
1.0
 40
1.0
 40
1.0
 40
1.0
 10
142.2784658160568
 20
81.00163854396264
 30
0.0
 10
142.2675405138703
 20
81.01192026379674
 30
0.0
 10
142.2458542694042
 20
81.032329025591
 30
0.0
 10
142.2092346005438
 20
81.05814953930758
 30
0.0
 10
142.1699879612734
 20
81.08013723437747
 30
0.0
 10
142.1277666838464
 20
81.09830339313757
 30
0.0
 10
142.0825076657943
 20
81.11183800315312
 30
0.0
 10
142.0345678062471
 20
81.12171328261032
 30
0.0
 10
141.9837550386153
 20
81.1278050238865
 30
0.0
 10
141.9488676896972
 20
81.1286290591315
 30
0.0
 10
141.9309754685664
 20
81.12905167137576
 30
0.0
  0
SPLINE
  5
F7
330
1F
100
AcDbEntity
  8
0
  6
Continuous
 62
     7
370
    25
100
AcDbSpline
210
0.0
220
0.0
230
1.0
 70
     8
 71
     3
 72
    11
 73
     7
 74
     0
 42
0.00000001
 43
0.00000001
 40
0.0
 40
0.0
 40
0.0
 40
0.0
 40
0.2499695538886849
 40
0.4922399851273409
 40
0.7405148106355965
 40
1.0
 40
1.0
 40
1.0
 40
1.0
 10
142.9386974762884
 20
86.63741717974129
 30
0.0
 10
142.9495809919226
 20
86.64928717454823
 30
0.0
 10
142.97101280828
 20
86.67266156545439
 30
0.0
 10
142.9929725451169
 20
86.71531612007945
 30
0.0
 10
143.0068777502823
 20
86.76180968874664
 30
0.0
 10
143.0083176842006
 20
86.7944710982203
 30
0.0
 10
143.0090535466445
 20
86.81116235348647
 30
0.0
  0
SPLINE
  5
F8
330
1F
100
AcDbEntity
  8
0
  6
Continuous
 62
     7
370
    25
100
AcDbSpline
210
0.0
220
0.0
230
1.0
 70
     8
 71
     3
 72
    11
 73
     7
 74
     0
 42
0.00000001
 43
0.00000001
 40
0.0
 40
0.0
 40
0.0
 40
0.0
 40
0.2516095171558481
 40
0.4964930798665569
 40
0.7426069856111284
 40
1.0
 40
1.0
 40
1.0
 40
1.0
 10
142.7186202562112
 20
86.5447530870772
 30
0.0
 10
142.7391910976168
 20
86.54594077107716
 30
0.0
 10
142.7797828865138
 20
86.54828439024435
 30
0.0
 10
142.8383677723174
 20
86.56601740939173
 30
0.0
 10
142.8924006492833
 20
86.59572136620302
 30
0.0
 10
142.9230364421382
 20
86.62331255093652
 30
0.0
 10
142.9386974762884
 20
86.63741717974129
 30
0.0
  0
SPLINE
  5
F9
330
1F
100
AcDbEntity
  8
0
  6
Continuous
 62
     7
370
    25
100
AcDbSpline
210
0.0
220
0.0
230
1.0
 70
     8
 71
     3
 72
    15
 73
    11
 74
     0
 42
0.00000001
 43
0.00000001
 40
0.0
 40
0.0
 40
0.0
 40
0.0
 40
0.1215042446907348
 40
0.2399194382132711
 40
0.3607014484775901
 40
0.4813982058565627
 40
0.6046686543565297
 40
0.7308278400410386
 40
0.8619579002966854
 40
1.0
 40
1.0
 40
1.0
 40
1.0
 10
142.475377012968
 20
86.63741717974129
 30
0.0
 10
142.4831989173645
 20
86.62989952537265
 30
0.0
 10
142.4986438667434
 20
86.61505534097894
 30
0.0
 10
142.5251369283894
 20
86.5966886914283
 30
0.0
 10
142.5526633093068
 20
86.58009400803053
 30
0.0
 10
142.5827120251123
 20
86.56749605332384
 30
0.0
 10
142.6139916859926
 20
86.55678371771015
 30
0.0
 10
142.6473811488916
 20
86.55049054365891
 30
0.0
 10
142.6822722256841
 20
86.5451439809197
 30
0.0
 10
142.7062985893369
 20
86.54488559669713
 30
0.0
 10
142.7186202562112
 20
86.5447530870772
 30
0.0
  0
LINE
  5
FA
330
1F
100
AcDbEntity
  8
0
  6
Continuous
 62
     7
370
    25
100
AcDbLine
 10
142.3942959319
 20
87.4598110021
 30
0.0
 11
142.3942959319
 21
86.8343283767
 31
0.0
  0
LINE
  5
FB
330
1F
100
AcDbEntity
  8
0
  6
Continuous
 62
     7
370
    25
100
AcDbLine
 10
143.0090535466
 20
87.4598110021
 30
0.0
 11
142.3942959319
 21
87.4598110021
 31
0.0
  0
LINE
  5
FC
330
1F
100
AcDbEntity
  8
0
  6
Continuous
 62
     7
370
    25
100
AcDbLine
 10
143.0090535466
 20
86.8111623535
 30
0.0
 11
143.0090535466
 21
87.4598110021
 31
0.0
  0
SPLINE
  5
FD
330
1F
100
AcDbEntity
  8
0
  6
Continuous
 62
     7
370
    25
100
AcDbSpline
210
0.0
220
0.0
230
1.0
 70
     8
 71
     3
 72
    11
 73
     7
 74
     0
 42
0.00000001
 43
0.00000001
 40
0.0
 40
0.0
 40
0.0
 40
0.0
 40
0.2562600332085375
 40
0.5016208045865208
 40
0.7449078564687246
 40
1.0
 40
1.0
 40
1.0
 40
1.0
 10
142.3942959318869
 20
86.83432837665248
 30
0.0
 10
142.3952654931129
 20
86.81562914810594
 30
0.0
 10
142.3971633781487
 20
86.77902600733823
 30
0.0
 10
142.4127235997162
 20
86.7265345045661
 30
0.0
 10
142.4384739024956
 20
86.6782900512369
 30
0.0
 10
142.4628832483524
 20
86.65125493024775
 30
0.0
 10
142.475377012968
 20
86.63741717974129
 30
0.0
  0
LINE
  5
FE
330
1F
100
AcDbEntity
  8
0
  6
Continuous
 62
     7
370
    25
100
AcDbLine
 10
142.1750767127
 20
87.4598110021
 30
0.0
 11
141.4676550052
 21
87.4598110021
 31
0.0
  0
SPLINE
  5
FF
330
1F
100
AcDbEntity
  8
0
  6
Continuous
 62
     7
370
    25
100
AcDbSpline
210
0.0
220
0.0
230
1.0
 70
     8
 71
     3
 72
    15
 73
    11
 74
     0
 42
0.00000001
 43
0.00000001
 40
0.0
 40
0.0
 40
0.0
 40
0.0
 40
0.1193556939378553
 40
0.2390663805212363
 40
0.3573840708360852
 40
0.4787728926029038
 40
0.6013911634438132
 40
0.7292416297469777
 40
0.8608048514681803
 40
1.0
 40
1.0
 40
1.0
 40
1.0
 10
142.0699716075626
 20
86.59108513340924
 30
0.0
 10
142.0783362312719
 20
86.59991310971664
 30
0.0
 10
142.0950903571006
 20
86.61759531886402
 30
0.0
 10
142.1162929090366
 20
86.64728593939844
 30
0.0
 10
142.1346258062907
 20
86.679005210651
 30
0.0
 10
142.149530445045
 20
86.7128177676942
 30
0.0
 10
142.1613038637653
 20
86.74886368408454
 30
0.0
 10
142.1692785499763
 20
86.78698914584794
 30
0.0
 10
142.1740608208116
 20
86.82734271920997
 30
0.0
 10
142.1747317779096
 20
86.8549068617847
 30
0.0
 10
142.1750767126676
 20
86.86907741140152
 30
0.0
  0
SPLINE
  5
100
330
1F
100
AcDbEntity
  8
0
  6
Continuous
 62
     7
370
    25
100
AcDbSpline
210
0.0
220
0.0
230
1.0
 70
     8
 71
     3
 72
    15
 73
    11
 74
     0
 42
0.00000001
 43
0.00000001
 40
0.0
 40
0.0
 40
0.0
 40
0.0
 40
0.1417962611116215
 40
0.2768819513476972
 40
0.4055805706087832
 40
0.5298229690785615
 40
0.6485572024501441
 40
0.7672114666371228
 40
0.8821786188665557
 40
1.0
 40
1.0
 40
1.0
 40
1.0
 10
141.8151453527363
 20
86.49842104074514
 30
0.0
 10
141.8283230547648
 20
86.49855650078514
 30
0.0
 10
141.8540548182353
 20
86.49882101015874
 30
0.0
 10
141.8913836537191
 20
86.50412695219
 30
0.0
 10
141.9269001131292
 20
86.510417821268
 30
0.0
 10
141.9598214464674
 20
86.52098991366285
 30
0.0
 10
141.9909318632328
 20
86.5337836229801
 30
0.0
 10
142.0192732523049
 20
86.55022814483151
 30
0.0
 10
142.0462566833928
 20
86.56872291116149
 30
0.0
 10
142.0620022803883
 20
86.58357037754665
 30
0.0
 10
142.0699716075626
 20
86.59108513340924
 30
0.0
  0
SPLINE
  5
101
330
1F
100
AcDbEntity
  8
0
  6
Continuous
 62
     7
370
    25
100
AcDbSpline
210
0.0
220
0.0
230
1.0
 70
     8
 71
     3
 72
    15
 73
    11
 74
     0
 42
0.00000001
 43
0.00000001
 40
0.0
 40
0.0
 40
0.0
 40
0.0
 40
0.1452459980297207
 40
0.2839773123111044
 40
0.4135645357275256
 40
0.5387150251446049
 40
0.6570052502158952
 40
0.7736984629726806
 40
0.8866940707303834
 40
1.0
 40
1.0
 40
1.0
 40
1.0
 10
141.467655005246
 20
86.86907741140152
 30
0.0
 10
141.4677955927262
 20
86.85504373994183
 30
0.0
 10
141.4680704619502
 20
86.82760584590663
 30
0.0
 10
141.4732875175166
 20
86.78797552855882
 30
0.0
 10
141.4796670982163
 20
86.75048506334082
 30
0.0
 10
141.4901628360697
 20
86.7159719591666
 30
0.0
 10
141.5028995454999
 20
86.68353634450196
 30
0.0
 10
141.5195016314252
 20
86.65428003512211
 30
0.0
 10
141.5376884063531
 20
86.6264785882672
 30
0.0
 10
141.552768641011
 20
86.6106122118027
 30
0.0
 10
141.5603190979101
 20
86.60266814499225
 30
0.0
  0
LINE
  5
102
330
1F
100
AcDbEntity
  8
0
  6
Continuous
 62
     7
370
    25
100
AcDbLine
 10
141.4676550052
 20
87.4598110021
 30
0.0
 11
141.4676550052
 21
86.8690774114
 31
0.0
  0
LINE
  5
103
330
1F
100
AcDbEntity
  8
0
  6
Continuous
 62
     7
370
    25
100
AcDbLine
 10
142.1750767127
 20
86.8690774114
 30
0.0
 11
142.1750767127
 21
87.4598110021
 31
0.0
  0
SPLINE
  5
104
330
1F
100
AcDbEntity
  8
0
  6
Continuous
 62
     7
370
    25
100
AcDbSpline
210
0.0
220
0.0
230
1.0
 70
     8
 71
     3
 72
    15
 73
    11
 74
     0
 42
0.00000001
 43
0.00000001
 40
0.0
 40
0.0
 40
0.0
 40
0.0
 40
0.1277118540336136
 40
0.252362114195531
 40
0.3748537650566253
 40
0.4969693854038479
 40
0.6192731655242179
 40
0.7424854443019967
 40
0.8694478780376608
 40
1.0
 40
1.0
 40
1.0
 40
1.0
 10
141.5603190979101
 20
86.60266814499225
 30
0.0
 10
141.5690018766686
 20
86.59430187153397
 30
0.0
 10
141.5861592848136
 20
86.57776988651312
 30
0.0
 10
141.614832736143
 20
86.55695917680869
 30
0.0
 10
141.6444483792608
 20
86.53854281042938
 30
0.0
 10
141.6759911849792
 20
86.5241436249488
 30
0.0
 10
141.7086456433217
 20
86.51236178104055
 30
0.0
 10
141.7428818127075
 20
86.50419159240668
 30
0.0
 10
141.7785484597254
 20
86.49949321648397
 30
0.0
 10
141.8028335457329
 20
86.49878173859909
 30
0.0
 10
141.8151453527363
 20
86.49842104074514
 30
0.0
  0
LINE
  5
105
330
1F
100
AcDbEntity
  8
0
  6
Continuous
 62
     7
370
    25
100
AcDbLine
 10
123.3180050894
 20
70.1532440615
 30
0.0
 11
123.3180050894
 21
96.1614425827
 31
0.0
  0
LINE
  5
106
330
1F
100
AcDbEntity
  8
0
  6
Continuous
 62
     7
370
    25
100
AcDbLine
 10
120.7128287504
 20
83.1573433221
 30
0.0
 11
120.7128287504
 21
94.6573433221
 31
0.0
  0
LINE
  5
107
330
1F
100
AcDbEntity
  8
0
  6
Continuous
 62
     7
370
    25
100
AcDbLine
 10
120.7128287504
 20
71.6573433221
 30
0.0
 11
120.7128287504
 21
83.1573433221
 31
0.0
  0
LINE
  5
108
330
1F
100
AcDbEntity
  8
0
  6
Continuous
 62
     7
370
    18
100
AcDbLine
 10
121.5864562989
 20
95.1617324224
 30
0.0
 11
137.1128287504
 21
95.6469315615
 31
0.0
  0
LINE
  5
109
330
1F
100
AcDbEntity
  8
0
  6
Continuous
 62
     7
370
    18
100
AcDbLine
 10
121.5864562989
 20
71.1529542218
 30
0.0
 11
137.1128287504
 21
70.6677550827
 31
0.0
  0
LINE
  5
10A
330
1F
100
AcDbEntity
  8
0
  6
Continuous
 62
     7
370
    25
100
AcDbLine
 10
137.1128287504
 20
69.7221558221
 30
0.0
 11
137.1128287504
 21
96.5925308221
 31
0.0
  0
LINE
  5
10B
330
1F
100
AcDbEntity
  8
FORMAT
  6
CENTERX2
370
    18
100
AcDbLine
 10
147.3806986351
 20
83.1573433221
 30
0.0
 11
118.7128287504
 21
83.1573433221
 31
0.0
  0
SPLINE
  5
10C
330
1F
100
AcDbEntity
  8
0
  6
Continuous
 62
     7
370
    25
100
AcDbSpline
210
0.0
220
0.0
230
1.0
 70
    24
 71
     3
 72
    16
 73
    12
 74
     0
 42
0.00000001
 43
0.00000001
 40
0.0
 40
0.0
 40
0.0
 40
0.0
 40
0.2500000000000001
 40
0.2500000000000001
 40
0.5000000000000001
 40
0.5000000000000001
 40
0.625
 40
0.625
 40
0.7499999999999999
 40
0.7499999999999999
 40
1.0
 40
1.0
 40
1.0
 40
1.0
 10
157.5107422591711
 20
91.81759735992145
 30
0.0
 10
158.7353501953365
 20
92.52462508151835
 30
0.0
 10
159.9688862952418
 20
93.23680748085376
 30
0.0
 10
162.4616840452687
 20
94.6760249328671
 30
0.0
 10
163.7211369426842
 20
95.40317040222159
 30
0.0
 10
165.6340444121994
 20
96.50758804468104
 30
0.0
 10
166.2746814210931
 20
96.87745999421865
 30
0.0
 10
167.5419288399628
 20
97.60910563263295
 30
0.0
 10
168.1713039436849
 20
97.9724755181881
 30
0.0
 10
170.0482241012369
 20
99.0561158763982
 30
0.0
 10
171.2846076622598
 20
99.76994225817641
 30
0.0
 10
172.5107422591711
 20
100.4778513977659
 30
0.0
  0
SPLINE
  5
10D
330
1F
100
AcDbEntity
  8
0
  6
Continuous
 62
     7
370
    25
100
AcDbSpline
210
0.0
220
0.0
230
1.0
 70
    24
 71
     3
 72
    16
 73
    12
 74
     0
 42
0.00000001
 43
0.00000001
 40
0.0
 40
0.0
 40
0.0
 40
0.0
 40
0.2499999999999999
 40
0.2499999999999999
 40
0.4999999999999998
 40
0.4999999999999998
 40
0.6249999999999998
 40
0.6249999999999998
 40
0.7499999999999998
 40
0.7499999999999998
 40
1.0
 40
1.0
 40
1.0
 40
1.0
 10
172.5107422591711
 20
100.4778513977659
 30
0.0
 10
173.7353501953366
 20
99.77082367616897
 30
0.0
 10
174.9688862952418
 20
99.05864127683355
 30
0.0
 10
177.4616840452688
 20
97.6194238248202
 30
0.0
 10
178.7211369426842
 20
96.89227835546573
 30
0.0
 10
180.6340444121994
 20
95.78786071300628
 30
0.0
 10
181.2746814210931
 20
95.41798876346867
 30
0.0
 10
182.5419288399628
 20
94.68634312505436
 30
0.0
 10
183.1713039436848
 20
94.3229732394992
 30
0.0
 10
185.0482241012369
 20
93.2393328812891
 30
0.0
 10
186.2846076622598
 20
92.52550649951091
 30
0.0
 10
187.5107422591711
 20
91.81759735992145
 30
0.0
  0
SPLINE
  5
10E
330
1F
100
AcDbEntity
  8
0
  6
Continuous
 62
     7
370
    25
100
AcDbSpline
210
0.0
220
0.0
230
1.0
 70
    24
 71
     3
 72
    14
 73
    10
 74
     0
 42
0.00000001
 43
0.00000001
 40
0.0
 40
0.0
 40
0.0
 40
0.0
 40
0.25
 40
0.25
 40
0.5
 40
0.5
 40
0.75
 40
0.75
 40
1.0
 40
1.0
 40
1.0
 40
1.0
 10
187.5107422591711
 20
91.81759735992146
 30
0.0
 10
187.5107422591711
 20
90.40781788421515
 30
0.0
 10
187.5107422591711
 20
88.98502518696641
 30
0.0
 10
187.5107422591711
 20
86.10138536612693
 30
0.0
 10
187.5107422591711
 20
84.63887941819999
 30
0.0
 10
187.5107422591711
 20
81.67164165636453
 30
0.0
 10
187.5107422591711
 20
80.21148277521463
 30
0.0
 10
187.5107422591711
 20
77.32916290505986
 30
0.0
 10
187.5107422591711
 20
75.90671863942308
 30
0.0
 10
187.5107422591711
 20
74.49708928423269
 30
0.0
  0
SPLINE
  5
10F
330
1F
100
AcDbEntity
  8
0
  6
Continuous
 62
     7
370
    25
100
AcDbSpline
210
0.0
220
0.0
230
1.0
 70
    24
 71
     3
 72
    16
 73
    12
 74
     0
 42
0.00000001
 43
0.00000001
 40
0.0
 40
0.0
 40
0.0
 40
0.0
 40
0.2499999999999999
 40
0.2499999999999999
 40
0.4999999999999998
 40
0.4999999999999998
 40
0.6249999999999998
 40
0.6249999999999998
 40
0.7499999999999997
 40
0.7499999999999997
 40
1.0
 40
1.0
 40
1.0
 40
1.0
 10
187.5107422591711
 20
74.4970892842327
 30
0.0
 10
186.2861343230056
 20
73.7900615626358
 30
0.0
 10
185.0525982231004
 20
73.07787916330038
 30
0.0
 10
182.5598004730735
 20
71.63866171128704
 30
0.0
 10
181.300347575658
 20
70.91151624193256
 30
0.0
 10
179.3874401061428
 20
69.80709859947311
 30
0.0
 10
178.7468030972491
 20
69.4372266499355
 30
0.0
 10
177.4795556783793
 20
68.70558101152119
 30
0.0
 10
176.8501805746573
 20
68.34221112596603
 30
0.0
 10
174.9732604171053
 20
67.25857076775594
 30
0.0
 10
173.7368768560824
 20
66.54474438597774
 30
0.0
 10
172.5107422591711
 20
65.83683524638828
 30
0.0
  0
SPLINE
  5
110
330
1F
100
AcDbEntity
  8
0
  6
Continuous
 62
     7
370
    25
100
AcDbSpline
210
0.0
220
0.0
230
1.0
 70
    24
 71
     3
 72
    16
 73
    12
 74
     0
 42
0.00000001
 43
0.00000001
 40
0.0
 40
0.0
 40
0.0
 40
0.0
 40
0.25
 40
0.25
 40
0.5
 40
0.5
 40
0.6249999999999999
 40
0.6249999999999999
 40
0.7499999999999998
 40
0.7499999999999998
 40
1.0
 40
1.0
 40
1.0
 40
1.0
 10
172.5107422591711
 20
65.83683524638828
 30
0.0
 10
171.2861343230056
 20
66.54386296798518
 30
0.0
 10
170.0525982231004
 20
67.25604536732058
 30
0.0
 10
167.5598004730734
 20
68.69526281933393
 30
0.0
 10
166.300347575658
 20
69.4224082886884
 30
0.0
 10
164.3874401061427
 20
70.52682593114785
 30
0.0
 10
163.7468030972491
 20
70.89669788068547
 30
0.0
 10
162.4795556783793
 20
71.62834351909976
 30
0.0
 10
161.8501805746573
 20
71.99171340465493
 30
0.0
 10
159.9732604171053
 20
73.07535376286502
 30
0.0
 10
158.7368768560824
 20
73.78918014464323
 30
0.0
 10
157.5107422591711
 20
74.49708928423269
 30
0.0
  0
SPLINE
  5
111
330
1F
100
AcDbEntity
  8
0
  6
Continuous
 62
     7
370
    25
100
AcDbSpline
210
0.0
220
0.0
230
1.0
 70
    24
 71
     3
 72
    14
 73
    10
 74
     0
 42
0.00000001
 43
0.00000001
 40
0.0
 40
0.0
 40
0.0
 40
0.0
 40
0.2500000000000001
 40
0.2500000000000001
 40
0.5000000000000001
 40
0.5000000000000001
 40
0.75
 40
0.75
 40
1.0
 40
1.0
 40
1.0
 40
1.0
 10
157.5107422591711
 20
74.49708928423267
 30
0.0
 10
157.5107422591711
 20
75.90686875993899
 30
0.0
 10
157.5107422591711
 20
77.32966145718773
 30
0.0
 10
157.5107422591711
 20
80.21330127802722
 30
0.0
 10
157.5107422591711
 20
81.67580722595416
 30
0.0
 10
157.5107422591711
 20
84.6430449877896
 30
0.0
 10
157.5107422591711
 20
86.1032038689395
 30
0.0
 10
157.5107422591711
 20
88.98552373909428
 30
0.0
 10
157.5107422591711
 20
90.40796800473107
 30
0.0
 10
157.5107422591711
 20
91.81759735992146
 30
0.0
  0
CIRCLE
  5
112
330
1F
100
AcDbEntity
  8
0
  6
Continuous
 62
     7
370
    25
100
AcDbCircle
 10
172.5107422592
 20
83.1573433221
 30
0.0
 40
14.75000000000003
  0
CIRCLE
  5
113
330
1F
100
AcDbEntity
  8
0
  6
Continuous
 62
     7
370
    25
100
AcDbCircle
 10
172.5107422592
 20
83.1573433221
 30
0.0
 40
13.25000000000003
  0
CIRCLE
  5
114
330
1F
100
AcDbEntity
  8
0
  6
Continuous
 62
     7
370
    25
100
AcDbCircle
 10
172.5107422592
 20
83.1573433221
 30
0.0
 40
13.00000000000003
  0
CIRCLE
  5
115
330
1F
100
AcDbEntity
  8
0
  6
Continuous
 62
     7
370
    25
100
AcDbCircle
 10
172.5107422592
 20
83.1573433221
 30
0.0
 40
12.75000000000003
  0
CIRCLE
  5
116
330
1F
100
AcDbEntity
  8
0
  6
Continuous
 62
     7
370
    25
100
AcDbCircle
 10
172.5107422592
 20
83.1573433221
 30
0.0
 40
10.74999999999997
  0
CIRCLE
  5
117
330
1F
100
AcDbEntity
  8
0
  6
Continuous
 62
     7
370
    25
100
AcDbCircle
 10
172.5107422592
 20
83.1573433221
 30
0.0
 40
9.655541045416811
  0
CIRCLE
  5
118
330
1F
100
AcDbEntity
  8
0
  6
Continuous
 62
     7
370
    25
100
AcDbCircle
 10
172.5107422592
 20
83.1573433221
 30
0.0
 40
9.173355494930405
  0
CIRCLE
  5
119
330
1F
100
AcDbEntity
  8
0
  6
Continuous
 62
     7
370
    25
100
AcDbCircle
 10
172.5107422592
 20
83.1573433221
 30
0.0
 40
8.950000000000017
  0
INSERT
  5
125
330
1F
100
AcDbEntity
  8
FORMAT
100
AcDbBlockReference
  2
SW_CENTERMARKSYMBOL_0
 10
172.5107422592
 20
83.1573433221
 30
0.0
  0
ARC
  5
126
330
1F
100
AcDbEntity
  8
0
  6
Continuous
 62
     7
370
    18
100
AcDbCircle
 10
172.5107422592
 20
83.1573433221
 30
0.0
 40
10.67578495099966
100
AcDbArc
 50
75.0
 51
345.0
  0
LINE
  5
127
330
1F
100
AcDbEntity
  8
0
  6
Continuous
 62
     7
370
    25
100
AcDbLine
 10
145.5684911831
 20
113.2713480301
 30
0.0
 11
145.7128287504
 21
113.5213480301
 31
0.0
  0
LINE
  5
128
330
1F
100
AcDbEntity
  8
0
  6
Continuous
 62
     7
370
    25
100
AcDbLine
 10
145.7128287504
 20
143.0213480301
 30
0.0
 11
145.5684911831
 21
143.2713480301
 31
0.0
  0
LINE
  5
129
330
1F
100
AcDbEntity
  8
0
  6
Continuous
 62
     7
370
    25
100
AcDbLine
 10
138.8571663177
 20
143.2713480301
 30
0.0
 11
138.7128287504
 21
143.0213480301
 31
0.0
  0
LINE
  5
12A
330
1F
100
AcDbEntity
  8
0
  6
Continuous
 62
     7
370
    25
100
AcDbLine
 10
138.7128287504
 20
113.5213480301
 30
0.0
 11
138.8571663177
 21
113.2713480301
 31
0.0
  0
LINE
  5
12B
330
1F
100
AcDbEntity
  8
0
  6
Continuous
 62
     7
370
    25
100
AcDbLine
 10
138.7128287504
 20
141.7565355301
 30
0.0
 11
123.3180050894
 21
141.2754472907
 31
0.0
  0
LINE
  5
12C
330
1F
100
AcDbEntity
  8
0
  6
Continuous
 62
     7
370
    25
100
AcDbLine
 10
123.3180050894
 20
115.2672487695
 30
0.0
 11
138.7128287504
 21
114.7861605301
 31
0.0
  0
LINE
  5
12D
330
1F
100
AcDbEntity
  8
0
  6
Continuous
 62
     7
370
    25
100
AcDbLine
 10
123.3180050894
 20
141.2754472907
 30
0.0
 11
120.7128287504
 21
139.7713480301
 31
0.0
  0
LINE
  5
12E
330
1F
100
AcDbEntity
  8
0
  6
Continuous
 62
     7
370
    25
100
AcDbLine
 10
120.7128287504
 20
116.7713480301
 30
0.0
 11
123.3180050894
 21
115.2672487695
 31
0.0
  0
SPLINE
  5
12F
330
1F
100
AcDbEntity
  8
0
  6
Continuous
 62
     7
370
    25
100
AcDbSpline
210
0.0
220
0.0
230
1.0
 70
     8
 71
     3
 72
    16
 73
    12
 74
     0
 42
0.00000001
 43
0.00000001
 40
0.0
 40
0.0
 40
0.0
 40
0.0
 40
0.2499999999999999
 40
0.2499999999999999
 40
0.4999999999999998
 40
0.4999999999999998
 40
0.6249999999999998
 40
0.6249999999999998
 40
0.7499999999999998
 40
0.7499999999999998
 40
1.0
 40
1.0
 40
1.0
 40
1.0
 10
140.1969122798725
 20
128.2713480301236
 30
0.0
 10
139.788709634484
 20
129.4959559662891
 30
0.0
 10
139.4522767939699
 20
130.7294920661943
 30
0.0
 10
138.9862081400951
 20
133.2222898162213
 30
0.0
 10
138.8581096843991
 20
134.4817427136367
 30
0.0
 10
138.8567025423057
 20
136.394650183152
 30
0.0
 10
138.8880175895343
 20
137.0352871920457
 30
0.0
 10
139.0101299842302
 20
138.3025346109154
 30
0.0
 10
139.1008033831064
 20
138.9319097146374
 30
0.0
 10
139.4509351568434
 20
140.8088298721894
 30
0.0
 10
139.7882007475689
 20
142.0452134332124
 30
0.0
 10
140.1969122798726
 20
143.2713480301236
 30
0.0
  0
LINE
  5
130
330
1F
100
AcDbEntity
  8
0
  6
Continuous
 62
     7
370
    25
100
AcDbLine
 10
140.1969122799
 20
143.2713480301
 30
0.0
 11
144.228745221
 21
143.2713480301
 31
0.0
  0
SPLINE
  5
131
330
1F
100
AcDbEntity
  8
0
  6
Continuous
 62
     7
370
    25
100
AcDbSpline
210
0.0
220
0.0
230
1.0
 70
     8
 71
     3
 72
    16
 73
    12
 74
     0
 42
0.00000001
 43
0.00000001
 40
0.0
 40
0.0
 40
0.0
 40
0.0
 40
0.2499999999999999
 40
0.2499999999999999
 40
0.4999999999999998
 40
0.4999999999999998
 40
0.6249999999999998
 40
0.6249999999999998
 40
0.7499999999999998
 40
0.7499999999999998
 40
1.0
 40
1.0
 40
1.0
 40
1.0
 10
144.2287452209669
 20
128.2713480301236
 30
0.0
 10
144.6369478663554
 20
129.4959559662891
 30
0.0
 10
144.9733807068695
 20
130.7294920661943
 30
0.0
 10
145.4394493607444
 20
133.2222898162213
 30
0.0
 10
145.5675478164403
 20
134.4817427136367
 30
0.0
 10
145.5689549585337
 20
136.394650183152
 30
0.0
 10
145.5376399113052
 20
137.0352871920457
 30
0.0
 10
145.4155275166092
 20
138.3025346109154
 30
0.0
 10
145.324854117733
 20
138.9319097146374
 30
0.0
 10
144.974722343996
 20
140.8088298721894
 30
0.0
 10
144.6374567532706
 20
142.0452134332124
 30
0.0
 10
144.2287452209668
 20
143.2713480301236
 30
0.0
  0
LINE
  5
132
330
1F
100
AcDbEntity
  8
0
  6
Continuous
 62
     7
370
    25
100
AcDbLine
 10
140.1969122799
 20
128.2713480301
 30
0.0
 11
144.228745221
 21
128.2713480301
 31
0.0
  0
SPLINE
  5
133
330
1F
100
AcDbEntity
  8
0
  6
Continuous
 62
     7
370
    25
100
AcDbSpline
210
0.0
220
0.0
230
1.0
 70
     8
 71
     3
 72
    16
 73
    12
 74
     0
 42
0.00000001
 43
0.00000001
 40
0.0
 40
0.0
 40
0.0
 40
0.0
 40
0.2500000000000001
 40
0.2500000000000001
 40
0.5000000000000001
 40
0.5000000000000001
 40
0.625
 40
0.625
 40
0.7499999999999999
 40
0.7499999999999999
 40
1.0
 40
1.0
 40
1.0
 40
1.0
 10
144.2287452209669
 20
113.2713480301236
 30
0.0
 10
144.6369478663554
 20
114.4959559662891
 30
0.0
 10
144.9733807068695
 20
115.7294920661943
 30
0.0
 10
145.4394493607444
 20
118.2222898162213
 30
0.0
 10
145.5675478164403
 20
119.4817427136367
 30
0.0
 10
145.5689549585337
 20
121.394650183152
 30
0.0
 10
145.5376399113052
 20
122.0352871920456
 30
0.0
 10
145.4155275166092
 20
123.3025346109154
 30
0.0
 10
145.324854117733
 20
123.9319097146374
 30
0.0
 10
144.974722343996
 20
125.8088298721894
 30
0.0
 10
144.6374567532706
 20
127.0452134332123
 30
0.0
 10
144.2287452209668
 20
128.2713480301236
 30
0.0
  0
SPLINE
  5
134
330
1F
100
AcDbEntity
  8
0
  6
Continuous
 62
     7
370
    25
100
AcDbSpline
210
0.0
220
0.0
230
1.0
 70
    24
 71
     3
 72
    14
 73
    10
 74
     0
 42
0.00000001
 43
0.00000001
 40
0.0
 40
0.0
 40
0.0
 40
0.0
 40
0.1639266967991939
 40
0.3278991061161046
 40
0.491787652269439
 40
0.6587150498545362
 40
0.8257466310634133
 40
0.9926432680958455
 40
1.0
 40
1.0
 40
1.0
 40
1.0
 10
144.2287452209667
 20
143.2713480301236
 30
0.0
 10
144.3577273849144
 20
143.2713480301236
 30
0.0
 10
144.6157276807125
 20
143.2713480301236
 30
0.0
 10
144.9394357865363
 20
143.2713480301236
 30
0.0
 10
145.2084009409166
 20
143.2713480301236
 30
0.0
 10
145.4113111947867
 20
143.2713480301236
 30
0.0
 10
145.5303425073481
 20
143.2713480301236
 30
0.0
 10
145.5810941739513
 20
143.2713480301236
 30
0.0
 10
145.5673178490568
 20
143.2713480301236
 30
0.0
 10
145.5667362320156
 20
143.2713480301236
 30
0.0
  0
SPLINE
  5
135
330
1F
100
AcDbEntity
  8
0
  6
Continuous
 62
     7
370
    25
100
AcDbSpline
210
0.0
220
0.0
230
1.0
 70
    24
 71
     3
 72
    13
 73
     9
 74
     0
 42
0.00000001
 43
0.00000001
 40
0.0
 40
0.0
 40
0.0
 40
0.0
 40
0.1586375904836462
 40
0.3247648600472056
 40
0.4907876255051529
 40
0.6604787105784852
 40
0.8302648135082165
 40
1.0
 40
1.0
 40
1.0
 40
1.0
 10
145.5667362320156
 20
113.2713480301236
 30
0.0
 10
145.5600160404579
 20
113.2713480301236
 30
0.0
 10
145.5462583802208
 20
113.2713480301236
 30
0.0
 10
145.4245089710127
 20
113.2713480301236
 30
0.0
 10
145.2309483781826
 20
113.2713480301236
 30
0.0
 10
144.960879543603
 20
113.2713480301236
 30
0.0
 10
144.6290276628563
 20
113.2713480301236
 30
0.0
 10
144.3621593612615
 20
113.2713480301236
 30
0.0
 10
144.2287452209667
 20
113.2713480301236
 30
0.0
  0
LINE
  5
136
330
1F
100
AcDbEntity
  8
0
  6
Continuous
 62
     7
370
    25
100
AcDbLine
 10
145.7128287504
 20
113.5213480301
 30
0.0
 11
145.7128287504
 21
143.0213480301
 31
0.0
  0
SPLINE
  5
137
330
1F
100
AcDbEntity
  8
0
  6
Continuous
 62
     7
370
    25
100
AcDbSpline
210
0.0
220
0.0
230
1.0
 70
    24
 71
     3
 72
    13
 73
     9
 74
     0
 42
0.00000001
 43
0.00000001
 40
0.0
 40
0.0
 40
0.0
 40
0.0
 40
0.1586375904836462
 40
0.3247648600472056
 40
0.4907876255051529
 40
0.6604787105784852
 40
0.8302648135082165
 40
1.0
 40
1.0
 40
1.0
 40
1.0
 10
138.8589212688238
 20
113.2713480301236
 30
0.0
 10
138.8656414603815
 20
113.2713480301236
 30
0.0
 10
138.8793991206186
 20
113.2713480301236
 30
0.0
 10
139.0011485298268
 20
113.2713480301236
 30
0.0
 10
139.1947091226568
 20
113.2713480301236
 30
0.0
 10
139.4647779572364
 20
113.2713480301236
 30
0.0
 10
139.7966298379831
 20
113.2713480301236
 30
0.0
 10
140.0634981395779
 20
113.2713480301236
 30
0.0
 10
140.1969122798727
 20
113.2713480301236
 30
0.0
  0
SPLINE
  5
138
330
1F
100
AcDbEntity
  8
0
  6
Continuous
 62
     7
370
    25
100
AcDbSpline
210
0.0
220
0.0
230
1.0
 70
    24
 71
     3
 72
    14
 73
    10
 74
     0
 42
0.00000001
 43
0.00000001
 40
0.0
 40
0.0
 40
0.0
 40
0.0
 40
0.1639266967991939
 40
0.3278991061161046
 40
0.491787652269439
 40
0.6587150498545362
 40
0.8257466310634133
 40
0.9926432680958455
 40
1.0
 40
1.0
 40
1.0
 40
1.0
 10
140.1969122798727
 20
143.2713480301236
 30
0.0
 10
140.067930115925
 20
143.2713480301236
 30
0.0
 10
139.8099298201269
 20
143.2713480301236
 30
0.0
 10
139.4862217143031
 20
143.2713480301236
 30
0.0
 10
139.2172565599228
 20
143.2713480301236
 30
0.0
 10
139.0143463060527
 20
143.2713480301236
 30
0.0
 10
138.8953149934913
 20
143.2713480301236
 30
0.0
 10
138.8445633268882
 20
143.2713480301236
 30
0.0
 10
138.8583396517826
 20
143.2713480301236
 30
0.0
 10
138.8589212688238
 20
143.2713480301236
 30
0.0
  0
SPLINE
  5
139
330
1F
100
AcDbEntity
  8
0
  6
Continuous
 62
     7
370
    25
100
AcDbSpline
210
0.0
220
0.0
230
1.0
 70
     8
 71
     3
 72
    16
 73
    12
 74
     0
 42
0.00000001
 43
0.00000001
 40
0.0
 40
0.0
 40
0.0
 40
0.0
 40
0.2500000000000001
 40
0.2500000000000001
 40
0.5000000000000001
 40
0.5000000000000001
 40
0.625
 40
0.625
 40
0.7499999999999999
 40
0.7499999999999999
 40
1.0
 40
1.0
 40
1.0
 40
1.0
 10
140.1969122798725
 20
113.2713480301236
 30
0.0
 10
139.788709634484
 20
114.4959559662891
 30
0.0
 10
139.4522767939699
 20
115.7294920661943
 30
0.0
 10
138.9862081400951
 20
118.2222898162213
 30
0.0
 10
138.8581096843991
 20
119.4817427136367
 30
0.0
 10
138.8567025423057
 20
121.394650183152
 30
0.0
 10
138.8880175895343
 20
122.0352871920456
 30
0.0
 10
139.0101299842302
 20
123.3025346109154
 30
0.0
 10
139.1008033831064
 20
123.9319097146374
 30
0.0
 10
139.4509351568434
 20
125.8088298721894
 30
0.0
 10
139.7882007475689
 20
127.0452134332123
 30
0.0
 10
140.1969122798726
 20
128.2713480301236
 30
0.0
  0
LINE
  5
13A
330
1F
100
AcDbEntity
  8
0
  6
Continuous
 62
     7
370
    25
100
AcDbLine
 10
138.7128287504
 20
113.5213480301
 30
0.0
 11
138.7128287504
 21
143.0213480301
 31
0.0
  0
LINE
  5
13B
330
1F
100
AcDbEntity
  8
0
  6
Continuous
 62
     7
370
    25
100
AcDbLine
 10
140.1969122799
 20
113.2713480301
 30
0.0
 11
144.228745221
 21
113.2713480301
 31
0.0
  0
LINE
  5
13C
330
1F
100
AcDbEntity
  8
0
  6
Continuous
 62
     7
370
    25
100
AcDbLine
 10
123.3180050894
 20
128.2713480301
 30
0.0
 11
123.3180050894
 21
141.2754472907
 31
0.0
  0
LINE
  5
13D
330
1F
100
AcDbEntity
  8
0
  6
Continuous
 62
     7
370
    25
100
AcDbLine
 10
123.3180050894
 20
115.2672487695
 30
0.0
 11
123.3180050894
 21
128.2713480301
 31
0.0
  0
LINE
  5
13E
330
1F
100
AcDbEntity
  8
0
  6
Continuous
 62
     7
370
    25
100
AcDbLine
 10
120.7128287504
 20
116.7713480301
 30
0.0
 11
120.7128287504
 21
139.7713480301
 31
0.0
  0
LINE
  5
13F
330
1F
100
AcDbEntity
  8
0
  6
Continuous
 62
     7
370
    18
100
AcDbLine
 10
121.5864562989
 20
140.2757371304
 30
0.0
 11
137.1128287504
 21
140.7609362695
 31
0.0
  0
LINE
  5
140
330
1F
100
AcDbEntity
  8
0
  6
Continuous
 62
     7
370
    18
100
AcDbLine
 10
121.5864562989
 20
116.2669589298
 30
0.0
 11
137.1128287504
 21
115.7817597907
 31
0.0
  0
LINE
  5
141
330
1F
100
AcDbEntity
  8
0
  6
Continuous
 62
     7
370
    25
100
AcDbLine
 10
137.1128287504
 20
114.8361605301
 30
0.0
 11
137.1128287504
 21
141.7065355301
 31
0.0
  0
LINE
  5
142
330
1F
100
AcDbEntity
  8
FORMAT
  6
CENTERX2
370
    18
100
AcDbLine
 10
147.6044704641
 20
128.2713480301
 30
0.0
 11
118.7128287504
 21
128.2713480301
 31
0.0
  0
ENDSEC
  0
SECTION
  2
OBJECTS
  0
DICTIONARY
  5
C
330
0
100
AcDbDictionary
281
     1
  3
ACAD_GROUP
350
D
  3
ACAD_LAYOUT
350
1A
  3
ACAD_MLINESTYLE
350
17
  3
ACAD_PLOTSETTINGS
350
19
  3
ACAD_PLOTSTYLENAME
350
E
  3
ACAD_SCALELIST
350
47
  3
DWGPROPS
350
143
  0
DICTIONARY
  5
D
102
{ACAD_REACTORS
330
C
102
}
330
C
100
AcDbDictionary
281
     1
  0
DICTIONARY
  5
1A
102
{ACAD_REACTORS
330
C
102
}
330
C
100
AcDbDictionary
281
     1
  3
Layout1
350
1E
  3
Layout2
350
26
  3
Model
350
22
  0
DICTIONARY
  5
17
102
{ACAD_REACTORS
330
C
102
}
330
C
100
AcDbDictionary
281
     1
  3
Standard
350
18
  0
DICTIONARY
  5
19
102
{ACAD_REACTORS
330
C
102
}
330
C
100
AcDbDictionary
281
     1
  0
ACDBDICTIONARYWDFLT
  5
E
102
{ACAD_REACTORS
330
C
102
}
330
C
100
AcDbDictionary
281
     1
  3
Normal
350
F
100
AcDbDictionaryWithDefault
340
F
  0
DICTIONARY
  5
47
102
{ACAD_REACTORS
330
C
102
}
330
C
100
AcDbDictionary
281
     1
  3
A0
350
48
  3
A1
350
49
  3
A2
350
4A
  3
A3
350
4B
  3
A4
350
4C
  3
A5
350
4D
  3
A6
350
4E
  3
A7
350
4F
  3
A8
350
50
  3
A9
350
51
  3
B0
350
52
  3
B1
350
53
  3
B2
350
54
  3
B3
350
55
  3
B4
350
56
  3
B5
350
57
  3
B6
350
58
  0
XRECORD
  5
143
102
{ACAD_REACTORS
330
C
102
}
330
C
100
AcDbXrecord
280
     1
  1
DWGPROPS COOKIE
  2

  3

  4

  6

  7

  8
user28
  9

300
=
301
=
302
=
303
=
304
=
305
=
306
=
307
=
308
=
309
=
 40
0.0
 41
2460406.307795695
 42
2460406.307796215
  1

 90
        0
  0
LAYOUT
  5
1E
102
{ACAD_REACTORS
330
1A
102
}
330
1A
100
AcDbPlotSettings
  1

  2
none_device
  4

  6

 40
0.0
 41
0.0
 42
0.0
 43
0.0
 44
0.0
 45
0.0
 46
0.0
 47
0.0
 48
0.0
 49
0.0
140
0.0
141
0.0
142
1.0
143
1.0
 70
   688
 72
     1
 73
     0
 74
     5
  7

 75
    16
147
1.0
148
0.0
149
0.0
100
AcDbLayout
  1
Layout1
 70
     1
 71
     1
 10
0.0
 20
0.0
 11
420.0
 21
297.0
 12
0.0
 22
0.0
 32
0.0
 14
1.0000000000E+20
 24
1.0000000000E+20
 34
1.0000000000E+20
 15
-1.0000000000E+20
 25
-1.0000000000E+20
 35
-1.0000000000E+20
146
0.0
 13
0.0
 23
0.0
 33
0.0
 16
1.0
 26
0.0
 36
0.0
 17
0.0
 27
1.0
 37
0.0
 76
     0
330
1B
  0
LAYOUT
  5
26
102
{ACAD_REACTORS
330
1A
102
}
330
1A
100
AcDbPlotSettings
  1

  2
none_device
  4

  6

 40
0.0
 41
0.0
 42
0.0
 43
0.0
 44
0.0
 45
0.0
 46
0.0
 47
0.0
 48
0.0
 49
0.0
140
0.0
141
0.0
142
1.0
143
1.0
 70
   688
 72
     1
 73
     0
 74
     5
  7

 75
    16
147
1.0
148
0.0
149
0.0
100
AcDbLayout
  1
Layout2
 70
     1
 71
     2
 10
0.0
 20
0.0
 11
0.0
 21
0.0
 12
0.0
 22
0.0
 32
0.0
 14
0.0
 24
0.0
 34
0.0
 15
0.0
 25
0.0
 35
0.0
146
0.0
 13
0.0
 23
0.0
 33
0.0
 16
1.0
 26
0.0
 36
0.0
 17
0.0
 27
1.0
 37
0.0
 76
     0
330
23
  0
LAYOUT
  5
22
102
{ACAD_REACTORS
330
1A
102
}
330
1A
100
AcDbPlotSettings
  1

  2
none_device
  4
Letter_(8.50_x_11.00_Inches)
  6

 40
6.35
 41
6.35
 42
6.35000508
 43
6.35000508
 44
215.9
 45
279.4
 46
0.0
 47
0.0
 48
0.0
 49
0.0
140
0.0
141
0.0
142
1.0
143
1.0
 70
  1712
 72
     1
 73
     0
 74
     0
  7

 75
     0
147
1.0
148
0.0
149
0.0
100
AcDbLayout
  1
Model
 70
     1
 71
     0
 10
0.0
 20
0.0
 11
297.0
 21
210.0
 12
0.0
 22
0.0
 32
0.0
 14
0.0
 24
0.0
 34
0.0
 15
297.0
 25
210.0
 35
0.0
146
0.0
 13
0.0
 23
0.0
 33
0.0
 16
1.0
 26
0.0
 36
0.0
 17
0.0
 27
1.0
 37
0.0
 76
     0
330
1F
331
29
  0
MLINESTYLE
  5
18
102
{ACAD_REACTORS
330
17
102
}
330
17
100
AcDbMlineStyle
  2
Standard
 70
     0
  3

 62
   256
 51
90.0
 52
90.0
 71
     2
 49
0.5
 62
   256
  6
BYLAYER
 49
-0.5
 62
   256
  6
BYLAYER
  0
ACDBPLACEHOLDER
  5
F
102
{ACAD_REACTORS
330
E
102
}
330
E
  0
SCALE
  5
48
102
{ACAD_REACTORS
330
47
102
}
330
47
100
AcDbScale
 70
     0
300
1:1
140
1.0
141
1.0
290
     1
  0
SCALE
  5
49
102
{ACAD_REACTORS
330
47
102
}
330
47
100
AcDbScale
 70
     0
300
1:2
140
1.0
141
2.0
290
     0
  0
SCALE
  5
4A
102
{ACAD_REACTORS
330
47
102
}
330
47
100
AcDbScale
 70
     0
300
1:4
140
1.0
141
4.0
290
     0
  0
SCALE
  5
4B
102
{ACAD_REACTORS
330
47
102
}
330
47
100
AcDbScale
 70
     0
300
1:5
140
1.0
141
5.0
290
     0
  0
SCALE
  5
4C
102
{ACAD_REACTORS
330
47
102
}
330
47
100
AcDbScale
 70
     0
300
1:8
140
1.0
141
8.0
290
     0
  0
SCALE
  5
4D
102
{ACAD_REACTORS
330
47
102
}
330
47
100
AcDbScale
 70
     0
300
1:10
140
1.0
141
10.0
290
     0
  0
SCALE
  5
4E
102
{ACAD_REACTORS
330
47
102
}
330
47
100
AcDbScale
 70
     0
300
1:16
140
1.0
141
16.0
290
     0
  0
SCALE
  5
4F
102
{ACAD_REACTORS
330
47
102
}
330
47
100
AcDbScale
 70
     0
300
1:20
140
1.0
141
20.0
290
     0
  0
SCALE
  5
50
102
{ACAD_REACTORS
330
47
102
}
330
47
100
AcDbScale
 70
     0
300
1:30
140
1.0
141
30.0
290
     0
  0
SCALE
  5
51
102
{ACAD_REACTORS
330
47
102
}
330
47
100
AcDbScale
 70
     0
300
1:40
140
1.0
141
40.0
290
     0
  0
SCALE
  5
52
102
{ACAD_REACTORS
330
47
102
}
330
47
100
AcDbScale
 70
     0
300
1:50
140
1.0
141
50.0
290
     0
  0
SCALE
  5
53
102
{ACAD_REACTORS
330
47
102
}
330
47
100
AcDbScale
 70
     0
300
1:100
140
1.0
141
100.0
290
     0
  0
SCALE
  5
54
102
{ACAD_REACTORS
330
47
102
}
330
47
100
AcDbScale
 70
     0
300
2:1
140
2.0
141
1.0
290
     0
  0
SCALE
  5
55
102
{ACAD_REACTORS
330
47
102
}
330
47
100
AcDbScale
 70
     0
300
4:1
140
4.0
141
1.0
290
     0
  0
SCALE
  5
56
102
{ACAD_REACTORS
330
47
102
}
330
47
100
AcDbScale
 70
     0
300
8:1
140
8.0
141
1.0
290
     0
  0
SCALE
  5
57
102
{ACAD_REACTORS
330
47
102
}
330
47
100
AcDbScale
 70
     0
300
10:1
140
10.0
141
1.0
290
     0
  0
SCALE
  5
58
102
{ACAD_REACTORS
330
47
102
}
330
47
100
AcDbScale
 70
     0
300
100:1
140
100.0
141
1.0
290
     0
  0
ENDSEC
  0
EOF
