  0
SECTION
  2
HEADER
  9
$ACADVER
  1
AC1015
  9
$ACADMAINTVER
 70
     6
  9
$DWGCODEPAGE
  3
DOS932
  9
$INSBASE
 10
0.0
 20
0.0
 30
0.0
  9
$EXTMIN
 10
0.0
 20
0.0
 30
0.0
  9
$EXTMAX
 10
148.5
 20
105.0
 30
0.0
  9
$LIMMIN
 10
0.0
 20
0.0
  9
$LIMMAX
 10
148.5
 20
105.0
  9
$ORTHOMODE
 70
     0
  9
$REGENMODE
 70
     1
  9
$FILLMODE
 70
     1
  9
$QTEXTMODE
 70
     0
  9
$MIRRTEXT
 70
     1
  9
$LTSCALE
 40
0.5
  9
$ATTMODE
 70
     1
  9
$TEXTSIZE
 40
1.7638888889
  9
$TRACEWID
 40
1.0
  9
$TEXTSTYLE
  7
Standard
  9
$CLAYER
  8
0
  9
$CELTYPE
  6
ByLayer
  9
$CECOLOR
 62
   256
  9
$CELTSCALE
 40
1.0
  9
$DISPSILH
 70
     0
  9
$DIMSCALE
 40
1.0
  9
$DIMASZ
 40
1.3642578125
  9
$DIMEXO
 40
0.5
  9
$DIMDLI
 40
3.75
  9
$DIMRND
 40
0.0
  9
$DIMDLE
 40
0.0
  9
$DIMEXE
 40
0.5
  9
$DIMTP
 40
0.0
  9
$DIMTM
 40
0.0
  9
$DIMTXT
 40
1.7638888889
  9
$DIMCEN
 40
2.5
  9
$DIMTSZ
 40
0.0
  9
$DIMTOL
 70
     0
  9
$DIMLIM
 70
     0
  9
$DIMTIH
 70
     1
  9
$DIMTOH
 70
     1
  9
$DIMSE1
 70
     0
  9
$DIMSE2
 70
     0
  9
$DIMTAD
 70
     1
  9
$DIMZIN
 70
     0
  9
$DIMBLK
  1

  9
$DIMASO
 70
     1
  9
$DIMSHO
 70
     1
  9
$DIMPOST
  1

  9
$DIMAPOST
  1

  9
$DIMALT
 70
     0
  9
$DIMALTD
 70
     3
  9
$DIMALTF
 40
0.0393700787
  9
$DIMLFAC
 40
1.0
  9
$DIMTOFL
 70
     1
  9
$DIMTVP
 40
0.0
  9
$DIMTIX
 70
     0
  9
$DIMSOXD
 70
     0
  9
$DIMSAH
 70
     0
  9
$DIMBLK1
  1

  9
$DIMBLK2
  1

  9
$DIMSTYLE
  2
ISO-25
  9
$DIMCLRD
 70
     0
  9
$DIMCLRE
 70
     0
  9
$DIMCLRT
 70
     0
  9
$DIMTFAC
 40
1.0
  9
$DIMGAP
 40
0.762
  9
$DIMJUST
 70
     0
  9
$DIMSD1
 70
     0
  9
$DIMSD2
 70
     0
  9
$DIMTOLJ
 70
     0
  9
$DIMTZIN
 70
     0
  9
$DIMALTZ
 70
     0
  9
$DIMALTTZ
 70
     0
  9
$DIMUPT
 70
     0
  9
$DIMDEC
 70
     2
  9
$DIMTDEC
 70
     2
  9
$DIMALTU
 70
     2
  9
$DIMALTTD
 70
     3
  9
$DIMTXSTY
  7
Standard
  9
$DIMAUNIT
 70
     0
  9
$DIMADEC
 70
     2
  9
$DIMALTRND
 40
0.0
  9
$DIMAZIN
 70
     0
  9
$DIMDSEP
 70
    44
  9
$DIMATFIT
 70
     3
  9
$DIMFRAC
 70
     0
  9
$DIMLDRBLK
  1

  9
$DIMLUNIT
 70
     2
  9
$DIMLWD
 70
    -2
  9
$DIMLWE
 70
    -2
  9
$DIMTMOVE
 70
     0
  9
$LUNITS
 70
     2
  9
$LUPREC
 70
     2
  9
$SKETCHINC
 40
1.0
  9
$FILLETRAD
 40
0.0
  9
$AUNITS
 70
     0
  9
$AUPREC
 70
     2
  9
$MENU
  1
.
  9
$ELEVATION
 40
0.0
  9
$PELEVATION
 40
0.0
  9
$THICKNESS
 40
0.0
  9
$LIMCHECK
 70
     0
  9
$CHAMFERA
 40
0.0
  9
$CHAMFERB
 40
0.0
  9
$CHAMFERC
 40
0.0
  9
$CHAMFERD
 40
0.0
  9
$SKPOLY
 70
     0
  9
$TDCREATE
 40
2460406.681515833
  9
$TDUCREATE
 40
2460406.306515833
  9
$TDUPDATE
 40
2460406.681516447
  9
$TDUUPDATE
 40
2460406.306516447
  9
$TDINDWG
 40
0.0000000116
  9
$TDUSRTIMER
 40
0.0000000116
  9
$USRTIMER
 70
     1
  9
$ANGBASE
 50
0.0
  9
$ANGDIR
 70
     0
  9
$PDMODE
 70
     0
  9
$PDSIZE
 40
-1.0
  9
$PLINEWID
 40
0.0
  9
$SPLFRAME
 70
     0
  9
$SPLINETYPE
 70
     6
  9
$SPLINESEGS
 70
     8
  9
$HANDSEED
  5
14A
  9
$SURFTAB1
 70
     6
  9
$SURFTAB2
 70
     6
  9
$SURFTYPE
 70
     6
  9
$SURFU
 70
     6
  9
$SURFV
 70
     6
  9
$UCSBASE
  2

  9
$UCSNAME
  2

  9
$UCSORG
 10
0.0
 20
0.0
 30
0.0
  9
$UCSXDIR
 10
1.0
 20
0.0
 30
0.0
  9
$UCSYDIR
 10
0.0
 20
1.0
 30
0.0
  9
$UCSORTHOREF
  2

  9
$UCSORTHOVIEW
 70
     0
  9
$UCSORGTOP
 10
0.0
 20
0.0
 30
0.0
  9
$UCSORGBOTTOM
 10
0.0
 20
0.0
 30
0.0
  9
$UCSORGLEFT
 10
0.0
 20
0.0
 30
0.0
  9
$UCSORGRIGHT
 10
0.0
 20
0.0
 30
0.0
  9
$UCSORGFRONT
 10
0.0
 20
0.0
 30
0.0
  9
$UCSORGBACK
 10
0.0
 20
0.0
 30
0.0
  9
$PUCSBASE
  2

  9
$PUCSNAME
  2

  9
$PUCSORG
 10
0.0
 20
0.0
 30
0.0
  9
$PUCSXDIR
 10
1.0
 20
0.0
 30
0.0
  9
$PUCSYDIR
 10
0.0
 20
1.0
 30
0.0
  9
$PUCSORTHOREF
  2

  9
$PUCSORTHOVIEW
 70
     0
  9
$PUCSORGTOP
 10
0.0
 20
0.0
 30
0.0
  9
$PUCSORGBOTTOM
 10
0.0
 20
0.0
 30
0.0
  9
$PUCSORGLEFT
 10
0.0
 20
0.0
 30
0.0
  9
$PUCSORGRIGHT
 10
0.0
 20
0.0
 30
0.0
  9
$PUCSORGFRONT
 10
0.0
 20
0.0
 30
0.0
  9
$PUCSORGBACK
 10
0.0
 20
0.0
 30
0.0
  9
$USERI1
 70
     0
  9
$USERI2
 70
     0
  9
$USERI3
 70
     0
  9
$USERI4
 70
     0
  9
$USERI5
 70
     0
  9
$USERR1
 40
0.0
  9
$USERR2
 40
0.0
  9
$USERR3
 40
0.0
  9
$USERR4
 40
0.0
  9
$USERR5
 40
0.0
  9
$WORLDVIEW
 70
     1
  9
$SHADEDGE
 70
     3
  9
$SHADEDIF
 70
    70
  9
$TILEMODE
 70
     1
  9
$MAXACTVP
 70
    64
  9
$PINSBASE
 10
0.0
 20
0.0
 30
0.0
  9
$PLIMCHECK
 70
     0
  9
$PEXTMIN
 10
1.0000000000E+20
 20
1.0000000000E+20
 30
1.0000000000E+20
  9
$PEXTMAX
 10
-1.0000000000E+20
 20
-1.0000000000E+20
 30
-1.0000000000E+20
  9
$PLIMMIN
 10
0.0
 20
0.0
  9
$PLIMMAX
 10
420.0
 20
297.0
  9
$UNITMODE
 70
     0
  9
$VISRETAIN
 70
     1
  9
$PLINEGEN
 70
     0
  9
$PSLTSCALE
 70
     1
  9
$TREEDEPTH
 70
  3020
  9
$CMLSTYLE
  2
Standard
  9
$CMLJUST
 70
     0
  9
$CMLSCALE
 40
20.0
  9
$PROXYGRAPHICS
 70
     1
  9
$MEASUREMENT
 70
     1
  9
$CELWEIGHT
370
    -1
  9
$ENDCAPS
280
     0
  9
$JOINSTYLE
280
     0
  9
$LWDISPLAY
290
     1
  9
$INSUNITS
 70
     4
  9
$HYPERLINKBASE
  1

  9
$STYLESHEET
  1

  9
$XEDIT
290
     1
  9
$CEPSNTYPE
380
     0
  9
$PSTYLEMODE
290
     1
  9
$FINGERPRINTGUID
  2
{79b09306-a01c-4fbe-8aa9-dc4358d30d27}
  9
$VERSIONGUID
  2
{FAEB1C32-E019-11D5-929B-00C0DF256EC4}
  9
$EXTNAMES
290
     1
  9
$PSVPSCALE
 40
0.0
  9
$OLESTARTUP
290
     0
  0
ENDSEC
  0
SECTION
  2
CLASSES
  0
CLASS
  1
ACDBDICTIONARYWDFLT
  2
AcDbDictionaryWithDefault
  3
ObjectDBX Classes
 90
        0
280
     0
281
     0
  0
CLASS
  1
VISUALSTYLE
  2
AcDbVisualStyle
  3
ObjectDBX Classes
 90
     4095
280
     0
281
     0
  0
CLASS
  1
MATERIAL
  2
AcDbMaterial
  3
ObjectDBX Classes
 90
     1153
280
     0
281
     0
  0
CLASS
  1
SCALE
  2
AcDbScale
  3
ObjectDBX Classes
 90
     1153
280
     0
281
     0
  0
CLASS
  1
TABLESTYLE
  2
AcDbTableStyle
  3
ObjectDBX Classes
 90
     4095
280
     0
281
     0
  0
CLASS
  1
MLEADERSTYLE
  2
AcDbMLeaderStyle
  3
ACDB_MLEADERSTYLE_CLASS
 90
     4095
280
     0
281
     0
  0
CLASS
  1
SUN
  2
AcDbSun
  3
SCENEOE
 90
     1153
280
     0
281
     0
  0
CLASS
  1
ACDBPLACEHOLDER
  2
AcDbPlaceHolder
  3
ObjectDBX Classes
 90
        0
280
     0
281
     0
  0
CLASS
  1
LAYOUT
  2
AcDbLayout
  3
ObjectDBX Classes
 90
        0
280
     0
281
     0
  0
ENDSEC
  0
SECTION
  2
TABLES
  0
TABLE
  2
VPORT
  5
8
330
0
100
AcDbSymbolTable
 70
     1
  0
VPORT
  5
29
330
8
100
AcDbSymbolTableRecord
100
AcDbViewportTableRecord
  2
*Active
 70
     0
 10
0.0
 20
0.0
 11
1.0
 21
1.0
 12
74.25
 22
52.5
 13
0.0
 23
0.0
 14
10.0
 24
10.0
 15
10.0
 25
10.0
 16
0.0
 26
0.0
 36
1.0
 17
0.0
 27
0.0
 37
0.0
 40
105.0
 41
1.4142857143
 42
50.0
 43
0.0
 44
0.0
 50
0.0
 51
0.0
 71
     0
 72
  2000
 73
     1
 74
     3
 75
     0
 76
     0
 77
     0
 78
     0
281
     0
 65
     1
110
0.0
120
0.0
130
0.0
111
1.0
121
0.0
131
0.0
112
0.0
122
1.0
132
0.0
 79
     0
146
0.0
  0
ENDTAB
  0
TABLE
  2
LTYPE
  5
5
330
0
100
AcDbSymbolTable
 70
     6
  0
LTYPE
  5
14
330
5
100
AcDbSymbolTableRecord
100
AcDbLinetypeTableRecord
  2
ByBlock
 70
     0
  3

 72
    65
 73
     0
 40
0.0
  0
LTYPE
  5
15
330
5
100
AcDbSymbolTableRecord
100
AcDbLinetypeTableRecord
  2
ByLayer
 70
     0
  3

 72
    65
 73
     0
 40
0.0
  0
LTYPE
  5
16
330
5
100
AcDbSymbolTableRecord
100
AcDbLinetypeTableRecord
  2
Continuous
 70
     0
  3
Solid line
 72
    65
 73
     0
 40
0.0
  0
LTYPE
  5
5E
330
5
100
AcDbSymbolTableRecord
100
AcDbLinetypeTableRecord
  2
HIDDEN
 70
     0
  3
Hidden __ __ __ __ __ __ __ __ __ __ __ __ __ __
 72
    65
 73
     2
 40
1.905
 49
1.27
 74
     0
 49
-0.635
 74
     0
  0
LTYPE
  5
5F
330
5
100
AcDbSymbolTableRecord
100
AcDbLinetypeTableRecord
  2
PHANTOM
 70
     0
  3
Phantom ______  __  __  ______  __  __  ______
 72
    65
 73
     6
 40
12.7
 49
6.35
 74
     0
 49
-1.27
 74
     0
 49
1.27
 74
     0
 49
-1.27
 74
     0
 49
1.27
 74
     0
 49
-1.27
 74
     0
  0
LTYPE
  5
60
330
5
100
AcDbSymbolTableRecord
100
AcDbLinetypeTableRecord
  2
CENTER
 70
     0
  3
Center ____ _ ____ _ ____ _ ____ _ ____ _ ____
 72
    65
 73
     4
 40
10.16
 49
6.35
 74
     0
 49
-1.27
 74
     0
 49
1.27
 74
     0
 49
-1.27
 74
     0
  0
LTYPE
  5
61
330
5
100
AcDbSymbolTableRecord
100
AcDbLinetypeTableRecord
  2
CENTERX2
 70
     0
  3
Center (2x) ________  __  ________  __  _____
 72
    65
 73
     4
 40
20.32
 49
12.7
 74
     0
 49
-2.54
 74
     0
 49
2.54
 74
     0
 49
-2.54
 74
     0
  0
LTYPE
  5
62
330
5
100
AcDbSymbolTableRecord
100
AcDbLinetypeTableRecord
  2
DOT2
 70
     0
  3
Dot (.5x) ........................................
 72
    65
 73
     2
 40
0.635
 49
0.0
 74
     0
 49
-0.635
 74
     0
  0
ENDTAB
  0
TABLE
  2
LAYER
  5
2
330
0
100
AcDbSymbolTable
 70
     2
  0
LAYER
  5
10
330
2
100
AcDbSymbolTableRecord
100
AcDbLayerTableRecord
  2
0
 70
     0
 62
     7
  6
Continuous
370
    -3
390
F
  0
LAYER
  5
63
330
2
100
AcDbSymbolTableRecord
100
AcDbLayerTableRecord
  2
FORMAT
 70
     0
 62
     7
  6
Continuous
370
    -3
390
F
  0
ENDTAB
  0
TABLE
  2
STYLE
  5
3
330
0
100
AcDbSymbolTable
 70
     2
  0
STYLE
  5
11
330
3
100
AcDbSymbolTableRecord
100
AcDbTextStyleTableRecord
  2
Standard
 70
     0
 40
0.0
 41
1.0
 50
0.0
 71
     0
 42
1.7638888889
  3
txt
  4
bigfont
  0
STYLE
  5
64
330
3
100
AcDbSymbolTableRecord
100
AcDbTextStyleTableRecord
  2
SLDTEXTSTYLE0
 70
     0
 40
0.0
 41
0.7
 50
0.0
 71
     0
 42
1.7638888889
  3
TXT
  4
bigfont
  0
ENDTAB
  0
TABLE
  2
VIEW
  5
6
330
0
100
AcDbSymbolTable
 70
     0
  0
ENDTAB
  0
TABLE
  2
UCS
  5
7
330
0
100
AcDbSymbolTable
 70
     0
  0
ENDTAB
  0
TABLE
  2
APPID
  5
9
330
0
100
AcDbSymbolTable
 70
     1
  0
APPID
  5
12
330
9
100
AcDbSymbolTableRecord
100
AcDbRegAppTableRecord
  2
ACAD
 70
     0
  0
ENDTAB
  0
TABLE
  2
DIMSTYLE
  5
A
330
0
100
AcDbSymbolTable
 70
     1
100
AcDbDimStyleTable
  0
DIMSTYLE
105
27
330
A
100
AcDbSymbolTableRecord
100
AcDbDimStyleTableRecord
  2
ISO-25
 70
     0
 41
2.5
 42
0.625
 43
3.75
 44
1.25
 73
     0
 74
     0
 77
     1
 78
     8
140
2.5
141
2.5
143
0.0393700787
147
0.625
171
     3
172
     1
178
     0
271
     2
272
     2
274
     3
278
    44
283
     0
284
     8
340
11
  0
ENDTAB
  0
TABLE
  2
BLOCK_RECORD
  5
1
330
0
100
AcDbSymbolTable
 70
     2
  0
BLOCK_RECORD
  5
1F
330
1
100
AcDbSymbolTableRecord
100
AcDbBlockTableRecord
  2
*Model_Space
340
22
  0
BLOCK_RECORD
  5
1B
330
1
100
AcDbSymbolTableRecord
100
AcDbBlockTableRecord
  2
*Paper_Space
340
1E
  0
BLOCK_RECORD
  5
23
330
1
100
AcDbSymbolTableRecord
100
AcDbBlockTableRecord
  2
*Paper_Space0
340
26
  0
BLOCK_RECORD
  5
120
330
1
100
AcDbSymbolTableRecord
100
AcDbBlockTableRecord
  2
SW_CENTERMARKSYMBOL_0
340
0
102
{BLKREFS
331
12B
102
}
  0
ENDTAB
  0
ENDSEC
  0
SECTION
  2
BLOCKS
  0
BLOCK
  5
20
330
1F
100
AcDbEntity
  8
0
100
AcDbBlockBegin
  2
*Model_Space
 70
     0
 10
0.0
 20
0.0
 30
0.0
  3
*Model_Space
  1

  0
ENDBLK
  5
21
330
1F
100
AcDbEntity
  8
0
100
AcDbBlockEnd
  0
BLOCK
  5
1C
330
1B
100
AcDbEntity
 67
     1
  8
0
100
AcDbBlockBegin
  2
*Paper_Space
 70
     0
 10
0.0
 20
0.0
 30
0.0
  3
*Paper_Space
  1

  0
ENDBLK
  5
1D
330
1B
100
AcDbEntity
 67
     1
  8
0
100
AcDbBlockEnd
  0
BLOCK
  5
24
330
23
100
AcDbEntity
  8
0
100
AcDbBlockBegin
  2
*Paper_Space0
 70
     0
 10
0.0
 20
0.0
 30
0.0
  3
*Paper_Space0
  1

  0
ENDBLK
  5
25
330
23
100
AcDbEntity
  8
0
100
AcDbBlockEnd
  0
BLOCK
  5
121
330
120
100
AcDbEntity
  8
0
100
AcDbBlockBegin
  2
SW_CENTERMARKSYMBOL_0
 70
     0
 10
0.0
 20
0.0
 30
0.0
  3
SW_CENTERMARKSYMBOL_0
  1

  0
LINE
  5
123
330
120
100
AcDbEntity
  8
FORMAT
 62
     0
100
AcDbLine
 10
0.0
 20
0.0
 30
0.0
 11
0.0
 21
2.5
 31
0.0
  0
LINE
  5
124
330
120
100
AcDbEntity
  8
FORMAT
 62
     0
100
AcDbLine
 10
0.0
 20
0.0
 30
0.0
 11
-2.5
 21
0.0
 31
0.0
  0
LINE
  5
125
330
120
100
AcDbEntity
  8
FORMAT
 62
     0
100
AcDbLine
 10
0.0
 20
0.0
 30
0.0
 11
0.0
 21
-2.5
 31
0.0
  0
LINE
  5
126
330
120
100
AcDbEntity
  8
FORMAT
 62
     0
100
AcDbLine
 10
0.0
 20
0.0
 30
0.0
 11
2.5
 21
0.0
 31
0.0
  0
LINE
  5
127
330
120
100
AcDbEntity
  8
FORMAT
 62
     0
100
AcDbLine
 10
0.0
 20
5.0
 30
0.0
 11
0.0
 21
15.2356704075
 31
0.0
  0
LINE
  5
128
330
120
100
AcDbEntity
  8
FORMAT
 62
     0
100
AcDbLine
 10
-5.0
 20
0.0
 30
0.0
 11
-13.2225
 21
0.0
 31
0.0
  0
LINE
  5
129
330
120
100
AcDbEntity
  8
FORMAT
 62
     0
100
AcDbLine
 10
0.0
 20
-5.0
 30
0.0
 11
0.0
 21
-15.1480544208
 31
0.0
  0
LINE
  5
12A
330
120
100
AcDbEntity
  8
FORMAT
 62
     0
100
AcDbLine
 10
5.0
 20
0.0
 30
0.0
 11
13.2225
 21
0.0
 31
0.0
  0
ENDBLK
  5
122
330
120
100
AcDbEntity
  8
0
100
AcDbBlockEnd
  0
ENDSEC
  0
SECTION
  2
ENTITIES
  0
MTEXT
  5
65
330
1F
100
AcDbEntity
  8
FORMAT
100
AcDbMText
 10
78.6598157393
 20
55.4538710339
 30
0.0
 40
2.1166666667
 41
0.0
 71
     1
 72
     1
  1
5R-NB1343
  7
SLDTEXTSTYLE0
 73
     1
 44
1.0
  0
LINE
  5
66
330
1F
100
AcDbEntity
  8
0
  6
Continuous
 62
     7
370
    25
100
AcDbLine
 10
61.5217744426
 20
44.3412479274
 30
0.0
 11
60.3056401055
 21
42.2348414668
 31
0.0
  0
LINE
  5
67
330
1F
100
AcDbEntity
  8
0
  6
Continuous
 62
     7
370
    25
100
AcDbLine
 10
60.3056401055
 20
18.7348414668
 30
0.0
 11
61.5217744426
 21
16.6284350063
 31
0.0
  0
LINE
  5
68
330
1F
100
AcDbEntity
  8
0
  6
Continuous
 62
     7
370
    25
100
AcDbLine
 10
65.0895057685
 20
16.6284350063
 30
0.0
 11
66.3056401055
 21
18.7348414668
 31
0.0
  0
LINE
  5
69
330
1F
100
AcDbEntity
  8
0
  6
Continuous
 62
     7
370
    25
100
AcDbLine
 10
66.3056401055
 20
42.2348414668
 30
0.0
 11
65.0895057685
 21
44.3412479274
 31
0.0
  0
LINE
  5
6A
330
1F
100
AcDbEntity
  8
0
  6
Continuous
 62
     7
370
    25
100
AcDbLine
 10
60.3056401055
 20
41.2073414668
 30
0.0
 11
47.0020313785
 21
40.7916036941
 31
0.0
  0
LINE
  5
6B
330
1F
100
AcDbEntity
  8
0
  6
Continuous
 62
     7
370
    25
100
AcDbLine
 10
47.0020313785
 20
20.1780792395
 30
0.0
 11
60.3056401055
 21
19.7623414668
 31
0.0
  0
LINE
  5
6C
330
1F
100
AcDbEntity
  8
0
  6
Continuous
 62
     7
370
    25
100
AcDbLine
 10
47.0020313785
 20
40.7916036941
 30
0.0
 11
44.3056401055
 21
39.2348414668
 31
0.0
  0
LINE
  5
6D
330
1F
100
AcDbEntity
  8
0
  6
Continuous
 62
     7
370
    25
100
AcDbLine
 10
44.3056401055
 20
21.7348414668
 30
0.0
 11
47.0020313785
 21
20.1780792395
 31
0.0
  0
SPLINE
  5
6E
330
1F
100
AcDbEntity
  8
0
  6
Continuous
 62
     7
370
    25
100
AcDbSpline
210
0.0
220
0.0
230
1.0
 70
     8
 71
     3
 72
    16
 73
    12
 74
     0
 42
0.00000001
 43
0.00000001
 40
0.0
 40
0.0
 40
0.0
 40
0.0
 40
0.2499999999999999
 40
0.2499999999999999
 40
0.4999999999999999
 40
0.4999999999999999
 40
0.625
 40
0.625
 40
0.7499999999999998
 40
0.7499999999999998
 40
1.0
 40
1.0
 40
1.0
 40
1.0
 10
61.52177444255071
 20
16.62843500626644
 30
0.0
 10
61.19521236256671
 20
17.19405712062409
 30
0.0
 10
60.92606608229222
 20
17.76380302319478
 30
0.0
 10
60.55321111955632
 20
18.91517709104615
 30
0.0
 10
60.45073232434339
 20
19.49689359080209
 30
0.0
 10
60.44960667270976
 20
20.38042802968396
 30
0.0
 10
60.4746587396592
 20
20.67632553335245
 30
0.0
 10
60.5723486830473
 20
21.26164196205828
 30
0.0
 10
60.64488740831698
 20
21.55233782906044
 30
0.0
 10
60.9249928243616
 20
22.41924999027703
 30
0.0
 10
61.19480526630839
 20
22.99031101078111
 30
0.0
 10
61.52177444255084
 20
23.55663823654198
 30
0.0
  0
LINE
  5
6F
330
1F
100
AcDbEntity
  8
0
  6
Continuous
 62
     7
370
    25
100
AcDbLine
 10
61.5217744426
 20
23.5566382365
 30
0.0
 11
65.0895057685
 21
23.5566382365
 31
0.0
  0
SPLINE
  5
70
330
1F
100
AcDbEntity
  8
0
  6
Continuous
 62
     7
370
    25
100
AcDbSpline
210
0.0
220
0.0
230
1.0
 70
     8
 71
     3
 72
    16
 73
    12
 74
     0
 42
0.00000001
 43
0.00000001
 40
0.0
 40
0.0
 40
0.0
 40
0.0
 40
0.2499999999999999
 40
0.2499999999999999
 40
0.4999999999999999
 40
0.4999999999999999
 40
0.625
 40
0.625
 40
0.7499999999999998
 40
0.7499999999999998
 40
1.0
 40
1.0
 40
1.0
 40
1.0
 10
65.0895057685075
 20
16.62843500626644
 30
0.0
 10
65.4160678484915
 20
17.19405712062409
 30
0.0
 10
65.68521412876599
 20
17.76380302319478
 30
0.0
 10
66.05806909150189
 20
18.91517709104615
 30
0.0
 10
66.16054788671482
 20
19.49689359080209
 30
0.0
 10
66.16167353834844
 20
20.38042802968396
 30
0.0
 10
66.13662147139901
 20
20.67632553335245
 30
0.0
 10
66.0389315280109
 20
21.26164196205828
 30
0.0
 10
65.96639280274123
 20
21.55233782906044
 30
0.0
 10
65.6862873866966
 20
22.41924999027703
 30
0.0
 10
65.41647494474982
 20
22.99031101078111
 30
0.0
 10
65.08950576850737
 20
23.55663823654198
 30
0.0
  0
LINE
  5
71
330
1F
100
AcDbEntity
  8
0
  6
Continuous
 62
     7
370
    25
100
AcDbLine
 10
61.5217744426
 20
16.6284350063
 30
0.0
 11
65.0895057685
 21
16.6284350063
 31
0.0
  0
SPLINE
  5
72
330
1F
100
AcDbEntity
  8
0
  6
Continuous
 62
     7
370
    25
100
AcDbSpline
210
0.0
220
0.0
230
1.0
 70
     8
 71
     3
 72
    14
 73
    10
 74
     0
 42
0.00000001
 43
0.00000001
 40
0.0
 40
0.0
 40
0.0
 40
0.0
 40
0.2499999999999999
 40
0.2499999999999999
 40
0.4999999999999999
 40
0.4999999999999999
 40
0.7499999999999999
 40
0.7499999999999999
 40
1.0
 40
1.0
 40
1.0
 40
1.0
 10
61.521774442551
 20
23.55663823654197
 30
0.0
 10
61.19620094576332
 20
24.68445791261021
 30
0.0
 10
60.92695179213431
 20
25.82269169588634
 30
0.0
 10
60.55316622632346
 20
28.12961387676238
 30
0.0
 10
60.44988066947615
 20
29.29966097115713
 30
0.0
 10
60.4500748152117
 20
31.67342183601751
 30
0.0
 10
60.55335880556196
 20
32.84153975159035
 30
0.0
 10
60.92706141333044
 20
35.14738542927169
 30
0.0
 10
61.19623406400848
 20
36.28533974599132
 30
0.0
 10
61.521774442551
 20
37.413044697093
 30
0.0
  0
LINE
  5
73
330
1F
100
AcDbEntity
  8
0
  6
Continuous
 62
     7
370
    25
100
AcDbLine
 10
61.5217744426
 20
37.4130446971
 30
0.0
 11
65.0895057685
 21
37.4130446971
 31
0.0
  0
SPLINE
  5
74
330
1F
100
AcDbEntity
  8
0
  6
Continuous
 62
     7
370
    25
100
AcDbSpline
210
0.0
220
0.0
230
1.0
 70
     8
 71
     3
 72
    14
 73
    10
 74
     0
 42
0.00000001
 43
0.00000001
 40
0.0
 40
0.0
 40
0.0
 40
0.0
 40
0.2499999999999999
 40
0.2499999999999999
 40
0.4999999999999999
 40
0.4999999999999999
 40
0.7499999999999999
 40
0.7499999999999999
 40
1.0
 40
1.0
 40
1.0
 40
1.0
 10
65.08950576850721
 20
23.55663823654197
 30
0.0
 10
65.41507926529488
 20
24.68445791261021
 30
0.0
 10
65.6843284189239
 20
25.82269169588634
 30
0.0
 10
66.05811398473475
 20
28.12961387676238
 30
0.0
 10
66.16139954158206
 20
29.29966097115713
 30
0.0
 10
66.16120539584651
 20
31.67342183601751
 30
0.0
 10
66.05792140549626
 20
32.84153975159035
 30
0.0
 10
65.68421879772777
 20
35.14738542927169
 30
0.0
 10
65.41504614704972
 20
36.28533974599132
 30
0.0
 10
65.08950576850721
 20
37.413044697093
 30
0.0
  0
LINE
  5
75
330
1F
100
AcDbEntity
  8
0
  6
Continuous
 62
     7
370
    25
100
AcDbLine
 10
62.5903891403
 20
26.9348593689
 30
0.0
 11
64.0759103758
 21
26.9348593689
 31
0.0
  0
LINE
  5
76
330
1F
100
AcDbEntity
  8
0
  6
Continuous
 62
     7
370
    25
100
AcDbLine
 10
62.5903891403
 20
26.7292609133
 30
0.0
 11
62.5903891403
 21
26.9348593689
 31
0.0
  0
LINE
  5
77
330
1F
100
AcDbEntity
  8
0
  6
Continuous
 62
     7
370
    25
100
AcDbLine
 10
63.2338897838
 20
26.7292609133
 30
0.0
 11
62.5903891403
 21
26.7292609133
 31
0.0
  0
LINE
  5
78
330
1F
100
AcDbEntity
  8
0
  6
Continuous
 62
     7
370
    25
100
AcDbLine
 10
63.2338897838
 20
26.2775234616
 30
0.0
 11
63.2338897838
 21
26.7292609133
 31
0.0
  0
LINE
  5
79
330
1F
100
AcDbEntity
  8
0
  6
Continuous
 62
     7
370
    25
100
AcDbLine
 10
62.5903891403
 20
25.9647821488
 30
0.0
 11
63.2338897838
 21
26.2775234616
 31
0.0
  0
LINE
  5
7A
330
1F
100
AcDbEntity
  8
0
  6
Continuous
 62
     7
370
    25
100
AcDbLine
 10
62.5903891403
 20
25.7476006816
 30
0.0
 11
62.5903891403
 21
25.9647821488
 31
0.0
  0
LINE
  5
7B
330
1F
100
AcDbEntity
  8
0
  6
Continuous
 62
     7
370
    25
100
AcDbLine
 10
63.2593080592
 20
26.0864037705
 30
0.0
 11
62.5903891403
 21
25.7476006816
 31
0.0
  0
SPLINE
  5
7C
330
1F
100
AcDbEntity
  8
0
  6
Continuous
 62
     7
370
    25
100
AcDbSpline
210
0.0
220
0.0
230
1.0
 70
     8
 71
     3
 72
    11
 73
     7
 74
     0
 42
0.00000001
 43
0.00000001
 40
0.0
 40
0.0
 40
0.0
 40
0.0
 40
0.2256209836966673
 40
0.4629707984282255
 40
0.7196090303667899
 40
1.0
 40
1.0
 40
1.0
 40
1.0
 10
63.33749338738239
 20
25.9126585967069
 30
0.0
 10
63.3278035633201
 20
25.92358615520472
 30
0.0
 10
63.30792019294718
 20
25.94600933765752
 30
0.0
 10
63.28617059323936
 20
25.98741432068392
 30
0.0
 10
63.26866315371202
 20
26.03439258372309
 30
0.0
 10
63.26251703802394
 20
26.06856292483505
 30
0.0
 10
63.25930805919707
 20
26.08640377045208
 30
0.0
  0
SPLINE
  5
7D
330
1F
100
AcDbEntity
  8
0
  6
Continuous
 62
     7
370
    25
100
AcDbSpline
210
0.0
220
0.0
230
1.0
 70
     8
 71
     3
 72
    15
 73
    11
 74
     0
 42
0.00000001
 43
0.00000001
 40
0.0
 40
0.0
 40
0.0
 40
0.0
 40
0.142345520406221
 40
0.2780244263979209
 40
0.4068124412900593
 40
0.5301826523562189
 40
0.6505629722368647
 40
0.7677901753368294
 40
0.8838874421453781
 40
1.0
 40
1.0
 40
1.0
 40
1.0
 10
63.6502347001237
 20
25.79972423377254
 30
0.0
 10
63.63402019335421
 20
25.79995221274595
 30
0.0
 10
63.6023505705164
 20
25.80039749351862
 30
0.0
 10
63.5563413450215
 20
25.80621135219975
 30
0.0
 10
63.51291332029453
 20
25.81450042498242
 30
0.0
 10
63.47243811877501
 20
25.82741129081329
 30
0.0
 10
63.43433757254863
 20
25.84294701589471
 30
0.0
 10
63.39895021404151
 20
25.8623529529234
 30
0.0
 10
63.36655455699506
 20
25.88564282007261
 30
0.0
 10
63.34718086917321
 20
25.90365294250586
 30
0.0
 10
63.33749338738239
 20
25.9126585967069
 30
0.0
  0
SPLINE
  5
7E
330
1F
100
AcDbEntity
  8
0
  6
Continuous
 62
     7
370
    25
100
AcDbSpline
210
0.0
220
0.0
230
1.0
 70
     8
 71
     3
 72
    15
 73
    11
 74
     0
 42
0.00000001
 43
0.00000001
 40
0.0
 40
0.0
 40
0.0
 40
0.0
 40
0.1161090580639843
 40
0.2322028255427885
 40
0.3494264952551902
 40
0.4689336287943357
 40
0.5931998205909941
 40
0.7219839536369562
 40
0.8576587700816368
 40
1.0
 40
1.0
 40
1.0
 40
1.0
 10
63.96297601286502
 20
25.9126585967069
 30
0.0
 10
63.95328814209783
 20
25.90365392313414
 30
0.0
 10
63.93391367637448
 20
25.88564576182829
 30
0.0
 10
63.90152387192513
 20
25.86234113999797
 30
0.0
 10
63.86620091877125
 20
25.84303987449049
 30
0.0
 10
63.82819180786144
 20
25.82726701399088
 30
0.0
 10
63.78763959742233
 20
25.81457117944183
 30
0.0
 10
63.74413299023144
 20
25.80619659384667
 30
0.0
 10
63.6981174969444
 20
25.80040147927612
 30
0.0
 10
63.66644875558548
 20
25.79995356240172
 30
0.0
 10
63.6502347001237
 20
25.79972423377254
 30
0.0
  0
SPLINE
  5
7F
330
1F
100
AcDbEntity
  8
0
  6
Continuous
 62
     7
370
    25
100
AcDbSpline
210
0.0
220
0.0
230
1.0
 70
     8
 71
     3
 72
    15
 73
    11
 74
     0
 42
0.00000001
 43
0.00000001
 40
0.0
 40
0.0
 40
0.0
 40
0.0
 40
0.1342477572737645
 40
0.2634617725756855
 40
0.3884666271730301
 40
0.5118790511869595
 40
0.6324080741525895
 40
0.7535525248235475
 40
0.8755084805282757
 40
1.0
 40
1.0
 40
1.0
 40
1.0
 10
64.07591037579938
 20
26.19933813338644
 30
0.0
 10
64.07567774752991
 20
26.1851593806215
 30
0.0
 10
64.0752212135999
 20
26.15733352034477
 30
0.0
 10
64.06937542936706
 20
26.11667545677197
 30
0.0
 10
64.06093150786678
 20
26.07767834891411
 30
0.0
 10
64.04827522942361
 20
26.04076648801795
 30
0.0
 10
64.03236005939215
 20
26.005627918674
 30
0.0
 10
64.01314312233607
 20
25.97231751382949
 30
0.0
 10
63.98969533393905
 20
25.94128707457696
 30
0.0
 10
63.97194333344267
 20
25.9222666529146
 30
0.0
 10
63.96297601286502
 20
25.9126585967069
 30
0.0
  0
LINE
  5
80
330
1F
100
AcDbEntity
  8
0
  6
Continuous
 62
     7
370
    25
100
AcDbLine
 10
64.0759103758
 20
26.9348593689
 30
0.0
 11
64.0759103758
 21
26.1993381334
 31
0.0
  0
LINE
  5
81
330
1F
100
AcDbEntity
  8
0
  6
Continuous
 62
     7
370
    25
100
AcDbLine
 10
63.6415474414
 20
27.8846663187
 30
0.0
 11
63.6415474414
 21
28.0757860098
 31
0.0
  0
SPLINE
  5
82
330
1F
100
AcDbEntity
  8
0
  6
Continuous
 62
     7
370
    25
100
AcDbSpline
210
0.0
220
0.0
230
1.0
 70
     8
 71
     3
 72
    15
 73
    11
 74
     0
 42
0.00000001
 43
0.00000001
 40
0.0
 40
0.0
 40
0.0
 40
0.0
 40
0.1017738366845019
 40
0.2081280746103127
 40
0.3195222361320721
 40
0.4377158324105372
 40
0.5640612668215815
 40
0.7002741501736233
 40
0.8452618826189009
 40
1.0
 40
1.0
 40
1.0
 40
1.0
 10
63.86741616730517
 20
27.80648099052929
 30
0.0
 10
63.86133954264155
 20
27.81212812283537
 30
0.0
 10
63.84891281065844
 20
27.82367654050559
 30
0.0
 10
63.82706373725112
 20
27.83798942409019
 30
0.0
 10
63.80272736413482
 20
27.85048564083528
 30
0.0
 10
63.77592974817771
 20
27.86164816913599
 30
0.0
 10
63.74604613548614
 20
27.87001843954395
 30
0.0
 10
63.71365205317454
 20
27.87725189810754
 30
0.0
 10
63.67842955907291
 20
27.88186024812524
 30
0.0
 10
63.6541052454867
 20
27.88371089405707
 30
0.0
 10
63.64154744143644
 20
27.88466631871462
 30
0.0
  0
SPLINE
  5
83
330
1F
100
AcDbEntity
  8
0
  6
Continuous
 62
     7
370
    25
100
AcDbSpline
210
0.0
220
0.0
230
1.0
 70
     8
 71
     3
 72
    11
 73
     7
 74
     0
 42
0.00000001
 43
0.00000001
 40
0.0
 40
0.0
 40
0.0
 40
0.0
 40
0.2450868805219034
 40
0.4875552456976425
 40
0.7346288455311495
 40
1.0
 40
1.0
 40
1.0
 40
1.0
 10
63.92822697811598
 20
27.66748485153316
 30
0.0
 10
63.92747155113589
 20
27.68022534841699
 30
0.0
 10
63.92596876817949
 20
27.70557022234612
 30
0.0
 10
63.91419538926267
 20
27.74223863306015
 30
0.0
 10
63.89477696057319
 20
27.77664235025944
 30
0.0
 10
63.87675097932796
 20
27.79630079965521
 30
0.0
 10
63.86741616730517
 20
27.80648099052929
 30
0.0
  0
SPLINE
  5
84
330
1F
100
AcDbEntity
  8
0
  6
Continuous
 62
     7
370
    25
100
AcDbSpline
210
0.0
220
0.0
230
1.0
 70
     8
 71
     3
 72
    11
 73
     7
 74
     0
 42
0.00000001
 43
0.00000001
 40
0.0
 40
0.0
 40
0.0
 40
0.0
 40
0.2388203430261955
 40
0.4777994110081039
 40
0.7288233729769951
 40
1.0
 40
1.0
 40
1.0
 40
1.0
 10
63.87610342599243
 20
27.52848871253702
 30
0.0
 10
63.88416077554032
 20
27.53761318042374
 30
0.0
 10
63.90028082971783
 20
27.55586818050789
 30
0.0
 10
63.91676315022984
 20
27.58945694206929
 30
0.0
 10
63.92657265416067
 20
27.62713408925232
 30
0.0
 10
63.92766152957378
 20
27.65369294600291
 30
0.0
 10
63.92822697811598
 20
27.66748485153316
 30
0.0
  0
SPLINE
  5
85
330
1F
100
AcDbEntity
  8
0
  6
Continuous
 62
     7
370
    25
100
AcDbSpline
210
0.0
220
0.0
230
1.0
 70
     8
 71
     3
 72
    15
 73
    11
 74
     0
 42
0.00000001
 43
0.00000001
 40
0.0
 40
0.0
 40
0.0
 40
0.0
 40
0.1380420997033151
 40
0.2691721599589615
 40
0.3953313456434694
 40
0.5186017941434373
 40
0.6392985515224091
 40
0.7600805617867294
 40
0.8784957553092646
 40
0.9999999999999999
 40
0.9999999999999999
 40
0.9999999999999999
 40
0.9999999999999999
 10
63.69367099355999
 20
27.45899064303895
 30
0.0
 10
63.70291224371574
 20
27.4590900252539
 30
0.0
 10
63.72093201645531
 20
27.45928381342082
 30
0.0
 10
63.74710032404973
 20
27.46329373547524
 30
0.0
 10
63.77214242122398
 20
27.46801361601366
 30
0.0
 10
63.79560216688417
 20
27.47604786772394
 30
0.0
 10
63.81813870373834
 20
27.48549633375395
 30
0.0
 10
63.83878348942638
 20
27.49794234630227
 30
0.0
 10
63.85865328566083
 20
27.51171733346525
 30
0.0
 10
63.87023699769504
 20
27.52285047176053
 30
0.0
 10
63.87610342599243
 20
27.52848871253702
 30
0.0
  0
SPLINE
  5
86
330
1F
100
AcDbEntity
  8
0
  6
Continuous
 62
     7
370
    25
100
AcDbSpline
210
0.0
220
0.0
230
1.0
 70
     8
 71
     3
 72
    15
 73
    11
 74
     0
 42
0.00000001
 43
0.00000001
 40
0.0
 40
0.0
 40
0.0
 40
0.0
 40
0.1133059292696167
 40
0.2263015370273189
 40
0.3429947497841053
 40
0.4612849748553938
 40
0.5864354642724738
 40
0.7160226876888957
 40
0.8547540019702783
 40
1.0
 40
1.0
 40
1.0
 40
1.0
 10
63.49386404375304
 20
27.52848871253702
 30
0.0
 10
63.49982209386088
 20
27.52282586986271
 30
0.0
 10
63.51172187620926
 20
27.51151569386926
 30
0.0
 10
63.53257296135045
 20
27.49787561267334
 30
0.0
 10
63.55451519338533
 20
27.48542404822942
 30
0.0
 10
63.5788419043838
 20
27.47587151615673
 30
0.0
 10
63.60472673251448
 20
27.4679997127667
 30
0.0
 10
63.63284458142797
 20
27.46321502724194
 30
0.0
 10
63.66256731943884
 20
27.45930223556717
 30
0.0
 10
63.68314573996524
 20
27.45909608364911
 30
0.0
 10
63.69367099355999
 20
27.45899064303895
 30
0.0
  0
SPLINE
  5
87
330
1F
100
AcDbEntity
  8
0
  6
Continuous
 62
     7
370
    25
100
AcDbSpline
210
0.0
220
0.0
230
1.0
 70
     8
 71
     3
 72
    11
 73
     7
 74
     0
 42
0.00000001
 43
0.00000001
 40
0.0
 40
0.0
 40
0.0
 40
0.0
 40
0.2322932923175283
 40
0.4682186081034752
 40
0.7217939329173698
 40
1.0
 40
1.0
 40
1.0
 40
1.0
 10
63.42436597425498
 20
27.67617211022041
 30
0.0
 10
63.42528458001807
 20
27.6631953522656
 30
0.0
 10
63.42713615441139
 20
27.63703893816221
 30
0.0
 10
63.44094267757447
 20
27.59872253525238
 30
0.0
 10
63.46329322927277
 20
27.5618816726196
 30
0.0
 10
63.48336389838686
 20
27.53995817911929
 30
0.0
 10
63.49386404375304
 20
27.52848871253702
 30
0.0
  0
LINE
  5
88
330
1F
100
AcDbEntity
  8
0
  6
Continuous
 62
     7
370
    25
100
AcDbLine
 10
63.4243659743
 20
27.7282956623
 30
0.0
 11
63.4243659743
 21
27.6761721102
 31
0.0
  0
LINE
  5
89
330
1F
100
AcDbEntity
  8
0
  6
Continuous
 62
     7
370
    25
100
AcDbLine
 10
63.2766825766
 20
27.7282956623
 30
0.0
 11
63.4243659743
 21
27.7282956623
 31
0.0
  0
LINE
  5
8A
330
1F
100
AcDbEntity
  8
0
  6
Continuous
 62
     7
370
    25
100
AcDbLine
 10
63.2766825766
 20
27.6587975928
 30
0.0
 11
63.2766825766
 21
27.7282956623
 31
0.0
  0
SPLINE
  5
8B
330
1F
100
AcDbEntity
  8
0
  6
Continuous
 62
     7
370
    25
100
AcDbSpline
210
0.0
220
0.0
230
1.0
 70
     8
 71
     3
 72
    11
 73
     7
 74
     0
 42
0.00000001
 43
0.00000001
 40
0.0
 40
0.0
 40
0.0
 40
0.0
 40
0.2676320905605546
 40
0.5177929452577176
 40
0.757031548782954
 40
1.0
 40
1.0
 40
1.0
 40
1.0
 10
63.20718450707351
 20
27.50242693647524
 30
0.0
 10
63.21791993326458
 20
27.51392648268066
 30
0.0
 10
63.23868996848132
 20
27.53617487556345
 30
0.0
 10
63.26008143885188
 20
27.57535556141826
 30
0.0
 10
63.2745789318549
 20
27.61617304275084
 30
0.0
 10
63.27597775505661
 20
27.64451633150252
 30
0.0
 10
63.27668257657157
 20
27.6587975928459
 30
0.0
  0
SPLINE
  5
8C
330
1F
100
AcDbEntity
  8
0
  6
Continuous
 62
     7
370
    25
100
AcDbSpline
210
0.0
220
0.0
230
1.0
 70
     8
 71
     3
 72
    15
 73
    11
 74
     0
 42
0.00000001
 43
0.00000001
 40
0.0
 40
0.0
 40
0.0
 40
0.0
 40
0.1417962611116214
 40
0.2768819513476974
 40
0.4055805706087831
 40
0.5298229690785609
 40
0.6485572024501445
 40
0.7672114666371225
 40
0.8821786188665546
 40
1.0
 40
1.0
 40
1.0
 40
1.0
 10
63.01606481595382
 20
27.43292886697717
 30
0.0
 10
63.02594809247519
 20
27.43303046200717
 30
0.0
 10
63.04524691507807
 20
27.43322884403737
 30
0.0
 10
63.07324354169094
 20
27.43720830056082
 30
0.0
 10
63.09988088624846
 20
27.44192645236932
 30
0.0
 10
63.12457188625216
 20
27.44985552166545
 30
0.0
 10
63.14790469882618
 20
27.45945080365339
 30
0.0
 10
63.16916074063023
 20
27.47178419504194
 30
0.0
 10
63.18939831394621
 20
27.48565526978943
 30
0.0
 10
63.20120751169284
 20
27.4967908695783
 30
0.0
 10
63.20718450707351
 20
27.50242693647524
 30
0.0
  0
SPLINE
  5
8D
330
1F
100
AcDbEntity
  8
0
  6
Continuous
 62
     7
370
    25
100
AcDbSpline
210
0.0
220
0.0
230
1.0
 70
     8
 71
     3
 72
    15
 73
    11
 74
     0
 42
0.00000001
 43
0.00000001
 40
0.0
 40
0.0
 40
0.0
 40
0.0
 40
0.1062344532908182
 40
0.2134351374465935
 40
0.3266362515327415
 40
0.4454478074346344
 40
0.570912586560857
 40
0.7047818913259154
 40
0.8472638984122983
 40
0.9999999999999999
 40
0.9999999999999999
 40
0.9999999999999999
 40
0.9999999999999999
 10
62.79888334877234
 20
27.50242693647524
 30
0.0
 10
62.80494436838076
 20
27.49675457747874
 30
0.0
 10
62.81712153419762
 20
27.48535826785825
 30
0.0
 10
62.83871278580099
 20
27.47167225183297
 30
0.0
 10
62.862062414093
 20
27.45914251912609
 30
0.0
 10
62.88841799978272
 20
27.44986126751171
 30
0.0
 10
62.9168255051724
 20
27.44180613173318
 30
0.0
 10
62.94785910943968
 20
27.43719358135813
 30
0.0
 10
62.98110699158381
 20
27.43320042790902
 30
0.0
 10
63.00414546863672
 20
27.4330214593831
 30
0.0
 10
63.01606481595382
 20
27.43292886697717
 30
0.0
  0
SPLINE
  5
8E
330
1F
100
AcDbEntity
  8
0
  6
Continuous
 62
     7
370
    25
100
AcDbSpline
210
0.0
220
0.0
230
1.0
 70
     8
 71
     3
 72
    15
 73
    11
 74
     0
 42
0.00000001
 43
0.00000001
 40
0.0
 40
0.0
 40
0.0
 40
0.0
 40
0.1380420997033143
 40
0.2691721599589612
 40
0.3953313456434691
 40
0.5186017941434362
 40
0.6392985515224093
 40
0.7600805617867298
 40
0.8784957553092652
 40
0.9999999999999999
 40
0.9999999999999999
 40
0.9999999999999999
 40
0.9999999999999999
 10
62.72938527927428
 20
27.68485936890767
 30
0.0
 10
62.72948466148922
 20
27.67561811875192
 30
0.0
 10
62.72967844965616
 20
27.65759834601235
 30
0.0
 10
62.73368837171058
 20
27.63143003841794
 30
0.0
 10
62.73840825224899
 20
27.60638794124369
 30
0.0
 10
62.74644250395927
 20
27.5829281955835
 30
0.0
 10
62.75589096998928
 20
27.56039165872932
 30
0.0
 10
62.7683369825376
 20
27.53974687304128
 30
0.0
 10
62.78211196970059
 20
27.51987707680684
 30
0.0
 10
62.79324510799586
 20
27.50829336477264
 30
0.0
 10
62.79888334877234
 20
27.50242693647524
 30
0.0
  0
SPLINE
  5
8F
330
1F
100
AcDbEntity
  8
0
  6
Continuous
 62
     7
370
    25
100
AcDbSpline
210
0.0
220
0.0
230
1.0
 70
     8
 71
     3
 72
    11
 73
     7
 74
     0
 42
0.00000001
 43
0.00000001
 40
0.0
 40
0.0
 40
0.0
 40
0.0
 40
0.2550921435312746
 40
0.4983791954134768
 40
0.7437399667914605
 40
1.0
 40
1.0
 40
1.0
 40
1.0
 10
62.79019609008508
 20
27.83254276659107
 30
0.0
 10
62.78082576662342
 20
27.82216445371122
 30
0.0
 10
62.76251875723085
 20
27.80188811296936
 30
0.0
 10
62.74320603014625
 20
27.76570477297246
 30
0.0
 10
62.73153586397063
 20
27.72633614589335
 30
0.0
 10
62.7301124501938
 20
27.69888379031758
 30
0.0
 10
62.72938527927428
 20
27.68485936890767
 30
0.0
  0
SPLINE
  5
90
330
1F
100
AcDbEntity
  8
0
  6
Continuous
 62
     7
370
    25
100
AcDbSpline
210
0.0
220
0.0
230
1.0
 70
     8
 71
     3
 72
    15
 73
    11
 74
     0
 42
0.00000001
 43
0.00000001
 40
0.0
 40
0.0
 40
0.0
 40
0.0
 40
0.130552121962339
 40
0.257514555698003
 40
0.3807268344757821
 40
0.5030306145961513
 40
0.6251462349433744
 40
0.7476378858044694
 40
0.872288145966387
 40
1.0
 40
1.0
 40
1.0
 40
1.0
 10
62.98131578120478
 20
27.9107280947764
 30
0.0
 10
62.97208192595225
 20
27.91045757138594
 30
0.0
 10
62.95386811144665
 20
27.90992396297229
 30
0.0
 10
62.92711812618312
 20
27.90640018103024
 30
0.0
 10
62.90144099914384
 20
27.90027253955485
 30
0.0
 10
62.87695015538694
 20
27.89143615662365
 30
0.0
 10
62.85329305109813
 20
27.88063676751323
 30
0.0
 10
62.83108131875982
 20
27.86682449272874
 30
0.0
 10
62.80957623026277
 20
27.85121646045042
 30
0.0
 10
62.79670817415403
 20
27.83881747168478
 30
0.0
 10
62.79019609008508
 20
27.83254276659107
 30
0.0
  0
LINE
  5
91
330
1F
100
AcDbEntity
  8
0
  6
Continuous
 62
     7
370
    25
100
AcDbLine
 10
63.042126592
 20
27.9107280948
 30
0.0
 11
62.9813157812
 21
27.9107280948
 31
0.0
  0
LINE
  5
92
330
1F
100
AcDbEntity
  8
0
  6
Continuous
 62
     7
370
    25
100
AcDbLine
 10
63.042126592
 20
28.1163265504
 30
0.0
 11
63.042126592
 21
27.9107280948
 31
0.0
  0
LINE
  5
93
330
1F
100
AcDbEntity
  8
0
  6
Continuous
 62
     7
370
    25
100
AcDbLine
 10
62.9726285225
 20
28.1163265504
 30
0.0
 11
63.042126592
 21
28.1163265504
 31
0.0
  0
SPLINE
  5
94
330
1F
100
AcDbEntity
  8
0
  6
Continuous
 62
     7
370
    25
100
AcDbSpline
210
0.0
220
0.0
230
1.0
 70
     8
 71
     3
 72
    15
 73
    11
 74
     0
 42
0.00000001
 43
0.00000001
 40
0.0
 40
0.0
 40
0.0
 40
0.0
 40
0.1339120169181253
 40
0.2615284644313489
 40
0.3861887226529779
 40
0.5091929985924206
 40
0.6296768122270383
 40
0.7512559744353479
 40
0.8742965747069023
 40
1.0
 40
1.0
 40
1.0
 40
1.0
 10
62.68594898583799
 20
27.98891342296173
 30
0.0
 10
62.69616946865775
 20
27.9990870426962
 30
0.0
 10
62.7161299415049
 20
28.01895599253431
 30
0.0
 10
62.74869311053482
 20
28.04492717079404
 30
0.0
 10
62.782612004049
 20
28.06696898375361
 30
0.0
 10
62.81797440668739
 20
28.08500703402047
 30
0.0
 10
62.85476581918827
 20
28.09903269887405
 30
0.0
 10
62.89285447476196
 20
28.10890711405041
 30
0.0
 10
62.93229924866094
 20
28.11533877207243
 30
0.0
 10
62.95908983277149
 20
28.11599494946327
 30
0.0
 10
62.97262852251752
 20
28.11632655037485
 30
0.0
  0
SPLINE
  5
95
330
1F
100
AcDbEntity
  8
0
  6
Continuous
 62
     7
370
    25
100
AcDbSpline
210
0.0
220
0.0
230
1.0
 70
     8
 71
     3
 72
    15
 73
    11
 74
     0
 42
0.00000001
 43
0.00000001
 40
0.0
 40
0.0
 40
0.0
 40
0.0
 40
0.1330514903197389
 40
0.2614008608137419
 40
0.3859789426424568
 40
0.5084656149022188
 40
0.6295593452611179
 40
0.7509246542250764
 40
0.8741074588764665
 40
0.9999999999999999
 40
0.9999999999999999
 40
0.9999999999999999
 40
0.9999999999999999
 10
62.56432736421637
 20
27.68485936890767
 30
0.0
 10
62.56467264337151
 20
27.69978929905646
 30
0.0
 10
62.56535099930845
 20
27.72912152662792
 30
0.0
 10
62.57145171937409
 20
27.77205388154683
 30
0.0
 10
62.58048670552814
 20
27.81324679737417
 30
0.0
 10
62.59428832976932
 20
27.85224556273748
 30
0.0
 10
62.61124664129017
 20
27.88957927671427
 30
0.0
 10
62.63254424182989
 20
27.92468275774539
 30
0.0
 10
62.65671557133304
 20
27.9586069156949
 30
0.0
 10
62.67613409510645
 20
27.97873824971167
 30
0.0
 10
62.68594898583799
 20
27.98891342296173
 30
0.0
  0
SPLINE
  5
96
330
1F
100
AcDbEntity
  8
0
  6
Continuous
 62
     7
370
    25
100
AcDbSpline
210
0.0
220
0.0
230
1.0
 70
     8
 71
     3
 72
    15
 73
    11
 74
     0
 42
0.00000001
 43
0.00000001
 40
0.0
 40
0.0
 40
0.0
 40
0.0
 40
0.1158830802717857
 40
0.2315534497979609
 40
0.3480625771524276
 40
0.4678553783950312
 40
0.592590819753905
 40
0.7213115030172622
 40
0.8571441704632073
 40
1.0
 40
1.0
 40
1.0
 40
1.0
 10
62.68594898583799
 20
27.34605628010459
 30
0.0
 10
62.67609998179314
 20
27.35642456666449
 30
0.0
 10
62.65642005217521
 20
27.37714210813655
 30
0.0
 10
62.63230678781788
 20
27.41277569564492
 30
0.0
 10
62.61094780075245
 20
27.45058400525151
 30
0.0
 10
62.59406253160606
 20
27.49184142585037
 30
0.0
 10
62.58042191753538
 20
27.53583514927167
 30
0.0
 10
62.57134806807084
 20
27.58299915887863
 30
0.0
 10
62.56533549177179
 20
27.63290173040149
 30
0.0
 10
62.56466900538943
 20
27.6672516083885
 30
0.0
 10
62.56432736421637
 20
27.68485936890767
 30
0.0
  0
SPLINE
  5
97
330
1F
100
AcDbEntity
  8
0
  6
Continuous
 62
     7
370
    25
100
AcDbSpline
210
0.0
220
0.0
230
1.0
 70
     8
 71
     3
 72
    15
 73
    11
 74
     0
 42
0.00000001
 43
0.00000001
 40
0.0
 40
0.0
 40
0.0
 40
0.0
 40
0.1354658418109469
 40
0.2653728839126842
 40
0.3915266279918201
 40
0.5146179992444258
 40
0.6353652389705204
 40
0.7554358763572422
 40
0.8764282152102189
 40
1.0
 40
1.0
 40
1.0
 40
1.0
 10
62.9986902985793
 20
27.22443465848296
 30
0.0
 10
62.98311724682012
 20
27.22477559747227
 30
0.0
 10
62.95261017875481
 20
27.22544348512291
 30
0.0
 10
62.90797062134283
 20
27.23156804996091
 30
0.0
 10
62.86527272529817
 20
27.24054756055564
 30
0.0
 10
62.82497419044372
 20
27.25433596716046
 30
0.0
 10
62.78666325427273
 20
27.27128048839824
 30
0.0
 10
62.75088341840527
 20
27.29255979912018
 30
0.0
 10
62.7165907668284
 20
27.31682134410255
 30
0.0
 10
62.6962344795358
 20
27.33624302055224
 30
0.0
 10
62.68594898583799
 20
27.34605628010459
 30
0.0
  0
SPLINE
  5
98
330
1F
100
AcDbEntity
  8
0
  6
Continuous
 62
     7
370
    25
100
AcDbSpline
210
0.0
220
0.0
230
1.0
 70
     8
 71
     3
 72
    15
 73
    11
 74
     0
 42
0.00000001
 43
0.00000001
 40
0.0
 40
0.0
 40
0.0
 40
0.0
 40
0.1195027114365311
 40
0.2380939422658881
 40
0.3566476293726342
 40
0.4775806195769139
 40
0.6003630199241493
 40
0.7278327340041406
 40
0.8606471500295814
 40
1.0
 40
1.0
 40
1.0
 40
1.0
 10
63.27668257657157
 20
27.32868176273007
 30
0.0
 10
63.26784906059437
 20
27.32032714746201
 30
0.0
 10
63.25024940433721
 20
27.30368163991348
 30
0.0
 10
63.22075588592996
 20
27.28237986932695
 30
0.0
 10
63.18887075163288
 20
27.26470954534229
 30
0.0
 10
63.15514403612088
 20
27.24973355817923
 30
0.0
 10
63.11900831700984
 20
27.23863494534405
 30
0.0
 10
63.08096576800774
 20
27.23010662784955
 30
0.0
 10
63.04053229259205
 20
27.22533242821906
 30
0.0
 10
63.01285923197501
 20
27.22473866979733
 30
0.0
 10
62.9986902985793
 20
27.22443465848296
 30
0.0
  0
SPLINE
  5
99
330
1F
100
AcDbEntity
  8
0
  6
Continuous
 62
     7
370
    25
100
AcDbSpline
210
0.0
220
0.0
230
1.0
 70
     8
 71
     3
 72
    11
 73
     7
 74
     0
 42
0.00000001
 43
0.00000001
 40
0.0
 40
0.0
 40
0.0
 40
0.0
 40
0.25703747753725
 40
0.507341915909806
 40
0.7523129875772129
 40
1.0
 40
1.0
 40
1.0
 40
1.0
 10
63.36355516344416
 20
27.47636516041347
 30
0.0
 10
63.35887865688871
 20
27.46227434729812
 30
0.0
 10
63.34964814381977
 20
27.43446182676158
 30
0.0
 10
63.32964780966534
 20
27.39579017119788
 30
0.0
 10
63.30578543096465
 20
27.36001636880449
 30
0.0
 10
63.2864191157768
 20
27.33916494820745
 30
0.0
 10
63.27668257657157
 20
27.32868176273007
 30
0.0
  0
SPLINE
  5
9A
330
1F
100
AcDbEntity
  8
0
  6
Continuous
 62
     7
370
    25
100
AcDbSpline
210
0.0
220
0.0
230
1.0
 70
     8
 71
     3
 72
    11
 73
     7
 74
     0
 42
0.00000001
 43
0.00000001
 40
0.0
 40
0.0
 40
0.0
 40
0.0
 40
0.2731656445547231
 40
0.5274113090719859
 40
0.7672619830757345
 40
1.0
 40
1.0
 40
1.0
 40
1.0
 10
63.43305323294224
 20
27.34605628010459
 30
0.0
 10
63.4236977436198
 20
27.35607775337325
 30
0.0
 10
63.40563474423131
 20
27.37542659332007
 30
0.0
 10
63.38499414616493
 20
27.40804115593707
 30
0.0
 10
63.37003729292834
 20
27.44152780036883
 30
0.0
 10
63.3656940842376
 20
27.46486980939187
 30
0.0
 10
63.36355516344416
 20
27.47636516041347
 30
0.0
  0
SPLINE
  5
9B
330
1F
100
AcDbEntity
  8
0
  6
Continuous
 62
     7
370
    25
100
AcDbSpline
210
0.0
220
0.0
230
1.0
 70
     8
 71
     3
 72
    15
 73
    11
 74
     0
 42
0.00000001
 43
0.00000001
 40
0.0
 40
0.0
 40
0.0
 40
0.0
 40
0.1495888260512937
 40
0.2896239650819631
 40
0.4219290861937187
 40
0.5465682968532922
 40
0.6661289243466406
 40
0.7799971355270188
 40
0.8908038749321935
 40
0.9999999999999999
 40
0.9999999999999999
 40
0.9999999999999999
 40
0.9999999999999999
 10
63.69367099355999
 20
27.259183693232
 30
0.0
 10
63.67960752272575
 20
27.25937642288997
 30
0.0
 10
63.65237876310947
 20
27.25974957327294
 30
0.0
 10
63.61293600605539
 20
27.26416404007556
 30
0.0
 10
63.57612756557148
 20
27.27056980285522
 30
0.0
 10
63.54216730627881
 20
27.28060610263922
 30
0.0
 10
63.51040822385657
 20
27.29195904896865
 30
0.0
 10
63.48195577045696
 20
27.307527510247
 30
0.0
 10
63.45584423738203
 20
27.32507889429219
 30
0.0
 10
63.44061306590132
 20
27.33909802896304
 30
0.0
 10
63.43305323294224
 20
27.34605628010459
 30
0.0
  0
SPLINE
  5
9C
330
1F
100
AcDbEntity
  8
0
  6
Continuous
 62
     7
370
    25
100
AcDbSpline
210
0.0
220
0.0
230
1.0
 70
     8
 71
     3
 72
    15
 73
    11
 74
     0
 42
0.00000001
 43
0.00000001
 40
0.0
 40
0.0
 40
0.0
 40
0.0
 40
0.1195027114365305
 40
0.2380939422658883
 40
0.3566476293726336
 40
0.4775806195769134
 40
0.6003630199241492
 40
0.7278327340041408
 40
0.8606471500295815
 40
1.0
 40
1.0
 40
1.0
 40
1.0
 10
63.97166327155227
 20
27.3634307974791
 30
0.0
 10
63.96282975557506
 20
27.35507618221104
 30
0.0
 10
63.94523009931789
 20
27.33843067466251
 30
0.0
 10
63.91573658091065
 20
27.31712890407599
 30
0.0
 10
63.88385144661357
 20
27.29945858009132
 30
0.0
 10
63.85012473110157
 20
27.28448259292826
 30
0.0
 10
63.81398901199054
 20
27.27338398009308
 30
0.0
 10
63.77594646298844
 20
27.26485566259859
 30
0.0
 10
63.73551298757274
 20
27.26008146296809
 30
0.0
 10
63.70783992695571
 20
27.25948770454636
 30
0.0
 10
63.69367099355999
 20
27.259183693232
 30
0.0
  0
SPLINE
  5
9D
330
1F
100
AcDbEntity
  8
0
  6
Continuous
 62
     7
370
    25
100
AcDbSpline
210
0.0
220
0.0
230
1.0
 70
     8
 71
     3
 72
    15
 73
    11
 74
     0
 42
0.00000001
 43
0.00000001
 40
0.0
 40
0.0
 40
0.0
 40
0.0
 40
0.1401156952848863
 40
0.2734369515897456
 40
0.4007170918852052
 40
0.5244111544238704
 40
0.6451326608364113
 40
0.7627629456192477
 40
0.8809824433211495
 40
1.0
 40
1.0
 40
1.0
 40
1.0
 10
64.08459763448664
 20
27.66748485153316
 30
0.0
 10
64.08437060829883
 20
27.65191309826992
 30
0.0
 10
64.08392756479398
 20
27.62152469149973
 30
0.0
 10
64.07810083602213
 20
27.57733404370071
 30
0.0
 10
64.06973027898316
 20
27.53542439990148
 30
0.0
 10
64.05691062002597
 20
27.49611046913646
 30
0.0
 10
64.04139035737415
 20
27.45894999412374
 30
0.0
 10
64.02178930795057
 20
27.42443878723454
 30
0.0
 10
63.99859900548598
 20
27.39244722809421
 30
0.0
 10
63.98066196277091
 20
27.37312460793977
 30
0.0
 10
63.97166327155227
 20
27.3634307974791
 30
0.0
  0
LINE
  5
9E
330
1F
100
AcDbEntity
  8
0
  6
Continuous
 62
     7
370
    25
100
AcDbLine
 10
63.1376864376
 20
29.2572531913
 30
0.0
 11
64.0845976345
 21
28.6752068593
 31
0.0
  0
LINE
  5
9F
330
1F
100
AcDbEntity
  8
0
  6
Continuous
 62
     7
370
    25
100
AcDbLine
 10
62.9645847645
 20
29.2572531913
 30
0.0
 11
63.1376864376
 21
29.2572531913
 31
0.0
  0
LINE
  5
A0
330
1F
100
AcDbEntity
  8
0
  6
Continuous
 62
     7
370
    25
100
AcDbLine
 10
62.9645847645
 20
28.680998365
 30
0.0
 11
62.9645847645
 21
29.2572531913
 31
0.0
  0
LINE
  5
A1
330
1F
100
AcDbEntity
  8
0
  6
Continuous
 62
     7
370
    25
100
AcDbLine
 10
62.5817018816
 20
28.680998365
 30
0.0
 11
62.9645847645
 21
28.680998365
 31
0.0
  0
LINE
  5
A2
330
1F
100
AcDbEntity
  8
0
  6
Continuous
 62
     7
370
    25
100
AcDbLine
 10
62.5817018816
 20
28.4753999094
 30
0.0
 11
62.5817018816
 21
28.680998365
 31
0.0
  0
LINE
  5
A3
330
1F
100
AcDbEntity
  8
0
  6
Continuous
 62
     7
370
    25
100
AcDbLine
 10
62.9645847645
 20
28.4753999094
 30
0.0
 11
62.5817018816
 21
28.4753999094
 31
0.0
  0
LINE
  5
A4
330
1F
100
AcDbEntity
  8
0
  6
Continuous
 62
     7
370
    25
100
AcDbLine
 10
62.9645847645
 20
28.292967477
 30
0.0
 11
62.9645847645
 21
28.4753999094
 31
0.0
  0
LINE
  5
A5
330
1F
100
AcDbEntity
  8
0
  6
Continuous
 62
     7
370
    25
100
AcDbLine
 10
63.1289991789
 20
28.292967477
 30
0.0
 11
62.9645847645
 21
28.292967477
 31
0.0
  0
LINE
  5
A6
330
1F
100
AcDbEntity
  8
0
  6
Continuous
 62
     7
370
    25
100
AcDbLine
 10
63.1289991789
 20
28.4753999094
 30
0.0
 11
63.1289991789
 21
28.292967477
 31
0.0
  0
LINE
  5
A7
330
1F
100
AcDbEntity
  8
0
  6
Continuous
 62
     7
370
    25
100
AcDbLine
 10
64.0845976345
 20
28.4753999094
 30
0.0
 11
63.1289991789
 21
28.4753999094
 31
0.0
  0
LINE
  5
A8
330
1F
100
AcDbEntity
  8
0
  6
Continuous
 62
     7
370
    25
100
AcDbLine
 10
64.0845976345
 20
28.6752068593
 30
0.0
 11
64.0845976345
 21
28.4753999094
 31
0.0
  0
SPLINE
  5
A9
330
1F
100
AcDbEntity
  8
0
  6
Continuous
 62
     7
370
    25
100
AcDbSpline
210
0.0
220
0.0
230
1.0
 70
     8
 71
     3
 72
    15
 73
    11
 74
     0
 42
0.00000001
 43
0.00000001
 40
0.0
 40
0.0
 40
0.0
 40
0.0
 40
0.1380420997033151
 40
0.2691721599589617
 40
0.3953313456434694
 40
0.5186017941434373
 40
0.6392985515224099
 40
0.7600805617867291
 40
0.8784957553092647
 40
1.0
 40
1.0
 40
1.0
 40
1.0
 10
63.69367099355999
 20
29.68292886697717
 30
0.0
 10
63.70291224371574
 20
29.68302824919212
 30
0.0
 10
63.72093201645531
 20
29.68322203735904
 30
0.0
 10
63.74710032404973
 20
29.68723195941346
 30
0.0
 10
63.77214242122398
 20
29.69195183995188
 30
0.0
 10
63.79560216688417
 20
29.69998609166216
 30
0.0
 10
63.81813870373834
 20
29.70943455769217
 30
0.0
 10
63.83878348942638
 20
29.7218805702405
 30
0.0
 10
63.85865328566083
 20
29.73565555740348
 30
0.0
 10
63.87023699769504
 20
29.74678869569875
 30
0.0
 10
63.87610342599243
 20
29.75242693647524
 30
0.0
  0
SPLINE
  5
AA
330
1F
100
AcDbEntity
  8
0
  6
Continuous
 62
     7
370
    25
100
AcDbSpline
210
0.0
220
0.0
230
1.0
 70
     8
 71
     3
 72
    11
 73
     7
 74
     0
 42
0.00000001
 43
0.00000001
 40
0.0
 40
0.0
 40
0.0
 40
0.0
 40
0.2322932923175294
 40
0.4682186081034741
 40
0.72179393291737
 40
1.0
 40
1.0
 40
1.0
 40
1.0
 10
63.42436597425498
 20
29.90011033415864
 30
0.0
 10
63.42528458001807
 20
29.88713357620382
 30
0.0
 10
63.42713615441139
 20
29.86097716210043
 30
0.0
 10
63.44094267757447
 20
29.8226607591906
 30
0.0
 10
63.46329322927277
 20
29.78581989655782
 30
0.0
 10
63.48336389838686
 20
29.76389640305751
 30
0.0
 10
63.49386404375304
 20
29.75242693647524
 30
0.0
  0
LINE
  5
AB
330
1F
100
AcDbEntity
  8
0
  6
Continuous
 62
     7
370
    25
100
AcDbLine
 10
63.4243659743
 20
29.9522338863
 30
0.0
 11
63.4243659743
 21
29.9001103342
 31
0.0
  0
LINE
  5
AC
330
1F
100
AcDbEntity
  8
0
  6
Continuous
 62
     7
370
    25
100
AcDbLine
 10
63.2766825766
 20
29.9522338863
 30
0.0
 11
63.4243659743
 21
29.9522338863
 31
0.0
  0
LINE
  5
AD
330
1F
100
AcDbEntity
  8
0
  6
Continuous
 62
     7
370
    25
100
AcDbLine
 10
63.2766825766
 20
29.8827358168
 30
0.0
 11
63.2766825766
 21
29.9522338863
 31
0.0
  0
SPLINE
  5
AE
330
1F
100
AcDbEntity
  8
0
  6
Continuous
 62
     7
370
    25
100
AcDbSpline
210
0.0
220
0.0
230
1.0
 70
     8
 71
     3
 72
    11
 73
     7
 74
     0
 42
0.00000001
 43
0.00000001
 40
0.0
 40
0.0
 40
0.0
 40
0.0
 40
0.2676320905605553
 40
0.5177929452577185
 40
0.7570315487829558
 40
1.0
 40
1.0
 40
1.0
 40
1.0
 10
63.20718450707351
 20
29.72636516041347
 30
0.0
 10
63.21791993326458
 20
29.73786470661889
 30
0.0
 10
63.23868996848132
 20
29.76011309950168
 30
0.0
 10
63.26008143885188
 20
29.79929378535648
 30
0.0
 10
63.2745789318549
 20
29.84011126668906
 30
0.0
 10
63.27597775505661
 20
29.86845455544075
 30
0.0
 10
63.27668257657157
 20
29.88273581678412
 30
0.0
  0
SPLINE
  5
AF
330
1F
100
AcDbEntity
  8
0
  6
Continuous
 62
     7
370
    25
100
AcDbSpline
210
0.0
220
0.0
230
1.0
 70
     8
 71
     3
 72
    15
 73
    11
 74
     0
 42
0.00000001
 43
0.00000001
 40
0.0
 40
0.0
 40
0.0
 40
0.0
 40
0.1417962611116215
 40
0.2768819513476974
 40
0.4055805706087831
 40
0.5298229690785614
 40
0.6485572024501444
 40
0.7672114666371235
 40
0.8821786188665556
 40
1.0
 40
1.0
 40
1.0
 40
1.0
 10
63.01606481595382
 20
29.65686709091539
 30
0.0
 10
63.02594809247519
 20
29.65696868594539
 30
0.0
 10
63.04524691507807
 20
29.65716706797559
 30
0.0
 10
63.07324354169094
 20
29.66114652449905
 30
0.0
 10
63.09988088624846
 20
29.66586467630755
 30
0.0
 10
63.12457188625216
 20
29.67379374560367
 30
0.0
 10
63.14790469882618
 20
29.68338902759161
 30
0.0
 10
63.16916074063023
 20
29.69572241898016
 30
0.0
 10
63.18939831394621
 20
29.70959349372765
 30
0.0
 10
63.20120751169284
 20
29.72072909351652
 30
0.0
 10
63.20718450707351
 20
29.72636516041347
 30
0.0
  0
SPLINE
  5
B0
330
1F
100
AcDbEntity
  8
0
  6
Continuous
 62
     7
370
    25
100
AcDbSpline
210
0.0
220
0.0
230
1.0
 70
     8
 71
     3
 72
    15
 73
    11
 74
     0
 42
0.00000001
 43
0.00000001
 40
0.0
 40
0.0
 40
0.0
 40
0.0
 40
0.1062344532908173
 40
0.2134351374465926
 40
0.3266362515327417
 40
0.4454478074346339
 40
0.5709125865608569
 40
0.7047818913259153
 40
0.8472638984122983
 40
1.0
 40
1.0
 40
1.0
 40
1.0
 10
62.79888334877234
 20
29.72636516041347
 30
0.0
 10
62.80494436838076
 20
29.72069280141696
 30
0.0
 10
62.81712153419762
 20
29.70929649179647
 30
0.0
 10
62.83871278580099
 20
29.69561047577119
 30
0.0
 10
62.862062414093
 20
29.68308074306432
 30
0.0
 10
62.88841799978272
 20
29.67379949144993
 30
0.0
 10
62.9168255051724
 20
29.6657443556714
 30
0.0
 10
62.94785910943968
 20
29.66113180529635
 30
0.0
 10
62.98110699158381
 20
29.65713865184725
 30
0.0
 10
63.00414546863672
 20
29.65695968332133
 30
0.0
 10
63.01606481595382
 20
29.65686709091539
 30
0.0
  0
SPLINE
  5
B1
330
1F
100
AcDbEntity
  8
0
  6
Continuous
 62
     7
370
    25
100
AcDbSpline
210
0.0
220
0.0
230
1.0
 70
     8
 71
     3
 72
    15
 73
    11
 74
     0
 42
0.00000001
 43
0.00000001
 40
0.0
 40
0.0
 40
0.0
 40
0.0
 40
0.1380420997033146
 40
0.2691721599589613
 40
0.3953313456434696
 40
0.518601794143437
 40
0.6392985515224104
 40
0.7600805617867297
 40
0.8784957553092649
 40
1.0
 40
1.0
 40
1.0
 40
1.0
 10
62.72938527927428
 20
29.9087975928459
 30
0.0
 10
62.72948466148922
 20
29.89955634269014
 30
0.0
 10
62.72967844965616
 20
29.88153656995057
 30
0.0
 10
62.73368837171058
 20
29.85536826235616
 30
0.0
 10
62.73840825224899
 20
29.83032616518192
 30
0.0
 10
62.74644250395927
 20
29.80686641952173
 30
0.0
 10
62.75589096998928
 20
29.78432988266755
 30
0.0
 10
62.7683369825376
 20
29.76368509697951
 30
0.0
 10
62.78211196970059
 20
29.74381530074506
 30
0.0
 10
62.79324510799586
 20
29.73223158871086
 30
0.0
 10
62.79888334877234
 20
29.72636516041347
 30
0.0
  0
SPLINE
  5
B2
330
1F
100
AcDbEntity
  8
0
  6
Continuous
 62
     7
370
    25
100
AcDbSpline
210
0.0
220
0.0
230
1.0
 70
     8
 71
     3
 72
    11
 73
     7
 74
     0
 42
0.00000001
 43
0.00000001
 40
0.0
 40
0.0
 40
0.0
 40
0.0
 40
0.2550921435312742
 40
0.4983791954134781
 40
0.7437399667914608
 40
1.0
 40
1.0
 40
1.0
 40
1.0
 10
62.79019609008508
 20
30.05648099052929
 30
0.0
 10
62.78082576662342
 20
30.04610267764944
 30
0.0
 10
62.76251875723085
 20
30.02582633690759
 30
0.0
 10
62.74320603014625
 20
29.98964299691068
 30
0.0
 10
62.73153586397063
 20
29.95027436983158
 30
0.0
 10
62.7301124501938
 20
29.92282201425581
 30
0.0
 10
62.72938527927428
 20
29.9087975928459
 30
0.0
  0
SPLINE
  5
B3
330
1F
100
AcDbEntity
  8
0
  6
Continuous
 62
     7
370
    25
100
AcDbSpline
210
0.0
220
0.0
230
1.0
 70
     8
 71
     3
 72
    15
 73
    11
 74
     0
 42
0.00000001
 43
0.00000001
 40
0.0
 40
0.0
 40
0.0
 40
0.0
 40
0.130552121962339
 40
0.257514555698003
 40
0.3807268344757818
 40
0.5030306145961513
 40
0.6251462349433744
 40
0.7476378858044694
 40
0.8722881459663864
 40
1.0
 40
1.0
 40
1.0
 40
1.0
 10
62.98131578120478
 20
30.13466631871462
 30
0.0
 10
62.97208192595225
 20
30.13439579532416
 30
0.0
 10
62.95386811144665
 20
30.13386218691051
 30
0.0
 10
62.92711812618312
 20
30.13033840496847
 30
0.0
 10
62.90144099914385
 20
30.12421076349307
 30
0.0
 10
62.87695015538694
 20
30.11537438056187
 30
0.0
 10
62.85329305109813
 20
30.10457499145145
 30
0.0
 10
62.83108131875982
 20
30.09076271666696
 30
0.0
 10
62.80957623026277
 20
30.07515468438864
 30
0.0
 10
62.79670817415403
 20
30.062755695623
 30
0.0
 10
62.79019609008508
 20
30.05648099052929
 30
0.0
  0
LINE
  5
B4
330
1F
100
AcDbEntity
  8
0
  6
Continuous
 62
     7
370
    25
100
AcDbLine
 10
63.042126592
 20
30.1346663187
 30
0.0
 11
62.9813157812
 21
30.1346663187
 31
0.0
  0
LINE
  5
B5
330
1F
100
AcDbEntity
  8
0
  6
Continuous
 62
     7
370
    25
100
AcDbLine
 10
63.042126592
 20
30.3402647743
 30
0.0
 11
63.042126592
 21
30.1346663187
 31
0.0
  0
LINE
  5
B6
330
1F
100
AcDbEntity
  8
0
  6
Continuous
 62
     7
370
    25
100
AcDbLine
 10
62.9726285225
 20
30.3402647743
 30
0.0
 11
63.042126592
 21
30.3402647743
 31
0.0
  0
SPLINE
  5
B7
330
1F
100
AcDbEntity
  8
0
  6
Continuous
 62
     7
370
    25
100
AcDbSpline
210
0.0
220
0.0
230
1.0
 70
     8
 71
     3
 72
    15
 73
    11
 74
     0
 42
0.00000001
 43
0.00000001
 40
0.0
 40
0.0
 40
0.0
 40
0.0
 40
0.1339120169181252
 40
0.2615284644313488
 40
0.3861887226529778
 40
0.5091929985924207
 40
0.6296768122270383
 40
0.751255974435348
 40
0.8742965747069023
 40
1.0
 40
1.0
 40
1.0
 40
1.0
 10
62.68594898583799
 20
30.21285164689995
 30
0.0
 10
62.69616946865775
 20
30.22302526663443
 30
0.0
 10
62.7161299415049
 20
30.24289421647253
 30
0.0
 10
62.74869311053482
 20
30.26886539473226
 30
0.0
 10
62.782612004049
 20
30.29090720769184
 30
0.0
 10
62.81797440668739
 20
30.3089452579587
 30
0.0
 10
62.85476581918827
 20
30.32297092281227
 30
0.0
 10
62.89285447476196
 20
30.33284533798863
 30
0.0
 10
62.93229924866094
 20
30.33927699601065
 30
0.0
 10
62.95908983277149
 20
30.33993317340149
 30
0.0
 10
62.97262852251752
 20
30.34026477431308
 30
0.0
  0
SPLINE
  5
B8
330
1F
100
AcDbEntity
  8
0
  6
Continuous
 62
     7
370
    25
100
AcDbSpline
210
0.0
220
0.0
230
1.0
 70
     8
 71
     3
 72
    15
 73
    11
 74
     0
 42
0.00000001
 43
0.00000001
 40
0.0
 40
0.0
 40
0.0
 40
0.0
 40
0.1330514903197377
 40
0.2614008608137412
 40
0.3859789426424563
 40
0.5084656149022189
 40
0.6295593452611173
 40
0.7509246542250768
 40
0.8741074588764665
 40
1.0
 40
1.0
 40
1.0
 40
1.0
 10
62.56432736421637
 20
29.9087975928459
 30
0.0
 10
62.56467264337151
 20
29.92372752299468
 30
0.0
 10
62.56535099930845
 20
29.95305975056615
 30
0.0
 10
62.57145171937409
 20
29.99599210548505
 30
0.0
 10
62.58048670552814
 20
30.03718502131239
 30
0.0
 10
62.59428832976932
 20
30.0761837866757
 30
0.0
 10
62.61124664129017
 20
30.11351750065249
 30
0.0
 10
62.63254424182989
 20
30.14862098168361
 30
0.0
 10
62.65671557133304
 20
30.18254513963312
 30
0.0
 10
62.67613409510645
 20
30.20267647364989
 30
0.0
 10
62.68594898583799
 20
30.21285164689995
 30
0.0
  0
SPLINE
  5
B9
330
1F
100
AcDbEntity
  8
0
  6
Continuous
 62
     7
370
    25
100
AcDbSpline
210
0.0
220
0.0
230
1.0
 70
     8
 71
     3
 72
    15
 73
    11
 74
     0
 42
0.00000001
 43
0.00000001
 40
0.0
 40
0.0
 40
0.0
 40
0.0
 40
0.1158830802717861
 40
0.2315534497979609
 40
0.3480625771524273
 40
0.4678553783950308
 40
0.5925908197539049
 40
0.7213115030172621
 40
0.8571441704632066
 40
1.0
 40
1.0
 40
1.0
 40
1.0
 10
62.68594898583799
 20
29.56999450404281
 30
0.0
 10
62.67609998179314
 20
29.58036279060271
 30
0.0
 10
62.65642005217521
 20
29.60108033207477
 30
0.0
 10
62.63230678781788
 20
29.63671391958315
 30
0.0
 10
62.61094780075245
 20
29.67452222918974
 30
0.0
 10
62.59406253160606
 20
29.7157796497886
 30
0.0
 10
62.58042191753538
 20
29.7597733732099
 30
0.0
 10
62.57134806807084
 20
29.80693738281685
 30
0.0
 10
62.56533549177179
 20
29.85683995433971
 30
0.0
 10
62.56466900538943
 20
29.89118983232672
 30
0.0
 10
62.56432736421637
 20
29.9087975928459
 30
0.0
  0
SPLINE
  5
BA
330
1F
100
AcDbEntity
  8
0
  6
Continuous
 62
     7
370
    25
100
AcDbSpline
210
0.0
220
0.0
230
1.0
 70
     8
 71
     3
 72
    15
 73
    11
 74
     0
 42
0.00000001
 43
0.00000001
 40
0.0
 40
0.0
 40
0.0
 40
0.0
 40
0.1354658418109468
 40
0.2653728839126842
 40
0.39152662799182
 40
0.5146179992444256
 40
0.6353652389705204
 40
0.7554358763572424
 40
0.8764282152102189
 40
1.0
 40
1.0
 40
1.0
 40
1.0
 10
62.9986902985793
 20
29.44837288242119
 30
0.0
 10
62.98311724682012
 20
29.44871382141049
 30
0.0
 10
62.95261017875481
 20
29.44938170906114
 30
0.0
 10
62.90797062134283
 20
29.45550627389913
 30
0.0
 10
62.86527272529817
 20
29.46448578449387
 30
0.0
 10
62.82497419044372
 20
29.47827419109869
 30
0.0
 10
62.78666325427273
 20
29.49521871233646
 30
0.0
 10
62.75088341840527
 20
29.5164980230584
 30
0.0
 10
62.7165907668284
 20
29.54075956804077
 30
0.0
 10
62.6962344795358
 20
29.56018124449047
 30
0.0
 10
62.68594898583799
 20
29.56999450404281
 30
0.0
  0
SPLINE
  5
BB
330
1F
100
AcDbEntity
  8
0
  6
Continuous
 62
     7
370
    25
100
AcDbSpline
210
0.0
220
0.0
230
1.0
 70
     8
 71
     3
 72
    15
 73
    11
 74
     0
 42
0.00000001
 43
0.00000001
 40
0.0
 40
0.0
 40
0.0
 40
0.0
 40
0.1195027114365308
 40
0.2380939422658883
 40
0.3566476293726337
 40
0.4775806195769139
 40
0.6003630199241493
 40
0.7278327340041406
 40
0.8606471500295814
 40
1.0
 40
1.0
 40
1.0
 40
1.0
 10
63.27668257657157
 20
29.55261998666829
 30
0.0
 10
63.26784906059437
 20
29.54426537140023
 30
0.0
 10
63.25024940433721
 20
29.5276198638517
 30
0.0
 10
63.22075588592996
 20
29.50631809326518
 30
0.0
 10
63.18887075163288
 20
29.48864776928051
 30
0.0
 10
63.15514403612088
 20
29.47367178211745
 30
0.0
 10
63.11900831700984
 20
29.46257316928227
 30
0.0
 10
63.08096576800774
 20
29.45404485178778
 30
0.0
 10
63.04053229259205
 20
29.44927065215728
 30
0.0
 10
63.01285923197501
 20
29.44867689373555
 30
0.0
 10
62.9986902985793
 20
29.44837288242119
 30
0.0
  0
SPLINE
  5
BC
330
1F
100
AcDbEntity
  8
0
  6
Continuous
 62
     7
370
    25
100
AcDbSpline
210
0.0
220
0.0
230
1.0
 70
     8
 71
     3
 72
    11
 73
     7
 74
     0
 42
0.00000001
 43
0.00000001
 40
0.0
 40
0.0
 40
0.0
 40
0.0
 40
0.2570374775372497
 40
0.5073419159098045
 40
0.752312987577213
 40
1.0
 40
1.0
 40
1.0
 40
1.0
 10
63.36355516344416
 20
29.70030338435169
 30
0.0
 10
63.35887865688871
 20
29.68621257123634
 30
0.0
 10
63.34964814381977
 20
29.6584000506998
 30
0.0
 10
63.32964780966534
 20
29.6197283951361
 30
0.0
 10
63.30578543096465
 20
29.58395459274271
 30
0.0
 10
63.2864191157768
 20
29.56310317214568
 30
0.0
 10
63.27668257657157
 20
29.55261998666829
 30
0.0
  0
SPLINE
  5
BD
330
1F
100
AcDbEntity
  8
0
  6
Continuous
 62
     7
370
    25
100
AcDbSpline
210
0.0
220
0.0
230
1.0
 70
     8
 71
     3
 72
    11
 73
     7
 74
     0
 42
0.00000001
 43
0.00000001
 40
0.0
 40
0.0
 40
0.0
 40
0.0
 40
0.273165644554725
 40
0.5274113090719874
 40
0.7672619830757368
 40
1.0
 40
1.0
 40
1.0
 40
1.0
 10
63.43305323294224
 20
29.56999450404281
 30
0.0
 10
63.4236977436198
 20
29.58001597731148
 30
0.0
 10
63.40563474423131
 20
29.59936481725829
 30
0.0
 10
63.38499414616493
 20
29.63197937987529
 30
0.0
 10
63.37003729292834
 20
29.66546602430706
 30
0.0
 10
63.3656940842376
 20
29.6888080333301
 30
0.0
 10
63.36355516344416
 20
29.70030338435169
 30
0.0
  0
SPLINE
  5
BE
330
1F
100
AcDbEntity
  8
0
  6
Continuous
 62
     7
370
    25
100
AcDbSpline
210
0.0
220
0.0
230
1.0
 70
     8
 71
     3
 72
    15
 73
    11
 74
     0
 42
0.00000001
 43
0.00000001
 40
0.0
 40
0.0
 40
0.0
 40
0.0
 40
0.1495888260512938
 40
0.2896239650819633
 40
0.4219290861937188
 40
0.5465682968532926
 40
0.6661289243466408
 40
0.779997135527019
 40
0.8908038749321938
 40
0.9999999999999999
 40
0.9999999999999999
 40
0.9999999999999999
 40
0.9999999999999999
 10
63.69367099355999
 20
29.48312191717022
 30
0.0
 10
63.67960752272575
 20
29.48331464682819
 30
0.0
 10
63.65237876310947
 20
29.48368779721117
 30
0.0
 10
63.61293600605539
 20
29.48810226401379
 30
0.0
 10
63.57612756557148
 20
29.49450802679344
 30
0.0
 10
63.54216730627881
 20
29.50454432657745
 30
0.0
 10
63.51040822385657
 20
29.51589727290687
 30
0.0
 10
63.48195577045696
 20
29.53146573418522
 30
0.0
 10
63.45584423738203
 20
29.54901711823041
 30
0.0
 10
63.44061306590132
 20
29.56303625290127
 30
0.0
 10
63.43305323294224
 20
29.56999450404281
 30
0.0
  0
SPLINE
  5
BF
330
1F
100
AcDbEntity
  8
0
  6
Continuous
 62
     7
370
    25
100
AcDbSpline
210
0.0
220
0.0
230
1.0
 70
     8
 71
     3
 72
    15
 73
    11
 74
     0
 42
0.00000001
 43
0.00000001
 40
0.0
 40
0.0
 40
0.0
 40
0.0
 40
0.1195027114365311
 40
0.2380939422658887
 40
0.3566476293726338
 40
0.4775806195769134
 40
0.6003630199241493
 40
0.727832734004141
 40
0.8606471500295815
 40
0.9999999999999999
 40
0.9999999999999999
 40
0.9999999999999999
 40
0.9999999999999999
 10
63.97166327155227
 20
29.58736902141732
 30
0.0
 10
63.96282975557506
 20
29.57901440614927
 30
0.0
 10
63.94523009931789
 20
29.56236889860073
 30
0.0
 10
63.91573658091065
 20
29.54106712801422
 30
0.0
 10
63.88385144661357
 20
29.52339680402955
 30
0.0
 10
63.85012473110157
 20
29.50842081686649
 30
0.0
 10
63.81398901199054
 20
29.49732220403131
 30
0.0
 10
63.77594646298844
 20
29.48879388653681
 30
0.0
 10
63.73551298757274
 20
29.48401968690632
 30
0.0
 10
63.70783992695571
 20
29.48342592848459
 30
0.0
 10
63.69367099355999
 20
29.48312191717022
 30
0.0
  0
SPLINE
  5
C0
330
1F
100
AcDbEntity
  8
0
  6
Continuous
 62
     7
370
    25
100
AcDbSpline
210
0.0
220
0.0
230
1.0
 70
     8
 71
     3
 72
    15
 73
    11
 74
     0
 42
0.00000001
 43
0.00000001
 40
0.0
 40
0.0
 40
0.0
 40
0.0
 40
0.1401156952848867
 40
0.2734369515897452
 40
0.4007170918852055
 40
0.5244111544238705
 40
0.6451326608364117
 40
0.7627629456192483
 40
0.8809824433211496
 40
1.0
 40
1.0
 40
1.0
 40
1.0
 10
64.08459763448664
 20
29.89142307547138
 30
0.0
 10
64.08437060829883
 20
29.87585132220815
 30
0.0
 10
64.08392756479398
 20
29.84546291543795
 30
0.0
 10
64.07810083602213
 20
29.80127226763893
 30
0.0
 10
64.06973027898316
 20
29.75936262383971
 30
0.0
 10
64.05691062002597
 20
29.72004869307469
 30
0.0
 10
64.04139035737415
 20
29.68288821806197
 30
0.0
 10
64.02178930795057
 20
29.64837701117277
 30
0.0
 10
63.99859900548598
 20
29.61638545203243
 30
0.0
 10
63.98066196277091
 20
29.597062831878
 30
0.0
 10
63.97166327155227
 20
29.58736902141732
 30
0.0
  0
SPLINE
  5
C1
330
1F
100
AcDbEntity
  8
0
  6
Continuous
 62
     7
370
    25
100
AcDbSpline
210
0.0
220
0.0
230
1.0
 70
     8
 71
     3
 72
    15
 73
    11
 74
     0
 42
0.00000001
 43
0.00000001
 40
0.0
 40
0.0
 40
0.0
 40
0.0
 40
0.1270527522076902
 40
0.2522753243044992
 40
0.3739697899787143
 40
0.4948832629277702
 40
0.6176556772794562
 40
0.7419399124466164
 40
0.8684128160693881
 40
1.0
 40
1.0
 40
1.0
 40
1.0
 10
63.97166327155227
 20
30.16941535346366
 30
0.0
 10
63.98065394873953
 20
30.1599326427079
 30
0.0
 10
63.99850579345538
 20
30.14110381854136
 30
0.0
 10
64.02152966003919
 20
30.11021506475547
 30
0.0
 10
64.04108229746298
 20
30.07778381341343
 30
0.0
 10
64.0568775795212
 20
30.04365204136768
 30
0.0
 10
64.06963468563065
 20
30.00796143490567
 30
0.0
 10
64.07799027746663
 20
29.97043745787366
 30
0.0
 10
64.08392254483451
 20
29.93150862178682
 30
0.0
 10
64.08436965099304
 20
29.9049603039906
 30
0.0
 10
64.08459763448664
 20
29.89142307547138
 30
0.0
  0
SPLINE
  5
C2
330
1F
100
AcDbEntity
  8
0
  6
Continuous
 62
     7
370
    25
100
AcDbSpline
210
0.0
220
0.0
230
1.0
 70
     8
 71
     3
 72
    15
 73
    11
 74
     0
 42
0.00000001
 43
0.00000001
 40
0.0
 40
0.0
 40
0.0
 40
0.0
 40
0.1342207616992959
 40
0.2632543584014018
 40
0.3882486178889516
 40
0.5110181775835606
 40
0.6322369822528029
 40
0.7532951172272379
 40
0.8750618099117068
 40
1.0
 40
1.0
 40
1.0
 40
1.0
 10
63.64154744143644
 20
30.29972423377254
 30
0.0
 10
63.65786854386353
 20
30.29939031779986
 30
0.0
 10
63.68987999494942
 20
30.29873539054394
 30
0.0
 10
63.73676576389312
 20
30.29250027551339
 30
0.0
 10
63.78142773464587
 20
30.28210905795982
 30
0.0
 10
63.82409495140427
 20
30.26805243535768
 30
0.0
 10
63.86456732553015
 20
30.24961978838438
 30
0.0
 10
63.90260873353297
 20
30.22689208107163
 30
0.0
 10
63.93878728862147
 20
30.2004517726723
 30
0.0
 10
63.96061109244631
 20
30.17984911188918
 30
0.0
 10
63.97166327155227
 20
30.16941535346366
 30
0.0
  0
SPLINE
  5
C3
330
1F
100
AcDbEntity
  8
0
  6
Continuous
 62
     7
370
    25
100
AcDbSpline
210
0.0
220
0.0
230
1.0
 70
     8
 71
     3
 72
    15
 73
    11
 74
     0
 42
0.00000001
 43
0.00000001
 40
0.0
 40
0.0
 40
0.0
 40
0.0
 40
0.1418032572055082
 40
0.2768956124422278
 40
0.4056005815718942
 40
0.5283792299702867
 40
0.6485398625937332
 40
0.7671999810702801
 40
0.8821728056706518
 40
1.0
 40
1.0
 40
1.0
 40
1.0
 10
63.85004164993065
 20
31.24663543068373
 30
0.0
 10
63.85014187664334
 20
31.23675169462533
 30
0.0
 10
63.85033758679516
 20
31.21745197469617
 30
0.0
 10
63.85433605667583
 20
31.18946173354795
 30
0.0
 10
63.85896911742252
 20
31.16290271372039
 30
0.0
 10
63.86711329571389
 20
31.13828945381983
 30
0.0
 10
63.87646799863884
 20
31.11486302833969
 30
0.0
 10
63.8889087129946
 20
31.0935441649724
 30
0.0
 10
63.90276507358314
 20
31.07330074992166
 30
0.0
 10
63.91390265139432
 20
31.06149233747862
 30
0.0
 10
63.91953971942872
 20
31.05551573956404
 30
0.0
  0
LINE
  5
C4
330
1F
100
AcDbEntity
  8
0
  6
Continuous
 62
     7
370
    25
100
AcDbLine
 10
63.8500416499
 20
31.3248207589
 30
0.0
 11
63.8500416499
 21
31.2466354307
 31
0.0
  0
LINE
  5
C5
330
1F
100
AcDbEntity
  8
0
  6
Continuous
 62
     7
370
    25
100
AcDbLine
 10
63.7474032973
 20
31.3248207589
 30
0.0
 11
63.8500416499
 21
31.3248207589
 31
0.0
  0
LINE
  5
C6
330
1F
100
AcDbEntity
  8
0
  6
Continuous
 62
     7
370
    25
100
AcDbLine
 10
63.7474032973
 20
31.069994504
 30
0.0
 11
63.7474032973
 21
31.3248207589
 31
0.0
  0
LINE
  5
C7
330
1F
100
AcDbEntity
  8
0
  6
Continuous
 62
     7
370
    25
100
AcDbLine
 10
62.5903891403
 20
31.069994504
 30
0.0
 11
63.7474032973
 21
31.069994504
 31
0.0
  0
LINE
  5
C8
330
1F
100
AcDbEntity
  8
0
  6
Continuous
 62
     7
370
    25
100
AcDbLine
 10
62.5903891403
 20
30.8643960484
 30
0.0
 11
62.5903891403
 21
31.069994504
 31
0.0
  0
LINE
  5
C9
330
1F
100
AcDbEntity
  8
0
  6
Continuous
 62
     7
370
    25
100
AcDbLine
 10
64.0932848932
 20
30.8643960484
 30
0.0
 11
62.5903891403
 21
30.8643960484
 31
0.0
  0
LINE
  5
CA
330
1F
100
AcDbEntity
  8
0
  6
Continuous
 62
     7
370
    25
100
AcDbLine
 10
64.0932848932
 20
30.9686431527
 30
0.0
 11
64.0932848932
 21
30.8643960484
 31
0.0
  0
SPLINE
  5
CB
330
1F
100
AcDbEntity
  8
0
  6
Continuous
 62
     7
370
    25
100
AcDbSpline
210
0.0
220
0.0
230
1.0
 70
     8
 71
     3
 72
    11
 73
     7
 74
     0
 42
0.00000001
 43
0.00000001
 40
0.0
 40
0.0
 40
0.0
 40
0.0
 40
0.2682823389612929
 40
0.5197997967341365
 40
0.7604656312619599
 40
1.0
 40
1.0
 40
1.0
 40
1.0
 10
63.91953971942872
 20
31.05551573956404
 30
0.0
 10
63.93256572526643
 20
31.04344349902944
 30
0.0
 10
63.95780374582685
 20
31.02005340857359
 30
0.0
 10
64.00099203659241
 20
30.99389432721146
 30
0.0
 10
64.04608428714565
 20
30.97546388296368
 30
0.0
 10
64.07757609188961
 20
30.97091315525024
 30
0.0
 10
64.0932848931739
 20
30.96864315269146
 30
0.0
  0
LINE
  5
CC
330
1F
100
AcDbEntity
  8
0
  6
Continuous
 62
     7
370
    25
100
AcDbLine
 10
63.2718563217
 20
32.6105350446
 30
0.0
 11
63.4156787156
 21
32.6105350446
 31
0.0
  0
LINE
  5
CD
330
1F
100
AcDbEntity
  8
0
  6
Continuous
 62
     7
370
    25
100
AcDbLine
 10
63.2718563217
 20
31.6201875542
 30
0.0
 11
63.2718563217
 21
32.6105350446
 31
0.0
  0
LINE
  5
CE
330
1F
100
AcDbEntity
  8
0
  6
Continuous
 62
     7
370
    25
100
AcDbLine
 10
63.4156787156
 20
31.6201875542
 30
0.0
 11
63.2718563217
 21
31.6201875542
 31
0.0
  0
LINE
  5
CF
330
1F
100
AcDbEntity
  8
0
  6
Continuous
 62
     7
370
    25
100
AcDbLine
 10
63.4156787156
 20
32.6105350446
 30
0.0
 11
63.4156787156
 21
31.6201875542
 31
0.0
  0
LINE
  5
D0
330
1F
100
AcDbEntity
  8
0
  6
Continuous
 62
     7
370
    25
100
AcDbLine
 10
62.5823453822
 20
33.9503033844
 30
0.0
 11
64.0672231171
 21
33.9503033844
 31
0.0
  0
LINE
  5
D1
330
1F
100
AcDbEntity
  8
0
  6
Continuous
 62
     7
370
    25
100
AcDbLine
 10
62.5823453822
 20
33.2582184423
 30
0.0
 11
62.5823453822
 21
33.9503033844
 31
0.0
  0
SPLINE
  5
D2
330
1F
100
AcDbEntity
  8
0
  6
Continuous
 62
     7
370
    25
100
AcDbSpline
210
0.0
220
0.0
230
1.0
 70
     8
 71
     3
 72
    15
 73
    11
 74
     0
 42
0.00000001
 43
0.00000001
 40
0.0
 40
0.0
 40
0.0
 40
0.0
 40
0.1086277469152494
 40
0.2195300404679356
 40
0.3340583594962491
 40
0.4525037346025803
 40
0.5781660321028791
 40
0.7098017975268056
 40
0.8504665399585418
 40
1.0
 40
1.0
 40
1.0
 40
1.0
 10
62.68594898583799
 20
32.94547712952544
 30
0.0
 10
62.67768697548082
 20
32.95452000440855
 30
0.0
 10
62.66098995727358
 20
32.97279510211989
 30
0.0
 10
62.63965139758125
 20
33.00397215426607
 30
0.0
 10
62.62209247652789
 20
33.03859884182875
 30
0.0
 10
62.60756002164511
 20
33.07635880065614
 30
0.0
 10
62.59596088380312
 20
33.11714295339343
 30
0.0
 10
62.58807784863693
 20
33.16133565116772
 30
0.0
 10
62.58319345527709
 20
33.20866532082804
 30
0.0
 10
62.58263377469564
 20
33.24136759813555
 30
0.0
 10
62.58234538223438
 20
33.25821844226675
 30
0.0
  0
SPLINE
  5
D3
330
1F
100
AcDbEntity
  8
0
  6
Continuous
 62
     7
370
    25
100
AcDbSpline
210
0.0
220
0.0
230
1.0
 70
     8
 71
     3
 72
    15
 73
    11
 74
     0
 42
0.00000001
 43
0.00000001
 40
0.0
 40
0.0
 40
0.0
 40
0.0
 40
0.1319114978615549
 40
0.2585593955794499
 40
0.3829282045992126
 40
0.5051155152535456
 40
0.6266776175559878
 40
0.748984922324664
 40
0.8728415720964473
 40
0.9999999999999999
 40
0.9999999999999999
 40
0.9999999999999999
 40
0.9999999999999999
 10
63.00737755726656
 20
32.81516824921655
 30
0.0
 10
62.99169821587897
 20
32.8154973290318
 30
0.0
 10
62.96096517821371
 20
32.81614235755097
 30
0.0
 10
62.91580483792561
 20
32.82246481401804
 30
0.0
 10
62.87262452461935
 20
32.83277095067441
 30
0.0
 10
62.83115957411572
 20
32.84690815485366
 30
0.0
 10
62.79166585019867
 20
32.8653460925648
 30
0.0
 10
62.75430014961299
 20
32.88809330042769
 30
0.0
 10
62.71849120781903
 20
32.91444181576016
 30
0.0
 10
62.69689110030807
 20
32.93504170332643
 30
0.0
 10
62.68594898583799
 20
32.94547712952544
 30
0.0
  0
SPLINE
  5
D4
330
1F
100
AcDbEntity
  8
0
  6
Continuous
 62
     7
370
    25
100
AcDbSpline
210
0.0
220
0.0
230
1.0
 70
     8
 71
     3
 72
    15
 73
    11
 74
     0
 42
0.00000001
 43
0.00000001
 40
0.0
 40
0.0
 40
0.0
 40
0.0
 40
0.126381288958891
 40
0.2491049464973157
 40
0.3706105362999226
 40
0.4913917559424301
 40
0.6138158455532658
 40
0.738835574235697
 40
0.8671181754268787
 40
1.0
 40
1.0
 40
1.0
 40
1.0
 10
63.26799531788432
 20
32.91941535346366
 30
0.0
 10
63.25913089825939
 20
32.91110118920152
 30
0.0
 10
63.24165860631975
 20
32.89471348291406
 30
0.0
 10
63.21315665900236
 20
32.87316153754245
 30
0.0
 10
63.18266618138713
 20
32.85570033310496
 30
0.0
 10
63.15102796678742
 20
32.84043725058629
 30
0.0
 10
63.1172906217646
 20
32.82947176303573
 30
0.0
 10
63.08216955165026
 20
32.82088639410825
 30
0.0
 10
63.04526254148132
 20
32.81608198760355
 30
0.0
 10
63.02015328047689
 20
32.81547638366509
 30
0.0
 10
63.00737755726656
 20
32.81516824921655
 30
0.0
  0
SPLINE
  5
D5
330
1F
100
AcDbEntity
  8
0
  6
Continuous
 62
     7
370
    25
100
AcDbSpline
210
0.0
220
0.0
230
1.0
 70
     8
 71
     3
 72
    11
 73
     7
 74
     0
 42
0.00000001
 43
0.00000001
 40
0.0
 40
0.0
 40
0.0
 40
0.0
 40
0.275886418446541
 40
0.5310076877713098
 40
0.7722766677115245
 40
1.0
 40
1.0
 40
1.0
 40
1.0
 10
63.36355516344416
 20
33.08447326852157
 30
0.0
 10
63.35758967321517
 20
33.06780444588962
 30
0.0
 10
63.3461076974414
 20
33.03572141326517
 30
0.0
 10
63.32355329045978
 20
32.99152290800193
 30
0.0
 10
63.29811112578386
 20
32.95248619548966
 30
0.0
 10
63.27783874853413
 20
32.93022464475345
 30
0.0
 10
63.26799531788432
 20
32.91941535346366
 30
0.0
  0
SPLINE
  5
D6
330
1F
100
AcDbEntity
  8
0
  6
Continuous
 62
     7
370
    25
100
AcDbSpline
210
0.0
220
0.0
230
1.0
 70
     8
 71
     3
 72
    11
 73
     7
 74
     0
 42
0.00000001
 43
0.00000001
 40
0.0
 40
0.0
 40
0.0
 40
0.0
 40
0.2409277974217354
 40
0.4854864172424158
 40
0.7380410464993915
 40
1.0
 40
1.0
 40
1.0
 40
1.0
 10
63.44174049162948
 20
32.95416438821269
 30
0.0
 10
63.43335180231117
 20
32.96319115744895
 30
0.0
 10
63.41644800471664
 20
32.98138073085094
 30
0.0
 10
63.39515218249726
 20
33.01267601547501
 30
0.0
 10
63.37747062098563
 20
33.04729835002089
 30
0.0
 10
63.36824982877336
 20
33.07193154644877
 30
0.0
 10
63.36355516344416
 20
33.08447326852157
 30
0.0
  0
SPLINE
  5
D7
330
1F
100
AcDbEntity
  8
0
  6
Continuous
 62
     7
370
    25
100
AcDbSpline
210
0.0
220
0.0
230
1.0
 70
     8
 71
     3
 72
    15
 73
    11
 74
     0
 42
0.00000001
 43
0.00000001
 40
0.0
 40
0.0
 40
0.0
 40
0.0
 40
0.1312072932871421
 40
0.2585055422472043
 40
0.3817646425439866
 40
0.5033692670500672
 40
0.6250492974901233
 40
0.747611872572304
 40
0.87224621389716
 40
1.0
 40
1.0
 40
1.0
 40
1.0
 10
63.67629647618547
 20
32.85860454265285
 30
0.0
 10
63.66491322568894
 20
32.85892900379262
 30
0.0
 10
63.64248586461456
 20
32.85956825943747
 30
0.0
 10
63.60961829983247
 20
32.86415461587521
 30
0.0
 10
63.57816357207942
 20
32.87158712034989
 30
0.0
 10
63.5480042017512
 20
32.88184878942834
 30
0.0
 10
63.51928312096158
 20
32.89550598868297
 30
0.0
 10
63.49185557748488
 20
32.9120421695951
 30
0.0
 10
63.46549226676346
 20
32.93124190607999
 30
0.0
 10
63.44972271903464
 20
32.94646086020093
 30
0.0
 10
63.44174049162948
 20
32.95416438821269
 30
0.0
  0
SPLINE
  5
D8
330
1F
100
AcDbEntity
  8
0
  6
Continuous
 62
     7
370
    25
100
AcDbSpline
210
0.0
220
0.0
230
1.0
 70
     8
 71
     3
 72
    15
 73
    11
 74
     0
 42
0.00000001
 43
0.00000001
 40
0.0
 40
0.0
 40
0.0
 40
0.0
 40
0.1195027114365313
 40
0.2380939422658882
 40
0.3566476293726339
 40
0.4775806195769137
 40
0.6003630199241488
 40
0.7278327340041405
 40
0.860647150029581
 40
1.0
 40
1.0
 40
1.0
 40
1.0
 10
63.95428875417775
 20
32.96285164689995
 30
0.0
 10
63.94545523820054
 20
32.95449703163189
 30
0.0
 10
63.92785558194339
 20
32.93785152408336
 30
0.0
 10
63.89836206353613
 20
32.91654975349684
 30
0.0
 10
63.86647692923905
 20
32.89887942951217
 30
0.0
 10
63.83275021372706
 20
32.88390344234912
 30
0.0
 10
63.79661449461602
 20
32.87280482951393
 30
0.0
 10
63.75857194561392
 20
32.86427651201944
 30
0.0
 10
63.71813847019822
 20
32.85950231238894
 30
0.0
 10
63.69046540958119
 20
32.85890855396721
 30
0.0
 10
63.67629647618547
 20
32.85860454265285
 30
0.0
  0
SPLINE
  5
D9
330
1F
100
AcDbEntity
  8
0
  6
Continuous
 62
     7
370
    25
100
AcDbSpline
210
0.0
220
0.0
230
1.0
 70
     8
 71
     3
 72
    15
 73
    11
 74
     0
 42
0.00000001
 43
0.00000001
 40
0.0
 40
0.0
 40
0.0
 40
0.0
 40
0.1342477572737644
 40
0.2634617725756854
 40
0.3884666271730299
 40
0.5118790511869579
 40
0.6324080741525888
 40
0.7535525248235482
 40
0.8755084805282752
 40
1.0
 40
1.0
 40
1.0
 40
1.0
 10
64.06722311711212
 20
33.24953118357949
 30
0.0
 10
64.06699048884265
 20
33.23535243081454
 30
0.0
 10
64.06653395491264
 20
33.20752657053782
 30
0.0
 10
64.0606881706798
 20
33.16686850696502
 30
0.0
 10
64.05224424917952
 20
33.12787139910716
 30
0.0
 10
64.03958797073635
 20
33.09095953821101
 30
0.0
 10
64.02367280070489
 20
33.05582096886705
 30
0.0
 10
64.00445586364881
 20
33.02251056402254
 30
0.0
 10
63.98100807525179
 20
32.99148012477001
 30
0.0
 10
63.96325607475539
 20
32.97245970310765
 30
0.0
 10
63.95428875417775
 20
32.96285164689995
 30
0.0
  0
LINE
  5
DA
330
1F
100
AcDbEntity
  8
0
  6
Continuous
 62
     7
370
    25
100
AcDbLine
 10
64.0672231171
 20
33.9503033844
 30
0.0
 11
64.0672231171
 21
33.2495311836
 31
0.0
  0
LINE
  5
DB
330
1F
100
AcDbEntity
  8
0
  6
Continuous
 62
     7
370
    25
100
AcDbLine
 10
62.5817018816
 20
35.3624655465
 30
0.0
 11
64.0672231171
 21
35.3624655465
 31
0.0
  0
LINE
  5
DC
330
1F
100
AcDbEntity
  8
0
  6
Continuous
 62
     7
370
    25
100
AcDbLine
 10
62.5817018816
 20
35.1568670909
 30
0.0
 11
62.5817018816
 21
35.3624655465
 31
0.0
  0
LINE
  5
DD
330
1F
100
AcDbEntity
  8
0
  6
Continuous
 62
     7
370
    25
100
AcDbLine
 10
63.7544818044
 20
35.1568670909
 30
0.0
 11
62.5817018816
 21
35.1568670909
 31
0.0
  0
LINE
  5
DE
330
1F
100
AcDbEntity
  8
0
  6
Continuous
 62
     7
370
    25
100
AcDbLine
 10
62.5817018816
 20
34.4618863959
 30
0.0
 11
63.7544818044
 21
35.1568670909
 31
0.0
  0
LINE
  5
DF
330
1F
100
AcDbEntity
  8
0
  6
Continuous
 62
     7
370
    25
100
AcDbLine
 10
62.5817018816
 20
34.2447049288
 30
0.0
 11
62.5817018816
 21
34.4618863959
 31
0.0
  0
LINE
  5
E0
330
1F
100
AcDbEntity
  8
0
  6
Continuous
 62
     7
370
    25
100
AcDbLine
 10
64.0672231171
 20
34.2447049288
 30
0.0
 11
62.5817018816
 21
34.2447049288
 31
0.0
  0
LINE
  5
E1
330
1F
100
AcDbEntity
  8
0
  6
Continuous
 62
     7
370
    25
100
AcDbLine
 10
64.0672231171
 20
34.4503033844
 30
0.0
 11
64.0672231171
 21
34.2447049288
 31
0.0
  0
LINE
  5
E2
330
1F
100
AcDbEntity
  8
0
  6
Continuous
 62
     7
370
    25
100
AcDbLine
 10
62.8944431943
 20
34.4503033844
 30
0.0
 11
64.0672231171
 21
34.4503033844
 31
0.0
  0
LINE
  5
E3
330
1F
100
AcDbEntity
  8
0
  6
Continuous
 62
     7
370
    25
100
AcDbLine
 10
64.0672231171
 20
35.1394925735
 30
0.0
 11
62.8944431943
 21
34.4503033844
 31
0.0
  0
LINE
  5
E4
330
1F
100
AcDbEntity
  8
0
  6
Continuous
 62
     7
370
    25
100
AcDbLine
 10
64.0672231171
 20
35.3624655465
 30
0.0
 11
64.0672231171
 21
35.1394925735
 31
0.0
  0
SPLINE
  5
E5
330
1F
100
AcDbEntity
  8
0
  6
Continuous
 62
     7
370
    25
100
AcDbSpline
210
0.0
220
0.0
230
1.0
 70
     8
 71
     3
 72
    11
 73
     7
 74
     0
 42
0.00000001
 43
0.00000001
 40
0.0
 40
0.0
 40
0.0
 40
0.0
 40
0.2450868805219033
 40
0.4875552456976435
 40
0.7346288455311492
 40
0.9999999999999999
 40
0.9999999999999999
 40
0.9999999999999999
 40
0.9999999999999999
 10
63.92822697811598
 20
29.89142307547138
 30
0.0
 10
63.92747155113589
 20
29.90416357235522
 30
0.0
 10
63.92596876817949
 20
29.92950844628434
 30
0.0
 10
63.91419538926267
 20
29.96617685699837
 30
0.0
 10
63.89477696057319
 20
30.00058057419766
 30
0.0
 10
63.87675097932796
 20
30.02023902359343
 30
0.0
 10
63.86741616730517
 20
30.03041921446752
 30
0.0
  0
LINE
  5
E6
330
1F
100
AcDbEntity
  8
0
  6
Continuous
 62
     7
370
    25
100
AcDbLine
 10
63.6415474414
 20
30.1086045427
 30
0.0
 11
63.6415474414
 21
30.2997242338
 31
0.0
  0
SPLINE
  5
E7
330
1F
100
AcDbEntity
  8
0
  6
Continuous
 62
     7
370
    25
100
AcDbSpline
210
0.0
220
0.0
230
1.0
 70
     8
 71
     3
 72
    15
 73
    11
 74
     0
 42
0.00000001
 43
0.00000001
 40
0.0
 40
0.0
 40
0.0
 40
0.0
 40
0.1017738366845019
 40
0.2081280746103133
 40
0.319522236132072
 40
0.4377158324105371
 40
0.5640612668215816
 40
0.7002741501736235
 40
0.8452618826189009
 40
1.0
 40
1.0
 40
1.0
 40
1.0
 10
63.86741616730517
 20
30.03041921446752
 30
0.0
 10
63.86133954264155
 20
30.03606634677359
 30
0.0
 10
63.84891281065844
 20
30.04761476444381
 30
0.0
 10
63.82706373725114
 20
30.06192764802842
 30
0.0
 10
63.80272736413482
 20
30.0744238647735
 30
0.0
 10
63.77592974817771
 20
30.08558639307421
 30
0.0
 10
63.74604613548614
 20
30.09395666348217
 30
0.0
 10
63.71365205317454
 20
30.10119012204576
 30
0.0
 10
63.67842955907291
 20
30.10579847206347
 30
0.0
 10
63.6541052454867
 20
30.10764911799529
 30
0.0
 10
63.64154744143644
 20
30.10860454265285
 30
0.0
  0
SPLINE
  5
E8
330
1F
100
AcDbEntity
  8
0
  6
Continuous
 62
     7
370
    25
100
AcDbSpline
210
0.0
220
0.0
230
1.0
 70
     8
 71
     3
 72
    15
 73
    11
 74
     0
 42
0.00000001
 43
0.00000001
 40
0.0
 40
0.0
 40
0.0
 40
0.0
 40
0.1133059292696167
 40
0.2263015370273193
 40
0.3429947497841048
 40
0.461284974855394
 40
0.586435464272474
 40
0.7160226876888957
 40
0.8547540019702783
 40
1.0
 40
1.0
 40
1.0
 40
1.0
 10
63.49386404375304
 20
29.75242693647524
 30
0.0
 10
63.49982209386088
 20
29.74676409380093
 30
0.0
 10
63.51172187620926
 20
29.73545391780748
 30
0.0
 10
63.53257296135045
 20
29.72181383661156
 30
0.0
 10
63.55451519338533
 20
29.70936227216764
 30
0.0
 10
63.5788419043838
 20
29.69980974009496
 30
0.0
 10
63.60472673251448
 20
29.69193793670492
 30
0.0
 10
63.63284458142797
 20
29.68715325118017
 30
0.0
 10
63.66256731943884
 20
29.68324045950539
 30
0.0
 10
63.68314573996524
 20
29.68303430758734
 30
0.0
 10
63.69367099355999
 20
29.68292886697717
 30
0.0
  0
SPLINE
  5
E9
330
1F
100
AcDbEntity
  8
0
  6
Continuous
 62
     7
370
    25
100
AcDbSpline
210
0.0
220
0.0
230
1.0
 70
     8
 71
     3
 72
    11
 73
     7
 74
     0
 42
0.00000001
 43
0.00000001
 40
0.0
 40
0.0
 40
0.0
 40
0.0
 40
0.2388203430261973
 40
0.4777994110081057
 40
0.7288233729769944
 40
1.0
 40
1.0
 40
1.0
 40
1.0
 10
63.87610342599243
 20
29.75242693647524
 30
0.0
 10
63.88416077554032
 20
29.76155140436197
 30
0.0
 10
63.90028082971783
 20
29.77980640444612
 30
0.0
 10
63.91676315022984
 20
29.81339516600751
 30
0.0
 10
63.92657265416067
 20
29.85107231319054
 30
0.0
 10
63.92766152957378
 20
29.87763116994114
 30
0.0
 10
63.92822697811598
 20
29.89142307547138
 30
0.0
  0
SPLINE
  5
EA
330
1F
100
AcDbEntity
  8
0
  6
Continuous
 62
     7
370
    25
100
AcDbSpline
210
0.0
220
0.0
230
1.0
 70
     8
 71
     3
 72
    15
 73
    11
 74
     0
 42
0.00000001
 43
0.00000001
 40
0.0
 40
0.0
 40
0.0
 40
0.0
 40
0.1342207616992959
 40
0.2632543584014018
 40
0.3882486178889518
 40
0.5110181775835605
 40
0.6322369822528031
 40
0.7532951172272376
 40
0.875061809911707
 40
1.0
 40
1.0
 40
1.0
 40
1.0
 10
63.64154744143644
 20
28.07578600983432
 30
0.0
 10
63.65786854386353
 20
28.07545209386164
 30
0.0
 10
63.68987999494942
 20
28.07479716660571
 30
0.0
 10
63.73676576389312
 20
28.06856205157517
 30
0.0
 10
63.78142773464587
 20
28.0581708340216
 30
0.0
 10
63.82409495140427
 20
28.04411421141945
 30
0.0
 10
63.86456732553015
 20
28.02568156444615
 30
0.0
 10
63.90260873353297
 20
28.00295385713341
 30
0.0
 10
63.93878728862147
 20
27.97651354873408
 30
0.0
 10
63.96061109244631
 20
27.95591088795095
 30
0.0
 10
63.97166327155227
 20
27.94547712952544
 30
0.0
  0
SPLINE
  5
EB
330
1F
100
AcDbEntity
  8
0
  6
Continuous
 62
     7
370
    25
100
AcDbSpline
210
0.0
220
0.0
230
1.0
 70
     8
 71
     3
 72
    15
 73
    11
 74
     0
 42
0.00000001
 43
0.00000001
 40
0.0
 40
0.0
 40
0.0
 40
0.0
 40
0.1270527522076899
 40
0.2522753243044994
 40
0.3739697899787149
 40
0.4948832629277696
 40
0.617655677279457
 40
0.7419399124466166
 40
0.8684128160693878
 40
1.0
 40
1.0
 40
1.0
 40
1.0
 10
63.97166327155227
 20
27.94547712952544
 30
0.0
 10
63.98065394873953
 20
27.93599441876968
 30
0.0
 10
63.99850579345538
 20
27.91716559460313
 30
0.0
 10
64.02152966003919
 20
27.88627684081725
 30
0.0
 10
64.04108229746298
 20
27.85384558947521
 30
0.0
 10
64.0568775795212
 20
27.81971381742945
 30
0.0
 10
64.06963468563065
 20
27.78402321096745
 30
0.0
 10
64.07799027746663
 20
27.74649923393543
 30
0.0
 10
64.08392254483451
 20
27.7075703978486
 30
0.0
 10
64.08436965099304
 20
27.68102208005237
 30
0.0
 10
64.08459763448664
 20
27.66748485153316
 30
0.0
  0
SPLINE
  5
EC
330
1F
100
AcDbEntity
  8
0
  6
Continuous
 62
     7
370
    25
100
AcDbSpline
210
0.0
220
0.0
230
1.0
 70
     8
 71
     3
 72
    16
 73
    12
 74
     0
 42
0.00000001
 43
0.00000001
 40
0.0
 40
0.0
 40
0.0
 40
0.0
 40
0.2500000000000002
 40
0.2500000000000002
 40
0.5000000000000004
 40
0.5000000000000004
 40
0.6250000000000003
 40
0.6250000000000003
 40
0.7500000000000002
 40
0.7500000000000002
 40
1.0
 40
1.0
 40
1.0
 40
1.0
 10
61.52177444255071
 20
37.41304469709298
 30
0.0
 10
61.19521236256671
 20
37.97866681145064
 30
0.0
 10
60.92606608229222
 20
38.54841271402131
 30
0.0
 10
60.55321111955632
 20
39.69978678187269
 30
0.0
 10
60.45073232434339
 20
40.28150328162863
 30
0.0
 10
60.44960667270976
 20
41.16503772051049
 30
0.0
 10
60.4746587396592
 20
41.46093522417898
 30
0.0
 10
60.5723486830473
 20
42.04625165288481
 30
0.0
 10
60.64488740831699
 20
42.33694751988698
 30
0.0
 10
60.92499282436161
 20
43.20385968110357
 30
0.0
 10
61.1948052663084
 20
43.77492070160766
 30
0.0
 10
61.52177444255085
 20
44.34124792736852
 30
0.0
  0
LINE
  5
ED
330
1F
100
AcDbEntity
  8
0
  6
Continuous
 62
     7
370
    25
100
AcDbLine
 10
60.3056401055
 20
30.4848414668
 30
0.0
 11
60.3056401055
 21
42.2348414668
 31
0.0
  0
LINE
  5
EE
330
1F
100
AcDbEntity
  8
0
  6
Continuous
 62
     7
370
    25
100
AcDbLine
 10
60.3056401055
 20
18.7348414668
 30
0.0
 11
60.3056401055
 21
30.4848414668
 31
0.0
  0
SPLINE
  5
EF
330
1F
100
AcDbEntity
  8
0
  6
Continuous
 62
     7
370
    25
100
AcDbSpline
210
0.0
220
0.0
230
1.0
 70
     8
 71
     3
 72
    16
 73
    12
 74
     0
 42
0.00000001
 43
0.00000001
 40
0.0
 40
0.0
 40
0.0
 40
0.0
 40
0.2500000000000002
 40
0.2500000000000002
 40
0.5000000000000004
 40
0.5000000000000004
 40
0.6250000000000003
 40
0.6250000000000003
 40
0.7500000000000002
 40
0.7500000000000002
 40
1.0
 40
1.0
 40
1.0
 40
1.0
 10
65.0895057685075
 20
37.41304469709298
 30
0.0
 10
65.4160678484915
 20
37.97866681145064
 30
0.0
 10
65.68521412876599
 20
38.54841271402131
 30
0.0
 10
66.05806909150189
 20
39.69978678187269
 30
0.0
 10
66.16054788671481
 20
40.28150328162863
 30
0.0
 10
66.16167353834844
 20
41.16503772051049
 30
0.0
 10
66.13662147139901
 20
41.46093522417898
 30
0.0
 10
66.0389315280109
 20
42.04625165288481
 30
0.0
 10
65.96639280274123
 20
42.33694751988698
 30
0.0
 10
65.6862873866966
 20
43.20385968110357
 30
0.0
 10
65.41647494474981
 20
43.77492070160766
 30
0.0
 10
65.08950576850737
 20
44.34124792736852
 30
0.0
  0
LINE
  5
F0
330
1F
100
AcDbEntity
  8
0
  6
Continuous
 62
     7
370
    25
100
AcDbLine
 10
66.3056401055
 20
30.4848414668
 30
0.0
 11
66.3056401055
 21
42.2348414668
 31
0.0
  0
LINE
  5
F1
330
1F
100
AcDbEntity
  8
0
  6
Continuous
 62
     7
370
    25
100
AcDbLine
 10
66.3056401055
 20
18.7348414668
 30
0.0
 11
66.3056401055
 21
30.4848414668
 31
0.0
  0
LINE
  5
F2
330
1F
100
AcDbEntity
  8
0
  6
Continuous
 62
     7
370
    25
100
AcDbLine
 10
63.9114959614
 20
26.7292609133
 30
0.0
 11
63.3983041982
 21
26.7292609133
 31
0.0
  0
LINE
  5
F3
330
1F
100
AcDbEntity
  8
0
  6
Continuous
 62
     7
370
    25
100
AcDbLine
 10
63.9114959614
 20
26.2427744268
 30
0.0
 11
63.9114959614
 21
26.7292609133
 31
0.0
  0
SPLINE
  5
F4
330
1F
100
AcDbEntity
  8
0
  6
Continuous
 62
     7
370
    25
100
AcDbSpline
210
0.0
220
0.0
230
1.0
 70
     8
 71
     3
 72
    15
 73
    11
 74
     0
 42
0.00000001
 43
0.00000001
 40
0.0
 40
0.0
 40
0.0
 40
0.0
 40
0.1309133268193474
 40
0.2579771534544077
 40
0.381934289762811
 40
0.5044826360738942
 40
0.6264704025122017
 40
0.7488072761095285
 40
0.872481475103115
 40
1.0
 40
1.0
 40
1.0
 40
1.0
 10
63.84135439124339
 20
26.07771651176482
 30
0.0
 10
63.84695921308344
 20
26.08349848021268
 30
0.0
 10
63.85800404724236
 20
26.09489239859963
 30
0.0
 10
63.87202634365743
 20
26.11377533458393
 30
0.0
 10
63.88446530247261
 20
26.13308902132805
 30
0.0
 10
63.89457730284342
 20
26.15342584029218
 30
0.0
 10
63.90182977989806
 20
26.17482502557183
 30
0.0
 10
63.90728479867375
 20
26.19677593723405
 30
0.0
 10
63.91114241533285
 20
26.21947405247519
 30
0.0
 10
63.91137691641022
 20
26.23492879409897
 30
0.0
 10
63.91149596138496
 20
26.24277442682273
 30
0.0
  0
SPLINE
  5
F5
330
1F
100
AcDbEntity
  8
0
  6
Continuous
 62
     7
370
    25
100
AcDbSpline
210
0.0
220
0.0
230
1.0
 70
     8
 71
     3
 72
    15
 73
    11
 74
     0
 42
0.00000001
 43
0.00000001
 40
0.0
 40
0.0
 40
0.0
 40
0.0
 40
0.141796261111622
 40
0.2768819513476977
 40
0.4055805706087823
 40
0.5298229690785617
 40
0.6485572024501434
 40
0.7672114666371234
 40
0.8821786188665558
 40
1.0
 40
1.0
 40
1.0
 40
1.0
 10
63.6502347001237
 20
26.00821844226675
 30
0.0
 10
63.66011797664508
 20
26.00832003729674
 30
0.0
 10
63.67941679924796
 20
26.00851841932694
 30
0.0
 10
63.70741342586082
 20
26.0124978758504
 30
0.0
 10
63.73405077041834
 20
26.0172160276589
 30
0.0
 10
63.75874177042204
 20
26.02514509695502
 30
0.0
 10
63.78207458299607
 20
26.03474037894296
 30
0.0
 10
63.8033306248001
 20
26.04707377033151
 30
0.0
 10
63.82356819811609
 20
26.060944845079
 30
0.0
 10
63.83537739586271
 20
26.07208044486787
 30
0.0
 10
63.84135439124339
 20
26.07771651176482
 30
0.0
  0
SPLINE
  5
F6
330
1F
100
AcDbEntity
  8
0
  6
Continuous
 62
     7
370
    25
100
AcDbSpline
210
0.0
220
0.0
230
1.0
 70
     8
 71
     3
 72
    15
 73
    11
 74
     0
 42
0.00000001
 43
0.00000001
 40
0.0
 40
0.0
 40
0.0
 40
0.0
 40
0.1053643999148114
 40
0.2134004501006517
 40
0.3253299308157729
 40
0.4441520831794068
 40
0.5701116073912007
 40
0.7035881731039118
 40
0.8466305078268437
 40
1.0
 40
1.0
 40
1.0
 40
1.0
 10
63.459115009004
 20
26.06902925307756
 30
0.0
 10
63.46448506181197
 20
26.06419123706215
 30
0.0
 10
63.47536133204378
 20
26.05439253089465
 30
0.0
 10
63.49381276212904
 20
26.0416871145868
 30
0.0
 10
63.51476476760151
 20
26.03155150449182
 30
0.0
 10
63.53759766484865
 20
26.02265525417715
 30
0.0
 10
63.56285599221373
 20
26.0165494903035
 30
0.0
 10
63.59001346242552
 20
26.01159853107341
 30
0.0
 10
63.6193932990536
 20
26.00873404698923
 30
0.0
 10
63.63971818950068
 20
26.00839425667053
 30
0.0
 10
63.6502347001237
 20
26.00821844226675
 30
0.0
  0
SPLINE
  5
F7
330
1F
100
AcDbEntity
  8
0
  6
Continuous
 62
     7
370
    25
100
AcDbSpline
210
0.0
220
0.0
230
1.0
 70
     8
 71
     3
 72
    11
 73
     7
 74
     0
 42
0.00000001
 43
0.00000001
 40
0.0
 40
0.0
 40
0.0
 40
0.0
 40
0.2562600332085377
 40
0.5016208045865198
 40
0.7449078564687251
 40
1.0
 40
1.0
 40
1.0
 40
1.0
 10
63.3983041981932
 20
26.21671265076095
 30
0.0
 10
63.39903136911272
 20
26.20268822935104
 30
0.0
 10
63.40045478288955
 20
26.17523587377528
 30
0.0
 10
63.41212494906517
 20
26.13586724669617
 30
0.0
 10
63.43143767614977
 20
26.09968390669926
 30
0.0
 10
63.44974468554233
 20
26.07940756595741
 30
0.0
 10
63.459115009004
 20
26.06902925307756
 30
0.0
  0
LINE
  5
F8
330
1F
100
AcDbEntity
  8
0
  6
Continuous
 62
     7
370
    25
100
AcDbLine
 10
63.3983041982
 20
26.7292609133
 30
0.0
 11
63.3983041982
 21
26.2167126508
 31
0.0
  0
LINE
  5
F9
330
1F
100
AcDbEntity
  8
0
  6
Continuous
 62
     7
370
    25
100
AcDbLine
 10
63.7631690631
 20
28.680998365
 30
0.0
 11
63.1289991789
 21
29.0661335002
 31
0.0
  0
LINE
  5
FA
330
1F
100
AcDbEntity
  8
0
  6
Continuous
 62
     7
370
    25
100
AcDbLine
 10
63.1289991789
 20
29.0661335002
 30
0.0
 11
63.1289991789
 21
28.680998365
 31
0.0
  0
LINE
  5
FB
330
1F
100
AcDbEntity
  8
0
  6
Continuous
 62
     7
370
    25
100
AcDbLine
 10
63.1289991789
 20
28.680998365
 30
0.0
 11
63.7631690631
 21
28.680998365
 31
0.0
  0
LINE
  5
FC
330
1F
100
AcDbEntity
  8
0
  6
Continuous
 62
     7
370
    25
100
AcDbLine
 10
61.5217744426
 20
44.3412479274
 30
0.0
 11
65.0895057685
 21
44.3412479274
 31
0.0
  0
LINE
  5
FD
330
1F
100
AcDbEntity
  8
0
  6
Continuous
 62
     7
370
    25
100
AcDbLine
 10
63.9028087027
 20
33.7447049288
 30
0.0
 11
63.4417404916
 21
33.7447049288
 31
0.0
  0
LINE
  5
FE
330
1F
100
AcDbEntity
  8
0
  6
Continuous
 62
     7
370
    25
100
AcDbLine
 10
63.9028087027
 20
33.2582184423
 30
0.0
 11
63.9028087027
 21
33.7447049288
 31
0.0
  0
SPLINE
  5
FF
330
1F
100
AcDbEntity
  8
0
  6
Continuous
 62
     7
370
    25
100
AcDbSpline
210
0.0
220
0.0
230
1.0
 70
     8
 71
     3
 72
    11
 73
     7
 74
     0
 42
0.00000001
 43
0.00000001
 40
0.0
 40
0.0
 40
0.0
 40
0.0
 40
0.2499695538886845
 40
0.4922399851273397
 40
0.7405148106355957
 40
1.0
 40
1.0
 40
1.0
 40
1.0
 10
63.85004164993065
 20
33.12790956195786
 30
0.0
 10
63.85820428665625
 20
33.13681205806308
 30
0.0
 10
63.87427814892433
 20
33.1543428512427
 30
0.0
 10
63.89074795155197
 20
33.18633376721148
 30
0.0
 10
63.90117685542604
 20
33.22120394371188
 30
0.0
 10
63.90225680586477
 20
33.24570000081713
 30
0.0
 10
63.9028087026977
 20
33.25821844226675
 30
0.0
  0
SPLINE
  5
100
330
1F
100
AcDbEntity
  8
0
  6
Continuous
 62
     7
370
    25
100
AcDbSpline
210
0.0
220
0.0
230
1.0
 70
     8
 71
     3
 72
    11
 73
     7
 74
     0
 42
0.00000001
 43
0.00000001
 40
0.0
 40
0.0
 40
0.0
 40
0.0
 40
0.2562600332085375
 40
0.5016208045865196
 40
0.7449078564687247
 40
1.0
 40
1.0
 40
1.0
 40
1.0
 10
63.44174049162948
 20
33.27559295964126
 30
0.0
 10
63.44246766254902
 20
33.26156853823135
 30
0.0
 10
63.44389107632585
 20
33.23411618265558
 30
0.0
 10
63.45556124250147
 20
33.19474755557648
 30
0.0
 10
63.47487396958606
 20
33.15856421557957
 30
0.0
 10
63.49318097897861
 20
33.13828787483772
 30
0.0
 10
63.5025513024403
 20
33.12790956195786
 30
0.0
  0
LINE
  5
101
330
1F
100
AcDbEntity
  8
0
  6
Continuous
 62
     7
370
    25
100
AcDbLine
 10
63.4417404916
 20
33.7447049288
 30
0.0
 11
63.4417404916
 21
33.2755929596
 31
0.0
  0
SPLINE
  5
102
330
1F
100
AcDbEntity
  8
0
  6
Continuous
 62
     7
370
    25
100
AcDbSpline
210
0.0
220
0.0
230
1.0
 70
     8
 71
     3
 72
    15
 73
    11
 74
     0
 42
0.00000001
 43
0.00000001
 40
0.0
 40
0.0
 40
0.0
 40
0.0
 40
0.121504244690735
 40
0.2399194382132703
 40
0.3607014484775896
 40
0.4813982058565623
 40
0.6046686543565304
 40
0.7308278400410384
 40
0.861957900296686
 40
1.0
 40
1.0
 40
1.0
 40
1.0
 10
63.5025513024403
 20
33.12790956195786
 30
0.0
 10
63.5084177307377
 20
33.12227132118138
 30
0.0
 10
63.52000144277189
 20
33.11113818288611
 30
0.0
 10
63.53987123900634
 20
33.09736319572313
 30
0.0
 10
63.56051602469438
 20
33.0849171831748
 30
0.0
 10
63.58305256154856
 20
33.07546871714479
 30
0.0
 10
63.60651230720875
 20
33.0674344654345
 30
0.0
 10
63.63155440438299
 20
33.06271458489609
 30
0.0
 10
63.65772271197741
 20
33.05870466284167
 30
0.0
 10
63.67574248471698
 20
33.05851087467475
 30
0.0
 10
63.68498373487273
 20
33.0584114924598
 30
0.0
  0
SPLINE
  5
103
330
1F
100
AcDbEntity
  8
0
  6
Continuous
 62
     7
370
    25
100
AcDbSpline
210
0.0
220
0.0
230
1.0
 70
     8
 71
     3
 72
    11
 73
     7
 74
     0
 42
0.00000001
 43
0.00000001
 40
0.0
 40
0.0
 40
0.0
 40
0.0
 40
0.2516095171558486
 40
0.4964930798665574
 40
0.7426069856111285
 40
1.0
 40
1.0
 40
1.0
 40
1.0
 10
63.68498373487273
 20
33.0584114924598
 30
0.0
 10
63.7004118659269
 20
33.05930225545978
 30
0.0
 10
63.7308557075997
 20
33.06105996983517
 30
0.0
 10
63.77479437195235
 20
33.07435973419571
 30
0.0
 10
63.8153190296768
 20
33.09663770180417
 30
0.0
 10
63.83829587431794
 20
33.11733109035429
 30
0.0
 10
63.85004164993065
 20
33.12790956195786
 30
0.0
  0
SPLINE
  5
104
330
1F
100
AcDbEntity
  8
0
  6
Continuous
 62
     7
370
    25
100
AcDbSpline
210
0.0
220
0.0
230
1.0
 70
     8
 71
     3
 72
    15
 73
    11
 74
     0
 42
0.00000001
 43
0.00000001
 40
0.0
 40
0.0
 40
0.0
 40
0.0
 40
0.1452459980297237
 40
0.2839773123111063
 40
0.4135645357275269
 40
0.5387150251446067
 40
0.6570052502158952
 40
0.7736984629726814
 40
0.8866940707303841
 40
1.0
 40
1.0
 40
1.0
 40
1.0
 10
62.7467597966488
 20
33.30165473570304
 30
0.0
 10
62.74686523725896
 20
33.29112948210828
 30
0.0
 10
62.74707138917701
 20
33.27055106158188
 30
0.0
 10
62.75098418085179
 20
33.24082832357101
 30
0.0
 10
62.75576886637654
 20
33.21271047465752
 30
0.0
 10
62.76364066976659
 20
33.18682564652685
 30
0.0
 10
62.77319320183926
 20
33.16249893552837
 30
0.0
 10
62.78564476628319
 20
33.14055670349349
 30
0.0
 10
62.79928484747911
 20
33.11970561835231
 30
0.0
 10
62.81059502347255
 20
33.10780583600392
 30
0.0
 10
62.81625786614686
 20
33.10184778589609
 30
0.0
  0
SPLINE
  5
105
330
1F
100
AcDbEntity
  8
0
  6
Continuous
 62
     7
370
    25
100
AcDbSpline
210
0.0
220
0.0
230
1.0
 70
     8
 71
     3
 72
    15
 73
    11
 74
     0
 42
0.00000001
 43
0.00000001
 40
0.0
 40
0.0
 40
0.0
 40
0.0
 40
0.1193556939378565
 40
0.2390663805212365
 40
0.3573840708360861
 40
0.4787728926029036
 40
0.6013911634438117
 40
0.7292416297469761
 40
0.8608048514681789
 40
0.9999999999999999
 40
0.9999999999999999
 40
0.9999999999999999
 40
0.9999999999999999
 10
63.19849724838625
 20
33.09316052720883
 30
0.0
 10
63.20477071616824
 20
33.09978150943939
 30
0.0
 10
63.2173363105398
 20
33.11304316629991
 30
0.0
 10
63.23323822449174
 20
33.13531113170073
 30
0.0
 10
63.24698789743234
 20
33.15910058514015
 30
0.0
 10
63.25816637649809
 20
33.18446000292255
 30
0.0
 10
63.26699644053828
 20
33.21149444021531
 30
0.0
 10
63.27297745519655
 20
33.24008853653786
 30
0.0
 10
63.27656415832301
 20
33.27035371655938
 30
0.0
 10
63.27706737614656
 20
33.29102682349043
 30
0.0
 10
63.27732607721508
 20
33.30165473570304
 30
0.0
  0
SPLINE
  5
106
330
1F
100
AcDbEntity
  8
0
  6
Continuous
 62
     7
370
    25
100
AcDbSpline
210
0.0
220
0.0
230
1.0
 70
     8
 71
     3
 72
    15
 73
    11
 74
     0
 42
0.00000001
 43
0.00000001
 40
0.0
 40
0.0
 40
0.0
 40
0.0
 40
0.127711854033613
 40
0.2523621141955308
 40
0.3748537650566258
 40
0.4969693854038488
 40
0.6192731655242181
 40
0.742485444301997
 40
0.8694478780376613
 40
1.0
 40
1.0
 40
1.0
 40
1.0
 10
62.81625786614686
 20
33.10184778589609
 30
0.0
 10
62.82276995021581
 20
33.09557308080238
 30
0.0
 10
62.83563800632455
 20
33.08317409203675
 30
0.0
 10
62.8571430948216
 20
33.06756605975843
 30
0.0
 10
62.87935482715989
 20
33.05375378497393
 30
0.0
 10
62.9030119314487
 20
33.04295439586351
 30
0.0
 10
62.92750277520562
 20
33.03411801293231
 30
0.0
 10
62.95317990224491
 20
33.02799037145692
 30
0.0
 10
62.97992988750843
 20
33.02446658951488
 30
0.0
 10
62.99814370201403
 20
33.02393298110122
 30
0.0
 10
63.00737755726656
 20
33.02366245771076
 30
0.0
  0
LINE
  5
107
330
1F
100
AcDbEntity
  8
0
  6
Continuous
 62
     7
370
    25
100
AcDbLine
 10
62.7467597966
 20
33.7447049288
 30
0.0
 11
62.7467597966
 21
33.3016547357
 31
0.0
  0
LINE
  5
108
330
1F
100
AcDbEntity
  8
0
  6
Continuous
 62
     7
370
    25
100
AcDbLine
 10
63.2773260772
 20
33.7447049288
 30
0.0
 11
62.7467597966
 21
33.7447049288
 31
0.0
  0
LINE
  5
109
330
1F
100
AcDbEntity
  8
0
  6
Continuous
 62
     7
370
    25
100
AcDbLine
 10
63.2773260772
 20
33.3016547357
 30
0.0
 11
63.2773260772
 21
33.7447049288
 31
0.0
  0
SPLINE
  5
10A
330
1F
100
AcDbEntity
  8
0
  6
Continuous
 62
     7
370
    25
100
AcDbSpline
210
0.0
220
0.0
230
1.0
 70
     8
 71
     3
 72
    15
 73
    11
 74
     0
 42
0.00000001
 43
0.00000001
 40
0.0
 40
0.0
 40
0.0
 40
0.0
 40
0.1417962611116216
 40
0.2768819513476979
 40
0.4055805706087828
 40
0.5298229690785619
 40
0.6485572024501456
 40
0.7672114666371233
 40
0.8821786188665558
 40
1.0
 40
1.0
 40
1.0
 40
1.0
 10
63.00737755726656
 20
33.02366245771076
 30
0.0
 10
63.01726083378792
 20
33.02376405274076
 30
0.0
 10
63.03655965639081
 20
33.02396243477095
 30
0.0
 10
63.06455628300368
 20
33.02794189129441
 30
0.0
 10
63.09119362756119
 20
33.03266004310291
 30
0.0
 10
63.1158846275649
 20
33.04058911239904
 30
0.0
 10
63.13921744013892
 20
33.05018439438697
 30
0.0
 10
63.16047348194297
 20
33.06251778577553
 30
0.0
 10
63.18071105525895
 20
33.07638886052301
 30
0.0
 10
63.19252025300556
 20
33.08752446031188
 30
0.0
 10
63.19849724838625
 20
33.09316052720883
 30
0.0
  0
LINE
  5
10B
330
1F
100
AcDbEntity
  8
0
  6
Continuous
 62
     7
370
    25
100
AcDbLine
 10
47.0020313785
 20
20.1780792395
 30
0.0
 11
47.0020313785
 21
40.7916036941
 31
0.0
  0
LINE
  5
10C
330
1F
100
AcDbEntity
  8
0
  6
Continuous
 62
     7
370
    25
100
AcDbLine
 10
44.3056401055
 20
30.4848414668
 30
0.0
 11
44.3056401055
 21
39.2348414668
 31
0.0
  0
LINE
  5
10D
330
1F
100
AcDbEntity
  8
0
  6
Continuous
 62
     7
370
    25
100
AcDbLine
 10
44.3056401055
 20
21.7348414668
 30
0.0
 11
44.3056401055
 21
30.4848414668
 31
0.0
  0
LINE
  5
10E
330
1F
100
AcDbEntity
  8
0
  6
Continuous
 62
     7
370
    18
100
AcDbLine
 10
45.1868661365
 20
39.743617553
 30
0.0
 11
59.3056401055
 21
40.1848292395
 31
0.0
  0
LINE
  5
10F
330
1F
100
AcDbEntity
  8
0
  6
Continuous
 62
     7
370
    18
100
AcDbLine
 10
45.1868661365
 20
21.2260653806
 30
0.0
 11
59.3056401055
 21
20.7848536941
 31
0.0
  0
LINE
  5
110
330
1F
100
AcDbEntity
  8
0
  6
Continuous
 62
     7
370
    25
100
AcDbLine
 10
59.3056401055
 20
19.7935914668
 30
0.0
 11
59.3056401055
 21
41.1760914668
 31
0.0
  0
LINE
  5
111
330
1F
100
AcDbEntity
  8
FORMAT
  6
CENTERX2
370
    18
100
AcDbLine
 10
67.4065340217
 20
30.4848414668
 30
0.0
 11
43.3056401055
 21
30.4848414668
 31
0.0
  0
SPLINE
  5
112
330
1F
100
AcDbEntity
  8
0
  6
Continuous
 62
     7
370
    25
100
AcDbSpline
210
0.0
220
0.0
230
1.0
 70
    24
 71
     3
 72
    16
 73
    12
 74
     0
 42
0.00000001
 43
0.00000001
 40
0.0
 40
0.0
 40
0.0
 40
0.0
 40
0.2500000000000002
 40
0.2500000000000002
 40
0.5000000000000004
 40
0.5000000000000004
 40
0.6250000000000003
 40
0.6250000000000003
 40
0.7500000000000002
 40
0.7500000000000002
 40
1.0
 40
1.0
 40
1.0
 40
1.0
 10
73.99731055586385
 20
37.41304469709298
 30
0.0
 10
74.97699679581584
 20
37.97866681145064
 30
0.0
 10
75.96382564647244
 20
38.54841271402131
 30
0.0
 10
77.95806403050828
 20
39.69978678187269
 30
0.0
 10
78.96562656368671
 20
40.28150328162863
 30
0.0
 10
80.49595310206695
 20
41.16503772051049
 30
0.0
 10
81.00846261225358
 20
41.46093522417898
 30
0.0
 10
82.02226040527685
 20
42.04625165288481
 30
0.0
 10
82.52576041647487
 20
42.33694751988698
 30
0.0
 10
84.02729632540135
 20
43.20385968110357
 30
0.0
 10
85.01640302713655
 20
43.77492070160766
 30
0.0
 10
85.99731055586392
 20
44.34124792736852
 30
0.0
  0
SPLINE
  5
113
330
1F
100
AcDbEntity
  8
0
  6
Continuous
 62
     7
370
    25
100
AcDbSpline
210
0.0
220
0.0
230
1.0
 70
    24
 71
     3
 72
    16
 73
    12
 74
     0
 42
0.00000001
 43
0.00000001
 40
0.0
 40
0.0
 40
0.0
 40
0.0
 40
0.2499999999999999
 40
0.2499999999999999
 40
0.4999999999999999
 40
0.4999999999999999
 40
0.6249999999999999
 40
0.6249999999999999
 40
0.7499999999999998
 40
0.7499999999999998
 40
1.0
 40
1.0
 40
1.0
 40
1.0
 10
85.99731055586385
 20
44.34124792736853
 30
0.0
 10
86.97699679581585
 20
43.77562581301088
 30
0.0
 10
87.96382564647246
 20
43.2058799104402
 30
0.0
 10
89.95806403050828
 20
42.05450584258882
 30
0.0
 10
90.96562656368671
 20
41.47278934283288
 30
0.0
 10
92.49595310206696
 20
40.58925490395102
 30
0.0
 10
93.00846261225358
 20
40.29335740028253
 30
0.0
 10
94.02226040527685
 20
39.70804097157669
 30
0.0
 10
94.52576041647487
 20
39.41734510457454
 30
0.0
 10
96.02729632540134
 20
38.55043294335794
 30
0.0
 10
97.01640302713655
 20
37.97937192285386
 30
0.0
 10
97.99731055586392
 20
37.41304469709299
 30
0.0
  0
SPLINE
  5
114
330
1F
100
AcDbEntity
  8
0
  6
Continuous
 62
     7
370
    25
100
AcDbSpline
210
0.0
220
0.0
230
1.0
 70
    24
 71
     3
 72
    14
 73
    10
 74
     0
 42
0.00000001
 43
0.00000001
 40
0.0
 40
0.0
 40
0.0
 40
0.0
 40
0.2500000000000001
 40
0.2500000000000001
 40
0.5000000000000001
 40
0.5000000000000001
 40
0.7500000000000001
 40
0.7500000000000001
 40
1.0
 40
1.0
 40
1.0
 40
1.0
 10
97.99731055586389
 20
37.413044697093
 30
0.0
 10
97.9973105558639
 20
36.28522502102476
 30
0.0
 10
97.99731055586389
 20
35.14699123774862
 30
0.0
 10
97.99731055586389
 20
32.84006905687259
 30
0.0
 10
97.99731055586389
 20
31.67002196247784
 30
0.0
 10
97.99731055586389
 20
29.29626109761747
 30
0.0
 10
97.99731055586389
 20
28.12814318204462
 30
0.0
 10
97.99731055586389
 20
25.82229750436329
 30
0.0
 10
97.99731055586389
 20
24.68434318764366
 30
0.0
 10
97.99731055586389
 20
23.55663823654197
 30
0.0
  0
SPLINE
  5
115
330
1F
100
AcDbEntity
  8
0
  6
Continuous
 62
     7
370
    25
100
AcDbSpline
210
0.0
220
0.0
230
1.0
 70
    24
 71
     3
 72
    16
 73
    12
 74
     0
 42
0.00000001
 43
0.00000001
 40
0.0
 40
0.0
 40
0.0
 40
0.0
 40
0.25
 40
0.25
 40
0.5
 40
0.5
 40
0.625
 40
0.625
 40
0.75
 40
0.75
 40
1.0
 40
1.0
 40
1.0
 40
1.0
 10
97.99731055586393
 20
23.55663823654199
 30
0.0
 10
97.01762431591195
 20
22.99101612218434
 30
0.0
 10
96.03079546525534
 20
22.42127021961366
 30
0.0
 10
94.0365570812195
 20
21.26989615176229
 30
0.0
 10
93.02899454804107
 20
20.68817965200635
 30
0.0
 10
91.49866800966083
 20
19.80464521312448
 30
0.0
 10
90.98615849947421
 20
19.50874770945599
 30
0.0
 10
89.97236070645094
 20
18.92343128075016
 30
0.0
 10
89.46886069525291
 20
18.632735413748
 30
0.0
 10
87.96732478632644
 20
17.7658232525314
 30
0.0
 10
86.97821808459125
 20
17.19476223202733
 30
0.0
 10
85.99731055586388
 20
16.62843500626645
 30
0.0
  0
SPLINE
  5
116
330
1F
100
AcDbEntity
  8
0
  6
Continuous
 62
     7
370
    25
100
AcDbSpline
210
0.0
220
0.0
230
1.0
 70
    24
 71
     3
 72
    16
 73
    12
 74
     0
 42
0.00000001
 43
0.00000001
 40
0.0
 40
0.0
 40
0.0
 40
0.0
 40
0.2499999999999999
 40
0.2499999999999999
 40
0.4999999999999999
 40
0.4999999999999999
 40
0.625
 40
0.625
 40
0.7499999999999998
 40
0.7499999999999998
 40
1.0
 40
1.0
 40
1.0
 40
1.0
 10
85.99731055586393
 20
16.62843500626644
 30
0.0
 10
85.01762431591195
 20
17.19405712062409
 30
0.0
 10
84.03079546525534
 20
17.76380302319478
 30
0.0
 10
82.0365570812195
 20
18.91517709104615
 30
0.0
 10
81.02899454804108
 20
19.49689359080209
 30
0.0
 10
79.49866800966083
 20
20.38042802968396
 30
0.0
 10
78.9861584994742
 20
20.67632553335245
 30
0.0
 10
77.97236070645094
 20
21.26164196205828
 30
0.0
 10
77.46886069525291
 20
21.55233782906044
 30
0.0
 10
75.96732478632644
 20
22.41924999027703
 30
0.0
 10
74.97821808459123
 20
22.99031101078111
 30
0.0
 10
73.99731055586386
 20
23.55663823654198
 30
0.0
  0
SPLINE
  5
117
330
1F
100
AcDbEntity
  8
0
  6
Continuous
 62
     7
370
    25
100
AcDbSpline
210
0.0
220
0.0
230
1.0
 70
    24
 71
     3
 72
    14
 73
    10
 74
     0
 42
0.00000001
 43
0.00000001
 40
0.0
 40
0.0
 40
0.0
 40
0.0
 40
0.2499999999999999
 40
0.2499999999999999
 40
0.4999999999999999
 40
0.4999999999999999
 40
0.7499999999999999
 40
0.7499999999999999
 40
1.0
 40
1.0
 40
1.0
 40
1.0
 10
73.99731055586389
 20
23.55663823654197
 30
0.0
 10
73.99731055586389
 20
24.68445791261021
 30
0.0
 10
73.99731055586389
 20
25.82269169588634
 30
0.0
 10
73.99731055586389
 20
28.12961387676238
 30
0.0
 10
73.99731055586389
 20
29.29966097115713
 30
0.0
 10
73.99731055586389
 20
31.67342183601751
 30
0.0
 10
73.99731055586389
 20
32.84153975159035
 30
0.0
 10
73.99731055586389
 20
35.14738542927169
 30
0.0
 10
73.99731055586389
 20
36.28533974599132
 30
0.0
 10
73.99731055586389
 20
37.413044697093
 30
0.0
  0
CIRCLE
  5
118
330
1F
100
AcDbEntity
  8
0
  6
Continuous
 62
     7
370
    25
100
AcDbCircle
 10
85.9973105559
 20
30.4848414668
 30
0.0
 40
11.75
  0
CIRCLE
  5
119
330
1F
100
AcDbEntity
  8
0
  6
Continuous
 62
     7
370
    25
100
AcDbCircle
 10
85.9973105559
 20
30.4848414668
 30
0.0
 40
10.40000000000001
  0
CIRCLE
  5
11A
330
1F
100
AcDbEntity
  8
0
  6
Continuous
 62
     7
370
    25
100
AcDbCircle
 10
85.9973105559
 20
30.4848414668
 30
0.0
 40
10.25000000000001
  0
CIRCLE
  5
11B
330
1F
100
AcDbEntity
  8
0
  6
Continuous
 62
     7
370
    25
100
AcDbCircle
 10
85.9973105559
 20
30.4848414668
 30
0.0
 40
10.09999999999999
  0
CIRCLE
  5
11C
330
1F
100
AcDbEntity
  8
0
  6
Continuous
 62
     7
370
    25
100
AcDbCircle
 10
85.9973105559
 20
30.4848414668
 30
0.0
 40
8.75
  0
CIRCLE
  5
11D
330
1F
100
AcDbEntity
  8
0
  6
Continuous
 62
     7
370
    25
100
AcDbCircle
 10
85.9973105559
 20
30.4848414668
 30
0.0
 40
7.773069881536813
  0
CIRCLE
  5
11E
330
1F
100
AcDbEntity
  8
0
  6
Continuous
 62
     7
370
    25
100
AcDbCircle
 10
85.9973105559
 20
30.4848414668
 30
0.0
 40
7.404554651612557
  0
CIRCLE
  5
11F
330
1F
100
AcDbEntity
  8
0
  6
Continuous
 62
     7
370
    25
100
AcDbCircle
 10
85.9973105559
 20
30.4848414668
 30
0.0
 40
7.150000000000006
  0
INSERT
  5
12B
330
1F
100
AcDbEntity
  8
FORMAT
100
AcDbBlockReference
  2
SW_CENTERMARKSYMBOL_0
 10
85.9973105559
 20
30.4848414668
 30
0.0
  0
ARC
  5
12C
330
1F
100
AcDbEntity
  8
0
  6
Continuous
 62
     7
370
    18
100
AcDbCircle
 10
85.9973105559
 20
30.4848414668
 30
0.0
 40
8.586700412440036
100
AcDbArc
 50
75.0
 51
345.0
  0
LINE
  5
12D
330
1F
100
AcDbEntity
  8
0
  6
Continuous
 62
     7
370
    25
100
AcDbLine
 10
60.4499776728
 20
75.7168413261
 30
0.0
 11
60.3056401055
 21
75.4668413261
 31
0.0
  0
LINE
  5
12E
330
1F
100
AcDbEntity
  8
0
  6
Continuous
 62
     7
370
    25
100
AcDbLine
 10
60.3056401055
 20
51.9668413261
 30
0.0
 11
60.4499776728
 21
51.7168413261
 31
0.0
  0
LINE
  5
12F
330
1F
100
AcDbEntity
  8
0
  6
Continuous
 62
     7
370
    25
100
AcDbLine
 10
66.1613025382
 20
51.7168413261
 30
0.0
 11
66.3056401055
 21
51.9668413261
 31
0.0
  0
LINE
  5
130
330
1F
100
AcDbEntity
  8
0
  6
Continuous
 62
     7
370
    25
100
AcDbLine
 10
66.3056401055
 20
75.4668413261
 30
0.0
 11
66.1613025382
 21
75.7168413261
 31
0.0
  0
LINE
  5
131
330
1F
100
AcDbEntity
  8
0
  6
Continuous
 62
     7
370
    25
100
AcDbLine
 10
60.3056401055
 20
74.4393413261
 30
0.0
 11
47.0020313785
 21
74.0236035534
 31
0.0
  0
LINE
  5
132
330
1F
100
AcDbEntity
  8
0
  6
Continuous
 62
     7
370
    25
100
AcDbLine
 10
47.0020313785
 20
53.4100790988
 30
0.0
 11
60.3056401055
 21
52.9943413261
 31
0.0
  0
LINE
  5
133
330
1F
100
AcDbEntity
  8
0
  6
Continuous
 62
     7
370
    25
100
AcDbLine
 10
47.0020313785
 20
74.0236035534
 30
0.0
 11
44.3056401055
 21
72.4668413261
 31
0.0
  0
LINE
  5
134
330
1F
100
AcDbEntity
  8
0
  6
Continuous
 62
     7
370
    25
100
AcDbLine
 10
44.3056401055
 20
54.9668413261
 30
0.0
 11
47.0020313785
 21
53.4100790988
 31
0.0
  0
SPLINE
  5
135
330
1F
100
AcDbEntity
  8
0
  6
Continuous
 62
     7
370
    25
100
AcDbSpline
210
0.0
220
0.0
230
1.0
 70
     8
 71
     3
 72
    16
 73
    12
 74
     0
 42
0.00000001
 43
0.00000001
 40
0.0
 40
0.0
 40
0.0
 40
0.0
 40
0.2499999999999999
 40
0.2499999999999999
 40
0.4999999999999999
 40
0.4999999999999999
 40
0.6249999999999999
 40
0.6249999999999999
 40
0.7499999999999998
 40
0.7499999999999998
 40
1.0
 40
1.0
 40
1.0
 40
1.0
 10
61.52177444255072
 20
63.71684132611085
 30
0.0
 10
61.19521236256673
 20
64.69652756606284
 30
0.0
 10
60.92606608229223
 20
65.68335641671943
 30
0.0
 10
60.55321111955633
 20
67.67759480075527
 30
0.0
 10
60.4507323243434
 20
68.68515733393372
 30
0.0
 10
60.44960667270978
 20
70.21548387231395
 30
0.0
 10
60.47465873965921
 20
70.72799338250057
 30
0.0
 10
60.57234868304731
 20
71.74179117552384
 30
0.0
 10
60.644887408317
 20
72.24529118672186
 30
0.0
 10
60.92499282436162
 20
73.74682709564834
 30
0.0
 10
61.19480526630841
 20
74.73593379738354
 30
0.0
 10
61.52177444255086
 20
75.71684132611091
 30
0.0
  0
LINE
  5
136
330
1F
100
AcDbEntity
  8
0
  6
Continuous
 62
     7
370
    25
100
AcDbLine
 10
61.5217744426
 20
75.7168413261
 30
0.0
 11
65.0895057685
 21
75.7168413261
 31
0.0
  0
SPLINE
  5
137
330
1F
100
AcDbEntity
  8
0
  6
Continuous
 62
     7
370
    25
100
AcDbSpline
210
0.0
220
0.0
230
1.0
 70
     8
 71
     3
 72
    16
 73
    12
 74
     0
 42
0.00000001
 43
0.00000001
 40
0.0
 40
0.0
 40
0.0
 40
0.0
 40
0.2499999999999999
 40
0.2499999999999999
 40
0.4999999999999999
 40
0.4999999999999999
 40
0.6249999999999999
 40
0.6249999999999999
 40
0.7499999999999998
 40
0.7499999999999998
 40
1.0
 40
1.0
 40
1.0
 40
1.0
 10
65.0895057685075
 20
63.71684132611085
 30
0.0
 10
65.4160678484915
 20
64.69652756606284
 30
0.0
 10
65.68521412876599
 20
65.68335641671943
 30
0.0
 10
66.05806909150189
 20
67.67759480075527
 30
0.0
 10
66.16054788671482
 20
68.68515733393372
 30
0.0
 10
66.16167353834845
 20
70.21548387231395
 30
0.0
 10
66.13662147139901
 20
70.72799338250057
 30
0.0
 10
66.0389315280109
 20
71.74179117552384
 30
0.0
 10
65.96639280274123
 20
72.24529118672186
 30
0.0
 10
65.6862873866966
 20
73.74682709564834
 30
0.0
 10
65.41647494474982
 20
74.73593379738354
 30
0.0
 10
65.08950576850737
 20
75.71684132611091
 30
0.0
  0
LINE
  5
138
330
1F
100
AcDbEntity
  8
0
  6
Continuous
 62
     7
370
    25
100
AcDbLine
 10
61.5217744426
 20
63.7168413261
 30
0.0
 11
65.0895057685
 21
63.7168413261
 31
0.0
  0
SPLINE
  5
139
330
1F
100
AcDbEntity
  8
0
  6
Continuous
 62
     7
370
    25
100
AcDbSpline
210
0.0
220
0.0
230
1.0
 70
    24
 71
     3
 72
    13
 73
     9
 74
     0
 42
0.00000001
 43
0.00000001
 40
0.0
 40
0.0
 40
0.0
 40
0.0
 40
0.1584539347450191
 40
0.3246163155289175
 40
0.4906741100713845
 40
0.6604029946080466
 40
0.8302269731198947
 40
1.0
 40
1.0
 40
1.0
 40
1.0
 10
60.45142174934657
 20
51.71684132611088
 30
0.0
 10
60.45676834366557
 20
51.71684132611088
 30
0.0
 10
60.46772163271615
 20
51.71684132611088
 30
0.0
 10
60.56504998992395
 20
51.71684132611089
 30
0.0
 10
60.71988122514991
 20
51.71684132611088
 30
0.0
 10
60.93595512139477
 20
51.71684132611089
 30
0.0
 10
61.20147942396444
 20
51.71684132611089
 30
0.0
 10
61.41502011592227
 20
51.71684132611089
 30
0.0
 10
61.52177444255101
 20
51.71684132611089
 30
0.0
  0
SPLINE
  5
13A
330
1F
100
AcDbEntity
  8
0
  6
Continuous
 62
     7
370
    25
100
AcDbSpline
210
0.0
220
0.0
230
1.0
 70
    24
 71
     3
 72
    14
 73
    10
 74
     0
 42
0.00000001
 43
0.00000001
 40
0.0
 40
0.0
 40
0.0
 40
0.0
 40
0.1638914016952701
 40
0.3278284854562003
 40
0.4916817707220923
 40
0.6585715912525922
 40
0.8255655094138028
 40
0.9924245814826936
 40
1.0
 40
1.0
 40
1.0
 40
1.0
 10
61.52177444255101
 20
75.71684132611088
 30
0.0
 10
61.41861019875279
 20
75.7168413261109
 30
0.0
 10
61.21225295579939
 20
75.7168413261109
 30
0.0
 10
60.95332805284747
 20
75.7168413261109
 30
0.0
 10
60.73817543844319
 20
75.71684132611088
 30
0.0
 10
60.57584291304699
 20
75.7168413261109
 30
0.0
 10
60.4805648928636
 20
75.71684132611087
 30
0.0
 10
60.43992559753647
 20
75.71684132611092
 30
0.0
 10
60.45094326901695
 20
75.71684132611088
 30
0.0
 10
60.45142174934657
 20
75.71684132611088
 30
0.0
  0
SPLINE
  5
13B
330
1F
100
AcDbEntity
  8
0
  6
Continuous
 62
     7
370
    25
100
AcDbSpline
210
0.0
220
0.0
230
1.0
 70
     8
 71
     3
 72
    16
 73
    12
 74
     0
 42
0.00000001
 43
0.00000001
 40
0.0
 40
0.0
 40
0.0
 40
0.0
 40
0.2500000000000002
 40
0.2500000000000002
 40
0.5000000000000004
 40
0.5000000000000004
 40
0.6250000000000003
 40
0.6250000000000003
 40
0.7500000000000002
 40
0.7500000000000002
 40
1.0
 40
1.0
 40
1.0
 40
1.0
 10
61.52177444255071
 20
51.71684132611085
 30
0.0
 10
61.19521236256672
 20
52.69652756606283
 30
0.0
 10
60.92606608229222
 20
53.68335641671944
 30
0.0
 10
60.55321111955633
 20
55.67759480075528
 30
0.0
 10
60.4507323243434
 20
56.68515733393371
 30
0.0
 10
60.44960667270978
 20
58.21548387231395
 30
0.0
 10
60.47465873965921
 20
58.72799338250057
 30
0.0
 10
60.57234868304731
 20
59.74179117552384
 30
0.0
 10
60.644887408317
 20
60.24529118672186
 30
0.0
 10
60.92499282436162
 20
61.74682709564834
 30
0.0
 10
61.19480526630841
 20
62.73593379738355
 30
0.0
 10
61.52177444255086
 20
63.71684132611091
 30
0.0
  0
LINE
  5
13C
330
1F
100
AcDbEntity
  8
0
  6
Continuous
 62
     7
370
    25
100
AcDbLine
 10
60.3056401055
 20
51.9668413261
 30
0.0
 11
60.3056401055
 21
75.4668413261
 31
0.0
  0
SPLINE
  5
13D
330
1F
100
AcDbEntity
  8
0
  6
Continuous
 62
     7
370
    25
100
AcDbSpline
210
0.0
220
0.0
230
1.0
 70
     8
 71
     3
 72
    16
 73
    12
 74
     0
 42
0.00000001
 43
0.00000001
 40
0.0
 40
0.0
 40
0.0
 40
0.0
 40
0.2500000000000002
 40
0.2500000000000002
 40
0.5000000000000004
 40
0.5000000000000004
 40
0.6250000000000003
 40
0.6250000000000003
 40
0.7500000000000002
 40
0.7500000000000002
 40
1.0
 40
1.0
 40
1.0
 40
1.0
 10
65.08950576850751
 20
51.71684132611085
 30
0.0
 10
65.41606784849151
 20
52.69652756606283
 30
0.0
 10
65.685214128766
 20
53.68335641671944
 30
0.0
 10
66.05806909150189
 20
55.67759480075528
 30
0.0
 10
66.16054788671482
 20
56.68515733393371
 30
0.0
 10
66.16167353834845
 20
58.21548387231395
 30
0.0
 10
66.13662147139901
 20
58.72799338250057
 30
0.0
 10
66.0389315280109
 20
59.74179117552384
 30
0.0
 10
65.96639280274123
 20
60.24529118672186
 30
0.0
 10
65.6862873866966
 20
61.74682709564834
 30
0.0
 10
65.41647494474982
 20
62.73593379738355
 30
0.0
 10
65.08950576850737
 20
63.71684132611091
 30
0.0
  0
SPLINE
  5
13E
330
1F
100
AcDbEntity
  8
0
  6
Continuous
 62
     7
370
    25
100
AcDbSpline
210
0.0
220
0.0
230
1.0
 70
    24
 71
     3
 72
    14
 73
    10
 74
     0
 42
0.00000001
 43
0.00000001
 40
0.0
 40
0.0
 40
0.0
 40
0.0
 40
0.1638914016952701
 40
0.3278284854562003
 40
0.4916817707220923
 40
0.6585715912525922
 40
0.8255655094138028
 40
0.9924245814826936
 40
1.0
 40
1.0
 40
1.0
 40
1.0
 10
65.08950576850722
 20
75.71684132611088
 30
0.0
 10
65.19267001230544
 20
75.7168413261109
 30
0.0
 10
65.39902725525884
 20
75.7168413261109
 30
0.0
 10
65.65795215821075
 20
75.7168413261109
 30
0.0
 10
65.87310477261504
 20
75.71684132611088
 30
0.0
 10
66.03543729801123
 20
75.7168413261109
 30
0.0
 10
66.13071531819462
 20
75.71684132611087
 30
0.0
 10
66.17135461352174
 20
75.71684132611092
 30
0.0
 10
66.16033694204127
 20
75.71684132611088
 30
0.0
 10
66.15985846171165
 20
75.71684132611088
 30
0.0
  0
SPLINE
  5
13F
330
1F
100
AcDbEntity
  8
0
  6
Continuous
 62
     7
370
    25
100
AcDbSpline
210
0.0
220
0.0
230
1.0
 70
    24
 71
     3
 72
    13
 73
     9
 74
     0
 42
0.00000001
 43
0.00000001
 40
0.0
 40
0.0
 40
0.0
 40
0.0
 40
0.1584539347450191
 40
0.3246163155289175
 40
0.4906741100713845
 40
0.6604029946080466
 40
0.8302269731198949
 40
1.0
 40
1.0
 40
1.0
 40
1.0
 10
66.15985846171165
 20
51.71684132611088
 30
0.0
 10
66.15451186739266
 20
51.71684132611088
 30
0.0
 10
66.14355857834208
 20
51.71684132611088
 30
0.0
 10
66.04623022113428
 20
51.71684132611089
 30
0.0
 10
65.89139898590831
 20
51.71684132611088
 30
0.0
 10
65.67532508966345
 20
51.71684132611089
 30
0.0
 10
65.4098007870938
 20
51.71684132611089
 30
0.0
 10
65.19626009513595
 20
51.71684132611089
 30
0.0
 10
65.08950576850722
 20
51.71684132611089
 30
0.0
  0
LINE
  5
140
330
1F
100
AcDbEntity
  8
0
  6
Continuous
 62
     7
370
    25
100
AcDbLine
 10
66.3056401055
 20
51.9668413261
 30
0.0
 11
66.3056401055
 21
75.4668413261
 31
0.0
  0
LINE
  5
141
330
1F
100
AcDbEntity
  8
0
  6
Continuous
 62
     7
370
    25
100
AcDbLine
 10
61.5217744426
 20
51.7168413261
 30
0.0
 11
65.0895057685
 21
51.7168413261
 31
0.0
  0
LINE
  5
142
330
1F
100
AcDbEntity
  8
0
  6
Continuous
 62
     7
370
    25
100
AcDbLine
 10
47.0020313785
 20
63.7168413261
 30
0.0
 11
47.0020313785
 21
74.0236035534
 31
0.0
  0
LINE
  5
143
330
1F
100
AcDbEntity
  8
0
  6
Continuous
 62
     7
370
    25
100
AcDbLine
 10
47.0020313785
 20
53.4100790988
 30
0.0
 11
47.0020313785
 21
63.7168413261
 31
0.0
  0
LINE
  5
144
330
1F
100
AcDbEntity
  8
0
  6
Continuous
 62
     7
370
    25
100
AcDbLine
 10
44.3056401055
 20
54.9668413261
 30
0.0
 11
44.3056401055
 21
72.4668413261
 31
0.0
  0
LINE
  5
145
330
1F
100
AcDbEntity
  8
0
  6
Continuous
 62
     7
370
    18
100
AcDbLine
 10
45.1868661365
 20
72.9756174123
 30
0.0
 11
59.3056401055
 21
73.4168290988
 31
0.0
  0
LINE
  5
146
330
1F
100
AcDbEntity
  8
0
  6
Continuous
 62
     7
370
    18
100
AcDbLine
 10
45.1868661365
 20
54.4580652399
 30
0.0
 11
59.3056401055
 21
54.0168535534
 31
0.0
  0
LINE
  5
147
330
1F
100
AcDbEntity
  8
0
  6
Continuous
 62
     7
370
    25
100
AcDbLine
 10
59.3056401055
 20
53.0255913261
 30
0.0
 11
59.3056401055
 21
74.4080913261
 31
0.0
  0
LINE
  5
148
330
1F
100
AcDbEntity
  8
FORMAT
  6
CENTERX2
370
    18
100
AcDbLine
 10
67.3272031475
 20
63.7168413261
 30
0.0
 11
43.3056401055
 21
63.7168413261
 31
0.0
  0
ENDSEC
  0
SECTION
  2
OBJECTS
  0
DICTIONARY
  5
C
330
0
100
AcDbDictionary
281
     1
  3
ACAD_GROUP
350
D
  3
ACAD_LAYOUT
350
1A
  3
ACAD_MLINESTYLE
350
17
  3
ACAD_PLOTSETTINGS
350
19
  3
ACAD_PLOTSTYLENAME
350
E
  3
ACAD_SCALELIST
350
47
  3
DWGPROPS
350
149
  0
DICTIONARY
  5
D
102
{ACAD_REACTORS
330
C
102
}
330
C
100
AcDbDictionary
281
     1
  0
DICTIONARY
  5
1A
102
{ACAD_REACTORS
330
C
102
}
330
C
100
AcDbDictionary
281
     1
  3
Layout1
350
1E
  3
Layout2
350
26
  3
Model
350
22
  0
DICTIONARY
  5
17
102
{ACAD_REACTORS
330
C
102
}
330
C
100
AcDbDictionary
281
     1
  3
Standard
350
18
  0
DICTIONARY
  5
19
102
{ACAD_REACTORS
330
C
102
}
330
C
100
AcDbDictionary
281
     1
  0
ACDBDICTIONARYWDFLT
  5
E
102
{ACAD_REACTORS
330
C
102
}
330
C
100
AcDbDictionary
281
     1
  3
Normal
350
F
100
AcDbDictionaryWithDefault
340
F
  0
DICTIONARY
  5
47
102
{ACAD_REACTORS
330
C
102
}
330
C
100
AcDbDictionary
281
     1
  3
A0
350
48
  3
A1
350
49
  3
A2
350
4A
  3
A3
350
4B
  3
A4
350
4C
  3
A5
350
4D
  3
A6
350
4E
  3
A7
350
4F
  3
A8
350
50
  3
A9
350
51
  3
B0
350
52
  3
B1
350
53
  3
B2
350
54
  3
B3
350
55
  3
B4
350
56
  3
B5
350
57
  3
B6
350
58
  0
XRECORD
  5
149
102
{ACAD_REACTORS
330
C
102
}
330
C
100
AcDbXrecord
280
     1
  1
DWGPROPS COOKIE
  2

  3

  4

  6

  7

  8
user28
  9

300
=
301
=
302
=
303
=
304
=
305
=
306
=
307
=
308
=
309
=
 40
0.0
 41
2460406.306515833
 42
2460406.306516447
  1

 90
        0
  0
LAYOUT
  5
1E
102
{ACAD_REACTORS
330
1A
102
}
330
1A
100
AcDbPlotSettings
  1

  2
none_device
  4

  6

 40
0.0
 41
0.0
 42
0.0
 43
0.0
 44
0.0
 45
0.0
 46
0.0
 47
0.0
 48
0.0
 49
0.0
140
0.0
141
0.0
142
1.0
143
1.0
 70
   688
 72
     1
 73
     0
 74
     5
  7

 75
    16
147
1.0
148
0.0
149
0.0
100
AcDbLayout
  1
Layout1
 70
     1
 71
     1
 10
0.0
 20
0.0
 11
420.0
 21
297.0
 12
0.0
 22
0.0
 32
0.0
 14
1.0000000000E+20
 24
1.0000000000E+20
 34
1.0000000000E+20
 15
-1.0000000000E+20
 25
-1.0000000000E+20
 35
-1.0000000000E+20
146
0.0
 13
0.0
 23
0.0
 33
0.0
 16
1.0
 26
0.0
 36
0.0
 17
0.0
 27
1.0
 37
0.0
 76
     0
330
1B
  0
LAYOUT
  5
26
102
{ACAD_REACTORS
330
1A
102
}
330
1A
100
AcDbPlotSettings
  1

  2
none_device
  4

  6

 40
0.0
 41
0.0
 42
0.0
 43
0.0
 44
0.0
 45
0.0
 46
0.0
 47
0.0
 48
0.0
 49
0.0
140
0.0
141
0.0
142
1.0
143
1.0
 70
   688
 72
     1
 73
     0
 74
     5
  7

 75
    16
147
1.0
148
0.0
149
0.0
100
AcDbLayout
  1
Layout2
 70
     1
 71
     2
 10
0.0
 20
0.0
 11
0.0
 21
0.0
 12
0.0
 22
0.0
 32
0.0
 14
0.0
 24
0.0
 34
0.0
 15
0.0
 25
0.0
 35
0.0
146
0.0
 13
0.0
 23
0.0
 33
0.0
 16
1.0
 26
0.0
 36
0.0
 17
0.0
 27
1.0
 37
0.0
 76
     0
330
23
  0
LAYOUT
  5
22
102
{ACAD_REACTORS
330
1A
102
}
330
1A
100
AcDbPlotSettings
  1

  2
none_device
  4
Letter_(8.50_x_11.00_Inches)
  6

 40
6.35
 41
6.35
 42
6.35000508
 43
6.35000508
 44
215.9
 45
279.4
 46
0.0
 47
0.0
 48
0.0
 49
0.0
140
0.0
141
0.0
142
1.0
143
1.0
 70
  1712
 72
     1
 73
     0
 74
     0
  7

 75
     0
147
1.0
148
0.0
149
0.0
100
AcDbLayout
  1
Model
 70
     1
 71
     0
 10
0.0
 20
0.0
 11
148.5
 21
105.0
 12
0.0
 22
0.0
 32
0.0
 14
0.0
 24
0.0
 34
0.0
 15
148.5
 25
105.0
 35
0.0
146
0.0
 13
0.0
 23
0.0
 33
0.0
 16
1.0
 26
0.0
 36
0.0
 17
0.0
 27
1.0
 37
0.0
 76
     0
330
1F
331
29
  0
MLINESTYLE
  5
18
102
{ACAD_REACTORS
330
17
102
}
330
17
100
AcDbMlineStyle
  2
Standard
 70
     0
  3

 62
   256
 51
90.0
 52
90.0
 71
     2
 49
0.5
 62
   256
  6
BYLAYER
 49
-0.5
 62
   256
  6
BYLAYER
  0
ACDBPLACEHOLDER
  5
F
102
{ACAD_REACTORS
330
E
102
}
330
E
  0
SCALE
  5
48
102
{ACAD_REACTORS
330
47
102
}
330
47
100
AcDbScale
 70
     0
300
1:1
140
1.0
141
1.0
290
     1
  0
SCALE
  5
49
102
{ACAD_REACTORS
330
47
102
}
330
47
100
AcDbScale
 70
     0
300
1:2
140
1.0
141
2.0
290
     0
  0
SCALE
  5
4A
102
{ACAD_REACTORS
330
47
102
}
330
47
100
AcDbScale
 70
     0
300
1:4
140
1.0
141
4.0
290
     0
  0
SCALE
  5
4B
102
{ACAD_REACTORS
330
47
102
}
330
47
100
AcDbScale
 70
     0
300
1:5
140
1.0
141
5.0
290
     0
  0
SCALE
  5
4C
102
{ACAD_REACTORS
330
47
102
}
330
47
100
AcDbScale
 70
     0
300
1:8
140
1.0
141
8.0
290
     0
  0
SCALE
  5
4D
102
{ACAD_REACTORS
330
47
102
}
330
47
100
AcDbScale
 70
     0
300
1:10
140
1.0
141
10.0
290
     0
  0
SCALE
  5
4E
102
{ACAD_REACTORS
330
47
102
}
330
47
100
AcDbScale
 70
     0
300
1:16
140
1.0
141
16.0
290
     0
  0
SCALE
  5
4F
102
{ACAD_REACTORS
330
47
102
}
330
47
100
AcDbScale
 70
     0
300
1:20
140
1.0
141
20.0
290
     0
  0
SCALE
  5
50
102
{ACAD_REACTORS
330
47
102
}
330
47
100
AcDbScale
 70
     0
300
1:30
140
1.0
141
30.0
290
     0
  0
SCALE
  5
51
102
{ACAD_REACTORS
330
47
102
}
330
47
100
AcDbScale
 70
     0
300
1:40
140
1.0
141
40.0
290
     0
  0
SCALE
  5
52
102
{ACAD_REACTORS
330
47
102
}
330
47
100
AcDbScale
 70
     0
300
1:50
140
1.0
141
50.0
290
     0
  0
SCALE
  5
53
102
{ACAD_REACTORS
330
47
102
}
330
47
100
AcDbScale
 70
     0
300
1:100
140
1.0
141
100.0
290
     0
  0
SCALE
  5
54
102
{ACAD_REACTORS
330
47
102
}
330
47
100
AcDbScale
 70
     0
300
2:1
140
2.0
141
1.0
290
     0
  0
SCALE
  5
55
102
{ACAD_REACTORS
330
47
102
}
330
47
100
AcDbScale
 70
     0
300
4:1
140
4.0
141
1.0
290
     0
  0
SCALE
  5
56
102
{ACAD_REACTORS
330
47
102
}
330
47
100
AcDbScale
 70
     0
300
8:1
140
8.0
141
1.0
290
     0
  0
SCALE
  5
57
102
{ACAD_REACTORS
330
47
102
}
330
47
100
AcDbScale
 70
     0
300
10:1
140
10.0
141
1.0
290
     0
  0
SCALE
  5
58
102
{ACAD_REACTORS
330
47
102
}
330
47
100
AcDbScale
 70
     0
300
100:1
140
100.0
141
1.0
290
     0
  0
ENDSEC
  0
EOF
