  0
SECTION
  2
HEADER
  9
$ACADVER
  1
AC1015
  9
$ACADMAINTVER
 70
     6
  9
$DWGCODEPAGE
  3
DOS932
  9
$INSBASE
 10
0.0
 20
0.0
 30
0.0
  9
$EXTMIN
 10
0.0
 20
0.0
 30
0.0
  9
$EXTMAX
 10
148.5
 20
105.0
 30
0.0
  9
$LIMMIN
 10
0.0
 20
0.0
  9
$LIMMAX
 10
148.5
 20
105.0
  9
$ORTHOMODE
 70
     0
  9
$REGENMODE
 70
     1
  9
$FILLMODE
 70
     1
  9
$QTEXTMODE
 70
     0
  9
$MIRRTEXT
 70
     1
  9
$LTSCALE
 40
0.5
  9
$ATTMODE
 70
     1
  9
$TEXTSIZE
 40
1.7638888889
  9
$TRACEWID
 40
1.0
  9
$TEXTSTYLE
  7
Standard
  9
$CLAYER
  8
0
  9
$CELTYPE
  6
ByLayer
  9
$CECOLOR
 62
   256
  9
$CELTSCALE
 40
1.0
  9
$DISPSILH
 70
     0
  9
$DIMSCALE
 40
1.0
  9
$DIMASZ
 40
1.3642578125
  9
$DIMEXO
 40
0.5
  9
$DIMDLI
 40
3.75
  9
$DIMRND
 40
0.0
  9
$DIMDLE
 40
0.0
  9
$DIMEXE
 40
0.5
  9
$DIMTP
 40
0.0
  9
$DIMTM
 40
0.0
  9
$DIMTXT
 40
1.7638888889
  9
$DIMCEN
 40
2.5
  9
$DIMTSZ
 40
0.0
  9
$DIMTOL
 70
     0
  9
$DIMLIM
 70
     0
  9
$DIMTIH
 70
     1
  9
$DIMTOH
 70
     1
  9
$DIMSE1
 70
     0
  9
$DIMSE2
 70
     0
  9
$DIMTAD
 70
     1
  9
$DIMZIN
 70
     0
  9
$DIMBLK
  1

  9
$DIMASO
 70
     1
  9
$DIMSHO
 70
     1
  9
$DIMPOST
  1

  9
$DIMAPOST
  1

  9
$DIMALT
 70
     0
  9
$DIMALTD
 70
     3
  9
$DIMALTF
 40
0.0393700787
  9
$DIMLFAC
 40
1.0
  9
$DIMTOFL
 70
     1
  9
$DIMTVP
 40
0.0
  9
$DIMTIX
 70
     0
  9
$DIMSOXD
 70
     0
  9
$DIMSAH
 70
     0
  9
$DIMBLK1
  1

  9
$DIMBLK2
  1

  9
$DIMSTYLE
  2
ISO-25
  9
$DIMCLRD
 70
     0
  9
$DIMCLRE
 70
     0
  9
$DIMCLRT
 70
     0
  9
$DIMTFAC
 40
1.0
  9
$DIMGAP
 40
0.762
  9
$DIMJUST
 70
     0
  9
$DIMSD1
 70
     0
  9
$DIMSD2
 70
     0
  9
$DIMTOLJ
 70
     0
  9
$DIMTZIN
 70
     0
  9
$DIMALTZ
 70
     0
  9
$DIMALTTZ
 70
     0
  9
$DIMUPT
 70
     0
  9
$DIMDEC
 70
     2
  9
$DIMTDEC
 70
     2
  9
$DIMALTU
 70
     2
  9
$DIMALTTD
 70
     3
  9
$DIMTXSTY
  7
Standard
  9
$DIMAUNIT
 70
     0
  9
$DIMADEC
 70
     2
  9
$DIMALTRND
 40
0.0
  9
$DIMAZIN
 70
     0
  9
$DIMDSEP
 70
    44
  9
$DIMATFIT
 70
     3
  9
$DIMFRAC
 70
     0
  9
$DIMLDRBLK
  1

  9
$DIMLUNIT
 70
     2
  9
$DIMLWD
 70
    -2
  9
$DIMLWE
 70
    -2
  9
$DIMTMOVE
 70
     0
  9
$LUNITS
 70
     2
  9
$LUPREC
 70
     2
  9
$SKETCHINC
 40
1.0
  9
$FILLETRAD
 40
0.0
  9
$AUNITS
 70
     0
  9
$AUPREC
 70
     2
  9
$MENU
  1
.
  9
$ELEVATION
 40
0.0
  9
$PELEVATION
 40
0.0
  9
$THICKNESS
 40
0.0
  9
$LIMCHECK
 70
     0
  9
$CHAMFERA
 40
0.0
  9
$CHAMFERB
 40
0.0
  9
$CHAMFERC
 40
0.0
  9
$CHAMFERD
 40
0.0
  9
$SKPOLY
 70
     0
  9
$TDCREATE
 40
2460406.678907732
  9
$TDUCREATE
 40
2460406.303907732
  9
$TDUPDATE
 40
2460406.678908322
  9
$TDUUPDATE
 40
2460406.303908322
  9
$TDINDWG
 40
0.0000000116
  9
$TDUSRTIMER
 40
0.0000000116
  9
$USRTIMER
 70
     1
  9
$ANGBASE
 50
0.0
  9
$ANGDIR
 70
     0
  9
$PDMODE
 70
     0
  9
$PDSIZE
 40
-1.0
  9
$PLINEWID
 40
0.0
  9
$SPLFRAME
 70
     0
  9
$SPLINETYPE
 70
     6
  9
$SPLINESEGS
 70
     8
  9
$HANDSEED
  5
13A
  9
$SURFTAB1
 70
     6
  9
$SURFTAB2
 70
     6
  9
$SURFTYPE
 70
     6
  9
$SURFU
 70
     6
  9
$SURFV
 70
     6
  9
$UCSBASE
  2

  9
$UCSNAME
  2

  9
$UCSORG
 10
0.0
 20
0.0
 30
0.0
  9
$UCSXDIR
 10
1.0
 20
0.0
 30
0.0
  9
$UCSYDIR
 10
0.0
 20
1.0
 30
0.0
  9
$UCSORTHOREF
  2

  9
$UCSORTHOVIEW
 70
     0
  9
$UCSORGTOP
 10
0.0
 20
0.0
 30
0.0
  9
$UCSORGBOTTOM
 10
0.0
 20
0.0
 30
0.0
  9
$UCSORGLEFT
 10
0.0
 20
0.0
 30
0.0
  9
$UCSORGRIGHT
 10
0.0
 20
0.0
 30
0.0
  9
$UCSORGFRONT
 10
0.0
 20
0.0
 30
0.0
  9
$UCSORGBACK
 10
0.0
 20
0.0
 30
0.0
  9
$PUCSBASE
  2

  9
$PUCSNAME
  2

  9
$PUCSORG
 10
0.0
 20
0.0
 30
0.0
  9
$PUCSXDIR
 10
1.0
 20
0.0
 30
0.0
  9
$PUCSYDIR
 10
0.0
 20
1.0
 30
0.0
  9
$PUCSORTHOREF
  2

  9
$PUCSORTHOVIEW
 70
     0
  9
$PUCSORGTOP
 10
0.0
 20
0.0
 30
0.0
  9
$PUCSORGBOTTOM
 10
0.0
 20
0.0
 30
0.0
  9
$PUCSORGLEFT
 10
0.0
 20
0.0
 30
0.0
  9
$PUCSORGRIGHT
 10
0.0
 20
0.0
 30
0.0
  9
$PUCSORGFRONT
 10
0.0
 20
0.0
 30
0.0
  9
$PUCSORGBACK
 10
0.0
 20
0.0
 30
0.0
  9
$USERI1
 70
     0
  9
$USERI2
 70
     0
  9
$USERI3
 70
     0
  9
$USERI4
 70
     0
  9
$USERI5
 70
     0
  9
$USERR1
 40
0.0
  9
$USERR2
 40
0.0
  9
$USERR3
 40
0.0
  9
$USERR4
 40
0.0
  9
$USERR5
 40
0.0
  9
$WORLDVIEW
 70
     1
  9
$SHADEDGE
 70
     3
  9
$SHADEDIF
 70
    70
  9
$TILEMODE
 70
     1
  9
$MAXACTVP
 70
    64
  9
$PINSBASE
 10
0.0
 20
0.0
 30
0.0
  9
$PLIMCHECK
 70
     0
  9
$PEXTMIN
 10
1.0000000000E+20
 20
1.0000000000E+20
 30
1.0000000000E+20
  9
$PEXTMAX
 10
-1.0000000000E+20
 20
-1.0000000000E+20
 30
-1.0000000000E+20
  9
$PLIMMIN
 10
0.0
 20
0.0
  9
$PLIMMAX
 10
420.0
 20
297.0
  9
$UNITMODE
 70
     0
  9
$VISRETAIN
 70
     1
  9
$PLINEGEN
 70
     0
  9
$PSLTSCALE
 70
     1
  9
$TREEDEPTH
 70
  3020
  9
$CMLSTYLE
  2
Standard
  9
$CMLJUST
 70
     0
  9
$CMLSCALE
 40
20.0
  9
$PROXYGRAPHICS
 70
     1
  9
$MEASUREMENT
 70
     1
  9
$CELWEIGHT
370
    -1
  9
$ENDCAPS
280
     0
  9
$JOINSTYLE
280
     0
  9
$LWDISPLAY
290
     1
  9
$INSUNITS
 70
     4
  9
$HYPERLINKBASE
  1

  9
$STYLESHEET
  1

  9
$XEDIT
290
     1
  9
$CEPSNTYPE
380
     0
  9
$PSTYLEMODE
290
     1
  9
$FINGERPRINTGUID
  2
{409162e9-5533-42a4-95b5-5cfae10bc0de}
  9
$VERSIONGUID
  2
{FAEB1C32-E019-11D5-929B-00C0DF256EC4}
  9
$EXTNAMES
290
     1
  9
$PSVPSCALE
 40
0.0
  9
$OLESTARTUP
290
     0
  0
ENDSEC
  0
SECTION
  2
CLASSES
  0
CLASS
  1
ACDBDICTIONARYWDFLT
  2
AcDbDictionaryWithDefault
  3
ObjectDBX Classes
 90
        0
280
     0
281
     0
  0
CLASS
  1
VISUALSTYLE
  2
AcDbVisualStyle
  3
ObjectDBX Classes
 90
     4095
280
     0
281
     0
  0
CLASS
  1
MATERIAL
  2
AcDbMaterial
  3
ObjectDBX Classes
 90
     1153
280
     0
281
     0
  0
CLASS
  1
SCALE
  2
AcDbScale
  3
ObjectDBX Classes
 90
     1153
280
     0
281
     0
  0
CLASS
  1
TABLESTYLE
  2
AcDbTableStyle
  3
ObjectDBX Classes
 90
     4095
280
     0
281
     0
  0
CLASS
  1
MLEADERSTYLE
  2
AcDbMLeaderStyle
  3
ACDB_MLEADERSTYLE_CLASS
 90
     4095
280
     0
281
     0
  0
CLASS
  1
SUN
  2
AcDbSun
  3
SCENEOE
 90
     1153
280
     0
281
     0
  0
CLASS
  1
ACDBPLACEHOLDER
  2
AcDbPlaceHolder
  3
ObjectDBX Classes
 90
        0
280
     0
281
     0
  0
CLASS
  1
LAYOUT
  2
AcDbLayout
  3
ObjectDBX Classes
 90
        0
280
     0
281
     0
  0
ENDSEC
  0
SECTION
  2
TABLES
  0
TABLE
  2
VPORT
  5
8
330
0
100
AcDbSymbolTable
 70
     1
  0
VPORT
  5
29
330
8
100
AcDbSymbolTableRecord
100
AcDbViewportTableRecord
  2
*Active
 70
     0
 10
0.0
 20
0.0
 11
1.0
 21
1.0
 12
74.25
 22
52.5
 13
0.0
 23
0.0
 14
10.0
 24
10.0
 15
10.0
 25
10.0
 16
0.0
 26
0.0
 36
1.0
 17
0.0
 27
0.0
 37
0.0
 40
105.0
 41
1.4142857143
 42
50.0
 43
0.0
 44
0.0
 50
0.0
 51
0.0
 71
     0
 72
  2000
 73
     1
 74
     3
 75
     0
 76
     0
 77
     0
 78
     0
281
     0
 65
     1
110
0.0
120
0.0
130
0.0
111
1.0
121
0.0
131
0.0
112
0.0
122
1.0
132
0.0
 79
     0
146
0.0
  0
ENDTAB
  0
TABLE
  2
LTYPE
  5
5
330
0
100
AcDbSymbolTable
 70
     6
  0
LTYPE
  5
14
330
5
100
AcDbSymbolTableRecord
100
AcDbLinetypeTableRecord
  2
ByBlock
 70
     0
  3

 72
    65
 73
     0
 40
0.0
  0
LTYPE
  5
15
330
5
100
AcDbSymbolTableRecord
100
AcDbLinetypeTableRecord
  2
ByLayer
 70
     0
  3

 72
    65
 73
     0
 40
0.0
  0
LTYPE
  5
16
330
5
100
AcDbSymbolTableRecord
100
AcDbLinetypeTableRecord
  2
Continuous
 70
     0
  3
Solid line
 72
    65
 73
     0
 40
0.0
  0
LTYPE
  5
5E
330
5
100
AcDbSymbolTableRecord
100
AcDbLinetypeTableRecord
  2
HIDDEN
 70
     0
  3
Hidden __ __ __ __ __ __ __ __ __ __ __ __ __ __
 72
    65
 73
     2
 40
1.905
 49
1.27
 74
     0
 49
-0.635
 74
     0
  0
LTYPE
  5
5F
330
5
100
AcDbSymbolTableRecord
100
AcDbLinetypeTableRecord
  2
PHANTOM
 70
     0
  3
Phantom ______  __  __  ______  __  __  ______
 72
    65
 73
     6
 40
12.7
 49
6.35
 74
     0
 49
-1.27
 74
     0
 49
1.27
 74
     0
 49
-1.27
 74
     0
 49
1.27
 74
     0
 49
-1.27
 74
     0
  0
LTYPE
  5
60
330
5
100
AcDbSymbolTableRecord
100
AcDbLinetypeTableRecord
  2
CENTER
 70
     0
  3
Center ____ _ ____ _ ____ _ ____ _ ____ _ ____
 72
    65
 73
     4
 40
10.16
 49
6.35
 74
     0
 49
-1.27
 74
     0
 49
1.27
 74
     0
 49
-1.27
 74
     0
  0
LTYPE
  5
61
330
5
100
AcDbSymbolTableRecord
100
AcDbLinetypeTableRecord
  2
CENTERX2
 70
     0
  3
Center (2x) ________  __  ________  __  _____
 72
    65
 73
     4
 40
20.32
 49
12.7
 74
     0
 49
-2.54
 74
     0
 49
2.54
 74
     0
 49
-2.54
 74
     0
  0
LTYPE
  5
62
330
5
100
AcDbSymbolTableRecord
100
AcDbLinetypeTableRecord
  2
DOT2
 70
     0
  3
Dot (.5x) ........................................
 72
    65
 73
     2
 40
0.635
 49
0.0
 74
     0
 49
-0.635
 74
     0
  0
ENDTAB
  0
TABLE
  2
LAYER
  5
2
330
0
100
AcDbSymbolTable
 70
     2
  0
LAYER
  5
10
330
2
100
AcDbSymbolTableRecord
100
AcDbLayerTableRecord
  2
0
 70
     0
 62
     7
  6
Continuous
370
    -3
390
F
  0
LAYER
  5
63
330
2
100
AcDbSymbolTableRecord
100
AcDbLayerTableRecord
  2
FORMAT
 70
     0
 62
     7
  6
Continuous
370
    -3
390
F
  0
ENDTAB
  0
TABLE
  2
STYLE
  5
3
330
0
100
AcDbSymbolTable
 70
     2
  0
STYLE
  5
11
330
3
100
AcDbSymbolTableRecord
100
AcDbTextStyleTableRecord
  2
Standard
 70
     0
 40
0.0
 41
1.0
 50
0.0
 71
     0
 42
1.7638888889
  3
txt
  4
bigfont
  0
STYLE
  5
64
330
3
100
AcDbSymbolTableRecord
100
AcDbTextStyleTableRecord
  2
SLDTEXTSTYLE0
 70
     0
 40
0.0
 41
0.7
 50
0.0
 71
     0
 42
1.7638888889
  3
TXT
  4
bigfont
  0
ENDTAB
  0
TABLE
  2
VIEW
  5
6
330
0
100
AcDbSymbolTable
 70
     0
  0
ENDTAB
  0
TABLE
  2
UCS
  5
7
330
0
100
AcDbSymbolTable
 70
     0
  0
ENDTAB
  0
TABLE
  2
APPID
  5
9
330
0
100
AcDbSymbolTable
 70
     1
  0
APPID
  5
12
330
9
100
AcDbSymbolTableRecord
100
AcDbRegAppTableRecord
  2
ACAD
 70
     0
  0
ENDTAB
  0
TABLE
  2
DIMSTYLE
  5
A
330
0
100
AcDbSymbolTable
 70
     1
100
AcDbDimStyleTable
  0
DIMSTYLE
105
27
330
A
100
AcDbSymbolTableRecord
100
AcDbDimStyleTableRecord
  2
ISO-25
 70
     0
 41
2.5
 42
0.625
 43
3.75
 44
1.25
 73
     0
 74
     0
 77
     1
 78
     8
140
2.5
141
2.5
143
0.0393700787
147
0.625
171
     3
172
     1
178
     0
271
     2
272
     2
274
     3
278
    44
283
     0
284
     8
340
11
  0
ENDTAB
  0
TABLE
  2
BLOCK_RECORD
  5
1
330
0
100
AcDbSymbolTable
 70
     2
  0
BLOCK_RECORD
  5
1F
330
1
100
AcDbSymbolTableRecord
100
AcDbBlockTableRecord
  2
*Model_Space
340
22
  0
BLOCK_RECORD
  5
1B
330
1
100
AcDbSymbolTableRecord
100
AcDbBlockTableRecord
  2
*Paper_Space
340
1E
  0
BLOCK_RECORD
  5
23
330
1
100
AcDbSymbolTableRecord
100
AcDbBlockTableRecord
  2
*Paper_Space0
340
26
  0
BLOCK_RECORD
  5
110
330
1
100
AcDbSymbolTableRecord
100
AcDbBlockTableRecord
  2
SW_CENTERMARKSYMBOL_0
340
0
102
{BLKREFS
331
11B
102
}
  0
ENDTAB
  0
ENDSEC
  0
SECTION
  2
BLOCKS
  0
BLOCK
  5
20
330
1F
100
AcDbEntity
  8
0
100
AcDbBlockBegin
  2
*Model_Space
 70
     0
 10
0.0
 20
0.0
 30
0.0
  3
*Model_Space
  1

  0
ENDBLK
  5
21
330
1F
100
AcDbEntity
  8
0
100
AcDbBlockEnd
  0
BLOCK
  5
1C
330
1B
100
AcDbEntity
 67
     1
  8
0
100
AcDbBlockBegin
  2
*Paper_Space
 70
     0
 10
0.0
 20
0.0
 30
0.0
  3
*Paper_Space
  1

  0
ENDBLK
  5
1D
330
1B
100
AcDbEntity
 67
     1
  8
0
100
AcDbBlockEnd
  0
BLOCK
  5
24
330
23
100
AcDbEntity
  8
0
100
AcDbBlockBegin
  2
*Paper_Space0
 70
     0
 10
0.0
 20
0.0
 30
0.0
  3
*Paper_Space0
  1

  0
ENDBLK
  5
25
330
23
100
AcDbEntity
  8
0
100
AcDbBlockEnd
  0
BLOCK
  5
111
330
110
100
AcDbEntity
  8
0
100
AcDbBlockBegin
  2
SW_CENTERMARKSYMBOL_0
 70
     0
 10
0.0
 20
0.0
 30
0.0
  3
SW_CENTERMARKSYMBOL_0
  1

  0
LINE
  5
113
330
110
100
AcDbEntity
  8
FORMAT
 62
     0
100
AcDbLine
 10
0.0
 20
0.0
 30
0.0
 11
0.0
 21
2.5
 31
0.0
  0
LINE
  5
114
330
110
100
AcDbEntity
  8
FORMAT
 62
     0
100
AcDbLine
 10
0.0
 20
0.0
 30
0.0
 11
-2.5
 21
0.0
 31
0.0
  0
LINE
  5
115
330
110
100
AcDbEntity
  8
FORMAT
 62
     0
100
AcDbLine
 10
0.0
 20
0.0
 30
0.0
 11
0.0
 21
-2.5
 31
0.0
  0
LINE
  5
116
330
110
100
AcDbEntity
  8
FORMAT
 62
     0
100
AcDbLine
 10
0.0
 20
0.0
 30
0.0
 11
2.5
 21
0.0
 31
0.0
  0
LINE
  5
117
330
110
100
AcDbEntity
  8
FORMAT
 62
     0
100
AcDbLine
 10
0.0
 20
5.0
 30
0.0
 11
0.0
 21
10.828533271
 31
0.0
  0
LINE
  5
118
330
110
100
AcDbEntity
  8
FORMAT
 62
     0
100
AcDbLine
 10
-5.0
 20
0.0
 30
0.0
 11
-9.2656875
 21
0.0
 31
0.0
  0
LINE
  5
119
330
110
100
AcDbEntity
  8
FORMAT
 62
     0
100
AcDbLine
 10
0.0
 20
-5.0
 30
0.0
 11
0.0
 21
-10.6669534481
 31
0.0
  0
LINE
  5
11A
330
110
100
AcDbEntity
  8
FORMAT
 62
     0
100
AcDbLine
 10
5.0
 20
0.0
 30
0.0
 11
9.2656875
 21
0.0
 31
0.0
  0
ENDBLK
  5
112
330
110
100
AcDbEntity
  8
0
100
AcDbBlockEnd
  0
ENDSEC
  0
SECTION
  2
ENTITIES
  0
MTEXT
  5
65
330
1F
100
AcDbEntity
  8
FORMAT
100
AcDbMText
 10
67.4598985952
 20
49.9432821917
 30
0.0
 40
2.1166666667
 41
0.0
 71
     1
 72
     1
  1
5R-NB1321
  7
SLDTEXTSTYLE0
 73
     1
 44
1.0
  0
LINE
  5
66
330
1F
100
AcDbEntity
  8
0
  6
Continuous
 62
     7
370
    25
100
AcDbLine
 10
53.6717717495
 20
41.414377209
 30
0.0
 11
52.7682448037
 21
39.8494226328
 31
0.0
  0
LINE
  5
67
330
1F
100
AcDbEntity
  8
0
  6
Continuous
 62
     7
370
    25
100
AcDbLine
 10
52.7682448037
 20
23.3494226328
 30
0.0
 11
53.6717717495
 21
21.7844680566
 31
0.0
  0
LINE
  5
68
330
1F
100
AcDbEntity
  8
0
  6
Continuous
 62
     7
370
    25
100
AcDbLine
 10
56.8647178578
 20
21.7844680566
 30
0.0
 11
57.7682448037
 21
23.3494226328
 31
0.0
  0
LINE
  5
69
330
1F
100
AcDbEntity
  8
0
  6
Continuous
 62
     7
370
    25
100
AcDbLine
 10
57.7682448037
 20
39.8494226328
 30
0.0
 11
56.8647178578
 21
41.414377209
 31
0.0
  0
LINE
  5
6A
330
1F
100
AcDbEntity
  8
0
  6
Continuous
 62
     7
370
    25
100
AcDbLine
 10
52.7682448037
 20
38.3651101328
 30
0.0
 11
42.8570324575
 21
38.055384747
 31
0.0
  0
LINE
  5
6B
330
1F
100
AcDbEntity
  8
0
  6
Continuous
 62
     7
370
    25
100
AcDbLine
 10
42.8570324575
 20
25.1434605186
 30
0.0
 11
52.7682448037
 21
24.8337351328
 31
0.0
  0
LINE
  5
6C
330
1F
100
AcDbEntity
  8
0
  6
Continuous
 62
     7
370
    25
100
AcDbLine
 10
42.8570324575
 20
38.055384747
 30
0.0
 11
40.7682448037
 21
36.8494226328
 31
0.0
  0
LINE
  5
6D
330
1F
100
AcDbEntity
  8
0
  6
Continuous
 62
     7
370
    25
100
AcDbLine
 10
40.7682448037
 20
26.3494226328
 30
0.0
 11
42.8570324575
 21
25.1434605186
 31
0.0
  0
SPLINE
  5
6E
330
1F
100
AcDbEntity
  8
0
  6
Continuous
 62
     7
370
    25
100
AcDbSpline
210
0.0
220
0.0
230
1.0
 70
     8
 71
     3
 72
    16
 73
    12
 74
     0
 42
0.00000001
 43
0.00000001
 40
0.0
 40
0.0
 40
0.0
 40
0.0
 40
0.2500000000000001
 40
0.2500000000000001
 40
0.5
 40
0.5
 40
0.625
 40
0.625
 40
0.75
 40
0.75
 40
1.0
 40
1.0
 40
1.0
 40
1.0
 10
53.67177174954697
 20
21.78446805657079
 30
0.0
 10
53.44045699586434
 20
22.18511696248938
 30
0.0
 10
53.2498117025339
 20
22.58868695217423
 30
0.0
 10
52.9857060461266
 20
23.40424373851531
 30
0.0
 10
52.91311685481264
 20
23.81629310707863
 30
0.0
 10
52.91231960872168
 20
24.44213047512823
 30
0.0
 10
52.93006486534514
 20
24.65172445859135
 30
0.0
 10
52.99926194887493
 20
25.06632347596758
 30
0.0
 10
53.05064355493721
 20
25.27223298798975
 30
0.0
 10
53.24905155367382
 20
25.88629558604292
 30
0.0
 10
53.44016865537778
 20
26.2907970183911
 30
0.0
 10
53.67177174954718
 20
26.69194534468265
 30
0.0
  0
LINE
  5
6F
330
1F
100
AcDbEntity
  8
0
  6
Continuous
 62
     7
370
    25
100
AcDbLine
 10
53.6717717495
 20
26.6919453447
 30
0.0
 11
56.8647178578
 21
26.6919453447
 31
0.0
  0
SPLINE
  5
70
330
1F
100
AcDbEntity
  8
0
  6
Continuous
 62
     7
370
    25
100
AcDbSpline
210
0.0
220
0.0
230
1.0
 70
     8
 71
     3
 72
    16
 73
    12
 74
     0
 42
0.00000001
 43
0.00000001
 40
0.0
 40
0.0
 40
0.0
 40
0.0
 40
0.2500000000000001
 40
0.2500000000000001
 40
0.5
 40
0.5
 40
0.625
 40
0.625
 40
0.75
 40
0.75
 40
1.0
 40
1.0
 40
1.0
 40
1.0
 10
56.86471785784329
 20
21.78446805657079
 30
0.0
 10
57.09603261152592
 20
22.18511696248938
 30
0.0
 10
57.28667790485635
 20
22.58868695217423
 30
0.0
 10
57.55078356126367
 20
23.40424373851531
 30
0.0
 10
57.62337275257762
 20
23.81629310707863
 30
0.0
 10
57.62416999866858
 20
24.44213047512823
 30
0.0
 10
57.60642474204513
 20
24.65172445859135
 30
0.0
 10
57.53722765851534
 20
25.06632347596758
 30
0.0
 10
57.48584605245306
 20
25.27223298798975
 30
0.0
 10
57.28743805371644
 20
25.88629558604292
 30
0.0
 10
57.09632095201249
 20
26.2907970183911
 30
0.0
 10
56.86471785784309
 20
26.69194534468265
 30
0.0
  0
LINE
  5
71
330
1F
100
AcDbEntity
  8
0
  6
Continuous
 62
     7
370
    25
100
AcDbLine
 10
53.6717717495
 20
21.7844680566
 30
0.0
 11
56.8647178578
 21
21.7844680566
 31
0.0
  0
SPLINE
  5
72
330
1F
100
AcDbEntity
  8
0
  6
Continuous
 62
     7
370
    25
100
AcDbSpline
210
0.0
220
0.0
230
1.0
 70
     8
 71
     3
 72
    14
 73
    10
 74
     0
 42
0.00000001
 43
0.00000001
 40
0.0
 40
0.0
 40
0.0
 40
0.0
 40
0.2500000000000001
 40
0.2500000000000001
 40
0.5000000000000001
 40
0.5000000000000001
 40
0.7500000000000002
 40
0.7500000000000002
 40
1.0
 40
1.0
 40
1.0
 40
1.0
 10
53.67177174954738
 20
26.69194534468263
 30
0.0
 10
53.44115883789978
 20
27.49081190439272
 30
0.0
 10
53.25043998534335
 20
28.29706029873581
 30
0.0
 10
52.98567288353875
 20
29.93114534190837
 30
0.0
 10
52.91251084476166
 20
30.75999070203282
 30
0.0
 10
52.91265400395452
 20
32.44136162663747
 30
0.0
 10
52.98581267127098
 20
33.26876501196829
 30
0.0
 10
53.25051693831725
 20
34.90205738935217
 30
0.0
 10
53.44118002625082
 20
35.70810675979725
 30
0.0
 10
53.67177174954738
 20
36.50689992090628
 30
0.0
  0
LINE
  5
73
330
1F
100
AcDbEntity
  8
0
  6
Continuous
 62
     7
370
    25
100
AcDbLine
 10
53.6717717495
 20
36.5068999209
 30
0.0
 11
56.8647178578
 21
36.5068999209
 31
0.0
  0
SPLINE
  5
74
330
1F
100
AcDbEntity
  8
0
  6
Continuous
 62
     7
370
    25
100
AcDbSpline
210
0.0
220
0.0
230
1.0
 70
     8
 71
     3
 72
    14
 73
    10
 74
     0
 42
0.00000001
 43
0.00000001
 40
0.0
 40
0.0
 40
0.0
 40
0.0
 40
0.2500000000000001
 40
0.2500000000000001
 40
0.5000000000000001
 40
0.5000000000000001
 40
0.7500000000000002
 40
0.7500000000000002
 40
1.0
 40
1.0
 40
1.0
 40
1.0
 10
56.86471785784288
 20
26.69194534468263
 30
0.0
 10
57.09533076949049
 20
27.49081190439272
 30
0.0
 10
57.28604962204692
 20
28.29706029873581
 30
0.0
 10
57.55081672385152
 20
29.93114534190837
 30
0.0
 10
57.62397876262861
 20
30.75999070203282
 30
0.0
 10
57.62383560343575
 20
32.44136162663747
 30
0.0
 10
57.55067693611929
 20
33.26876501196829
 30
0.0
 10
57.28597266907302
 20
34.90205738935217
 30
0.0
 10
57.09530958113945
 20
35.70810675979725
 30
0.0
 10
56.86471785784288
 20
36.50689992090628
 30
0.0
  0
LINE
  5
75
330
1F
100
AcDbEntity
  8
0
  6
Continuous
 62
     7
370
    25
100
AcDbLine
 10
54.7960440315
 20
28.7026343139
 30
0.0
 11
55.9844610199
 21
28.7026343139
 31
0.0
  0
LINE
  5
76
330
1F
100
AcDbEntity
  8
0
  6
Continuous
 62
     7
370
    25
100
AcDbLine
 10
54.7960440315
 20
28.5381555494
 30
0.0
 11
54.7960440315
 21
28.7026343139
 31
0.0
  0
LINE
  5
77
330
1F
100
AcDbEntity
  8
0
  6
Continuous
 62
     7
370
    25
100
AcDbLine
 10
55.3108445463
 20
28.5381555494
 30
0.0
 11
54.7960440315
 21
28.5381555494
 31
0.0
  0
LINE
  5
78
330
1F
100
AcDbEntity
  8
0
  6
Continuous
 62
     7
370
    25
100
AcDbLine
 10
55.3108445463
 20
28.176765588
 30
0.0
 11
55.3108445463
 21
28.5381555494
 31
0.0
  0
LINE
  5
79
330
1F
100
AcDbEntity
  8
0
  6
Continuous
 62
     7
370
    25
100
AcDbLine
 10
54.7960440315
 20
27.9265725378
 30
0.0
 11
55.3108445463
 21
28.176765588
 31
0.0
  0
LINE
  5
7A
330
1F
100
AcDbEntity
  8
0
  6
Continuous
 62
     7
370
    25
100
AcDbLine
 10
54.7960440315
 20
27.7528273641
 30
0.0
 11
54.7960440315
 21
27.9265725378
 31
0.0
  0
LINE
  5
7B
330
1F
100
AcDbEntity
  8
0
  6
Continuous
 62
     7
370
    25
100
AcDbLine
 10
55.3311791666
 20
28.0238698351
 30
0.0
 11
54.7960440315
 21
27.7528273641
 31
0.0
  0
SPLINE
  5
7C
330
1F
100
AcDbEntity
  8
0
  6
Continuous
 62
     7
370
    25
100
AcDbSpline
210
0.0
220
0.0
230
1.0
 70
     8
 71
     3
 72
    11
 73
     7
 74
     0
 42
0.00000001
 43
0.00000001
 40
0.0
 40
0.0
 40
0.0
 40
0.0
 40
0.2256209836966685
 40
0.46297079842823
 40
0.7196090303667889
 40
1.0
 40
1.0
 40
1.0
 40
1.0
 10
55.39372742917776
 20
27.88487369611871
 30
0.0
 10
55.38597556992794
 20
27.89361574291696
 30
0.0
 10
55.37006887362959
 20
27.9115542888792
 30
0.0
 10
55.35266919386334
 20
27.94467827530032
 30
0.0
 10
55.33866324224147
 20
27.98226088573166
 30
0.0
 10
55.333746349691
 20
28.00959715862122
 30
0.0
 10
55.3311791666295
 20
28.02386983511484
 30
0.0
  0
SPLINE
  5
7D
330
1F
100
AcDbEntity
  8
0
  6
Continuous
 62
     7
370
    25
100
AcDbSpline
210
0.0
220
0.0
230
1.0
 70
     8
 71
     3
 72
    15
 73
    11
 74
     0
 42
0.00000001
 43
0.00000001
 40
0.0
 40
0.0
 40
0.0
 40
0.0
 40
0.1423455204062214
 40
0.2780244263979212
 40
0.4068124412900599
 40
0.5301826523562203
 40
0.6505629722368657
 40
0.7677901753368302
 40
0.883887442145379
 40
1.0
 40
1.0
 40
1.0
 40
1.0
 10
55.64392047937081
 20
27.79452620577121
 30
0.0
 10
55.63094887395521
 20
27.79470858894994
 30
0.0
 10
55.60561317568497
 20
27.79506481356809
 30
0.0
 10
55.56880579528905
 20
27.79971590051299
 30
0.0
 10
55.53406337550747
 20
27.80634715873911
 30
0.0
 10
55.50168321429186
 20
27.81667585140382
 30
0.0
 10
55.47120277731076
 20
27.82910443146895
 30
0.0
 10
55.44289289050505
 20
27.8446291810919
 30
0.0
 10
55.4169763648679
 20
27.86326107481128
 30
0.0
 10
55.40147741461041
 20
27.87766917275788
 30
0.0
 10
55.39372742917776
 20
27.88487369611871
 30
0.0
  0
SPLINE
  5
7E
330
1F
100
AcDbEntity
  8
0
  6
Continuous
 62
     7
370
    25
100
AcDbSpline
210
0.0
220
0.0
230
1.0
 70
     8
 71
     3
 72
    15
 73
    11
 74
     0
 42
0.00000001
 43
0.00000001
 40
0.0
 40
0.0
 40
0.0
 40
0.0
 40
0.1161090580639838
 40
0.2322028255427881
 40
0.3494264952551895
 40
0.4689336287943349
 40
0.5931998205909935
 40
0.7219839536369559
 40
0.8576587700816364
 40
1.0
 40
1.0
 40
1.0
 40
1.0
 10
55.89411352956386
 20
27.88487369611871
 30
0.0
 10
55.88636323295012
 20
27.87766995726049
 30
0.0
 10
55.87086366037144
 20
27.86326342821582
 30
0.0
 10
55.84495181681195
 20
27.84461973075155
 30
0.0
 10
55.81669345428886
 20
27.82917871834558
 30
0.0
 10
55.78628616556099
 20
27.81656042994589
 30
0.0
 10
55.7538443972097
 20
27.80640376230665
 30
0.0
 10
55.719039111457
 20
27.79970409383052
 30
0.0
 10
55.68222671682737
 20
27.79506800217409
 30
0.0
 10
55.65689172374024
 20
27.79470966867456
 30
0.0
 10
55.64392047937081
 20
27.79452620577121
 30
0.0
  0
SPLINE
  5
7F
330
1F
100
AcDbEntity
  8
0
  6
Continuous
 62
     7
370
    25
100
AcDbSpline
210
0.0
220
0.0
230
1.0
 70
     8
 71
     3
 72
    15
 73
    11
 74
     0
 42
0.00000001
 43
0.00000001
 40
0.0
 40
0.0
 40
0.0
 40
0.0
 40
0.1342477572737633
 40
0.2634617725756843
 40
0.3884666271730297
 40
0.5118790511869584
 40
0.632408074152589
 40
0.7535525248235468
 40
0.8755084805282746
 40
1.0
 40
1.0
 40
1.0
 40
1.0
 10
55.98446101991135
 20
28.11421732546233
 30
0.0
 10
55.98427491729578
 20
28.10287432325039
 30
0.0
 10
55.98390969015178
 20
28.080613635029
 30
0.0
 10
55.97923306276549
 20
28.04808718417076
 30
0.0
 10
55.97247792556527
 20
28.01688949788447
 30
0.0
 10
55.96235290281074
 20
27.98736000916755
 30
0.0
 10
55.94962076678556
 20
27.95924915369239
 30
0.0
 10
55.93424721714072
 20
27.93260082981678
 30
0.0
 10
55.91548898642309
 20
27.90777647841475
 30
0.0
 10
55.90128738602598
 20
27.89256014108486
 30
0.0
 10
55.89411352956386
 20
27.88487369611871
 30
0.0
  0
LINE
  5
80
330
1F
100
AcDbEntity
  8
0
  6
Continuous
 62
     7
370
    25
100
AcDbLine
 10
55.9844610199
 20
28.7026343139
 30
0.0
 11
55.9844610199
 21
28.1142173255
 31
0.0
  0
SPLINE
  5
81
330
1F
100
AcDbEntity
  8
0
  6
Continuous
 62
     7
370
    25
100
AcDbSpline
210
0.0
220
0.0
230
1.0
 70
     8
 71
     3
 72
    15
 73
    11
 74
     0
 42
0.00000001
 43
0.00000001
 40
0.0
 40
0.0
 40
0.0
 40
0.0
 40
0.1418032572055069
 40
0.2768956124422257
 40
0.4056005815718937
 40
0.5283792299702855
 40
0.6485398625937331
 40
0.7671999810702814
 40
0.882172805670652
 40
1.0
 40
1.0
 40
1.0
 40
1.0
 10
55.80376603921637
 20
29.4833292945743
 30
0.0
 10
55.80384622058653
 20
29.47542230572758
 30
0.0
 10
55.80400278870798
 20
29.45998252978425
 30
0.0
 10
55.80720156461252
 20
29.43759033686568
 30
0.0
 10
55.81090801320986
 20
29.41634312100362
 30
0.0
 10
55.81742335584296
 20
29.39665251308318
 30
0.0
 10
55.82490711818292
 20
29.37791137269907
 30
0.0
 10
55.83485968966754
 20
29.36085628200523
 30
0.0
 10
55.84594477813837
 20
29.34466154996464
 30
0.0
 10
55.85485484038731
 20
29.33521482001021
 30
0.0
 10
55.85936449481482
 20
29.33043354167855
 30
0.0
  0
LINE
  5
82
330
1F
100
AcDbEntity
  8
0
  6
Continuous
 62
     7
370
    25
100
AcDbLine
 10
55.8037660392
 20
29.5458775571
 30
0.0
 11
55.8037660392
 21
29.4833292946
 31
0.0
  0
LINE
  5
83
330
1F
100
AcDbEntity
  8
0
  6
Continuous
 62
     7
370
    25
100
AcDbLine
 10
55.7216553571
 20
29.5458775571
 30
0.0
 11
55.8037660392
 21
29.5458775571
 31
0.0
  0
LINE
  5
84
330
1F
100
AcDbEntity
  8
0
  6
Continuous
 62
     7
370
    25
100
AcDbLine
 10
55.7216553571
 20
29.3420165533
 30
0.0
 11
55.7216553571
 21
29.5458775571
 31
0.0
  0
LINE
  5
85
330
1F
100
AcDbEntity
  8
0
  6
Continuous
 62
     7
370
    25
100
AcDbLine
 10
54.7960440315
 20
29.3420165533
 30
0.0
 11
55.7216553571
 21
29.3420165533
 31
0.0
  0
LINE
  5
86
330
1F
100
AcDbEntity
  8
0
  6
Continuous
 62
     7
370
    25
100
AcDbLine
 10
54.7960440315
 20
29.1775377888
 30
0.0
 11
54.7960440315
 21
29.3420165533
 31
0.0
  0
LINE
  5
87
330
1F
100
AcDbEntity
  8
0
  6
Continuous
 62
     7
370
    25
100
AcDbLine
 10
55.9983606338
 20
29.1775377888
 30
0.0
 11
54.7960440315
 21
29.1775377888
 31
0.0
  0
LINE
  5
88
330
1F
100
AcDbEntity
  8
0
  6
Continuous
 62
     7
370
    25
100
AcDbLine
 10
55.9983606338
 20
29.2609354722
 30
0.0
 11
55.9983606338
 21
29.1775377888
 31
0.0
  0
SPLINE
  5
89
330
1F
100
AcDbEntity
  8
0
  6
Continuous
 62
     7
370
    25
100
AcDbSpline
210
0.0
220
0.0
230
1.0
 70
     8
 71
     3
 72
    11
 73
     7
 74
     0
 42
0.00000001
 43
0.00000001
 40
0.0
 40
0.0
 40
0.0
 40
0.0
 40
0.2682823389612922
 40
0.519799796734136
 40
0.7604656312619602
 40
1.0
 40
1.0
 40
1.0
 40
1.0
 10
55.85936449481482
 20
29.33043354167855
 30
0.0
 10
55.869785299485
 20
29.32077574925087
 30
0.0
 10
55.88997571593332
 20
29.30206367688618
 30
0.0
 10
55.92452634854577
 20
29.28113641179648
 30
0.0
 10
55.96060014898837
 20
29.26639205639826
 30
0.0
 10
55.98579359278355
 20
29.2627514742275
 30
0.0
 10
55.99836063381097
 20
29.26093547218048
 30
0.0
  0
LINE
  5
8A
330
1F
100
AcDbEntity
  8
0
  6
Continuous
 62
     7
370
    25
100
AcDbLine
 10
55.5744224099
 20
30.3451053564
 30
0.0
 11
55.5744224099
 21
30.5049509162
 31
0.0
  0
SPLINE
  5
8B
330
1F
100
AcDbEntity
  8
0
  6
Continuous
 62
     7
370
    25
100
AcDbSpline
210
0.0
220
0.0
230
1.0
 70
     8
 71
     3
 72
    15
 73
    11
 74
     0
 42
0.00000001
 43
0.00000001
 40
0.0
 40
0.0
 40
0.0
 40
0.0
 40
0.104642462214947
 40
0.2111208971546087
 40
0.3233806047009383
 40
0.4420520864308688
 40
0.5671630372768659
 40
0.7019710430082282
 40
0.8453718683440637
 40
1.0
 40
1.0
 40
1.0
 40
1.0
 10
55.81766565311598
 20
30.26865747990249
 30
0.0
 10
55.81096049324416
 20
30.27485967830237
 30
0.0
 10
55.79743253014257
 20
30.28737289390145
 30
0.0
 10
55.77374013408333
 20
30.3028700667446
 30
0.0
 10
55.74735285729614
 20
30.31595721099917
 30
0.0
 10
55.71819369753026
 20
30.32675548733446
 30
0.0
 10
55.68617519197866
 20
30.33494477368501
 30
0.0
 10
55.65146934457157
 20
30.3407190320782
 30
0.0
 10
55.61388246115897
 20
30.3443895899688
 30
0.0
 10
55.58790200437918
 20
30.34486084981096
 30
0.0
 10
55.57442240987274
 20
30.34510535635036
 30
0.0
  0
SPLINE
  5
8C
330
1F
100
AcDbEntity
  8
0
  6
Continuous
 62
     7
370
    25
100
AcDbSpline
210
0.0
220
0.0
230
1.0
 70
     8
 71
     3
 72
    11
 73
     7
 74
     0
 42
0.00000001
 43
0.00000001
 40
0.0
 40
0.0
 40
0.0
 40
0.0
 40
0.2497828004743458
 40
0.4924940338313423
 40
0.7395338078652263
 40
1.0
 40
1.0
 40
1.0
 40
1.0
 10
55.85936449481482
 20
30.17136018260519
 30
0.0
 10
55.85888985107161
 20
30.18042843621862
 30
0.0
 10
55.85795400116006
 20
30.1983082133426
 30
0.0
 10
55.84983506939033
 20
30.22411912174173
 30
0.0
 10
55.83652119429419
 20
30.24808489852034
 30
0.0
 10
55.82406071699718
 20
30.26168006297786
 30
0.0
 10
55.81766565311598
 20
30.26865747990249
 30
0.0
  0
SPLINE
  5
8D
330
1F
100
AcDbEntity
  8
0
  6
Continuous
 62
     7
370
    25
100
AcDbSpline
210
0.0
220
0.0
230
1.0
 70
     8
 71
     3
 72
    11
 73
     7
 74
     0
 42
0.00000001
 43
0.00000001
 40
0.0
 40
0.0
 40
0.0
 40
0.0
 40
0.2490517621318998
 40
0.4918163964483706
 40
0.7399854914835418
 40
1.0
 40
1.0
 40
1.0
 40
1.0
 10
55.81766565311598
 20
30.06711307835809
 30
0.0
 10
55.82408615545521
 20
30.07425064789425
 30
0.0
 10
55.83676507929354
 20
30.0883456042946
 30
0.0
 10
55.8500559564394
 20
30.11379916310215
 30
0.0
 10
55.85797382303218
 20
30.14179835182889
 30
0.0
 10
55.85889378962251
 20
30.16135429378641
 30
0.0
 10
55.85936449481482
 20
30.17136018260519
 30
0.0
  0
SPLINE
  5
8E
330
1F
100
AcDbEntity
  8
0
  6
Continuous
 62
     7
370
    25
100
AcDbSpline
210
0.0
220
0.0
230
1.0
 70
     8
 71
     3
 72
    15
 73
    11
 74
     0
 42
0.00000001
 43
0.00000001
 40
0.0
 40
0.0
 40
0.0
 40
0.0
 40
0.1322900133483151
 40
0.260789861805266
 40
0.385844164904699
 40
0.5080904451166516
 40
0.6294055086180664
 40
0.7510893117646908
 40
0.8732553966668108
 40
1.0
 40
1.0
 40
1.0
 40
1.0
 10
55.67866951411985
 20
30.01151462275963
 30
0.0
 10
55.68546259051782
 20
30.01160000429116
 30
0.0
 10
55.69885411879891
 20
30.01176832113719
 30
0.0
 10
55.71841068109217
 20
30.01498454049354
 30
0.0
 10
55.73734988971884
 20
30.01872275569849
 30
0.0
 10
55.75514221858557
 20
30.02522210914327
 30
0.0
 10
55.77235649773279
 20
30.03270799272074
 30
0.0
 10
55.78816030377674
 20
30.04281983859753
 30
0.0
 10
55.80374252705909
 20
30.05375930748917
 30
0.0
 10
55.81296804568479
 20
30.06260756910593
 30
0.0
 10
55.81766565311598
 20
30.06711307835809
 30
0.0
  0
SPLINE
  5
8F
330
1F
100
AcDbEntity
  8
0
  6
Continuous
 62
     7
370
    25
100
AcDbSpline
210
0.0
220
0.0
230
1.0
 70
     8
 71
     3
 72
    15
 73
    11
 74
     0
 42
0.00000001
 43
0.00000001
 40
0.0
 40
0.0
 40
0.0
 40
0.0
 40
0.1414377028612573
 40
0.2759868619651538
 40
0.4050827468357284
 40
0.52930925153632
 40
0.6494060973408683
 40
0.7665008015291709
 40
0.8835214776401927
 40
0.9999999999999999
 40
0.9999999999999999
 40
0.9999999999999999
 40
0.9999999999999999
 10
55.41457685002718
 20
30.12966134090635
 30
0.0
 10
55.42488628194824
 20
30.12020701086627
 30
0.0
 10
55.44500303799686
 20
30.10175881192807
 30
0.0
 10
55.47718160973934
 20
30.07783189835099
 30
0.0
 10
55.50958878784497
 20
30.05726069289872
 30
0.0
 10
55.54268490530016
 20
30.04078684725879
 30
0.0
 10
55.57601088163701
 20
30.02776632287397
 30
0.0
 10
55.6098019279944
 20
30.01842745261929
 30
0.0
 10
55.6440538838683
 20
30.01249878031703
 30
0.0
 10
55.66714884516788
 20
30.01184216708955
 30
0.0
 10
55.67866951411985
 20
30.01151462275963
 30
0.0
  0
SPLINE
  5
90
330
1F
100
AcDbEntity
  8
0
  6
Continuous
 62
     7
370
    25
100
AcDbSpline
210
0.0
220
0.0
230
1.0
 70
     8
 71
     3
 72
    15
 73
    11
 74
     0
 42
0.00000001
 43
0.00000001
 40
0.0
 40
0.0
 40
0.0
 40
0.0
 40
0.1476613860734707
 40
0.2888924423695143
 40
0.4241065500574239
 40
0.551995553230679
 40
0.6738679309355681
 40
0.7893162665477796
 40
0.8978915155028954
 40
1.0
 40
1.0
 40
1.0
 40
1.0
 10
55.10183553728587
 20
30.41460342584843
 30
0.0
 10
55.11709178410386
 20
30.40042890192888
 30
0.0
 10
55.14693990162358
 20
30.37269712354432
 30
0.0
 10
55.19103078700151
 20
30.33228085273885
 30
0.0
 10
55.23313282638932
 20
30.29382219466263
 30
0.0
 10
55.27314322516969
 20
30.25712200265932
 30
0.0
 10
55.31115724962813
 20
30.22236877808353
 30
0.0
 10
55.34742749938913
 20
30.18974727075546
 30
0.0
 10
55.38173156652537
 20
30.15910882469526
 30
0.0
 10
55.40385477342555
 20
30.13927423332948
 30
0.0
 10
55.41457685002718
 20
30.12966134090635
 30
0.0
  0
SPLINE
  5
91
330
1F
100
AcDbEntity
  8
0
  6
Continuous
 62
     7
370
    25
100
AcDbSpline
210
0.0
220
0.0
230
1.0
 70
     8
 71
     3
 72
    15
 73
    11
 74
     0
 42
0.00000001
 43
0.00000001
 40
0.0
 40
0.0
 40
0.0
 40
0.0
 40
0.0824284987423309
 40
0.1761528009252873
 40
0.2809817587265286
 40
0.3985256681357577
 40
0.5291842754648532
 40
0.6726050610319606
 40
0.8293989194531023
 40
0.9999999999999999
 40
0.9999999999999999
 40
0.9999999999999999
 40
0.9999999999999999
 10
54.90724094269127
 20
30.53275014399515
 30
0.0
 10
54.91337301865585
 20
30.53125181887866
 30
0.0
 10
54.92647749554345
 20
30.52804984177131
 30
0.0
 10
54.94650041400087
 20
30.52006030967697
 30
0.0
 10
54.96820038220213
 20
30.50936801895913
 30
0.0
 10
54.99163360752237
 20
30.49589765044529
 30
0.0
 10
55.01675281592105
 20
30.47955651388287
 30
0.0
 10
55.04390269317749
 20
30.46084472593442
 30
0.0
 10
55.07240699281774
 20
30.43879990035653
 30
0.0
 10
55.09175404810032
 20
30.42289253767814
 30
0.0
 10
55.10183553728587
 20
30.41460342584843
 30
0.0
  0
LINE
  5
92
330
1F
100
AcDbEntity
  8
0
  6
Continuous
 62
     7
370
    25
100
AcDbLine
 10
54.7896090251
 20
30.532750144
 30
0.0
 11
54.9072409427
 21
30.532750144
 31
0.0
  0
LINE
  5
93
330
1F
100
AcDbEntity
  8
0
  6
Continuous
 62
     7
370
    25
100
AcDbLine
 10
54.7896090251
 20
29.8238698351
 30
0.0
 11
54.7896090251
 21
30.532750144
 31
0.0
  0
LINE
  5
94
330
1F
100
AcDbEntity
  8
0
  6
Continuous
 62
     7
370
    25
100
AcDbLine
 10
54.9211405566
 20
29.8238698351
 30
0.0
 11
54.7896090251
 21
29.8238698351
 31
0.0
  0
LINE
  5
95
330
1F
100
AcDbEntity
  8
0
  6
Continuous
 62
     7
370
    25
100
AcDbLine
 10
54.9211405566
 20
30.3451053564
 30
0.0
 11
54.9211405566
 21
29.8238698351
 31
0.0
  0
SPLINE
  5
96
330
1F
100
AcDbEntity
  8
0
  6
Continuous
 62
     7
370
    25
100
AcDbSpline
210
0.0
220
0.0
230
1.0
 70
     8
 71
     3
 72
    15
 73
    11
 74
     0
 42
0.00000001
 43
0.00000001
 40
0.0
 40
0.0
 40
0.0
 40
0.0
 40
0.1401156952848869
 40
0.273436951589745
 40
0.4007170918852063
 40
0.5244111544238711
 40
0.6451326608364121
 40
0.7627629456192488
 40
0.8809824433211497
 40
1.0
 40
1.0
 40
1.0
 40
1.0
 10
55.99141082686116
 20
30.178309989555
 30
0.0
 10
55.99122920591092
 20
30.16585258694441
 30
0.0
 10
55.99087477110704
 20
30.14154186152826
 30
0.0
 10
55.98621338808955
 20
30.10618934328904
 30
0.0
 10
55.97951694245838
 20
30.07266162824966
 30
0.0
 10
55.96926121529263
 20
30.04121048363765
 30
0.0
 10
55.95684500517117
 20
30.01148210362747
 30
0.0
 10
55.94116416563231
 20
29.98387313811611
 30
0.0
 10
55.92261192366063
 20
29.95827989080384
 30
0.0
 10
55.90826228948857
 20
29.94282179468029
 30
0.0
 10
55.90106333651367
 20
29.93506674631175
 30
0.0
  0
SPLINE
  5
97
330
1F
100
AcDbEntity
  8
0
  6
Continuous
 62
     7
370
    25
100
AcDbSpline
210
0.0
220
0.0
230
1.0
 70
     8
 71
     3
 72
    15
 73
    11
 74
     0
 42
0.00000001
 43
0.00000001
 40
0.0
 40
0.0
 40
0.0
 40
0.0
 40
0.1305450777958564
 40
0.2575006610529011
 40
0.3807062916981834
 40
0.5030034727056814
 40
0.6241056847467483
 40
0.7465907263580781
 40
0.8722950368812799
 40
1.0
 40
1.0
 40
1.0
 40
1.0
 10
55.90106333651367
 20
30.39375400499901
 30
0.0
 10
55.90823418381522
 20
30.38615056941333
 30
0.0
 10
55.92237870731346
 20
30.37115276388406
 30
0.0
 10
55.94095706263317
 20
30.34693278456863
 30
0.0
 10
55.95660619721103
 20
30.321492504885
 30
0.0
 10
55.96906037864854
 20
30.29489075147355
 30
0.0
 10
55.97945746479734
 20
30.26745328733785
 30
0.0
 10
55.98614877109896
 20
30.23861635790809
 30
0.0
 10
55.99083039612983
 20
30.20883668353601
 30
0.0
 10
55.99121633429701
 20
30.18853897066606
 30
0.0
 10
55.99141082686116
 20
30.178309989555
 30
0.0
  0
SPLINE
  5
98
330
1F
100
AcDbEntity
  8
0
  6
Continuous
 62
     7
370
    25
100
AcDbSpline
210
0.0
220
0.0
230
1.0
 70
     8
 71
     3
 72
    15
 73
    11
 74
     0
 42
0.00000001
 43
0.00000001
 40
0.0
 40
0.0
 40
0.0
 40
0.0
 40
0.1476270724396861
 40
0.2864810592714899
 40
0.4181894659268071
 40
0.5428808841137353
 40
0.6619178330920032
 40
0.7770087505932005
 40
0.8893050437597243
 40
1.0
 40
1.0
 40
1.0
 40
1.0
 10
55.57442240987274
 20
30.50495091619592
 30
0.0
 10
55.59185215397441
 20
30.50460203074494
 30
0.0
 10
55.62567583868589
 20
30.50392499318054
 30
0.0
 10
55.67484652902329
 20
30.49878554850404
 30
0.0
 10
55.72073253567619
 20
30.49006409505625
 30
0.0
 10
55.76349000508668
 20
30.47811878859497
 30
0.0
 10
55.80286450107553
 20
30.46227439123085
 30
0.0
 10
55.8391406115904
 20
30.44325746660602
 30
0.0
 10
55.8722020876275
 20
30.42062773486018
 30
0.0
 10
55.89148908792794
 20
30.402668926565
 30
0.0
 10
55.90106333651367
 20
30.39375400499901
 30
0.0
  0
LINE
  5
99
330
1F
100
AcDbEntity
  8
0
  6
Continuous
 62
     7
370
    25
100
AcDbLine
 10
55.6369706724
 20
31.2416304529
 30
0.0
 11
55.6369706724
 21
31.3945262058
 31
0.0
  0
SPLINE
  5
9A
330
1F
100
AcDbEntity
  8
0
  6
Continuous
 62
     7
370
    25
100
AcDbSpline
210
0.0
220
0.0
230
1.0
 70
     8
 71
     3
 72
    15
 73
    11
 74
     0
 42
0.00000001
 43
0.00000001
 40
0.0
 40
0.0
 40
0.0
 40
0.0
 40
0.1017738366845023
 40
0.2081280746103132
 40
0.3195222361320729
 40
0.4377158324105369
 40
0.5640612668215822
 40
0.7002741501736235
 40
0.8452618826189012
 40
1.0
 40
1.0
 40
1.0
 40
1.0
 10
55.81766565311598
 20
31.1790821903272
 30
0.0
 10
55.81280435338508
 20
31.18359989617206
 30
0.0
 10
55.8028629677986
 20
31.19283863030823
 30
0.0
 10
55.78538370907275
 20
31.20428893717592
 30
0.0
 10
55.76591461057971
 20
31.21428591057198
 30
0.0
 10
55.74447651781402
 20
31.22321593321255
 30
0.0
 10
55.72056962766075
 20
31.22991214953893
 30
0.0
 10
55.69465436181149
 20
31.2356989163898
 30
0.0
 10
55.66647636653018
 20
31.23938559640396
 30
0.0
 10
55.6470169156612
 20
31.24086611314942
 30
0.0
 10
55.636970672421
 20
31.24163045287546
 30
0.0
  0
SPLINE
  5
9B
330
1F
100
AcDbEntity
  8
0
  6
Continuous
 62
     7
370
    25
100
AcDbSpline
210
0.0
220
0.0
230
1.0
 70
     8
 71
     3
 72
    11
 73
     7
 74
     0
 42
0.00000001
 43
0.00000001
 40
0.0
 40
0.0
 40
0.0
 40
0.0
 40
0.2450868805219031
 40
0.4875552456976436
 40
0.7346288455311492
 40
1.0
 40
1.0
 40
1.0
 40
1.0
 10
55.86631430176463
 20
31.06788527913029
 30
0.0
 10
55.86570996018056
 20
31.07807767663736
 30
0.0
 10
55.86450773381544
 20
31.09835357578066
 30
0.0
 10
55.85508903068199
 20
31.12768830435188
 30
0.0
 10
55.8395542877304
 20
31.15521127811131
 30
0.0
 10
55.82513350273422
 20
31.17093803762793
 30
0.0
 10
55.81766565311598
 20
31.1790821903272
 30
0.0
  0
SPLINE
  5
9C
330
1F
100
AcDbEntity
  8
0
  6
Continuous
 62
     7
370
    25
100
AcDbSpline
210
0.0
220
0.0
230
1.0
 70
     8
 71
     3
 72
    11
 73
     7
 74
     0
 42
0.00000001
 43
0.00000001
 40
0.0
 40
0.0
 40
0.0
 40
0.0
 40
0.2388203430261982
 40
0.4777994110081057
 40
0.7288233729769942
 40
1.0
 40
1.0
 40
1.0
 40
1.0
 10
55.82461546006579
 20
30.95668836793337
 30
0.0
 10
55.83106133970411
 20
30.96398794224276
 30
0.0
 10
55.84395738304611
 20
30.97859194231008
 30
0.0
 10
55.85714323945572
 20
31.00546295155919
 30
0.0
 10
55.86499084260038
 20
31.03560466930562
 30
0.0
 10
55.86586194293088
 20
31.05685175470609
 30
0.0
 10
55.86631430176463
 20
31.06788527913029
 30
0.0
  0
SPLINE
  5
9D
330
1F
100
AcDbEntity
  8
0
  6
Continuous
 62
     7
370
    25
100
AcDbSpline
210
0.0
220
0.0
230
1.0
 70
     8
 71
     3
 72
    15
 73
    11
 74
     0
 42
0.00000001
 43
0.00000001
 40
0.0
 40
0.0
 40
0.0
 40
0.0
 40
0.1380420997033148
 40
0.2691721599589615
 40
0.3953313456434697
 40
0.5186017941434375
 40
0.639298551522411
 40
0.7600805617867291
 40
0.8784957553092653
 40
1.0
 40
1.0
 40
1.0
 40
1.0
 10
55.67866951411985
 20
30.90108991233492
 30
0.0
 10
55.68606251424445
 20
30.90116941810688
 30
0.0
 10
55.70047833243611
 20
30.90132444864042
 30
0.0
 10
55.72141297851163
 20
30.90453238628395
 30
0.0
 10
55.74144665625104
 20
30.90830829071469
 30
0.0
 10
55.76021445277918
 20
30.91473569208291
 30
0.0
 10
55.77824368226253
 20
30.92229446490693
 30
0.0
 10
55.79475951081295
 20
30.93225127494558
 30
0.0
 10
55.81065534780051
 20
30.94327126467597
 30
0.0
 10
55.81992231742787
 20
30.95217777531219
 30
0.0
 10
55.82461546006579
 20
30.95668836793337
 30
0.0
  0
SPLINE
  5
9E
330
1F
100
AcDbEntity
  8
0
  6
Continuous
 62
     7
370
    25
100
AcDbSpline
210
0.0
220
0.0
230
1.0
 70
     8
 71
     3
 72
    15
 73
    11
 74
     0
 42
0.00000001
 43
0.00000001
 40
0.0
 40
0.0
 40
0.0
 40
0.0
 40
0.1133059292696165
 40
0.2263015370273191
 40
0.3429947497841039
 40
0.4612849748553934
 40
0.5864354642724741
 40
0.7160226876888947
 40
0.8547540019702778
 40
1.0
 40
1.0
 40
1.0
 40
1.0
 10
55.51882395427429
 20
30.95668836793337
 30
0.0
 10
55.52359039436055
 20
30.95215809379393
 30
0.0
 10
55.53311022023925
 20
30.94310995299917
 30
0.0
 10
55.54979108835221
 20
30.93219788804243
 30
0.0
 10
55.56734487398011
 20
30.92223663648729
 30
0.0
 10
55.58680624277889
 20
30.91459461082915
 30
0.0
 10
55.60751410528343
 20
30.90829716811712
 30
0.0
 10
55.63000838441423
 20
30.90446941969732
 30
0.0
 10
55.65378657482292
 20
30.9013391863575
 30
0.0
 10
55.67024931124404
 20
30.90117426482305
 30
0.0
 10
55.67866951411985
 20
30.90108991233492
 30
0.0
  0
SPLINE
  5
9F
330
1F
100
AcDbEntity
  8
0
  6
Continuous
 62
     7
370
    25
100
AcDbSpline
210
0.0
220
0.0
230
1.0
 70
     8
 71
     3
 72
    11
 73
     7
 74
     0
 42
0.00000001
 43
0.00000001
 40
0.0
 40
0.0
 40
0.0
 40
0.0
 40
0.2322932923175284
 40
0.4682186081034738
 40
0.7217939329173704
 40
1.0
 40
1.0
 40
1.0
 40
1.0
 10
55.46322549867583
 20
31.07483508608009
 30
0.0
 10
55.46396038328631
 20
31.06445367971624
 30
0.0
 10
55.46544164280097
 20
31.04352854843353
 30
0.0
 10
55.47648686133142
 20
31.01287542610567
 30
0.0
 10
55.49436730269007
 20
30.98340273599944
 30
0.0
 10
55.51042383798134
 20
30.9658639411992
 30
0.0
 10
55.51882395427429
 20
30.95668836793337
 30
0.0
  0
LINE
  5
A0
330
1F
100
AcDbEntity
  8
0
  6
Continuous
 62
     7
370
    25
100
AcDbLine
 10
55.4632254987
 20
31.1165339278
 30
0.0
 11
55.4632254987
 21
31.0748350861
 31
0.0
  0
LINE
  5
A1
330
1F
100
AcDbEntity
  8
0
  6
Continuous
 62
     7
370
    25
100
AcDbLine
 10
55.3450787805
 20
31.1165339278
 30
0.0
 11
55.4632254987
 21
31.1165339278
 31
0.0
  0
LINE
  5
A2
330
1F
100
AcDbEntity
  8
0
  6
Continuous
 62
     7
370
    25
100
AcDbLine
 10
55.3450787805
 20
31.0609354722
 30
0.0
 11
55.3450787805
 21
31.1165339278
 31
0.0
  0
SPLINE
  5
A3
330
1F
100
AcDbEntity
  8
0
  6
Continuous
 62
     7
370
    25
100
AcDbSpline
210
0.0
220
0.0
230
1.0
 70
     8
 71
     3
 72
    11
 73
     7
 74
     0
 42
0.00000001
 43
0.00000001
 40
0.0
 40
0.0
 40
0.0
 40
0.0
 40
0.2676320905605547
 40
0.5177929452577182
 40
0.7570315487829556
 40
1.0
 40
1.0
 40
1.0
 40
1.0
 10
55.28948032493065
 20
30.93583894708396
 30
0.0
 10
55.29806866588351
 20
30.94503858404829
 30
0.0
 10
55.31468469405691
 20
30.96283729835453
 30
0.0
 10
55.33179787035336
 20
30.99418184703837
 30
0.0
 10
55.34339586475577
 20
31.02683583210443
 30
0.0
 10
55.34451492331714
 20
31.04951046310578
 30
0.0
 10
55.34507878052911
 20
31.06093547218048
 30
0.0
  0
SPLINE
  5
A4
330
1F
100
AcDbEntity
  8
0
  6
Continuous
 62
     7
370
    25
100
AcDbSpline
210
0.0
220
0.0
230
1.0
 70
     8
 71
     3
 72
    15
 73
    11
 74
     0
 42
0.00000001
 43
0.00000001
 40
0.0
 40
0.0
 40
0.0
 40
0.0
 40
0.1417962611116215
 40
0.2768819513476974
 40
0.4055805706087828
 40
0.5298229690785616
 40
0.6485572024501446
 40
0.7672114666371228
 40
0.882178618866556
 40
1.0
 40
1.0
 40
1.0
 40
1.0
 10
55.1365845720349
 20
30.8802404914855
 30
0.0
 10
55.144491193252
 20
30.8803217675095
 30
0.0
 10
55.15993025133431
 20
30.88048047313366
 30
0.0
 10
55.1823275526246
 20
30.88366403835242
 30
0.0
 10
55.20363742827061
 20
30.88743855979922
 30
0.0
 10
55.22339022827358
 20
30.89378181523612
 30
0.0
 10
55.2420564783328
 20
30.90145804082647
 30
0.0
 10
55.25906131177603
 20
30.91132475393731
 30
0.0
 10
55.27525137042882
 20
30.9224216137353
 30
0.0
 10
55.28469872862611
 20
30.9313300935664
 30
0.0
 10
55.28948032493065
 20
30.93583894708396
 30
0.0
  0
SPLINE
  5
A5
330
1F
100
AcDbEntity
  8
0
  6
Continuous
 62
     7
370
    25
100
AcDbSpline
210
0.0
220
0.0
230
1.0
 70
     8
 71
     3
 72
    15
 73
    11
 74
     0
 42
0.00000001
 43
0.00000001
 40
0.0
 40
0.0
 40
0.0
 40
0.0
 40
0.1062344532908169
 40
0.2134351374465925
 40
0.3266362515327412
 40
0.4454478074346338
 40
0.5709125865608569
 40
0.7047818913259152
 40
0.8472638984122981
 40
1.0
 40
1.0
 40
1.0
 40
1.0
 10
54.96283939828972
 20
30.93583894708396
 30
0.0
 10
54.96768821397646
 20
30.93130105988675
 30
0.0
 10
54.97742994662994
 20
30.92218401219036
 30
0.0
 10
54.99470294791264
 20
30.91123519937013
 30
0.0
 10
55.01338265054626
 20
30.90121141320463
 30
0.0
 10
55.03446711909802
 20
30.89378641191313
 30
0.0
 10
55.05719312340977
 20
30.8873423032903
 30
0.0
 10
55.08202000682359
 20
30.88365226299026
 30
0.0
 10
55.1086183125389
 20
30.88045774023098
 30
0.0
 10
55.12704909418124
 20
30.88031456541025
 30
0.0
 10
55.1365845720349
 20
30.8802404914855
 30
0.0
  0
SPLINE
  5
A6
330
1F
100
AcDbEntity
  8
0
  6
Continuous
 62
     7
370
    25
100
AcDbSpline
210
0.0
220
0.0
230
1.0
 70
     8
 71
     3
 72
    15
 73
    11
 74
     0
 42
0.00000001
 43
0.00000001
 40
0.0
 40
0.0
 40
0.0
 40
0.0
 40
0.1380420997033141
 40
0.2691721599589615
 40
0.3953313456434697
 40
0.518601794143437
 40
0.6392985515224101
 40
0.7600805617867291
 40
0.8784957553092647
 40
1.0
 40
1.0
 40
1.0
 40
1.0
 10
54.90724094269127
 20
31.0817848930299
 30
0.0
 10
54.90732044846323
 20
31.07439189290529
 30
0.0
 10
54.90747547899677
 20
31.05997607471365
 30
0.0
 10
54.91068341664031
 20
31.03904142863811
 30
0.0
 10
54.91445932107104
 20
31.01900775089872
 30
0.0
 10
54.92088672243926
 20
31.00023995437056
 30
0.0
 10
54.92844549526328
 20
30.98221072488722
 30
0.0
 10
54.93840230530193
 20
30.96569489633679
 30
0.0
 10
54.94942229503232
 20
30.94979905934924
 30
0.0
 10
54.95832880566854
 20
30.94053208972188
 30
0.0
 10
54.96283939828972
 20
30.93583894708396
 30
0.0
  0
SPLINE
  5
A7
330
1F
100
AcDbEntity
  8
0
  6
Continuous
 62
     7
370
    25
100
AcDbSpline
210
0.0
220
0.0
230
1.0
 70
     8
 71
     3
 72
    11
 73
     7
 74
     0
 42
0.00000001
 43
0.00000001
 40
0.0
 40
0.0
 40
0.0
 40
0.0
 40
0.2550921435312741
 40
0.4983791954134779
 40
0.7437399667914607
 40
1.0
 40
1.0
 40
1.0
 40
1.0
 10
54.95588959133993
 20
31.19993161117662
 30
0.0
 10
54.94839333257058
 20
31.19162896087274
 30
0.0
 10
54.93374772505653
 20
31.17540788827925
 30
0.0
 10
54.91829754338886
 20
31.14646121628173
 30
0.0
 10
54.90896141044836
 20
31.11496631461845
 30
0.0
 10
54.90782267942689
 20
31.09300443015783
 30
0.0
 10
54.90724094269127
 20
31.0817848930299
 30
0.0
  0
SPLINE
  5
A8
330
1F
100
AcDbEntity
  8
0
  6
Continuous
 62
     7
370
    25
100
AcDbSpline
210
0.0
220
0.0
230
1.0
 70
     8
 71
     3
 72
    15
 73
    11
 74
     0
 42
0.00000001
 43
0.00000001
 40
0.0
 40
0.0
 40
0.0
 40
0.0
 40
0.1305521219623389
 40
0.2575145556980032
 40
0.3807268344757818
 40
0.5030306145961515
 40
0.6251462349433744
 40
0.7476378858044691
 40
0.8722881459663864
 40
0.9999999999999999
 40
0.9999999999999999
 40
0.9999999999999999
 40
0.9999999999999999
 10
55.10878534423568
 20
31.26247987372488
 30
0.0
 10
55.10139826003365
 20
31.26226345501251
 30
0.0
 10
55.08682720842917
 20
31.26183656828159
 30
0.0
 10
55.06542722021835
 20
31.25901754272795
 30
0.0
 10
55.04488551858692
 20
31.25411542954765
 30
0.0
 10
55.0252928435814
 20
31.24704632320268
 30
0.0
 10
55.00636716015035
 20
31.23840681191434
 30
0.0
 10
54.98859777427971
 20
31.22735699208675
 30
0.0
 10
54.97139370348207
 20
31.21487056626409
 30
0.0
 10
54.96109925859508
 20
31.20495137525159
 30
0.0
 10
54.95588959133993
 20
31.19993161117662
 30
0.0
  0
LINE
  5
A9
330
1F
100
AcDbEntity
  8
0
  6
Continuous
 62
     7
370
    25
100
AcDbLine
 10
55.1574339929
 20
31.2624798737
 30
0.0
 11
55.1087853442
 21
31.2624798737
 31
0.0
  0
LINE
  5
AA
330
1F
100
AcDbEntity
  8
0
  6
Continuous
 62
     7
370
    25
100
AcDbLine
 10
55.1574339929
 20
31.4269586382
 30
0.0
 11
55.1574339929
 21
31.2624798737
 31
0.0
  0
LINE
  5
AB
330
1F
100
AcDbEntity
  8
0
  6
Continuous
 62
     7
370
    25
100
AcDbLine
 10
55.1018355373
 20
31.4269586382
 30
0.0
 11
55.1574339929
 21
31.4269586382
 31
0.0
  0
SPLINE
  5
AC
330
1F
100
AcDbEntity
  8
0
  6
Continuous
 62
     7
370
    25
100
AcDbSpline
210
0.0
220
0.0
230
1.0
 70
     8
 71
     3
 72
    15
 73
    11
 74
     0
 42
0.00000001
 43
0.00000001
 40
0.0
 40
0.0
 40
0.0
 40
0.0
 40
0.1339120169181254
 40
0.2615284644313488
 40
0.3861887226529778
 40
0.5091929985924206
 40
0.6296768122270384
 40
0.7512559744353481
 40
0.8742965747069024
 40
1.0
 40
1.0
 40
1.0
 40
1.0
 10
54.87249190794224
 20
31.32502813627314
 30
0.0
 10
54.88066829419805
 20
31.33316703206073
 30
0.0
 10
54.89663667247576
 20
31.34906219193121
 30
0.0
 10
54.92268720769971
 20
31.369839134539
 30
0.0
 10
54.94982232251105
 20
31.38747258490665
 30
0.0
 10
54.97811224462176
 20
31.40190302512014
 30
0.0
 10
55.00754537462245
 20
31.413123557003
 30
0.0
 10
55.03801629908142
 20
31.42102308914409
 30
0.0
 10
55.0695721182006
 20
31.42616841556171
 30
0.0
 10
55.09100458548905
 20
31.42669335747437
 30
0.0
 10
55.10183553728587
 20
31.42695863820365
 30
0.0
  0
SPLINE
  5
AD
330
1F
100
AcDbEntity
  8
0
  6
Continuous
 62
     7
370
    25
100
AcDbSpline
210
0.0
220
0.0
230
1.0
 70
     8
 71
     3
 72
    15
 73
    11
 74
     0
 42
0.00000001
 43
0.00000001
 40
0.0
 40
0.0
 40
0.0
 40
0.0
 40
0.1330514903197377
 40
0.2614008608137414
 40
0.3859789426424564
 40
0.5084656149022192
 40
0.6295593452611173
 40
0.7509246542250767
 40
0.8741074588764666
 40
1.0
 40
1.0
 40
1.0
 40
1.0
 10
54.77519461064495
 20
31.0817848930299
 30
0.0
 10
54.77547083396906
 20
31.09372883714893
 30
0.0
 10
54.77601351871861
 20
31.1171946192061
 30
0.0
 10
54.78089409477113
 20
31.15154050314122
 30
0.0
 10
54.78812208369437
 20
31.1844948358031
 30
0.0
 10
54.7991633830873
 20
31.21569384809374
 30
0.0
 10
54.81273003230399
 20
31.24556081927518
 30
0.0
 10
54.82976811273576
 20
31.27364360410007
 30
0.0
 10
54.84910517633828
 20
31.30078293045968
 30
0.0
 10
54.864639995357
 20
31.3168879976731
 30
0.0
 10
54.87249190794224
 20
31.32502813627314
 30
0.0
  0
SPLINE
  5
AE
330
1F
100
AcDbEntity
  8
0
  6
Continuous
 62
     7
370
    25
100
AcDbSpline
210
0.0
220
0.0
230
1.0
 70
     8
 71
     3
 72
    15
 73
    11
 74
     0
 42
0.00000001
 43
0.00000001
 40
0.0
 40
0.0
 40
0.0
 40
0.0
 40
0.1158830802717861
 40
0.2315534497979609
 40
0.3480625771524273
 40
0.4678553783950308
 40
0.5925908197539049
 40
0.7213115030172623
 40
0.8571441704632065
 40
1.0
 40
1.0
 40
1.0
 40
1.0
 10
54.87249190794224
 20
30.81074242198743
 30
0.0
 10
54.86461270470636
 20
30.81903705123535
 30
0.0
 10
54.84886876101202
 20
30.835611084413
 30
0.0
 10
54.82957814952616
 20
30.8641179544197
 30
0.0
 10
54.81249095987381
 20
30.89436460210498
 30
0.0
 10
54.7989827445567
 20
30.92737053858406
 30
0.0
 10
54.78807025330016
 20
30.9625655173211
 30
0.0
 10
54.78081117372852
 20
31.00029672500667
 30
0.0
 10
54.77600111268929
 20
31.04021878222495
 30
0.0
 10
54.77546792358339
 20
31.06769868461456
 30
0.0
 10
54.77519461064495
 20
31.0817848930299
 30
0.0
  0
SPLINE
  5
AF
330
1F
100
AcDbEntity
  8
0
  6
Continuous
 62
     7
370
    25
100
AcDbSpline
210
0.0
220
0.0
230
1.0
 70
     8
 71
     3
 72
    15
 73
    11
 74
     0
 42
0.00000001
 43
0.00000001
 40
0.0
 40
0.0
 40
0.0
 40
0.0
 40
0.1354658418109468
 40
0.2653728839126841
 40
0.3915266279918201
 40
0.5146179992444258
 40
0.63536523897052
 40
0.7554358763572421
 40
0.8764282152102187
 40
1.0
 40
1.0
 40
1.0
 40
1.0
 10
55.12268495813529
 20
30.71344512469013
 30
0.0
 10
55.11022651672795
 20
30.71371787588158
 30
0.0
 10
55.0858208622757
 20
30.71425218600209
 30
0.0
 10
55.05010921634612
 20
30.71915183787249
 30
0.0
 10
55.01595089951038
 20
30.72633544634828
 30
0.0
 10
54.98371207162683
 20
30.73736617163214
 30
0.0
 10
54.95306332269003
 20
30.75092178862235
 30
0.0
 10
54.92443945399607
 20
30.7679452371999
 30
0.0
 10
54.89700533273457
 20
30.7873544731858
 30
0.0
 10
54.88072030290049
 20
30.80289181434555
 30
0.0
 10
54.87249190794224
 20
30.81074242198743
 30
0.0
  0
SPLINE
  5
B0
330
1F
100
AcDbEntity
  8
0
  6
Continuous
 62
     7
370
    25
100
AcDbSpline
210
0.0
220
0.0
230
1.0
 70
     8
 71
     3
 72
    15
 73
    11
 74
     0
 42
0.00000001
 43
0.00000001
 40
0.0
 40
0.0
 40
0.0
 40
0.0
 40
0.1195027114365311
 40
0.2380939422658884
 40
0.3566476293726336
 40
0.4775806195769138
 40
0.6003630199241493
 40
0.7278327340041406
 40
0.8606471500295814
 40
1.0
 40
1.0
 40
1.0
 40
1.0
 10
55.34507878052911
 20
30.79684280808782
 30
0.0
 10
55.33801196774735
 20
30.79015911587337
 30
0.0
 10
55.32393224274161
 20
30.77684270983454
 30
0.0
 10
55.30033742801582
 20
30.75980129336532
 30
0.0
 10
55.27482932057815
 20
30.74566503417759
 30
0.0
 10
55.24784794816856
 20
30.73368424444715
 30
0.0
 10
55.21893937287972
 20
30.724805354179
 30
0.0
 10
55.18850533367805
 20
30.71798270018341
 30
0.0
 10
55.15615855334549
 20
30.71416334047901
 30
0.0
 10
55.13402010485186
 20
30.71368833374163
 30
0.0
 10
55.12268495813529
 20
30.71344512469013
 30
0.0
  0
SPLINE
  5
B1
330
1F
100
AcDbEntity
  8
0
  6
Continuous
 62
     7
370
    25
100
AcDbSpline
210
0.0
220
0.0
230
1.0
 70
     8
 71
     3
 72
    11
 73
     7
 74
     0
 42
0.00000001
 43
0.00000001
 40
0.0
 40
0.0
 40
0.0
 40
0.0
 40
0.2570374775372496
 40
0.5073419159098047
 40
0.7523129875772132
 40
1.0
 40
1.0
 40
1.0
 40
1.0
 10
55.41457685002718
 20
30.91498952623454
 30
0.0
 10
55.41083564478281
 20
30.90371687574226
 30
0.0
 10
55.40345123432767
 20
30.88146685931303
 30
0.0
 10
55.38745096700412
 20
30.85052953486206
 30
0.0
 10
55.36836106404358
 20
30.82191049294735
 30
0.0
 10
55.3528680118933
 20
30.80522935646972
 30
0.0
 10
55.34507878052911
 20
30.79684280808782
 30
0.0
  0
SPLINE
  5
B2
330
1F
100
AcDbEntity
  8
0
  6
Continuous
 62
     7
370
    25
100
AcDbSpline
210
0.0
220
0.0
230
1.0
 70
     8
 71
     3
 72
    11
 73
     7
 74
     0
 42
0.00000001
 43
0.00000001
 40
0.0
 40
0.0
 40
0.0
 40
0.0
 40
0.2731656445547253
 40
0.5274113090719872
 40
0.7672619830757369
 40
1.0
 40
1.0
 40
1.0
 40
1.0
 10
55.47017530562563
 20
30.81074242198743
 30
0.0
 10
55.46269091416769
 20
30.81875960060236
 30
0.0
 10
55.4482405146569
 20
30.83423867255982
 30
0.0
 10
55.43172803620379
 20
30.86033032265341
 30
0.0
 10
55.41976255361452
 20
30.88711963819883
 30
0.0
 10
55.41628798666193
 20
30.90579324541726
 30
0.0
 10
55.41457685002718
 20
30.91498952623454
 30
0.0
  0
SPLINE
  5
B3
330
1F
100
AcDbEntity
  8
0
  6
Continuous
 62
     7
370
    25
100
AcDbSpline
210
0.0
220
0.0
230
1.0
 70
     8
 71
     3
 72
    15
 73
    11
 74
     0
 42
0.00000001
 43
0.00000001
 40
0.0
 40
0.0
 40
0.0
 40
0.0
 40
0.1495888260512937
 40
0.2896239650819628
 40
0.4219290861937189
 40
0.5465682968532926
 40
0.6661289243466405
 40
0.7799971355270187
 40
0.8908038749321942
 40
1.0
 40
1.0
 40
1.0
 40
1.0
 10
55.67866951411985
 20
30.74124435248936
 30
0.0
 10
55.66741873745244
 20
30.74139853621574
 30
0.0
 10
55.64563572975943
 20
30.74169705652212
 30
0.0
 10
55.61408152411616
 20
30.74522862996422
 30
0.0
 10
55.58463477172903
 20
30.75035324018794
 30
0.0
 10
55.5574665642949
 20
30.75838228001514
 30
0.0
 10
55.5320592983571
 20
30.76746463707868
 30
0.0
 10
55.50929733563742
 20
30.77991940610136
 30
0.0
 10
55.48840810917747
 20
30.79396051333751
 30
0.0
 10
55.47622317199291
 20
30.8051758210742
 30
0.0
 10
55.47017530562563
 20
30.81074242198743
 30
0.0
  0
SPLINE
  5
B4
330
1F
100
AcDbEntity
  8
0
  6
Continuous
 62
     7
370
    25
100
AcDbSpline
210
0.0
220
0.0
230
1.0
 70
     8
 71
     3
 72
    15
 73
    11
 74
     0
 42
0.00000001
 43
0.00000001
 40
0.0
 40
0.0
 40
0.0
 40
0.0
 40
0.1195027114365315
 40
0.2380939422658885
 40
0.3566476293726339
 40
0.4775806195769143
 40
0.6003630199241489
 40
0.7278327340041407
 40
0.8606471500295816
 40
0.9999999999999999
 40
0.9999999999999999
 40
0.9999999999999999
 40
0.9999999999999999
 10
55.90106333651367
 20
30.82464203588704
 30
0.0
 10
55.8939965237319
 20
30.8179583436726
 30
0.0
 10
55.87991679872617
 20
30.80464193763377
 30
0.0
 10
55.85632198400037
 20
30.78760052116455
 30
0.0
 10
55.83081387656271
 20
30.77346426197682
 30
0.0
 10
55.80383250415311
 20
30.76148347224637
 30
0.0
 10
55.77492392886428
 20
30.75260458197823
 30
0.0
 10
55.7444898896626
 20
30.74578192798263
 30
0.0
 10
55.71214310933004
 20
30.74196256827824
 30
0.0
 10
55.69000466083641
 20
30.74148756154085
 30
0.0
 10
55.67866951411985
 20
30.74124435248936
 30
0.0
  0
SPLINE
  5
B5
330
1F
100
AcDbEntity
  8
0
  6
Continuous
 62
     7
370
    25
100
AcDbSpline
210
0.0
220
0.0
230
1.0
 70
     8
 71
     3
 72
    15
 73
    11
 74
     0
 42
0.00000001
 43
0.00000001
 40
0.0
 40
0.0
 40
0.0
 40
0.0
 40
0.1401156952848869
 40
0.2734369515897454
 40
0.4007170918852059
 40
0.5244111544238707
 40
0.6451326608364121
 40
0.7627629456192488
 40
0.88098244332115
 40
1.0
 40
1.0
 40
1.0
 40
1.0
 10
55.99141082686116
 20
31.06788527913029
 30
0.0
 10
55.99122920591092
 20
31.0554278765197
 30
0.0
 10
55.99087477110704
 20
31.03111715110354
 30
0.0
 10
55.98621338808955
 20
30.99576463286433
 30
0.0
 10
55.97951694245838
 20
30.96223691782495
 30
0.0
 10
55.96926121529263
 20
30.93078577321293
 30
0.0
 10
55.95684500517117
 20
30.90105739320276
 30
0.0
 10
55.9411641656323
 20
30.8734484276914
 30
0.0
 10
55.92261192366063
 20
30.84785518037913
 30
0.0
 10
55.90826228948857
 20
30.83239708425558
 30
0.0
 10
55.90106333651367
 20
30.82464203588704
 30
0.0
  0
SPLINE
  5
B6
330
1F
100
AcDbEntity
  8
0
  6
Continuous
 62
     7
370
    25
100
AcDbSpline
210
0.0
220
0.0
230
1.0
 70
     8
 71
     3
 72
    15
 73
    11
 74
     0
 42
0.00000001
 43
0.00000001
 40
0.0
 40
0.0
 40
0.0
 40
0.0
 40
0.12705275220769
 40
0.2522753243044989
 40
0.3739697899787143
 40
0.4948832629277704
 40
0.6176556772794565
 40
0.7419399124466165
 40
0.868412816069388
 40
1.0
 40
1.0
 40
1.0
 40
1.0
 10
55.90106333651367
 20
31.29027910152411
 30
0.0
 10
55.90825587826348
 20
31.28269293291951
 30
0.0
 10
55.92253735403617
 20
31.26762987358627
 30
0.0
 10
55.94095644730321
 20
31.24291887055756
 30
0.0
 10
55.95659855724224
 20
31.21697386948393
 30
0.0
 10
55.96923478288881
 20
31.18966845184733
 30
0.0
 10
55.97944046777637
 20
31.16111596667772
 30
0.0
 10
55.98612494124514
 20
31.13109678505211
 30
0.0
 10
55.99087075513945
 20
31.09995371618264
 30
0.0
 10
55.99122844006628
 20
31.07871506194567
 30
0.0
 10
55.99141082686116
 20
31.06788527913029
 30
0.0
  0
SPLINE
  5
B7
330
1F
100
AcDbEntity
  8
0
  6
Continuous
 62
     7
370
    25
100
AcDbSpline
210
0.0
220
0.0
230
1.0
 70
     8
 71
     3
 72
    15
 73
    11
 74
     0
 42
0.00000001
 43
0.00000001
 40
0.0
 40
0.0
 40
0.0
 40
0.0
 40
0.1342207616992958
 40
0.2632543584014017
 40
0.3882486178889515
 40
0.5110181775835608
 40
0.632236982252803
 40
0.7532951172272381
 40
0.8750618099117073
 40
1.0
 40
1.0
 40
1.0
 40
1.0
 10
55.636970672421
 20
31.39452620577121
 30
0.0
 10
55.65002755436268
 20
31.39425907299307
 30
0.0
 10
55.67563671523139
 20
31.39373513118833
 30
0.0
 10
55.71314533038634
 20
31.3887470391639
 30
0.0
 10
55.74887490698855
 20
31.38043406512105
 30
0.0
 10
55.78300868039527
 20
31.36918876703933
 30
0.0
 10
55.81538657969597
 20
31.35444264946068
 30
0.0
 10
55.84581970609823
 20
31.33626048361049
 30
0.0
 10
55.87476255016902
 20
31.31510823689102
 30
0.0
 10
55.8922215932289
 20
31.29862610826452
 30
0.0
 10
55.90106333651367
 20
31.29027910152411
 30
0.0
  0
SPLINE
  5
B8
330
1F
100
AcDbEntity
  8
0
  6
Continuous
 62
     7
370
    25
100
AcDbSpline
210
0.0
220
0.0
230
1.0
 70
     8
 71
     3
 72
    15
 73
    11
 74
     0
 42
0.00000001
 43
0.00000001
 40
0.0
 40
0.0
 40
0.0
 40
0.0
 40
0.1418032572055081
 40
0.276895612442228
 40
0.4056005815718945
 40
0.5283792299702871
 40
0.6485398625937333
 40
0.767199981070281
 40
0.8821728056706526
 40
1.0
 40
1.0
 40
1.0
 40
1.0
 10
55.80376603921637
 20
32.15205516330017
 30
0.0
 10
55.80384622058653
 20
32.14414817445345
 30
0.0
 10
55.80400278870798
 20
32.12870839851012
 30
0.0
 10
55.80720156461252
 20
32.10631620559155
 30
0.0
 10
55.81090801320986
 20
32.08506898972949
 30
0.0
 10
55.81742335584296
 20
32.06537838180904
 30
0.0
 10
55.82490711818292
 20
32.04663724142494
 30
0.0
 10
55.83485968966754
 20
32.0295821507311
 30
0.0
 10
55.84594477813836
 20
32.01338741869051
 30
0.0
 10
55.85485484038731
 20
32.00394068873608
 30
0.0
 10
55.85936449481482
 20
31.99915941040442
 30
0.0
  0
LINE
  5
B9
330
1F
100
AcDbEntity
  8
0
  6
Continuous
 62
     7
370
    25
100
AcDbLine
 10
55.8037660392
 20
32.2146034258
 30
0.0
 11
55.8037660392
 21
32.1520551633
 31
0.0
  0
LINE
  5
BA
330
1F
100
AcDbEntity
  8
0
  6
Continuous
 62
     7
370
    25
100
AcDbLine
 10
55.7216553571
 20
32.2146034258
 30
0.0
 11
55.8037660392
 21
32.2146034258
 31
0.0
  0
LINE
  5
BB
330
1F
100
AcDbEntity
  8
0
  6
Continuous
 62
     7
370
    25
100
AcDbLine
 10
55.7216553571
 20
32.010742422
 30
0.0
 11
55.7216553571
 21
32.2146034258
 31
0.0
  0
LINE
  5
BC
330
1F
100
AcDbEntity
  8
0
  6
Continuous
 62
     7
370
    25
100
AcDbLine
 10
54.7960440315
 20
32.010742422
 30
0.0
 11
55.7216553571
 21
32.010742422
 31
0.0
  0
LINE
  5
BD
330
1F
100
AcDbEntity
  8
0
  6
Continuous
 62
     7
370
    25
100
AcDbLine
 10
54.7960440315
 20
31.8462636575
 30
0.0
 11
54.7960440315
 21
32.010742422
 31
0.0
  0
LINE
  5
BE
330
1F
100
AcDbEntity
  8
0
  6
Continuous
 62
     7
370
    25
100
AcDbLine
 10
55.9983606338
 20
31.8462636575
 30
0.0
 11
54.7960440315
 21
31.8462636575
 31
0.0
  0
SPLINE
  5
BF
330
1F
100
AcDbEntity
  8
0
  6
Continuous
 62
     7
370
    25
100
AcDbSpline
210
0.0
220
0.0
230
1.0
 70
     8
 71
     3
 72
    11
 73
     7
 74
     0
 42
0.00000001
 43
0.00000001
 40
0.0
 40
0.0
 40
0.0
 40
0.0
 40
0.2682823389612927
 40
0.5197997967341367
 40
0.7604656312619601
 40
1.0
 40
1.0
 40
1.0
 40
1.0
 10
55.85936449481482
 20
31.99915941040442
 30
0.0
 10
55.869785299485
 20
31.98950161797674
 30
0.0
 10
55.88997571593332
 20
31.97078954561206
 30
0.0
 10
55.92452634854577
 20
31.94986228052235
 30
0.0
 10
55.96060014898837
 20
31.93511792512413
 30
0.0
 10
55.98579359278355
 20
31.93147734295338
 30
0.0
 10
55.99836063381097
 20
31.92966134090635
 30
0.0
  0
LINE
  5
C0
330
1F
100
AcDbEntity
  8
0
  6
Continuous
 62
     7
370
    25
100
AcDbLine
 10
55.3412177767
 20
33.2431748544
 30
0.0
 11
55.4562756917
 21
33.2431748544
 31
0.0
  0
LINE
  5
C1
330
1F
100
AcDbEntity
  8
0
  6
Continuous
 62
     7
370
    25
100
AcDbLine
 10
55.3412177767
 20
32.4508968621
 30
0.0
 11
55.3412177767
 21
33.2431748544
 31
0.0
  0
LINE
  5
C2
330
1F
100
AcDbEntity
  8
0
  6
Continuous
 62
     7
370
    25
100
AcDbLine
 10
55.4562756917
 20
32.4508968621
 30
0.0
 11
55.3412177767
 21
32.4508968621
 31
0.0
  0
LINE
  5
C3
330
1F
100
AcDbEntity
  8
0
  6
Continuous
 62
     7
370
    25
100
AcDbLine
 10
55.4562756917
 20
33.2431748544
 30
0.0
 11
55.4562756917
 21
32.4508968621
 31
0.0
  0
LINE
  5
C4
330
1F
100
AcDbEntity
  8
0
  6
Continuous
 62
     7
370
    25
100
AcDbLine
 10
54.7896090251
 20
34.3149895262
 30
0.0
 11
55.977511213
 21
34.3149895262
 31
0.0
  0
LINE
  5
C5
330
1F
100
AcDbEntity
  8
0
  6
Continuous
 62
     7
370
    25
100
AcDbLine
 10
54.7896090251
 20
33.7613215726
 30
0.0
 11
54.7896090251
 21
34.3149895262
 31
0.0
  0
SPLINE
  5
C6
330
1F
100
AcDbEntity
  8
0
  6
Continuous
 62
     7
370
    25
100
AcDbSpline
210
0.0
220
0.0
230
1.0
 70
     8
 71
     3
 72
    15
 73
    11
 74
     0
 42
0.00000001
 43
0.00000001
 40
0.0
 40
0.0
 40
0.0
 40
0.0
 40
0.1086277469152497
 40
0.2195300404679348
 40
0.33405835949625
 40
0.4525037346025809
 40
0.5781660321028799
 40
0.7098017975268057
 40
0.8504665399585424
 40
1.0
 40
1.0
 40
1.0
 40
1.0
 10
54.87249190794224
 20
33.51112852237353
 30
0.0
 10
54.8658822996565
 20
33.51836282228003
 30
0.0
 10
54.85252468509072
 20
33.53298290044909
 30
0.0
 10
54.83545383733685
 20
33.55792454216603
 30
0.0
 10
54.82140670049417
 20
33.58562589221619
 30
0.0
 10
54.80978073658793
 20
33.6158338592781
 30
0.0
 10
54.80050142631435
 20
33.64846118146794
 30
0.0
 10
54.79419499818139
 20
33.68381533968736
 30
0.0
 10
54.79028748349351
 20
33.72167907541562
 30
0.0
 10
54.78983973902836
 20
33.74784089726163
 30
0.0
 10
54.78960902505936
 20
33.76132157256658
 30
0.0
  0
SPLINE
  5
C7
330
1F
100
AcDbEntity
  8
0
  6
Continuous
 62
     7
370
    25
100
AcDbSpline
210
0.0
220
0.0
230
1.0
 70
     8
 71
     3
 72
    15
 73
    11
 74
     0
 42
0.00000001
 43
0.00000001
 40
0.0
 40
0.0
 40
0.0
 40
0.0
 40
0.1319114978615547
 40
0.2585593955794498
 40
0.3829282045992123
 40
0.5051155152535456
 40
0.6266776175559878
 40
0.7489849223246641
 40
0.8728415720964471
 40
1.0
 40
1.0
 40
1.0
 40
1.0
 10
55.12963476508509
 20
33.40688141812643
 30
0.0
 10
55.11709129197502
 20
33.40714468197863
 30
0.0
 10
55.09250486184282
 20
33.40766070479396
 30
0.0
 10
55.05637658961233
 20
33.41271866996762
 30
0.0
 10
55.02183233896733
 20
33.42096357929271
 30
0.0
 10
54.98866037856443
 20
33.43227334263612
 30
0.0
 10
54.9570653994308
 20
33.44702369280502
 30
0.0
 10
54.92717283896224
 20
33.46522145909533
 30
0.0
 10
54.89852568552707
 20
33.48630027136131
 30
0.0
 10
54.88124559951831
 20
33.50278018141433
 30
0.0
 10
54.87249190794224
 20
33.51112852237353
 30
0.0
  0
SPLINE
  5
C8
330
1F
100
AcDbEntity
  8
0
  6
Continuous
 62
     7
370
    25
100
AcDbSpline
210
0.0
220
0.0
230
1.0
 70
     8
 71
     3
 72
    15
 73
    11
 74
     0
 42
0.00000001
 43
0.00000001
 40
0.0
 40
0.0
 40
0.0
 40
0.0
 40
0.1263812889588914
 40
0.2491049464973164
 40
0.3706105362999229
 40
0.4913917559424304
 40
0.6138158455532666
 40
0.7388355742356973
 40
0.8671181754268789
 40
1.0
 40
1.0
 40
1.0
 40
1.0
 10
55.3381289735793
 20
33.49027910152411
 30
0.0
 10
55.33103743787937
 20
33.4836277701144
 30
0.0
 10
55.31705960432765
 20
33.47051760508443
 30
0.0
 10
55.29425804647374
 20
33.45327604878715
 30
0.0
 10
55.26986566438154
 20
33.43930708523715
 30
0.0
 10
55.24455509270179
 20
33.42709661922222
 30
0.0
 10
55.21756521668353
 20
33.41832422918176
 30
0.0
 10
55.18946836059206
 20
33.41145593403979
 30
0.0
 10
55.15994275245691
 20
33.40761240883602
 30
0.0
 10
55.13985534365337
 20
33.40712792568525
 30
0.0
 10
55.12963476508509
 20
33.40688141812643
 30
0.0
  0
SPLINE
  5
C9
330
1F
100
AcDbEntity
  8
0
  6
Continuous
 62
     7
370
    25
100
AcDbSpline
210
0.0
220
0.0
230
1.0
 70
     8
 71
     3
 72
    11
 73
     7
 74
     0
 42
0.00000001
 43
0.00000001
 40
0.0
 40
0.0
 40
0.0
 40
0.0
 40
0.2758864184465399
 40
0.5310076877713092
 40
0.7722766677115256
 40
1.0
 40
1.0
 40
1.0
 40
1.0
 10
55.41457685002718
 20
33.62232543357044
 30
0.0
 10
55.40980445784398
 20
33.60899037546488
 30
0.0
 10
55.40061887722496
 20
33.58332394936532
 30
0.0
 10
55.38257535163969
 20
33.54796514515473
 30
0.0
 10
55.36222161989893
 20
33.51673577514491
 30
0.0
 10
55.34600371809915
 20
33.49892653455595
 30
0.0
 10
55.3381289735793
 20
33.49027910152411
 30
0.0
  0
SPLINE
  5
CA
330
1F
100
AcDbEntity
  8
0
  6
Continuous
 62
     7
370
    25
100
AcDbSpline
210
0.0
220
0.0
230
1.0
 70
     8
 71
     3
 72
    11
 73
     7
 74
     0
 42
0.00000001
 43
0.00000001
 40
0.0
 40
0.0
 40
0.0
 40
0.0
 40
0.2409277974217339
 40
0.4854864172424127
 40
0.7380410464993926
 40
1.0
 40
1.0
 40
1.0
 40
1.0
 10
55.47712511257544
 20
33.51807832932334
 30
0.0
 10
55.47041416112079
 20
33.52529974471234
 30
0.0
 10
55.45689112304517
 20
33.53985140343394
 30
0.0
 10
55.43985446526966
 20
33.56488763113319
 30
0.0
 10
55.42570921606035
 20
33.59258549876989
 30
0.0
 10
55.41833258229054
 20
33.61229205591221
 30
0.0
 10
55.41457685002718
 20
33.62232543357044
 30
0.0
  0
SPLINE
  5
CB
330
1F
100
AcDbEntity
  8
0
  6
Continuous
 62
     7
370
    25
100
AcDbSpline
210
0.0
220
0.0
230
1.0
 70
     8
 71
     3
 72
    15
 73
    11
 74
     0
 42
0.00000001
 43
0.00000001
 40
0.0
 40
0.0
 40
0.0
 40
0.0
 40
0.131207293287142
 40
0.2585055422472042
 40
0.3817646425439864
 40
0.503369267050067
 40
0.6250492974901232
 40
0.7476118725723033
 40
0.8722462138971596
 40
1.0
 40
1.0
 40
1.0
 40
1.0
 10
55.66476990022023
 20
33.44163045287546
 30
0.0
 10
55.655663299823
 20
33.44189002178729
 30
0.0
 10
55.63772141096349
 20
33.44240142630316
 30
0.0
 10
55.61142735913783
 20
33.44607051145336
 30
0.0
 10
55.58626357693539
 20
33.45201651503309
 30
0.0
 10
55.56213608067281
 20
33.46022585029585
 30
0.0
 10
55.53915921604112
 20
33.47115160969956
 30
0.0
 10
55.51721718125976
 20
33.48438055442926
 30
0.0
 10
55.49612653268262
 20
33.49974034361718
 30
0.0
 10
55.48351089449956
 20
33.51191550691393
 30
0.0
 10
55.47712511257544
 20
33.51807832932334
 30
0.0
  0
SPLINE
  5
CC
330
1F
100
AcDbEntity
  8
0
  6
Continuous
 62
     7
370
    25
100
AcDbSpline
210
0.0
220
0.0
230
1.0
 70
     8
 71
     3
 72
    15
 73
    11
 74
     0
 42
0.00000001
 43
0.00000001
 40
0.0
 40
0.0
 40
0.0
 40
0.0
 40
0.1195027114365309
 40
0.2380939422658886
 40
0.3566476293726336
 40
0.4775806195769142
 40
0.6003630199241493
 40
0.7278327340041406
 40
0.8606471500295811
 40
0.9999999999999999
 40
0.9999999999999999
 40
0.9999999999999999
 40
0.9999999999999999
 10
55.88716372261405
 20
33.52502813627314
 30
0.0
 10
55.88009690983228
 20
33.5183444440587
 30
0.0
 10
55.86601718482655
 20
33.50502803801987
 30
0.0
 10
55.84242237010076
 20
33.48798662155065
 30
0.0
 10
55.8169142626631
 20
33.47385036236292
 30
0.0
 10
55.7899328902535
 20
33.46186957263247
 30
0.0
 10
55.76102431496466
 20
33.45299068236433
 30
0.0
 10
55.73059027576299
 20
33.44616802836874
 30
0.0
 10
55.69824349543043
 20
33.44234866866434
 30
0.0
 10
55.6761050469368
 20
33.44187366192696
 30
0.0
 10
55.66476990022023
 20
33.44163045287546
 30
0.0
  0
SPLINE
  5
CD
330
1F
100
AcDbEntity
  8
0
  6
Continuous
 62
     7
370
    25
100
AcDbSpline
210
0.0
220
0.0
230
1.0
 70
     8
 71
     3
 72
    15
 73
    11
 74
     0
 42
0.00000001
 43
0.00000001
 40
0.0
 40
0.0
 40
0.0
 40
0.0
 40
0.1342477572737651
 40
0.2634617725756845
 40
0.3884666271730299
 40
0.5118790511869588
 40
0.6324080741525895
 40
0.7535525248235488
 40
0.8755084805282747
 40
1.0
 40
1.0
 40
1.0
 40
1.0
 10
55.97751121296155
 20
33.75437176561677
 30
0.0
 10
55.97732511034598
 20
33.74302876340482
 30
0.0
 10
55.97695988320196
 20
33.72076807518344
 30
0.0
 10
55.97228325581568
 20
33.6882416243252
 30
0.0
 10
55.96552811861546
 20
33.65704393803892
 30
0.0
 10
55.95540309586093
 20
33.62751444932199
 30
0.0
 10
55.94267095983575
 20
33.59940359384682
 30
0.0
 10
55.9272974101909
 20
33.57275526997122
 30
0.0
 10
55.90853917947329
 20
33.54793091856919
 30
0.0
 10
55.89433757907617
 20
33.5327145812393
 30
0.0
 10
55.88716372261405
 20
33.52502813627314
 30
0.0
  0
LINE
  5
CE
330
1F
100
AcDbEntity
  8
0
  6
Continuous
 62
     7
370
    25
100
AcDbLine
 10
55.977511213
 20
34.3149895262
 30
0.0
 11
55.977511213
 21
33.7543717656
 31
0.0
  0
LINE
  5
CF
330
1F
100
AcDbEntity
  8
0
  6
Continuous
 62
     7
370
    25
100
AcDbLine
 10
54.7890942245
 20
35.444719256
 30
0.0
 11
55.977511213
 21
35.444719256
 31
0.0
  0
LINE
  5
D0
330
1F
100
AcDbEntity
  8
0
  6
Continuous
 62
     7
370
    25
100
AcDbLine
 10
54.7890942245
 20
35.2802404915
 30
0.0
 11
54.7890942245
 21
35.444719256
 31
0.0
  0
LINE
  5
D1
330
1F
100
AcDbEntity
  8
0
  6
Continuous
 62
     7
370
    25
100
AcDbLine
 10
55.7273181628
 20
35.2802404915
 30
0.0
 11
54.7890942245
 21
35.2802404915
 31
0.0
  0
LINE
  5
D2
330
1F
100
AcDbEntity
  8
0
  6
Continuous
 62
     7
370
    25
100
AcDbLine
 10
54.7890942245
 20
34.7242559355
 30
0.0
 11
55.7273181628
 21
35.2802404915
 31
0.0
  0
LINE
  5
D3
330
1F
100
AcDbEntity
  8
0
  6
Continuous
 62
     7
370
    25
100
AcDbLine
 10
54.7890942245
 20
34.5505107618
 30
0.0
 11
54.7890942245
 21
34.7242559355
 31
0.0
  0
LINE
  5
D4
330
1F
100
AcDbEntity
  8
0
  6
Continuous
 62
     7
370
    25
100
AcDbLine
 10
55.977511213
 20
34.5505107618
 30
0.0
 11
54.7890942245
 21
34.5505107618
 31
0.0
  0
LINE
  5
D5
330
1F
100
AcDbEntity
  8
0
  6
Continuous
 62
     7
370
    25
100
AcDbLine
 10
55.977511213
 20
34.7149895262
 30
0.0
 11
55.977511213
 21
34.5505107618
 31
0.0
  0
LINE
  5
D6
330
1F
100
AcDbEntity
  8
0
  6
Continuous
 62
     7
370
    25
100
AcDbLine
 10
55.0392872747
 20
34.7149895262
 30
0.0
 11
55.977511213
 21
34.7149895262
 31
0.0
  0
LINE
  5
D7
330
1F
100
AcDbEntity
  8
0
  6
Continuous
 62
     7
370
    25
100
AcDbLine
 10
55.977511213
 20
35.2663408776
 30
0.0
 11
55.0392872747
 21
34.7149895262
 31
0.0
  0
LINE
  5
D8
330
1F
100
AcDbEntity
  8
0
  6
Continuous
 62
     7
370
    25
100
AcDbLine
 10
55.977511213
 20
35.444719256
 30
0.0
 11
55.977511213
 21
35.2663408776
 31
0.0
  0
SPLINE
  5
D9
330
1F
100
AcDbEntity
  8
0
  6
Continuous
 62
     7
370
    25
100
AcDbSpline
210
0.0
220
0.0
230
1.0
 70
     8
 71
     3
 72
     9
 73
     5
 74
     0
 42
0.00000001
 43
0.00000001
 40
0.0
 40
0.0
 40
0.0
 40
0.0
 40
0.5155288090837102
 40
1.0
 40
1.0
 40
1.0
 40
1.0
 10
55.0323374677878
 20
30.26170767295268
 30
0.0
 10
55.01411089115238
 20
30.27721790946704
 30
0.0
 10
54.97875578332085
 20
30.30730398078073
 30
0.0
 10
54.93994382989089
 20
30.33276852047739
 30
0.0
 10
54.92114055659088
 20
30.34510535635036
 30
0.0
  0
LINE
  5
DA
330
1F
100
AcDbEntity
  8
0
  6
Continuous
 62
     7
370
    25
100
AcDbLine
 10
55.1574339929
 20
30.1505107618
 30
0.0
 11
55.0323374678
 21
30.261707673
 31
0.0
  0
SPLINE
  5
DB
330
1F
100
AcDbEntity
  8
0
  6
Continuous
 62
     7
370
    25
100
AcDbSpline
210
0.0
220
0.0
230
1.0
 70
     8
 71
     3
 72
     9
 73
     5
 74
     0
 42
0.00000001
 43
0.00000001
 40
0.0
 40
0.0
 40
0.0
 40
0.0
 40
0.5004988252029442
 40
1.0
 40
1.0
 40
1.0
 40
1.0
 10
55.38677762222795
 20
29.94896636021137
 30
0.0
 10
55.3477356813679
 20
29.98170319664877
 30
0.0
 10
55.26972962242417
 20
30.04711161478866
 30
0.0
 10
55.1948409651645
 20
30.11606731065939
 30
0.0
 10
55.15743399288432
 20
30.15051076175577
 30
0.0
  0
SPLINE
  5
DC
330
1F
100
AcDbEntity
  8
0
  6
Continuous
 62
     7
370
    25
100
AcDbSpline
210
0.0
220
0.0
230
1.0
 70
     8
 71
     3
 72
    15
 73
    11
 74
     0
 42
0.00000001
 43
0.00000001
 40
0.0
 40
0.0
 40
0.0
 40
0.0
 40
0.1293972986426973
 40
0.2563931032053938
 40
0.380328953419174
 40
0.5027804241113402
 40
0.6257089540099042
 40
0.7486563126058702
 40
0.8729651434356743
 40
1.0
 40
1.0
 40
1.0
 40
1.0
 10
55.67866951411985
 20
29.84471925596426
 30
0.0
 10
55.66501317319774
 20
29.84499496863577
 30
0.0
 10
55.63795394039937
 20
29.84554127700683
 30
0.0
 10
55.59806158578617
 20
29.85052894561352
 30
0.0
 10
55.55950894095751
 20
29.85882511956141
 30
0.0
 10
55.52219093066412
 20
29.87018828925399
 30
0.0
 10
55.48610853891694
 20
29.88479446461884
 30
0.0
 10
55.4515375546949
 20
29.9030567798898
 30
0.0
 10
55.41802298327637
 20
29.92407408199639
 30
0.0
 10
55.39726777824357
 20
29.94060915538808
 30
0.0
 10
55.38677762222795
 20
29.94896636021137
 30
0.0
  0
SPLINE
  5
DD
330
1F
100
AcDbEntity
  8
0
  6
Continuous
 62
     7
370
    25
100
AcDbSpline
210
0.0
220
0.0
230
1.0
 70
     8
 71
     3
 72
    15
 73
    11
 74
     0
 42
0.00000001
 43
0.00000001
 40
0.0
 40
0.0
 40
0.0
 40
0.0
 40
0.1270527522076901
 40
0.2522753243044989
 40
0.3739697899787145
 40
0.4948832629277697
 40
0.617655677279456
 40
0.7419399124466165
 40
0.8684128160693881
 40
1.0
 40
1.0
 40
1.0
 40
1.0
 10
55.90106333651367
 20
29.93506674631175
 30
0.0
 10
55.89347716790907
 20
29.92787420456195
 30
0.0
 10
55.87841410857583
 20
29.91359272878926
 30
0.0
 10
55.85370310554712
 20
29.89517363552221
 30
0.0
 10
55.82775810447348
 20
29.87953152558319
 30
0.0
 10
55.80045268683688
 20
29.86689529993662
 30
0.0
 10
55.77190020166728
 20
29.85668961504905
 30
0.0
 10
55.74188102004167
 20
29.85000514158028
 30
0.0
 10
55.7107379511722
 20
29.84525932768597
 30
0.0
 10
55.68949929693522
 20
29.84490164275914
 30
0.0
 10
55.67866951411985
 20
29.84471925596426
 30
0.0
  0
LINE
  5
DE
330
1F
100
AcDbEntity
  8
0
  6
Continuous
 62
     7
370
    25
100
AcDbLine
 10
55.9983606338
 20
31.9296613409
 30
0.0
 11
55.9983606338
 21
31.8462636575
 31
0.0
  0
SPLINE
  5
DF
330
1F
100
AcDbEntity
  8
0
  6
Continuous
 62
     7
370
    25
100
AcDbSpline
210
0.0
220
0.0
230
1.0
 70
     8
 71
     3
 72
    16
 73
    12
 74
     0
 42
0.00000001
 43
0.00000001
 40
0.0
 40
0.0
 40
0.0
 40
0.0
 40
0.2500000000000002
 40
0.2500000000000002
 40
0.5000000000000003
 40
0.5000000000000003
 40
0.6250000000000002
 40
0.6250000000000002
 40
0.7500000000000002
 40
0.7500000000000002
 40
1.0
 40
1.0
 40
1.0
 40
1.0
 10
53.67177174954697
 20
36.50689992090625
 30
0.0
 10
53.44045699586434
 20
36.90754882682484
 30
0.0
 10
53.2498117025339
 20
37.31111881650969
 30
0.0
 10
52.9857060461266
 20
38.12667560285077
 30
0.0
 10
52.91311685481264
 20
38.53872497141409
 30
0.0
 10
52.91231960872169
 20
39.16456233946369
 30
0.0
 10
52.93006486534514
 20
39.37415632292682
 30
0.0
 10
52.99926194887493
 20
39.78875534030305
 30
0.0
 10
53.05064355493721
 20
39.99466485232522
 30
0.0
 10
53.24905155367382
 20
40.60872745037838
 30
0.0
 10
53.44016865537778
 20
41.01322888272657
 30
0.0
 10
53.67177174954718
 20
41.41437720901812
 30
0.0
  0
LINE
  5
E0
330
1F
100
AcDbEntity
  8
0
  6
Continuous
 62
     7
370
    25
100
AcDbLine
 10
52.7682448037
 20
31.5994226328
 30
0.0
 11
52.7682448037
 21
39.8494226328
 31
0.0
  0
LINE
  5
E1
330
1F
100
AcDbEntity
  8
0
  6
Continuous
 62
     7
370
    25
100
AcDbLine
 10
52.7682448037
 20
23.3494226328
 30
0.0
 11
52.7682448037
 21
31.5994226328
 31
0.0
  0
SPLINE
  5
E2
330
1F
100
AcDbEntity
  8
0
  6
Continuous
 62
     7
370
    25
100
AcDbSpline
210
0.0
220
0.0
230
1.0
 70
     8
 71
     3
 72
    16
 73
    12
 74
     0
 42
0.00000001
 43
0.00000001
 40
0.0
 40
0.0
 40
0.0
 40
0.0
 40
0.2500000000000002
 40
0.2500000000000002
 40
0.5000000000000003
 40
0.5000000000000003
 40
0.6250000000000002
 40
0.6250000000000002
 40
0.7500000000000002
 40
0.7500000000000002
 40
1.0
 40
1.0
 40
1.0
 40
1.0
 10
56.86471785784329
 20
36.50689992090625
 30
0.0
 10
57.09603261152592
 20
36.90754882682484
 30
0.0
 10
57.28667790485635
 20
37.31111881650969
 30
0.0
 10
57.55078356126367
 20
38.12667560285077
 30
0.0
 10
57.62337275257762
 20
38.53872497141409
 30
0.0
 10
57.62416999866858
 20
39.16456233946369
 30
0.0
 10
57.60642474204513
 20
39.37415632292682
 30
0.0
 10
57.53722765851534
 20
39.78875534030305
 30
0.0
 10
57.48584605245306
 20
39.99466485232522
 30
0.0
 10
57.28743805371644
 20
40.60872745037838
 30
0.0
 10
57.09632095201249
 20
41.01322888272657
 30
0.0
 10
56.86471785784309
 20
41.41437720901812
 30
0.0
  0
LINE
  5
E3
330
1F
100
AcDbEntity
  8
0
  6
Continuous
 62
     7
370
    25
100
AcDbLine
 10
57.7682448037
 20
31.5994226328
 30
0.0
 11
57.7682448037
 21
39.8494226328
 31
0.0
  0
LINE
  5
E4
330
1F
100
AcDbEntity
  8
0
  6
Continuous
 62
     7
370
    25
100
AcDbLine
 10
57.7682448037
 20
23.3494226328
 30
0.0
 11
57.7682448037
 21
31.5994226328
 31
0.0
  0
LINE
  5
E5
330
1F
100
AcDbEntity
  8
0
  6
Continuous
 62
     7
370
    25
100
AcDbLine
 10
55.8529294884
 20
28.5381555494
 30
0.0
 11
55.4423760778
 21
28.5381555494
 31
0.0
  0
LINE
  5
E6
330
1F
100
AcDbEntity
  8
0
  6
Continuous
 62
     7
370
    25
100
AcDbLine
 10
55.8529294884
 20
28.1489663602
 30
0.0
 11
55.8529294884
 21
28.5381555494
 31
0.0
  0
SPLINE
  5
E7
330
1F
100
AcDbEntity
  8
0
  6
Continuous
 62
     7
370
    25
100
AcDbSpline
210
0.0
220
0.0
230
1.0
 70
     8
 71
     3
 72
    15
 73
    11
 74
     0
 42
0.00000001
 43
0.00000001
 40
0.0
 40
0.0
 40
0.0
 40
0.0
 40
0.1309133268193504
 40
0.257977153454407
 40
0.3819342897628136
 40
0.5044826360738954
 40
0.6264704025122011
 40
0.7488072761095285
 40
0.8724814751031159
 40
1.0
 40
1.0
 40
1.0
 40
1.0
 10
55.79681623226656
 20
28.01692002816504
 30
0.0
 10
55.8013000897386
 20
28.02154560292333
 30
0.0
 10
55.81013595706574
 20
28.03066073763289
 30
0.0
 10
55.8213537941978
 20
28.04576708642033
 30
0.0
 10
55.83130496124993
 20
28.06121803581562
 30
0.0
 10
55.83939456154659
 20
28.07748749098693
 30
0.0
 10
55.8451965431903
 20
28.09460683921065
 30
0.0
 10
55.84956055821085
 20
28.11216756854043
 30
0.0
 10
55.85264665153814
 20
28.13032606073334
 30
0.0
 10
55.85283425240002
 20
28.14268985403236
 30
0.0
 10
55.85292948837982
 20
28.14896636021137
 30
0.0
  0
SPLINE
  5
E8
330
1F
100
AcDbEntity
  8
0
  6
Continuous
 62
     7
370
    25
100
AcDbSpline
210
0.0
220
0.0
230
1.0
 70
     8
 71
     3
 72
    15
 73
    11
 74
     0
 42
0.00000001
 43
0.00000001
 40
0.0
 40
0.0
 40
0.0
 40
0.0
 40
0.1417962611116211
 40
0.2768819513476974
 40
0.4055805706087828
 40
0.5298229690785619
 40
0.6485572024501438
 40
0.7672114666371231
 40
0.8821786188665556
 40
1.0
 40
1.0
 40
1.0
 40
1.0
 10
55.64392047937081
 20
27.96132157256658
 30
0.0
 10
55.65182710058791
 20
27.96140284859058
 30
0.0
 10
55.66726615867022
 20
27.96156155421474
 30
0.0
 10
55.68966345996051
 20
27.96474511943351
 30
0.0
 10
55.71097333560652
 20
27.9685196408803
 30
0.0
 10
55.73072613560948
 20
27.97486289631721
 30
0.0
 10
55.74939238566871
 20
27.98253912190755
 30
0.0
 10
55.76639721911194
 20
27.99240583501839
 30
0.0
 10
55.78258727776473
 20
28.00350269481638
 30
0.0
 10
55.79203463596203
 20
28.01241117464748
 30
0.0
 10
55.79681623226656
 20
28.01692002816504
 30
0.0
  0
SPLINE
  5
E9
330
1F
100
AcDbEntity
  8
0
  6
Continuous
 62
     7
370
    25
100
AcDbSpline
210
0.0
220
0.0
230
1.0
 70
     8
 71
     3
 72
    15
 73
    11
 74
     0
 42
0.00000001
 43
0.00000001
 40
0.0
 40
0.0
 40
0.0
 40
0.0
 40
0.1053643999148118
 40
0.2134004501006505
 40
0.3253299308157709
 40
0.4441520831794067
 40
0.5701116073912011
 40
0.7035881731039111
 40
0.8466305078268435
 40
1.0
 40
1.0
 40
1.0
 40
1.0
 10
55.49102472647506
 20
28.00997022121523
 30
0.0
 10
55.49532076872143
 20
28.00609980840291
 30
0.0
 10
55.50402178490687
 20
27.9982608434689
 30
0.0
 10
55.51878292897508
 20
27.98809651042262
 30
0.0
 10
55.53554453335305
 20
27.97998802234665
 30
0.0
 10
55.55381085115078
 20
27.9728710220949
 30
0.0
 10
55.57401751304283
 20
27.96798641099598
 30
0.0
 10
55.59574348921226
 20
27.96402564361192
 30
0.0
 10
55.61924735851472
 20
27.96173405634457
 30
0.0
 10
55.63550727087239
 20
27.96146222408962
 30
0.0
 10
55.64392047937081
 20
27.96132157256658
 30
0.0
  0
SPLINE
  5
EA
330
1F
100
AcDbEntity
  8
0
  6
Continuous
 62
     7
370
    25
100
AcDbSpline
210
0.0
220
0.0
230
1.0
 70
     8
 71
     3
 72
    11
 73
     7
 74
     0
 42
0.00000001
 43
0.00000001
 40
0.0
 40
0.0
 40
0.0
 40
0.0
 40
0.2562600332085403
 40
0.5016208045865238
 40
0.7449078564687258
 40
1.0
 40
1.0
 40
1.0
 40
1.0
 10
55.44237607782641
 20
28.12811693936195
 30
0.0
 10
55.44295781456202
 20
28.11689740223402
 30
0.0
 10
55.44409654558349
 20
28.0949355177734
 30
0.0
 10
55.45343267852399
 20
28.06344061611012
 30
0.0
 10
55.46888286019166
 20
28.03449394411259
 30
0.0
 10
55.48352846770571
 20
28.01827287151911
 30
0.0
 10
55.49102472647506
 20
28.00997022121523
 30
0.0
  0
LINE
  5
EB
330
1F
100
AcDbEntity
  8
0
  6
Continuous
 62
     7
370
    25
100
AcDbLine
 10
55.4423760778
 20
28.5381555494
 30
0.0
 11
55.4423760778
 21
28.1281169394
 31
0.0
  0
LINE
  5
EC
330
1F
100
AcDbEntity
  8
0
  6
Continuous
 62
     7
370
    25
100
AcDbLine
 10
53.6717717495
 20
41.414377209
 30
0.0
 11
56.8647178578
 21
41.414377209
 31
0.0
  0
SPLINE
  5
ED
330
1F
100
AcDbEntity
  8
0
  6
Continuous
 62
     7
370
    25
100
AcDbSpline
210
0.0
220
0.0
230
1.0
 70
     8
 71
     3
 72
    15
 73
    11
 74
     0
 42
0.00000001
 43
0.00000001
 40
0.0
 40
0.0
 40
0.0
 40
0.0
 40
0.1452459980297209
 40
0.2839773123111047
 40
0.4135645357275256
 40
0.5387150251446075
 40
0.6570052502158968
 40
0.7736984629726797
 40
0.8866940707303826
 40
1.0
 40
1.0
 40
1.0
 40
1.0
 10
54.92114055659088
 20
33.79607060731561
 30
0.0
 10
54.92122490907902
 20
33.78765040443981
 30
0.0
 10
54.92138983061346
 20
33.77118766801869
 30
0.0
 10
54.92452006395328
 20
33.74740947760999
 30
0.0
 10
54.92834781237309
 20
33.7249151984792
 30
0.0
 10
54.93464525508512
 20
33.70420733597466
 30
0.0
 10
54.94228728074326
 20
33.68474596717588
 30
0.0
 10
54.95224853229841
 20
33.66719218154797
 30
0.0
 10
54.96316059725514
 20
33.65051131343503
 30
0.0
 10
54.97220873804989
 20
33.64099148755632
 30
0.0
 10
54.97673901218934
 20
33.63622504747006
 30
0.0
  0
LINE
  5
EE
330
1F
100
AcDbEntity
  8
0
  6
Continuous
 62
     7
370
    25
100
AcDbLine
 10
54.9211405566
 20
34.1505107618
 30
0.0
 11
54.9211405566
 21
33.7960706073
 31
0.0
  0
LINE
  5
EF
330
1F
100
AcDbEntity
  8
0
  6
Continuous
 62
     7
370
    25
100
AcDbLine
 10
55.345593581
 20
33.7960706073
 30
0.0
 11
55.345593581
 21
34.1505107618
 31
0.0
  0
SPLINE
  5
F0
330
1F
100
AcDbEntity
  8
0
  6
Continuous
 62
     7
370
    25
100
AcDbSpline
210
0.0
220
0.0
230
1.0
 70
     8
 71
     3
 72
    15
 73
    11
 74
     0
 42
0.00000001
 43
0.00000001
 40
0.0
 40
0.0
 40
0.0
 40
0.0
 40
0.1193556939378553
 40
0.2390663805212342
 40
0.3573840708360848
 40
0.4787728926029021
 40
0.6013911634438125
 40
0.7292416297469775
 40
0.8608048514681792
 40
1.0
 40
1.0
 40
1.0
 40
1.0
 10
55.28253051798085
 20
33.62927524052025
 30
0.0
 10
55.28754929220644
 20
33.6345720263047
 30
0.0
 10
55.29760176770369
 20
33.64518135179312
 30
0.0
 10
55.31032329886525
 20
33.66299572411377
 30
0.0
 10
55.32132303721773
 20
33.68202728686531
 30
0.0
 10
55.33026582047032
 20
33.70231482109123
 30
0.0
 10
55.33732987170248
 20
33.72394237092543
 30
0.0
 10
55.3421146834291
 20
33.74681764798347
 30
0.0
 10
55.34498404593027
 20
33.77102979200069
 30
0.0
 10
55.3453866201891
 20
33.78756827754552
 30
0.0
 10
55.34559358104391
 20
33.79607060731561
 30
0.0
  0
SPLINE
  5
F1
330
1F
100
AcDbEntity
  8
0
  6
Continuous
 62
     7
370
    25
100
AcDbSpline
210
0.0
220
0.0
230
1.0
 70
     8
 71
     3
 72
    15
 73
    11
 74
     0
 42
0.00000001
 43
0.00000001
 40
0.0
 40
0.0
 40
0.0
 40
0.0
 40
0.1417962611116215
 40
0.2768819513476976
 40
0.4055805706087822
 40
0.5298229690785613
 40
0.6485572024501445
 40
0.7672114666371229
 40
0.8821786188665552
 40
1.0
 40
1.0
 40
1.0
 40
1.0
 10
55.12963476508509
 20
33.57367678492179
 30
0.0
 10
55.13754138630219
 20
33.57375806094579
 30
0.0
 10
55.1529804443845
 20
33.57391676656995
 30
0.0
 10
55.17537774567479
 20
33.57710033178871
 30
0.0
 10
55.19668762132081
 20
33.58087485323551
 30
0.0
 10
55.21644042132377
 20
33.58721810867242
 30
0.0
 10
55.23510667138299
 20
33.59489433426276
 30
0.0
 10
55.25211150482622
 20
33.6047610473736
 30
0.0
 10
55.26830156347901
 20
33.61585790717159
 30
0.0
 10
55.27774892167631
 20
33.62476638700269
 30
0.0
 10
55.28253051798085
 20
33.62927524052025
 30
0.0
  0
SPLINE
  5
F2
330
1F
100
AcDbEntity
  8
0
  6
Continuous
 62
     7
370
    25
100
AcDbSpline
210
0.0
220
0.0
230
1.0
 70
     8
 71
     3
 72
    15
 73
    11
 74
     0
 42
0.00000001
 43
0.00000001
 40
0.0
 40
0.0
 40
0.0
 40
0.0
 40
0.127711854033614
 40
0.2523621141955308
 40
0.3748537650566255
 40
0.4969693854038493
 40
0.6192731655242185
 40
0.742485444301997
 40
0.869447878037661
 40
0.9999999999999999
 40
0.9999999999999999
 40
0.9999999999999999
 40
0.9999999999999999
 10
54.97673901218934
 20
33.63622504747006
 30
0.0
 10
54.9819486794445
 20
33.63120528339509
 30
0.0
 10
54.99224312433149
 20
33.62128609238258
 30
0.0
 10
55.00944719512913
 20
33.60879966655992
 30
0.0
 10
55.02721658099977
 20
33.59774984673233
 30
0.0
 10
55.04614226443082
 20
33.58911033544399
 30
0.0
 10
55.06573493943635
 20
33.58204122909903
 30
0.0
 10
55.08627664106777
 20
33.57713911591872
 30
0.0
 10
55.10767662927859
 20
33.57432009036509
 30
0.0
 10
55.12224768088307
 20
33.57389320363416
 30
0.0
 10
55.12963476508509
 20
33.57367678492179
 30
0.0
  0
LINE
  5
F3
330
1F
100
AcDbEntity
  8
0
  6
Continuous
 62
     7
370
    25
100
AcDbLine
 10
55.345593581
 20
34.1505107618
 30
0.0
 11
54.9211405566
 21
34.1505107618
 31
0.0
  0
SPLINE
  5
F4
330
1F
100
AcDbEntity
  8
0
  6
Continuous
 62
     7
370
    25
100
AcDbSpline
210
0.0
220
0.0
230
1.0
 70
     8
 71
     3
 72
    15
 73
    11
 74
     0
 42
0.00000001
 43
0.00000001
 40
0.0
 40
0.0
 40
0.0
 40
0.0
 40
0.1215042446907355
 40
0.2399194382132714
 40
0.3607014484775901
 40
0.4813982058565627
 40
0.6046686543565303
 40
0.7308278400410384
 40
0.8619579002966852
 40
1.0
 40
1.0
 40
1.0
 40
1.0
 10
55.52577376122409
 20
33.65707446831948
 30
0.0
 10
55.53046690386201
 20
33.65256387569829
 30
0.0
 10
55.53973387348938
 20
33.64365736506206
 30
0.0
 10
55.55562971047693
 20
33.63263737533168
 30
0.0
 10
55.57214553902735
 20
33.62268056529302
 30
0.0
 10
55.5901747685107
 20
33.61512179246901
 30
0.0
 10
55.60894256503885
 20
33.60869439110078
 30
0.0
 10
55.62897624277824
 20
33.60491848667005
 30
0.0
 10
55.64991088885378
 20
33.60171054902652
 30
0.0
 10
55.66432670704543
 20
33.60155551849298
 30
0.0
 10
55.67171970717004
 20
33.60147601272102
 30
0.0
  0
LINE
  5
F5
330
1F
100
AcDbEntity
  8
0
  6
Continuous
 62
     7
370
    25
100
AcDbLine
 10
55.4771251126
 20
34.1505107618
 30
0.0
 11
55.4771251126
 21
33.7752211865
 31
0.0
  0
SPLINE
  5
F6
330
1F
100
AcDbEntity
  8
0
  6
Continuous
 62
     7
370
    25
100
AcDbSpline
210
0.0
220
0.0
230
1.0
 70
     8
 71
     3
 72
    11
 73
     7
 74
     0
 42
0.00000001
 43
0.00000001
 40
0.0
 40
0.0
 40
0.0
 40
0.0
 40
0.2499695538886859
 40
0.4922399851273401
 40
0.7405148106355971
 40
1.0
 40
1.0
 40
1.0
 40
1.0
 10
55.80376603921637
 20
33.65707446831948
 30
0.0
 10
55.81029614859686
 20
33.66419646520364
 30
0.0
 10
55.8231552384113
 20
33.67822109974735
 30
0.0
 10
55.83633108051342
 20
33.70381383252237
 30
0.0
 10
55.84467420361268
 20
33.73170997372269
 30
0.0
 10
55.84553816396367
 20
33.75130681940689
 30
0.0
 10
55.84597968143002
 20
33.76132157256658
 30
0.0
  0
SPLINE
  5
F7
330
1F
100
AcDbEntity
  8
0
  6
Continuous
 62
     7
370
    25
100
AcDbSpline
210
0.0
220
0.0
230
1.0
 70
     8
 71
     3
 72
    11
 73
     7
 74
     0
 42
0.00000001
 43
0.00000001
 40
0.0
 40
0.0
 40
0.0
 40
0.0
 40
0.2516095171558484
 40
0.4964930798665584
 40
0.7426069856111287
 40
1.0
 40
1.0
 40
1.0
 40
1.0
 10
55.67171970717004
 20
33.60147601272102
 30
0.0
 10
55.68406221201337
 20
33.602188623121
 30
0.0
 10
55.70841728535162
 20
33.60359479462132
 30
0.0
 10
55.74356821683373
 20
33.61423460610975
 30
0.0
 10
55.77598794301328
 20
33.63205698019652
 30
0.0
 10
55.79436941872621
 20
33.64861169103662
 30
0.0
 10
55.80376603921637
 20
33.65707446831948
 30
0.0
  0
SPLINE
  5
F8
330
1F
100
AcDbEntity
  8
0
  6
Continuous
 62
     7
370
    25
100
AcDbSpline
210
0.0
220
0.0
230
1.0
 70
     8
 71
     3
 72
    11
 73
     7
 74
     0
 42
0.00000001
 43
0.00000001
 40
0.0
 40
0.0
 40
0.0
 40
0.0
 40
0.2562600332085403
 40
0.5016208045865207
 40
0.7449078564687257
 40
1.0
 40
1.0
 40
1.0
 40
1.0
 10
55.47712511257544
 20
33.7752211864662
 30
0.0
 10
55.47770684931106
 20
33.76400164933827
 30
0.0
 10
55.47884558033253
 20
33.74203976487765
 30
0.0
 10
55.48818171327303
 20
33.71054486321437
 30
0.0
 10
55.5036318949407
 20
33.68159819121684
 30
0.0
 10
55.51827750245475
 20
33.66537711862335
 30
0.0
 10
55.52577376122409
 20
33.65707446831948
 30
0.0
  0
LINE
  5
F9
330
1F
100
AcDbEntity
  8
0
  6
Continuous
 62
     7
370
    25
100
AcDbLine
 10
55.8459796814
 20
33.7613215726
 30
0.0
 11
55.8459796814
 21
34.1505107618
 31
0.0
  0
LINE
  5
FA
330
1F
100
AcDbEntity
  8
0
  6
Continuous
 62
     7
370
    25
100
AcDbLine
 10
55.8459796814
 20
34.1505107618
 30
0.0
 11
55.4771251126
 21
34.1505107618
 31
0.0
  0
LINE
  5
FB
330
1F
100
AcDbEntity
  8
0
  6
Continuous
 62
     7
370
    25
100
AcDbLine
 10
42.8570324575
 20
25.1434605186
 30
0.0
 11
42.8570324575
 21
38.055384747
 31
0.0
  0
LINE
  5
FC
330
1F
100
AcDbEntity
  8
0
  6
Continuous
 62
     7
370
    25
100
AcDbLine
 10
40.7682448037
 20
31.5994226328
 30
0.0
 11
40.7682448037
 21
36.8494226328
 31
0.0
  0
LINE
  5
FD
330
1F
100
AcDbEntity
  8
0
  6
Continuous
 62
     7
370
    25
100
AcDbLine
 10
40.7682448037
 20
26.3494226328
 30
0.0
 11
40.7682448037
 21
31.5994226328
 31
0.0
  0
LINE
  5
FE
330
1F
100
AcDbEntity
  8
0
  6
Continuous
 62
     7
370
    18
100
AcDbLine
 10
41.5139419015
 20
37.2799510529
 30
0.0
 11
51.8682448037
 21
37.6035230186
 31
0.0
  0
LINE
  5
FF
330
1F
100
AcDbEntity
  8
0
  6
Continuous
 62
     7
370
    18
100
AcDbLine
 10
41.5139419015
 20
25.9188942127
 30
0.0
 11
51.8682448037
 21
25.595322247
 31
0.0
  0
LINE
  5
100
330
1F
100
AcDbEntity
  8
0
  6
Continuous
 62
     7
370
    25
100
AcDbLine
 10
51.8682448037
 20
24.8618601328
 30
0.0
 11
51.8682448037
 21
38.3369851328
 31
0.0
  0
LINE
  5
101
330
1F
100
AcDbEntity
  8
FORMAT
  6
CENTERX2
370
    18
100
AcDbLine
 10
58.9365306119
 20
31.5994226328
 30
0.0
 11
39.7682448037
 21
31.5994226328
 31
0.0
  0
SPLINE
  5
102
330
1F
100
AcDbEntity
  8
0
  6
Continuous
 62
     7
370
    25
100
AcDbSpline
210
0.0
220
0.0
230
1.0
 70
    24
 71
     3
 72
    16
 73
    12
 74
     0
 42
0.00000001
 43
0.00000001
 40
0.0
 40
0.0
 40
0.0
 40
0.0
 40
0.2500000000000002
 40
0.2500000000000002
 40
0.5000000000000003
 40
0.5000000000000003
 40
0.6250000000000002
 40
0.6250000000000002
 40
0.7500000000000002
 40
0.7500000000000002
 40
1.0
 40
1.0
 40
1.0
 40
1.0
 10
65.99734411085441
 20
36.50689992090625
 30
0.0
 10
66.69128837190229
 20
36.90754882682484
 30
0.0
 10
67.39029209844651
 20
37.31111881650969
 30
0.0
 10
68.80287788884685
 20
38.12667560285077
 30
0.0
 10
69.51656833042519
 20
38.53872497141409
 30
0.0
 10
70.60055044916228
 20
39.16456233946369
 30
0.0
 10
70.96357787748116
 20
39.37415632292682
 30
0.0
 10
71.68168444034492
 20
39.78875534030305
 30
0.0
 10
72.03833017692904
 20
39.99466485232522
 30
0.0
 10
73.10191779578487
 20
40.60872745037838
 30
0.0
 10
73.80253482834631
 20
41.01322888272657
 30
0.0
 10
74.49734411085448
 20
41.41437720901812
 30
0.0
  0
SPLINE
  5
103
330
1F
100
AcDbEntity
  8
0
  6
Continuous
 62
     7
370
    25
100
AcDbSpline
210
0.0
220
0.0
230
1.0
 70
    24
 71
     3
 72
    16
 73
    12
 74
     0
 42
0.00000001
 43
0.00000001
 40
0.0
 40
0.0
 40
0.0
 40
0.0
 40
0.2500000000000003
 40
0.2500000000000003
 40
0.5000000000000004
 40
0.5000000000000004
 40
0.6250000000000003
 40
0.6250000000000003
 40
0.7500000000000002
 40
0.7500000000000002
 40
1.0
 40
1.0
 40
1.0
 40
1.0
 10
74.49734411085441
 20
41.41437720901813
 30
0.0
 10
75.19128837190229
 20
41.01372830309955
 30
0.0
 10
75.8902920984465
 20
40.61015831341469
 30
0.0
 10
77.30287788884687
 20
39.7946015270736
 30
0.0
 10
78.0165683304252
 20
39.38255215851029
 30
0.0
 10
79.1005504491623
 20
38.75671479046068
 30
0.0
 10
79.46357787748117
 20
38.54712080699757
 30
0.0
 10
80.18168444034492
 20
38.13252178962134
 30
0.0
 10
80.53833017692905
 20
37.92661227759916
 30
0.0
 10
81.60191779578487
 20
37.312549679546
 30
0.0
 10
82.30253482834632
 20
36.90804824719782
 30
0.0
 10
82.9973441108545
 20
36.50689992090626
 30
0.0
  0
SPLINE
  5
104
330
1F
100
AcDbEntity
  8
0
  6
Continuous
 62
     7
370
    25
100
AcDbSpline
210
0.0
220
0.0
230
1.0
 70
    24
 71
     3
 72
    14
 73
    10
 74
     0
 42
0.00000001
 43
0.00000001
 40
0.0
 40
0.0
 40
0.0
 40
0.0
 40
0.25
 40
0.25
 40
0.5
 40
0.5
 40
0.75
 40
0.75
 40
1.0
 40
1.0
 40
1.0
 40
1.0
 10
82.99734411085447
 20
36.50689992090628
 30
0.0
 10
82.99734411085447
 20
35.70803336119619
 30
0.0
 10
82.99734411085447
 20
34.9017849668531
 30
0.0
 10
82.99734411085447
 20
33.26769992368055
 30
0.0
 10
82.99734411085447
 20
32.43885456355609
 30
0.0
 10
82.99734411085447
 20
30.75748363895144
 30
0.0
 10
82.99734411085447
 20
29.93008025362062
 30
0.0
 10
82.99734411085447
 20
28.29678787623674
 30
0.0
 10
82.99734411085447
 20
27.49073850579166
 30
0.0
 10
82.99734411085447
 20
26.69194534468264
 30
0.0
  0
SPLINE
  5
105
330
1F
100
AcDbEntity
  8
0
  6
Continuous
 62
     7
370
    25
100
AcDbSpline
210
0.0
220
0.0
230
1.0
 70
    24
 71
     3
 72
    16
 73
    12
 74
     0
 42
0.00000001
 43
0.00000001
 40
0.0
 40
0.0
 40
0.0
 40
0.0
 40
0.25
 40
0.25
 40
0.5
 40
0.5
 40
0.625
 40
0.625
 40
0.75
 40
0.75
 40
1.0
 40
1.0
 40
1.0
 40
1.0
 10
82.99734411085453
 20
26.69194534468267
 30
0.0
 10
82.30339984980664
 20
26.29129643876408
 30
0.0
 10
81.60439612326242
 20
25.88772644907922
 30
0.0
 10
80.19181033286208
 20
25.07216966273814
 30
0.0
 10
79.47811989128373
 20
24.66012029417482
 30
0.0
 10
78.39413777254664
 20
24.03428292612522
 30
0.0
 10
78.03111034422777
 20
23.8246889426621
 30
0.0
 10
77.31300378136399
 20
23.41008992528587
 30
0.0
 10
76.95635804477988
 20
23.2041804132637
 30
0.0
 10
75.89277042592406
 20
22.59011781521054
 30
0.0
 10
75.19215339336262
 20
22.18561638286235
 30
0.0
 10
74.49734411085443
 20
21.7844680565708
 30
0.0
  0
SPLINE
  5
106
330
1F
100
AcDbEntity
  8
0
  6
Continuous
 62
     7
370
    25
100
AcDbSpline
210
0.0
220
0.0
230
1.0
 70
    24
 71
     3
 72
    16
 73
    12
 74
     0
 42
0.00000001
 43
0.00000001
 40
0.0
 40
0.0
 40
0.0
 40
0.0
 40
0.2500000000000001
 40
0.2500000000000001
 40
0.5
 40
0.5
 40
0.625
 40
0.625
 40
0.75
 40
0.75
 40
1.0
 40
1.0
 40
1.0
 40
1.0
 10
74.49734411085451
 20
21.78446805657079
 30
0.0
 10
73.80339984980664
 20
22.18511696248938
 30
0.0
 10
73.10439612326243
 20
22.58868695217423
 30
0.0
 10
71.69181033286206
 20
23.40424373851531
 30
0.0
 10
70.97811989128374
 20
23.81629310707863
 30
0.0
 10
69.89413777254663
 20
24.44213047512823
 30
0.0
 10
69.53111034422777
 20
24.65172445859135
 30
0.0
 10
68.813003781364
 20
25.06632347596758
 30
0.0
 10
68.45635804477989
 20
25.27223298798975
 30
0.0
 10
67.39277042592407
 20
25.88629558604292
 30
0.0
 10
66.69215339336263
 20
26.2907970183911
 30
0.0
 10
65.99734411085444
 20
26.69194534468265
 30
0.0
  0
SPLINE
  5
107
330
1F
100
AcDbEntity
  8
0
  6
Continuous
 62
     7
370
    25
100
AcDbSpline
210
0.0
220
0.0
230
1.0
 70
    24
 71
     3
 72
    14
 73
    10
 74
     0
 42
0.00000001
 43
0.00000001
 40
0.0
 40
0.0
 40
0.0
 40
0.0
 40
0.2500000000000001
 40
0.2500000000000001
 40
0.5000000000000001
 40
0.5000000000000001
 40
0.7500000000000002
 40
0.7500000000000002
 40
1.0
 40
1.0
 40
1.0
 40
1.0
 10
65.99734411085447
 20
26.69194534468263
 30
0.0
 10
65.99734411085447
 20
27.49081190439272
 30
0.0
 10
65.99734411085447
 20
28.29706029873581
 30
0.0
 10
65.99734411085447
 20
29.93114534190837
 30
0.0
 10
65.99734411085447
 20
30.75999070203282
 30
0.0
 10
65.99734411085447
 20
32.44136162663747
 30
0.0
 10
65.99734411085447
 20
33.26876501196829
 30
0.0
 10
65.99734411085447
 20
34.90205738935217
 30
0.0
 10
65.99734411085447
 20
35.70810675979725
 30
0.0
 10
65.99734411085447
 20
36.50689992090628
 30
0.0
  0
CIRCLE
  5
108
330
1F
100
AcDbEntity
  8
0
  6
Continuous
 62
     7
370
    25
100
AcDbCircle
 10
74.4973441109
 20
31.5994226328
 30
0.0
 40
8.249999999999986
  0
CIRCLE
  5
109
330
1F
100
AcDbEntity
  8
0
  6
Continuous
 62
     7
370
    25
100
AcDbCircle
 10
74.4973441109
 20
31.5994226328
 30
0.0
 40
7.149999999999991
  0
CIRCLE
  5
10A
330
1F
100
AcDbEntity
  8
0
  6
Continuous
 62
     7
370
    25
100
AcDbCircle
 10
74.4973441109
 20
31.5994226328
 30
0.0
 40
6.999999999999986
  0
CIRCLE
  5
10B
330
1F
100
AcDbEntity
  8
0
  6
Continuous
 62
     7
370
    25
100
AcDbCircle
 10
74.4973441109
 20
31.5994226328
 30
0.0
 40
6.849999999999994
  0
CIRCLE
  5
10C
330
1F
100
AcDbEntity
  8
0
  6
Continuous
 62
     7
370
    25
100
AcDbCircle
 10
74.4973441109
 20
31.5994226328
 30
0.0
 40
5.25
  0
CIRCLE
  5
10D
330
1F
100
AcDbEntity
  8
0
  6
Continuous
 62
     7
370
    25
100
AcDbCircle
 10
74.4973441109
 20
31.5994226328
 30
0.0
 40
4.6410415637949
  0
CIRCLE
  5
10E
330
1F
100
AcDbEntity
  8
0
  6
Continuous
 62
     7
370
    25
100
AcDbCircle
 10
74.4973441109
 20
31.5994226328
 30
0.0
 40
4.373208708294698
  0
CIRCLE
  5
10F
330
1F
100
AcDbEntity
  8
0
  6
Continuous
 62
     7
370
    25
100
AcDbCircle
 10
74.4973441109
 20
31.5994226328
 30
0.0
 40
4.249999999999986
  0
INSERT
  5
11B
330
1F
100
AcDbEntity
  8
FORMAT
100
AcDbBlockReference
  2
SW_CENTERMARKSYMBOL_0
 10
74.4973441109
 20
31.5994226328
 30
0.0
  0
ARC
  5
11C
330
1F
100
AcDbEntity
  8
0
  6
Continuous
 62
     7
370
    18
100
AcDbCircle
 10
74.4973441109
 20
31.5994226328
 30
0.0
 40
5.178582669361554
100
AcDbArc
 50
75.0
 51
345.0
  0
LINE
  5
11D
330
1F
100
AcDbEntity
  8
0
  6
Continuous
 62
     7
370
    25
100
AcDbLine
 10
57.6239072364
 20
46.3497690531
 30
0.0
 11
57.7682448037
 21
46.5997690531
 31
0.0
  0
LINE
  5
11E
330
1F
100
AcDbEntity
  8
0
  6
Continuous
 62
     7
370
    25
100
AcDbLine
 10
57.7682448037
 20
63.0997690531
 30
0.0
 11
57.6239072364
 21
63.3497690531
 31
0.0
  0
LINE
  5
11F
330
1F
100
AcDbEntity
  8
0
  6
Continuous
 62
     7
370
    25
100
AcDbLine
 10
52.912582371
 20
63.3497690531
 30
0.0
 11
52.7682448037
 21
63.0997690531
 31
0.0
  0
LINE
  5
120
330
1F
100
AcDbEntity
  8
0
  6
Continuous
 62
     7
370
    25
100
AcDbLine
 10
52.7682448037
 20
46.5997690531
 30
0.0
 11
52.912582371
 21
46.3497690531
 31
0.0
  0
LINE
  5
121
330
1F
100
AcDbEntity
  8
0
  6
Continuous
 62
     7
370
    25
100
AcDbLine
 10
52.7682448037
 20
61.6154565531
 30
0.0
 11
42.8570324575
 21
61.3057311673
 31
0.0
  0
LINE
  5
122
330
1F
100
AcDbEntity
  8
0
  6
Continuous
 62
     7
370
    25
100
AcDbLine
 10
42.8570324575
 20
48.3938069389
 30
0.0
 11
52.7682448037
 21
48.0840815531
 31
0.0
  0
LINE
  5
123
330
1F
100
AcDbEntity
  8
0
  6
Continuous
 62
     7
370
    25
100
AcDbLine
 10
42.8570324575
 20
61.3057311673
 30
0.0
 11
40.7682448037
 21
60.0997690531
 31
0.0
  0
LINE
  5
124
330
1F
100
AcDbEntity
  8
0
  6
Continuous
 62
     7
370
    25
100
AcDbLine
 10
40.7682448037
 20
49.5997690531
 30
0.0
 11
42.8570324575
 21
48.3938069389
 31
0.0
  0
SPLINE
  5
125
330
1F
100
AcDbEntity
  8
0
  6
Continuous
 62
     7
370
    25
100
AcDbSpline
210
0.0
220
0.0
230
1.0
 70
     8
 71
     3
 72
    16
 73
    12
 74
     0
 42
0.00000001
 43
0.00000001
 40
0.0
 40
0.0
 40
0.0
 40
0.0
 40
0.2500000000000003
 40
0.2500000000000003
 40
0.5000000000000004
 40
0.5000000000000004
 40
0.6250000000000003
 40
0.6250000000000003
 40
0.7500000000000002
 40
0.7500000000000002
 40
1.0
 40
1.0
 40
1.0
 40
1.0
 10
53.67177174954697
 20
54.84976905311772
 30
0.0
 10
53.44045699586434
 20
55.5437133141656
 30
0.0
 10
53.2498117025339
 20
56.24271704070981
 30
0.0
 10
52.9857060461266
 20
57.65530283111016
 30
0.0
 10
52.91311685481264
 20
58.36899327268851
 30
0.0
 10
52.91231960872169
 20
59.4529753914256
 30
0.0
 10
52.93006486534514
 20
59.81600281974448
 30
0.0
 10
52.99926194887493
 20
60.53410938260824
 30
0.0
 10
53.05064355493721
 20
60.89075511919236
 30
0.0
 10
53.24905155367382
 20
61.95434273804818
 30
0.0
 10
53.44016865537778
 20
62.65495977060963
 30
0.0
 10
53.67177174954718
 20
63.3497690531178
 30
0.0
  0
LINE
  5
126
330
1F
100
AcDbEntity
  8
0
  6
Continuous
 62
     7
370
    25
100
AcDbLine
 10
53.6717717495
 20
63.3497690531
 30
0.0
 11
56.8647178578
 21
63.3497690531
 31
0.0
  0
SPLINE
  5
127
330
1F
100
AcDbEntity
  8
0
  6
Continuous
 62
     7
370
    25
100
AcDbSpline
210
0.0
220
0.0
230
1.0
 70
     8
 71
     3
 72
    16
 73
    12
 74
     0
 42
0.00000001
 43
0.00000001
 40
0.0
 40
0.0
 40
0.0
 40
0.0
 40
0.2500000000000003
 40
0.2500000000000003
 40
0.5000000000000004
 40
0.5000000000000004
 40
0.6250000000000003
 40
0.6250000000000003
 40
0.7500000000000002
 40
0.7500000000000002
 40
1.0
 40
1.0
 40
1.0
 40
1.0
 10
56.86471785784329
 20
54.84976905311772
 30
0.0
 10
57.09603261152592
 20
55.5437133141656
 30
0.0
 10
57.28667790485635
 20
56.24271704070981
 30
0.0
 10
57.55078356126367
 20
57.65530283111016
 30
0.0
 10
57.62337275257762
 20
58.36899327268851
 30
0.0
 10
57.62416999866858
 20
59.4529753914256
 30
0.0
 10
57.60642474204514
 20
59.81600281974448
 30
0.0
 10
57.53722765851534
 20
60.53410938260824
 30
0.0
 10
57.48584605245306
 20
60.89075511919236
 30
0.0
 10
57.28743805371644
 20
61.95434273804818
 30
0.0
 10
57.09632095201249
 20
62.65495977060963
 30
0.0
 10
56.86471785784309
 20
63.3497690531178
 30
0.0
  0
LINE
  5
128
330
1F
100
AcDbEntity
  8
0
  6
Continuous
 62
     7
370
    25
100
AcDbLine
 10
53.6717717495
 20
54.8497690531
 30
0.0
 11
56.8647178578
 21
54.8497690531
 31
0.0
  0
SPLINE
  5
129
330
1F
100
AcDbEntity
  8
0
  6
Continuous
 62
     7
370
    25
100
AcDbSpline
210
0.0
220
0.0
230
1.0
 70
     8
 71
     3
 72
    16
 73
    12
 74
     0
 42
0.00000001
 43
0.00000001
 40
0.0
 40
0.0
 40
0.0
 40
0.0
 40
0.2500000000000002
 40
0.2500000000000002
 40
0.5000000000000003
 40
0.5000000000000003
 40
0.6250000000000002
 40
0.6250000000000002
 40
0.7500000000000002
 40
0.7500000000000002
 40
1.0
 40
1.0
 40
1.0
 40
1.0
 10
56.86471785784329
 20
46.34976905311773
 30
0.0
 10
57.09603261152592
 20
47.04371331416561
 30
0.0
 10
57.28667790485635
 20
47.74271704070981
 30
0.0
 10
57.55078356126367
 20
49.15530283111017
 30
0.0
 10
57.62337275257762
 20
49.86899327268851
 30
0.0
 10
57.62416999866858
 20
50.9529753914256
 30
0.0
 10
57.60642474204513
 20
51.31600281974447
 30
0.0
 10
57.53722765851534
 20
52.03410938260824
 30
0.0
 10
57.48584605245306
 20
52.39075511919236
 30
0.0
 10
57.28743805371644
 20
53.45434273804818
 30
0.0
 10
57.09632095201249
 20
54.15495977060962
 30
0.0
 10
56.86471785784309
 20
54.8497690531178
 30
0.0
  0
SPLINE
  5
12A
330
1F
100
AcDbEntity
  8
0
  6
Continuous
 62
     7
370
    25
100
AcDbSpline
210
0.0
220
0.0
230
1.0
 70
    24
 71
     3
 72
    14
 73
    10
 74
     0
 42
0.00000001
 43
0.00000001
 40
0.0
 40
0.0
 40
0.0
 40
0.0
 40
0.1638182817072825
 40
0.3276821824683748
 40
0.4914624185201356
 40
0.6582743979807015
 40
0.8251902971908043
 40
0.9919715532812601
 40
0.9999999999999999
 40
0.9999999999999999
 40
0.9999999999999999
 40
0.9999999999999999
 10
56.86471785784288
 20
63.34976905311778
 30
0.0
 10
56.93776102076123
 20
63.34976905311778
 30
0.0
 10
57.08386768718473
 20
63.34976905311778
 30
0.0
 10
57.26721183746938
 20
63.34976905311778
 30
0.0
 10
57.41958296427437
 20
63.34976905311778
 30
0.0
 10
57.53457481029817
 20
63.34976905311778
 30
0.0
 10
57.60214093794907
 20
63.34976905311779
 30
0.0
 10
57.63098298760813
 20
63.34976905311776
 30
0.0
 10
57.62318388284572
 20
63.34976905311778
 30
0.0
 10
57.62282569507906
 20
63.34976905311778
 30
0.0
  0
SPLINE
  5
12B
330
1F
100
AcDbEntity
  8
0
  6
Continuous
 62
     7
370
    25
100
AcDbSpline
210
0.0
220
0.0
230
1.0
 70
    24
 71
     3
 72
    13
 73
     9
 74
     0
 42
0.00000001
 43
0.00000001
 40
0.0
 40
0.0
 40
0.0
 40
0.0
 40
0.1580734715734385
 40
0.3243085882093982
 40
0.4904389483904325
 40
0.6602461392929955
 40
0.8301485819264472
 40
0.9999999999999999
 40
0.9999999999999999
 40
0.9999999999999999
 40
0.9999999999999999
 10
57.62282569507906
 20
46.34976905311778
 30
0.0
 10
57.6190817423568
 20
46.34976905311778
 30
0.0
 10
57.61140052925008
 20
46.34976905311778
 30
0.0
 10
57.54256391984883
 20
46.34976905311778
 30
0.0
 10
57.43291714799515
 20
46.34976905311778
 30
0.0
 10
57.27983722425613
 20
46.34976905311778
 30
0.0
 10
57.09169477045374
 20
46.34976905311778
 30
0.0
 10
56.94036925330952
 20
46.34976905311778
 30
0.0
 10
56.86471785784288
 20
46.34976905311778
 30
0.0
  0
LINE
  5
12C
330
1F
100
AcDbEntity
  8
0
  6
Continuous
 62
     7
370
    25
100
AcDbLine
 10
57.7682448037
 20
46.5997690531
 30
0.0
 11
57.7682448037
 21
63.0997690531
 31
0.0
  0
SPLINE
  5
12D
330
1F
100
AcDbEntity
  8
0
  6
Continuous
 62
     7
370
    25
100
AcDbSpline
210
0.0
220
0.0
230
1.0
 70
    24
 71
     3
 72
    13
 73
     9
 74
     0
 42
0.00000001
 43
0.00000001
 40
0.0
 40
0.0
 40
0.0
 40
0.0
 40
0.1580734715734385
 40
0.3243085882093982
 40
0.4904389483904325
 40
0.6602461392929955
 40
0.8301485819264472
 40
0.9999999999999999
 40
0.9999999999999999
 40
0.9999999999999999
 40
0.9999999999999999
 10
52.91366391231121
 20
46.34976905311778
 30
0.0
 10
52.91740786503346
 20
46.34976905311778
 30
0.0
 10
52.92508907814019
 20
46.34976905311778
 30
0.0
 10
52.99392568754143
 20
46.34976905311778
 30
0.0
 10
53.10357245939512
 20
46.34976905311778
 30
0.0
 10
53.25665238313414
 20
46.34976905311778
 30
0.0
 10
53.44479483693653
 20
46.34976905311778
 30
0.0
 10
53.59612035408075
 20
46.34976905311778
 30
0.0
 10
53.67177174954738
 20
46.34976905311778
 30
0.0
  0
SPLINE
  5
12E
330
1F
100
AcDbEntity
  8
0
  6
Continuous
 62
     7
370
    25
100
AcDbSpline
210
0.0
220
0.0
230
1.0
 70
    24
 71
     3
 72
    14
 73
    10
 74
     0
 42
0.00000001
 43
0.00000001
 40
0.0
 40
0.0
 40
0.0
 40
0.0
 40
0.1638182817072825
 40
0.3276821824683748
 40
0.4914624185201356
 40
0.6582743979807015
 40
0.8251902971908043
 40
0.9919715532812601
 40
0.9999999999999999
 40
0.9999999999999999
 40
0.9999999999999999
 40
0.9999999999999999
 10
53.67177174954738
 20
63.34976905311778
 30
0.0
 10
53.59872858662904
 20
63.34976905311778
 30
0.0
 10
53.45262192020554
 20
63.34976905311778
 30
0.0
 10
53.26927776992089
 20
63.34976905311778
 30
0.0
 10
53.1169066431159
 20
63.34976905311778
 30
0.0
 10
53.00191479709209
 20
63.34976905311778
 30
0.0
 10
52.93434866944119
 20
63.34976905311779
 30
0.0
 10
52.90550661978213
 20
63.34976905311776
 30
0.0
 10
52.91330572454455
 20
63.34976905311778
 30
0.0
 10
52.91366391231121
 20
63.34976905311778
 30
0.0
  0
SPLINE
  5
12F
330
1F
100
AcDbEntity
  8
0
  6
Continuous
 62
     7
370
    25
100
AcDbSpline
210
0.0
220
0.0
230
1.0
 70
     8
 71
     3
 72
    16
 73
    12
 74
     0
 42
0.00000001
 43
0.00000001
 40
0.0
 40
0.0
 40
0.0
 40
0.0
 40
0.2500000000000002
 40
0.2500000000000002
 40
0.5000000000000003
 40
0.5000000000000003
 40
0.6250000000000002
 40
0.6250000000000002
 40
0.7500000000000002
 40
0.7500000000000002
 40
1.0
 40
1.0
 40
1.0
 40
1.0
 10
53.67177174954697
 20
46.34976905311773
 30
0.0
 10
53.44045699586434
 20
47.04371331416561
 30
0.0
 10
53.2498117025339
 20
47.74271704070981
 30
0.0
 10
52.9857060461266
 20
49.15530283111017
 30
0.0
 10
52.91311685481264
 20
49.86899327268851
 30
0.0
 10
52.91231960872169
 20
50.9529753914256
 30
0.0
 10
52.93006486534514
 20
51.31600281974447
 30
0.0
 10
52.99926194887493
 20
52.03410938260824
 30
0.0
 10
53.05064355493721
 20
52.39075511919236
 30
0.0
 10
53.24905155367382
 20
53.45434273804818
 30
0.0
 10
53.44016865537778
 20
54.15495977060962
 30
0.0
 10
53.67177174954718
 20
54.8497690531178
 30
0.0
  0
LINE
  5
130
330
1F
100
AcDbEntity
  8
0
  6
Continuous
 62
     7
370
    25
100
AcDbLine
 10
52.7682448037
 20
46.5997690531
 30
0.0
 11
52.7682448037
 21
63.0997690531
 31
0.0
  0
LINE
  5
131
330
1F
100
AcDbEntity
  8
0
  6
Continuous
 62
     7
370
    25
100
AcDbLine
 10
53.6717717495
 20
46.3497690531
 30
0.0
 11
56.8647178578
 21
46.3497690531
 31
0.0
  0
LINE
  5
132
330
1F
100
AcDbEntity
  8
0
  6
Continuous
 62
     7
370
    25
100
AcDbLine
 10
42.8570324575
 20
54.8497690531
 30
0.0
 11
42.8570324575
 21
61.3057311673
 31
0.0
  0
LINE
  5
133
330
1F
100
AcDbEntity
  8
0
  6
Continuous
 62
     7
370
    25
100
AcDbLine
 10
42.8570324575
 20
48.3938069389
 30
0.0
 11
42.8570324575
 21
54.8497690531
 31
0.0
  0
LINE
  5
134
330
1F
100
AcDbEntity
  8
0
  6
Continuous
 62
     7
370
    25
100
AcDbLine
 10
40.7682448037
 20
49.5997690531
 30
0.0
 11
40.7682448037
 21
60.0997690531
 31
0.0
  0
LINE
  5
135
330
1F
100
AcDbEntity
  8
0
  6
Continuous
 62
     7
370
    18
100
AcDbLine
 10
41.5139419015
 20
60.5302974732
 30
0.0
 11
51.8682448037
 21
60.8538694389
 31
0.0
  0
LINE
  5
136
330
1F
100
AcDbEntity
  8
0
  6
Continuous
 62
     7
370
    18
100
AcDbLine
 10
41.5139419015
 20
49.169240633
 30
0.0
 11
51.8682448037
 21
48.8456686673
 31
0.0
  0
LINE
  5
137
330
1F
100
AcDbEntity
  8
0
  6
Continuous
 62
     7
370
    25
100
AcDbLine
 10
51.8682448037
 20
48.1122065531
 30
0.0
 11
51.8682448037
 21
61.5873315531
 31
0.0
  0
LINE
  5
138
330
1F
100
AcDbEntity
  8
FORMAT
  6
CENTERX2
370
    18
100
AcDbLine
 10
58.3832468343
 20
54.8497690531
 30
0.0
 11
39.7682448037
 21
54.8497690531
 31
0.0
  0
ENDSEC
  0
SECTION
  2
OBJECTS
  0
DICTIONARY
  5
C
330
0
100
AcDbDictionary
281
     1
  3
ACAD_GROUP
350
D
  3
ACAD_LAYOUT
350
1A
  3
ACAD_MLINESTYLE
350
17
  3
ACAD_PLOTSETTINGS
350
19
  3
ACAD_PLOTSTYLENAME
350
E
  3
ACAD_SCALELIST
350
47
  3
DWGPROPS
350
139
  0
DICTIONARY
  5
D
102
{ACAD_REACTORS
330
C
102
}
330
C
100
AcDbDictionary
281
     1
  0
DICTIONARY
  5
1A
102
{ACAD_REACTORS
330
C
102
}
330
C
100
AcDbDictionary
281
     1
  3
Layout1
350
1E
  3
Layout2
350
26
  3
Model
350
22
  0
DICTIONARY
  5
17
102
{ACAD_REACTORS
330
C
102
}
330
C
100
AcDbDictionary
281
     1
  3
Standard
350
18
  0
DICTIONARY
  5
19
102
{ACAD_REACTORS
330
C
102
}
330
C
100
AcDbDictionary
281
     1
  0
ACDBDICTIONARYWDFLT
  5
E
102
{ACAD_REACTORS
330
C
102
}
330
C
100
AcDbDictionary
281
     1
  3
Normal
350
F
100
AcDbDictionaryWithDefault
340
F
  0
DICTIONARY
  5
47
102
{ACAD_REACTORS
330
C
102
}
330
C
100
AcDbDictionary
281
     1
  3
A0
350
48
  3
A1
350
49
  3
A2
350
4A
  3
A3
350
4B
  3
A4
350
4C
  3
A5
350
4D
  3
A6
350
4E
  3
A7
350
4F
  3
A8
350
50
  3
A9
350
51
  3
B0
350
52
  3
B1
350
53
  3
B2
350
54
  3
B3
350
55
  3
B4
350
56
  3
B5
350
57
  3
B6
350
58
  0
XRECORD
  5
139
102
{ACAD_REACTORS
330
C
102
}
330
C
100
AcDbXrecord
280
     1
  1
DWGPROPS COOKIE
  2

  3

  4

  6

  7

  8
user28
  9

300
=
301
=
302
=
303
=
304
=
305
=
306
=
307
=
308
=
309
=
 40
0.0
 41
2460406.303907732
 42
2460406.303908322
  1

 90
        0
  0
LAYOUT
  5
1E
102
{ACAD_REACTORS
330
1A
102
}
330
1A
100
AcDbPlotSettings
  1

  2
none_device
  4

  6

 40
0.0
 41
0.0
 42
0.0
 43
0.0
 44
0.0
 45
0.0
 46
0.0
 47
0.0
 48
0.0
 49
0.0
140
0.0
141
0.0
142
1.0
143
1.0
 70
   688
 72
     1
 73
     0
 74
     5
  7

 75
    16
147
1.0
148
0.0
149
0.0
100
AcDbLayout
  1
Layout1
 70
     1
 71
     1
 10
0.0
 20
0.0
 11
420.0
 21
297.0
 12
0.0
 22
0.0
 32
0.0
 14
1.0000000000E+20
 24
1.0000000000E+20
 34
1.0000000000E+20
 15
-1.0000000000E+20
 25
-1.0000000000E+20
 35
-1.0000000000E+20
146
0.0
 13
0.0
 23
0.0
 33
0.0
 16
1.0
 26
0.0
 36
0.0
 17
0.0
 27
1.0
 37
0.0
 76
     0
330
1B
  0
LAYOUT
  5
26
102
{ACAD_REACTORS
330
1A
102
}
330
1A
100
AcDbPlotSettings
  1

  2
none_device
  4

  6

 40
0.0
 41
0.0
 42
0.0
 43
0.0
 44
0.0
 45
0.0
 46
0.0
 47
0.0
 48
0.0
 49
0.0
140
0.0
141
0.0
142
1.0
143
1.0
 70
   688
 72
     1
 73
     0
 74
     5
  7

 75
    16
147
1.0
148
0.0
149
0.0
100
AcDbLayout
  1
Layout2
 70
     1
 71
     2
 10
0.0
 20
0.0
 11
0.0
 21
0.0
 12
0.0
 22
0.0
 32
0.0
 14
0.0
 24
0.0
 34
0.0
 15
0.0
 25
0.0
 35
0.0
146
0.0
 13
0.0
 23
0.0
 33
0.0
 16
1.0
 26
0.0
 36
0.0
 17
0.0
 27
1.0
 37
0.0
 76
     0
330
23
  0
LAYOUT
  5
22
102
{ACAD_REACTORS
330
1A
102
}
330
1A
100
AcDbPlotSettings
  1

  2
none_device
  4
Letter_(8.50_x_11.00_Inches)
  6

 40
6.35
 41
6.35
 42
6.35000508
 43
6.35000508
 44
215.9
 45
279.4
 46
0.0
 47
0.0
 48
0.0
 49
0.0
140
0.0
141
0.0
142
1.0
143
1.0
 70
  1712
 72
     1
 73
     0
 74
     0
  7

 75
     0
147
1.0
148
0.0
149
0.0
100
AcDbLayout
  1
Model
 70
     1
 71
     0
 10
0.0
 20
0.0
 11
148.5
 21
105.0
 12
0.0
 22
0.0
 32
0.0
 14
0.0
 24
0.0
 34
0.0
 15
148.5
 25
105.0
 35
0.0
146
0.0
 13
0.0
 23
0.0
 33
0.0
 16
1.0
 26
0.0
 36
0.0
 17
0.0
 27
1.0
 37
0.0
 76
     0
330
1F
331
29
  0
MLINESTYLE
  5
18
102
{ACAD_REACTORS
330
17
102
}
330
17
100
AcDbMlineStyle
  2
Standard
 70
     0
  3

 62
   256
 51
90.0
 52
90.0
 71
     2
 49
0.5
 62
   256
  6
BYLAYER
 49
-0.5
 62
   256
  6
BYLAYER
  0
ACDBPLACEHOLDER
  5
F
102
{ACAD_REACTORS
330
E
102
}
330
E
  0
SCALE
  5
48
102
{ACAD_REACTORS
330
47
102
}
330
47
100
AcDbScale
 70
     0
300
1:1
140
1.0
141
1.0
290
     1
  0
SCALE
  5
49
102
{ACAD_REACTORS
330
47
102
}
330
47
100
AcDbScale
 70
     0
300
1:2
140
1.0
141
2.0
290
     0
  0
SCALE
  5
4A
102
{ACAD_REACTORS
330
47
102
}
330
47
100
AcDbScale
 70
     0
300
1:4
140
1.0
141
4.0
290
     0
  0
SCALE
  5
4B
102
{ACAD_REACTORS
330
47
102
}
330
47
100
AcDbScale
 70
     0
300
1:5
140
1.0
141
5.0
290
     0
  0
SCALE
  5
4C
102
{ACAD_REACTORS
330
47
102
}
330
47
100
AcDbScale
 70
     0
300
1:8
140
1.0
141
8.0
290
     0
  0
SCALE
  5
4D
102
{ACAD_REACTORS
330
47
102
}
330
47
100
AcDbScale
 70
     0
300
1:10
140
1.0
141
10.0
290
     0
  0
SCALE
  5
4E
102
{ACAD_REACTORS
330
47
102
}
330
47
100
AcDbScale
 70
     0
300
1:16
140
1.0
141
16.0
290
     0
  0
SCALE
  5
4F
102
{ACAD_REACTORS
330
47
102
}
330
47
100
AcDbScale
 70
     0
300
1:20
140
1.0
141
20.0
290
     0
  0
SCALE
  5
50
102
{ACAD_REACTORS
330
47
102
}
330
47
100
AcDbScale
 70
     0
300
1:30
140
1.0
141
30.0
290
     0
  0
SCALE
  5
51
102
{ACAD_REACTORS
330
47
102
}
330
47
100
AcDbScale
 70
     0
300
1:40
140
1.0
141
40.0
290
     0
  0
SCALE
  5
52
102
{ACAD_REACTORS
330
47
102
}
330
47
100
AcDbScale
 70
     0
300
1:50
140
1.0
141
50.0
290
     0
  0
SCALE
  5
53
102
{ACAD_REACTORS
330
47
102
}
330
47
100
AcDbScale
 70
     0
300
1:100
140
1.0
141
100.0
290
     0
  0
SCALE
  5
54
102
{ACAD_REACTORS
330
47
102
}
330
47
100
AcDbScale
 70
     0
300
2:1
140
2.0
141
1.0
290
     0
  0
SCALE
  5
55
102
{ACAD_REACTORS
330
47
102
}
330
47
100
AcDbScale
 70
     0
300
4:1
140
4.0
141
1.0
290
     0
  0
SCALE
  5
56
102
{ACAD_REACTORS
330
47
102
}
330
47
100
AcDbScale
 70
     0
300
8:1
140
8.0
141
1.0
290
     0
  0
SCALE
  5
57
102
{ACAD_REACTORS
330
47
102
}
330
47
100
AcDbScale
 70
     0
300
10:1
140
10.0
141
1.0
290
     0
  0
SCALE
  5
58
102
{ACAD_REACTORS
330
47
102
}
330
47
100
AcDbScale
 70
     0
300
100:1
140
100.0
141
1.0
290
     0
  0
ENDSEC
  0
EOF
