  0
SECTION
  2
HEADER
  9
$ACADVER
  1
AC1015
  9
$ACADMAINTVER
 70
     6
  9
$DWGCODEPAGE
  3
DOS932
  9
$INSBASE
 10
0.0
 20
0.0
 30
0.0
  9
$EXTMIN
 10
0.0
 20
0.0
 30
0.0
  9
$EXTMAX
 10
431.8
 20
279.4
 30
0.0
  9
$LIMMIN
 10
0.0
 20
0.0
  9
$LIMMAX
 10
431.8
 20
279.4
  9
$ORTHOMODE
 70
     0
  9
$REGENMODE
 70
     1
  9
$FILLMODE
 70
     1
  9
$QTEXTMODE
 70
     0
  9
$MIRRTEXT
 70
     1
  9
$LTSCALE
 40
1.0
  9
$ATTMODE
 70
     1
  9
$TEXTSIZE
 40
3.5
  9
$TRACEWID
 40
1.0
  9
$TEXTSTYLE
  7
Standard
  9
$CLAYER
  8
0
  9
$CELTYPE
  6
ByLayer
  9
$CECOLOR
 62
   256
  9
$CELTSCALE
 40
1.0
  9
$DISPSILH
 70
     0
  9
$DIMSCALE
 40
1.0
  9
$DIMASZ
 40
3.302
  9
$DIMEXO
 40
1.0
  9
$DIMDLI
 40
3.75
  9
$DIMRND
 40
0.0
  9
$DIMDLE
 40
0.0
  9
$DIMEXE
 40
1.0
  9
$DIMTP
 40
0.0
  9
$DIMTM
 40
0.0
  9
$DIMTXT
 40
3.5
  9
$DIMCEN
 40
2.5
  9
$DIMTSZ
 40
0.0
  9
$DIMTOL
 70
     0
  9
$DIMLIM
 70
     0
  9
$DIMTIH
 70
     1
  9
$DIMTOH
 70
     1
  9
$DIMSE1
 70
     0
  9
$DIMSE2
 70
     0
  9
$DIMTAD
 70
     1
  9
$DIMZIN
 70
     1
  9
$DIMBLK
  1

  9
$DIMASO
 70
     1
  9
$DIMSHO
 70
     1
  9
$DIMPOST
  1

  9
$DIMAPOST
  1

  9
$DIMALT
 70
     0
  9
$DIMALTD
 70
     3
  9
$DIMALTF
 40
0.0393700787
  9
$DIMLFAC
 40
1.0
  9
$DIMTOFL
 70
     1
  9
$DIMTVP
 40
0.0
  9
$DIMTIX
 70
     0
  9
$DIMSOXD
 70
     0
  9
$DIMSAH
 70
     0
  9
$DIMBLK1
  1

  9
$DIMBLK2
  1

  9
$DIMSTYLE
  2
ISO-25
  9
$DIMCLRD
 70
     0
  9
$DIMCLRE
 70
     0
  9
$DIMCLRT
 70
     0
  9
$DIMTFAC
 40
1.0
  9
$DIMGAP
 40
1.524
  9
$DIMJUST
 70
     0
  9
$DIMSD1
 70
     0
  9
$DIMSD2
 70
     0
  9
$DIMTOLJ
 70
     0
  9
$DIMTZIN
 70
     1
  9
$DIMALTZ
 70
     0
  9
$DIMALTTZ
 70
     0
  9
$DIMUPT
 70
     0
  9
$DIMDEC
 70
     2
  9
$DIMTDEC
 70
     2
  9
$DIMALTU
 70
     2
  9
$DIMALTTD
 70
     3
  9
$DIMTXSTY
  7
Standard
  9
$DIMAUNIT
 70
     0
  9
$DIMADEC
 70
     2
  9
$DIMALTRND
 40
0.0
  9
$DIMAZIN
 70
     0
  9
$DIMDSEP
 70
    44
  9
$DIMATFIT
 70
     3
  9
$DIMFRAC
 70
     0
  9
$DIMLDRBLK
  1

  9
$DIMLUNIT
 70
     2
  9
$DIMLWD
 70
    -2
  9
$DIMLWE
 70
    -2
  9
$DIMTMOVE
 70
     0
  9
$LUNITS
 70
     2
  9
$LUPREC
 70
     2
  9
$SKETCHINC
 40
1.0
  9
$FILLETRAD
 40
10.0
  9
$AUNITS
 70
     0
  9
$AUPREC
 70
     2
  9
$MENU
  1
.
  9
$ELEVATION
 40
0.0
  9
$PELEVATION
 40
0.0
  9
$THICKNESS
 40
0.0
  9
$LIMCHECK
 70
     0
  9
$CHAMFERA
 40
0.0
  9
$CHAMFERB
 40
0.0
  9
$CHAMFERC
 40
0.0
  9
$CHAMFERD
 40
0.0
  9
$SKPOLY
 70
     0
  9
$TDCREATE
 40
2459249.389755058
  9
$TDUCREATE
 40
2459249.014755058
  9
$TDUPDATE
 40
2459249.389755787
  9
$TDUUPDATE
 40
2459249.014755787
  9
$TDINDWG
 40
0.0000000116
  9
$TDUSRTIMER
 40
0.0000000116
  9
$USRTIMER
 70
     1
  9
$ANGBASE
 50
0.0
  9
$ANGDIR
 70
     0
  9
$PDMODE
 70
     0
  9
$PDSIZE
 40
-1.0
  9
$PLINEWID
 40
0.0
  9
$SPLFRAME
 70
     0
  9
$SPLINETYPE
 70
     6
  9
$SPLINESEGS
 70
     8
  9
$HANDSEED
  5
220
  9
$SURFTAB1
 70
     6
  9
$SURFTAB2
 70
     6
  9
$SURFTYPE
 70
     6
  9
$SURFU
 70
     6
  9
$SURFV
 70
     6
  9
$UCSBASE
  2

  9
$UCSNAME
  2

  9
$UCSORG
 10
0.0
 20
0.0
 30
0.0
  9
$UCSXDIR
 10
1.0
 20
0.0
 30
0.0
  9
$UCSYDIR
 10
0.0
 20
1.0
 30
0.0
  9
$UCSORTHOREF
  2

  9
$UCSORTHOVIEW
 70
     0
  9
$UCSORGTOP
 10
0.0
 20
0.0
 30
0.0
  9
$UCSORGBOTTOM
 10
0.0
 20
0.0
 30
0.0
  9
$UCSORGLEFT
 10
0.0
 20
0.0
 30
0.0
  9
$UCSORGRIGHT
 10
0.0
 20
0.0
 30
0.0
  9
$UCSORGFRONT
 10
0.0
 20
0.0
 30
0.0
  9
$UCSORGBACK
 10
0.0
 20
0.0
 30
0.0
  9
$PUCSBASE
  2

  9
$PUCSNAME
  2

  9
$PUCSORG
 10
0.0
 20
0.0
 30
0.0
  9
$PUCSXDIR
 10
1.0
 20
0.0
 30
0.0
  9
$PUCSYDIR
 10
0.0
 20
1.0
 30
0.0
  9
$PUCSORTHOREF
  2

  9
$PUCSORTHOVIEW
 70
     0
  9
$PUCSORGTOP
 10
0.0
 20
0.0
 30
0.0
  9
$PUCSORGBOTTOM
 10
0.0
 20
0.0
 30
0.0
  9
$PUCSORGLEFT
 10
0.0
 20
0.0
 30
0.0
  9
$PUCSORGRIGHT
 10
0.0
 20
0.0
 30
0.0
  9
$PUCSORGFRONT
 10
0.0
 20
0.0
 30
0.0
  9
$PUCSORGBACK
 10
0.0
 20
0.0
 30
0.0
  9
$USERI1
 70
     0
  9
$USERI2
 70
     0
  9
$USERI3
 70
     0
  9
$USERI4
 70
     0
  9
$USERI5
 70
     0
  9
$USERR1
 40
0.0
  9
$USERR2
 40
0.0
  9
$USERR3
 40
0.0
  9
$USERR4
 40
0.0
  9
$USERR5
 40
0.0
  9
$WORLDVIEW
 70
     1
  9
$SHADEDGE
 70
     3
  9
$SHADEDIF
 70
    70
  9
$TILEMODE
 70
     1
  9
$MAXACTVP
 70
    64
  9
$PINSBASE
 10
0.0
 20
0.0
 30
0.0
  9
$PLIMCHECK
 70
     0
  9
$PEXTMIN
 10
1.0000000000E+20
 20
1.0000000000E+20
 30
1.0000000000E+20
  9
$PEXTMAX
 10
-1.0000000000E+20
 20
-1.0000000000E+20
 30
-1.0000000000E+20
  9
$PLIMMIN
 10
0.0
 20
0.0
  9
$PLIMMAX
 10
420.0
 20
297.0
  9
$UNITMODE
 70
     0
  9
$VISRETAIN
 70
     1
  9
$PLINEGEN
 70
     0
  9
$PSLTSCALE
 70
     1
  9
$TREEDEPTH
 70
  3020
  9
$CMLSTYLE
  2
Standard
  9
$CMLJUST
 70
     0
  9
$CMLSCALE
 40
20.0
  9
$PROXYGRAPHICS
 70
     1
  9
$MEASUREMENT
 70
     1
  9
$CELWEIGHT
370
    -1
  9
$ENDCAPS
280
     0
  9
$JOINSTYLE
280
     0
  9
$LWDISPLAY
290
     1
  9
$INSUNITS
 70
     4
  9
$HYPERLINKBASE
  1

  9
$STYLESHEET
  1

  9
$XEDIT
290
     1
  9
$CEPSNTYPE
380
     0
  9
$PSTYLEMODE
290
     1
  9
$FINGERPRINTGUID
  2
{104D4F2E-88E0-424A-896D-21E0C6F07C32}
  9
$VERSIONGUID
  2
{FAEB1C32-E019-11D5-929B-00C0DF256EC4}
  9
$EXTNAMES
290
     1
  9
$PSVPSCALE
 40
0.0
  9
$OLESTARTUP
290
     0
  0
ENDSEC
  0
SECTION
  2
CLASSES
  0
CLASS
  1
ACDBDICTIONARYWDFLT
  2
AcDbDictionaryWithDefault
  3
ObjectDBX Classes
 90
        0
280
     0
281
     0
  0
CLASS
  1
VISUALSTYLE
  2
AcDbVisualStyle
  3
ObjectDBX Classes
 90
     4095
280
     0
281
     0
  0
CLASS
  1
MATERIAL
  2
AcDbMaterial
  3
ObjectDBX Classes
 90
     1153
280
     0
281
     0
  0
CLASS
  1
SCALE
  2
AcDbScale
  3
ObjectDBX Classes
 90
     1153
280
     0
281
     0
  0
CLASS
  1
TABLESTYLE
  2
AcDbTableStyle
  3
ObjectDBX Classes
 90
     4095
280
     0
281
     0
  0
CLASS
  1
MLEADERSTYLE
  2
AcDbMLeaderStyle
  3
ACDB_MLEADERSTYLE_CLASS
 90
     4095
280
     0
281
     0
  0
CLASS
  1
SUN
  2
AcDbSun
  3
SCENEOE
 90
     1153
280
     0
281
     0
  0
CLASS
  1
ACDBPLACEHOLDER
  2
AcDbPlaceHolder
  3
ObjectDBX Classes
 90
        0
280
     0
281
     0
  0
CLASS
  1
LAYOUT
  2
AcDbLayout
  3
ObjectDBX Classes
 90
        0
280
     0
281
     0
  0
ENDSEC
  0
SECTION
  2
TABLES
  0
TABLE
  2
VPORT
  5
8
330
0
100
AcDbSymbolTable
 70
     1
  0
VPORT
  5
29
330
8
100
AcDbSymbolTableRecord
100
AcDbViewportTableRecord
  2
*Active
 70
     0
 10
0.0
 20
0.0
 11
1.0
 21
1.0
 12
215.9
 22
139.7
 13
0.0
 23
0.0
 14
10.0
 24
10.0
 15
10.0
 25
10.0
 16
0.0
 26
0.0
 36
1.0
 17
0.0
 27
0.0
 37
0.0
 40
279.4
 41
1.5454545455
 42
50.0
 43
0.0
 44
0.0
 50
0.0
 51
0.0
 71
     0
 72
  2000
 73
     1
 74
     3
 75
     0
 76
     0
 77
     0
 78
     0
281
     0
 65
     1
110
0.0
120
0.0
130
0.0
111
1.0
121
0.0
131
0.0
112
0.0
122
1.0
132
0.0
 79
     0
146
0.0
  0
ENDTAB
  0
TABLE
  2
LTYPE
  5
5
330
0
100
AcDbSymbolTable
 70
     6
  0
LTYPE
  5
14
330
5
100
AcDbSymbolTableRecord
100
AcDbLinetypeTableRecord
  2
ByBlock
 70
     0
  3

 72
    65
 73
     0
 40
0.0
  0
LTYPE
  5
15
330
5
100
AcDbSymbolTableRecord
100
AcDbLinetypeTableRecord
  2
ByLayer
 70
     0
  3

 72
    65
 73
     0
 40
0.0
  0
LTYPE
  5
16
330
5
100
AcDbSymbolTableRecord
100
AcDbLinetypeTableRecord
  2
Continuous
 70
     0
  3
Solid line
 72
    65
 73
     0
 40
0.0
  0
LTYPE
  5
6E
330
5
100
AcDbSymbolTableRecord
100
AcDbLinetypeTableRecord
  2
HIDDEN
 70
     0
  3
Hidden __ __ __ __ __ __ __ __ __ __ __ __ __ __
 72
    65
 73
     2
 40
1.905
 49
1.27
 74
     0
 49
-0.635
 74
     0
  0
LTYPE
  5
6F
330
5
100
AcDbSymbolTableRecord
100
AcDbLinetypeTableRecord
  2
PHANTOM
 70
     0
  3
Phantom ______  __  __  ______  __  __  ______
 72
    65
 73
     6
 40
12.7
 49
6.35
 74
     0
 49
-1.27
 74
     0
 49
1.27
 74
     0
 49
-1.27
 74
     0
 49
1.27
 74
     0
 49
-1.27
 74
     0
  0
LTYPE
  5
70
330
5
100
AcDbSymbolTableRecord
100
AcDbLinetypeTableRecord
  2
CENTER
 70
     0
  3
Center ____ _ ____ _ ____ _ ____ _ ____ _ ____
 72
    65
 73
     4
 40
10.16
 49
6.35
 74
     0
 49
-1.27
 74
     0
 49
1.27
 74
     0
 49
-1.27
 74
     0
  0
LTYPE
  5
71
330
5
100
AcDbSymbolTableRecord
100
AcDbLinetypeTableRecord
  2
CENTERX2
 70
     0
  3
Center (2x) ________  __  ________  __  _____
 72
    65
 73
     4
 40
20.32
 49
12.7
 74
     0
 49
-2.54
 74
     0
 49
2.54
 74
     0
 49
-2.54
 74
     0
  0
LTYPE
  5
72
330
5
100
AcDbSymbolTableRecord
100
AcDbLinetypeTableRecord
  2
DOT2
 70
     0
  3
Dot (.5x) ........................................
 72
    65
 73
     2
 40
0.635
 49
0.0
 74
     0
 49
-0.635
 74
     0
  0
ENDTAB
  0
TABLE
  2
LAYER
  5
2
330
0
100
AcDbSymbolTable
 70
     1
  0
LAYER
  5
10
330
2
100
AcDbSymbolTableRecord
100
AcDbLayerTableRecord
  2
0
 70
     0
 62
     7
  6
Continuous
370
    -3
390
F
  0
ENDTAB
  0
TABLE
  2
STYLE
  5
3
330
0
100
AcDbSymbolTable
 70
     2
  0
STYLE
  5
11
330
3
100
AcDbSymbolTableRecord
100
AcDbTextStyleTableRecord
  2
Standard
 70
     0
 40
0.0
 41
1.0
 50
0.0
 71
     0
 42
3.5
  3
txt
  4
bigfont
  0
STYLE
  5
73
330
3
100
AcDbSymbolTableRecord
100
AcDbTextStyleTableRecord
  2
SLDTEXTSTYLE0
 70
     0
 40
0.0
 41
0.7
 50
0.0
 71
     0
 42
3.5
  3
TXT
  4
bigfont
  0
ENDTAB
  0
TABLE
  2
VIEW
  5
6
330
0
100
AcDbSymbolTable
 70
     0
  0
ENDTAB
  0
TABLE
  2
UCS
  5
7
330
0
100
AcDbSymbolTable
 70
     0
  0
ENDTAB
  0
TABLE
  2
APPID
  5
9
330
0
100
AcDbSymbolTable
 70
     1
  0
APPID
  5
12
330
9
100
AcDbSymbolTableRecord
100
AcDbRegAppTableRecord
  2
ACAD
 70
     0
  0
ENDTAB
  0
TABLE
  2
DIMSTYLE
  5
A
330
0
100
AcDbSymbolTable
 70
     1
100
AcDbDimStyleTable
  0
DIMSTYLE
105
27
330
A
100
AcDbSymbolTableRecord
100
AcDbDimStyleTableRecord
  2
ISO-25
 70
     0
 41
2.5
 42
0.625
 43
3.75
 44
1.25
 73
     0
 74
     0
 77
     1
 78
     8
140
2.5
141
2.5
143
0.0393700787
147
0.625
171
     3
172
     1
178
     0
271
     2
272
     2
274
     3
278
    44
283
     0
284
     8
340
11
  0
ENDTAB
  0
TABLE
  2
BLOCK_RECORD
  5
1
330
0
100
AcDbSymbolTable
 70
     3
  0
BLOCK_RECORD
  5
1F
330
1
100
AcDbSymbolTableRecord
100
AcDbBlockTableRecord
  2
*Model_Space
340
22
  0
BLOCK_RECORD
  5
1B
330
1
100
AcDbSymbolTableRecord
100
AcDbBlockTableRecord
  2
*Paper_Space
340
1E
  0
BLOCK_RECORD
  5
23
330
1
100
AcDbSymbolTableRecord
100
AcDbBlockTableRecord
  2
*Paper_Space0
340
26
  0
BLOCK_RECORD
  5
19D
330
1
100
AcDbSymbolTableRecord
100
AcDbBlockTableRecord
  2
SW_CENTERMARKSYMBOL_0
340
0
102
{BLKREFS
331
1A8
102
}
  0
BLOCK_RECORD
  5
210
330
1
100
AcDbSymbolTableRecord
100
AcDbBlockTableRecord
  2
SW_CENTERMARKSYMBOL_1
340
0
102
{BLKREFS
331
21B
102
}
  0
ENDTAB
  0
ENDSEC
  0
SECTION
  2
BLOCKS
  0
BLOCK
  5
20
330
1F
100
AcDbEntity
  8
0
100
AcDbBlockBegin
  2
*Model_Space
 70
     0
 10
0.0
 20
0.0
 30
0.0
  3
*Model_Space
  1

  0
ENDBLK
  5
21
330
1F
100
AcDbEntity
  8
0
100
AcDbBlockEnd
  0
BLOCK
  5
1C
330
1B
100
AcDbEntity
 67
     1
  8
0
100
AcDbBlockBegin
  2
*Paper_Space
 70
     0
 10
0.0
 20
0.0
 30
0.0
  3
*Paper_Space
  1

  0
ENDBLK
  5
1D
330
1B
100
AcDbEntity
 67
     1
  8
0
100
AcDbBlockEnd
  0
BLOCK
  5
24
330
23
100
AcDbEntity
  8
0
100
AcDbBlockBegin
  2
*Paper_Space0
 70
     0
 10
0.0
 20
0.0
 30
0.0
  3
*Paper_Space0
  1

  0
ENDBLK
  5
25
330
23
100
AcDbEntity
  8
0
100
AcDbBlockEnd
  0
BLOCK
  5
19E
330
19D
100
AcDbEntity
  8
0
100
AcDbBlockBegin
  2
SW_CENTERMARKSYMBOL_0
 70
     0
 10
0.0
 20
0.0
 30
0.0
  3
SW_CENTERMARKSYMBOL_0
  1

  0
LINE
  5
1A0
330
19D
100
AcDbEntity
  8
0
  6
Continuous
 62
     0
370
    18
100
AcDbLine
 10
0.0
 20
0.0
 30
0.0
 11
0.0
 21
2.5
 31
0.0
  0
LINE
  5
1A1
330
19D
100
AcDbEntity
  8
0
  6
Continuous
 62
     0
370
    18
100
AcDbLine
 10
0.0
 20
0.0
 30
0.0
 11
-2.5
 21
0.0
 31
0.0
  0
LINE
  5
1A2
330
19D
100
AcDbEntity
  8
0
  6
Continuous
 62
     0
370
    18
100
AcDbLine
 10
0.0
 20
0.0
 30
0.0
 11
0.0
 21
-2.5
 31
0.0
  0
LINE
  5
1A3
330
19D
100
AcDbEntity
  8
0
  6
Continuous
 62
     0
370
    18
100
AcDbLine
 10
0.0
 20
0.0
 30
0.0
 11
2.5
 21
0.0
 31
0.0
  0
LINE
  5
1A4
330
19D
100
AcDbEntity
  8
0
  6
Continuous
 62
     0
370
    18
100
AcDbLine
 10
0.0
 20
5.0
 30
0.0
 11
0.0
 21
26.6948774218
 31
0.0
  0
LINE
  5
1A5
330
19D
100
AcDbEntity
  8
0
  6
Continuous
 62
     0
370
    18
100
AcDbLine
 10
-5.0
 20
0.0
 30
0.0
 11
-10.5305201947
 21
0.0
 31
0.0
  0
LINE
  5
1A6
330
19D
100
AcDbEntity
  8
0
  6
Continuous
 62
     0
370
    18
100
AcDbLine
 10
0.0
 20
-5.0
 30
0.0
 11
0.0
 21
-9.6985710807
 31
0.0
  0
LINE
  5
1A7
330
19D
100
AcDbEntity
  8
0
  6
Continuous
 62
     0
370
    18
100
AcDbLine
 10
5.0
 20
0.0
 30
0.0
 11
9.931356453
 21
0.0
 31
0.0
  0
ENDBLK
  5
19F
330
19D
100
AcDbEntity
  8
0
100
AcDbBlockEnd
  0
BLOCK
  5
211
330
210
100
AcDbEntity
  8
0
100
AcDbBlockBegin
  2
SW_CENTERMARKSYMBOL_1
 70
     0
 10
0.0
 20
0.0
 30
0.0
  3
SW_CENTERMARKSYMBOL_1
  1

  0
LINE
  5
213
330
210
100
AcDbEntity
  8
0
  6
Continuous
 62
     0
370
    18
100
AcDbLine
 10
0.0
 20
0.0
 30
0.0
 11
0.0
 21
2.5
 31
0.0
  0
LINE
  5
214
330
210
100
AcDbEntity
  8
0
  6
Continuous
 62
     0
370
    18
100
AcDbLine
 10
0.0
 20
0.0
 30
0.0
 11
-2.5
 21
0.0
 31
0.0
  0
LINE
  5
215
330
210
100
AcDbEntity
  8
0
  6
Continuous
 62
     0
370
    18
100
AcDbLine
 10
0.0
 20
0.0
 30
0.0
 11
0.0
 21
-2.5
 31
0.0
  0
LINE
  5
216
330
210
100
AcDbEntity
  8
0
  6
Continuous
 62
     0
370
    18
100
AcDbLine
 10
0.0
 20
0.0
 30
0.0
 11
2.5
 21
0.0
 31
0.0
  0
LINE
  5
217
330
210
100
AcDbEntity
  8
0
  6
Continuous
 62
     0
370
    18
100
AcDbLine
 10
0.0
 20
5.0
 30
0.0
 11
0.0
 21
10.2717036857
 31
0.0
  0
LINE
  5
218
330
210
100
AcDbEntity
  8
0
  6
Continuous
 62
     0
370
    18
100
AcDbLine
 10
-5.0
 20
0.0
 30
0.0
 11
-10.5593587035
 21
0.0
 31
0.0
  0
LINE
  5
219
330
210
100
AcDbEntity
  8
0
  6
Continuous
 62
     0
370
    18
100
AcDbLine
 10
0.0
 20
-5.0
 30
0.0
 11
0.0
 21
-9.7371424827
 31
0.0
  0
LINE
  5
21A
330
210
100
AcDbEntity
  8
0
  6
Continuous
 62
     0
370
    18
100
AcDbLine
 10
5.0
 20
0.0
 30
0.0
 11
26.4622823989
 21
0.0
 31
0.0
  0
ENDBLK
  5
212
330
210
100
AcDbEntity
  8
0
100
AcDbBlockEnd
  0
ENDSEC
  0
SECTION
  2
ENTITIES
  0
MTEXT
  5
74
330
1F
100
AcDbEntity
  8
0
  6
Continuous
 62
     7
370
     0
100
AcDbMText
 10
194.5056267292
 20
128.6219790329
 30
0.0
 40
3.7041666667
 41
0.0
 71
     1
 72
     1
  1
5R-LM1033
  7
SLDTEXTSTYLE0
 73
     1
 44
1.0
  0
ARC
  5
75
330
1F
100
AcDbEntity
  8
0
  6
Continuous
 62
     7
370
    25
100
AcDbCircle
 10
182.0922147521
 20
100.7326603011
 30
0.0
 40
1.00000000000001
100
AcDbArc
 50
148.0359610897
 51
180.0
  0
ARC
  5
76
330
1F
100
AcDbEntity
  8
0
  6
Continuous
 62
     7
370
    25
100
AcDbCircle
 10
182.0922147521
 20
84.7326603011
 30
0.0
 40
1.000000000000018
100
AcDbArc
 50
180.0
 51
211.9640389103
  0
LINE
  5
77
330
1F
100
AcDbEntity
  8
0
  6
Continuous
 62
     7
370
    25
100
AcDbLine
 10
181.2438341716
 20
84.203273818
 30
0.0
 11
192.0268881061
 21
84.5402440206
 31
0.0
  0
LINE
  5
78
330
1F
100
AcDbEntity
  8
0
  6
Continuous
 62
     7
370
    25
100
AcDbLine
 10
192.0268881061
 20
100.9250765817
 30
0.0
 11
181.2438341716
 21
101.2620467843
 31
0.0
  0
ARC
  5
79
330
1F
100
AcDbEntity
  8
0
  6
Continuous
 62
     7
370
    25
100
AcDbCircle
 10
161.0922147521
 20
105.7326603011
 30
0.0
 40
1.000000000000005
100
AcDbArc
 50
238.0359610897
 51
270.0
  0
ARC
  5
7A
330
1F
100
AcDbEntity
  8
0
  6
Continuous
 62
     7
370
    25
100
AcDbCircle
 10
177.0922147521
 20
105.7326603011
 30
0.0
 40
1.0
100
AcDbArc
 50
270.0
 51
301.9640389103
  0
LINE
  5
7B
330
1F
100
AcDbEntity
  8
0
  6
Continuous
 62
     7
370
    25
100
AcDbLine
 10
177.6216012352
 20
104.8842797206
 30
0.0
 11
177.2846310326
 21
115.6673336552
 31
0.0
  0
LINE
  5
7C
330
1F
100
AcDbEntity
  8
0
  6
Continuous
 62
     7
370
    25
100
AcDbLine
 10
160.8997984716
 20
115.6673336552
 30
0.0
 11
160.562828269
 21
104.8842797206
 31
0.0
  0
LINE
  5
7D
330
1F
100
AcDbEntity
  8
0
  6
Continuous
 62
     7
370
    25
100
AcDbLine
 10
192.0268881061
 20
84.5402440206
 30
0.0
 11
194.0922151246
 21
85.7326600851
 31
0.0
  0
LINE
  5
7E
330
1F
100
AcDbEntity
  8
0
  6
Continuous
 62
     7
370
    25
100
AcDbLine
 10
194.0922151246
 20
99.7326605172
 30
0.0
 11
192.0268881061
 21
100.9250765817
 31
0.0
  0
LINE
  5
7F
330
1F
100
AcDbEntity
  8
0
  6
Continuous
 62
     7
370
    25
100
AcDbLine
 10
177.2846310326
 20
115.6673336552
 30
0.0
 11
176.0922149682
 21
117.7326606737
 31
0.0
  0
LINE
  5
80
330
1F
100
AcDbEntity
  8
0
  6
Continuous
 62
     7
370
    25
100
AcDbLine
 10
162.092214536
 20
117.7326606737
 30
0.0
 11
160.8997984716
 21
115.6673336552
 31
0.0
  0
ARC
  5
81
330
1F
100
AcDbEntity
  8
0
  6
Continuous
 62
     7
370
    25
100
AcDbCircle
 10
180.0922147521
 20
100.7326603011
 30
0.0
 40
1.0
100
AcDbArc
 50
270.0
 51
0.0
  0
ARC
  5
82
330
1F
100
AcDbEntity
  8
0
  6
Continuous
 62
     7
370
    25
100
AcDbCircle
 10
180.0922147521
 20
84.7326603011
 30
0.0
 40
1.0
100
AcDbArc
 50
0.0
 51
90.0
  0
ARC
  5
83
330
1F
100
AcDbEntity
  8
0
  6
Continuous
 62
     7
370
    25
100
AcDbCircle
 10
161.0922147521
 20
103.7326603011
 30
0.0
 40
1.0
100
AcDbArc
 50
0.0
 51
90.0
  0
ARC
  5
84
330
1F
100
AcDbEntity
  8
0
  6
Continuous
 62
     7
370
    25
100
AcDbCircle
 10
177.0922147521
 20
103.7326603011
 30
0.0
 40
1.0
100
AcDbArc
 50
90.0
 51
180.0
  0
LINE
  5
85
330
1F
100
AcDbEntity
  8
0
  6
Continuous
 62
     7
370
    25
100
AcDbLine
 10
176.0922149682
 20
99.7326605172
 30
0.0
 11
176.0922149682
 21
103.7326602415
 31
0.0
  0
LINE
  5
86
330
1F
100
AcDbEntity
  8
0
  6
Continuous
 62
     7
370
    25
100
AcDbLine
 10
162.092214536
 20
103.7326602415
 30
0.0
 11
162.092214536
 21
87.7326604129
 31
0.0
  0
LINE
  5
87
330
1F
100
AcDbEntity
  8
0
  6
Continuous
 62
     7
370
    25
100
AcDbLine
 10
164.0922148639
 20
85.7326600851
 30
0.0
 11
180.0922146925
 21
85.7326600851
 31
0.0
  0
LINE
  5
88
330
1F
100
AcDbEntity
  8
0
  6
Continuous
 62
     7
370
    25
100
AcDbLine
 10
180.0922146925
 20
99.7326605172
 30
0.0
 11
176.0922149682
 21
99.7326605172
 31
0.0
  0
ARC
  5
89
330
1F
100
AcDbEntity
  8
0
  6
Continuous
 62
     7
370
    25
100
AcDbCircle
 10
164.0922147521
 20
87.7326603011
 30
0.0
 40
2.000000000000011
100
AcDbArc
 50
179.8251483916
 51
270.2475904702
  0
LINE
  5
8A
330
1F
100
AcDbEntity
  8
0
  6
Continuous
 62
     7
370
    25
100
AcDbLine
 10
181.2438341716
 20
84.203273818
 30
0.0
 11
181.2438341716
 21
101.2620467843
 31
0.0
  0
LINE
  5
8B
330
1F
100
AcDbEntity
  8
0
  6
Continuous
 62
     7
370
    25
100
AcDbLine
 10
181.0922148564
 20
84.7326599212
 30
0.0
 11
181.0922148564
 21
100.7326606811
 31
0.0
  0
LINE
  5
8C
330
1F
100
AcDbEntity
  8
0
  6
Continuous
 62
     7
370
    25
100
AcDbLine
 10
192.0268881061
 20
92.7326603011
 30
0.0
 11
192.0268881061
 21
100.9250765817
 31
0.0
  0
LINE
  5
8D
330
1F
100
AcDbEntity
  8
0
  6
Continuous
 62
     7
370
    25
100
AcDbLine
 10
192.0268881061
 20
84.5402440206
 30
0.0
 11
192.0268881061
 21
92.7326603011
 31
0.0
  0
LINE
  5
8E
330
1F
100
AcDbEntity
  8
0
  6
Continuous
 62
     7
370
    25
100
AcDbLine
 10
177.6216012352
 20
104.8842797206
 30
0.0
 11
160.562828269
 21
104.8842797206
 31
0.0
  0
LINE
  5
8F
330
1F
100
AcDbEntity
  8
0
  6
Continuous
 62
     7
370
    25
100
AcDbLine
 10
161.0922143721
 20
104.7326604055
 30
0.0
 11
177.0922151321
 21
104.7326604055
 31
0.0
  0
LINE
  5
90
330
1F
100
AcDbEntity
  8
0
  6
Continuous
 62
     7
370
    25
100
AcDbLine
 10
160.8997984716
 20
115.6673336552
 30
0.0
 11
177.2846310326
 21
115.6673336552
 31
0.0
  0
LINE
  5
91
330
1F
100
AcDbEntity
  8
0
  6
Continuous
 62
     7
370
    25
100
AcDbLine
 10
194.0922151246
 20
99.7326605172
 30
0.0
 11
194.0922151246
 21
85.7326600851
 31
0.0
  0
LINE
  5
92
330
1F
100
AcDbEntity
  8
0
  6
Continuous
 62
     7
370
    25
100
AcDbLine
 10
176.0922149682
 20
117.7326606737
 30
0.0
 11
162.092214536
 21
117.7326606737
 31
0.0
  0
LINE
  5
93
330
1F
100
AcDbEntity
  8
0
  6
Continuous
 62
     7
370
    25
100
AcDbLine
 10
163.3422147409
 20
100.2326601335
 30
0.0
 11
166.4464635235
 21
100.2326601335
 31
0.0
  0
SPLINE
  5
94
330
1F
100
AcDbEntity
  8
0
  6
Continuous
 62
     7
370
    25
100
AcDbSpline
210
0.0
220
0.0
230
1.0
 70
     8
 71
     3
 72
    12
 73
     8
 74
     0
 42
0.000000001
 43
0.00000001
 40
0.0
 40
0.0
 40
0.0
 40
0.0
 40
0.25
 40
0.25
 40
0.5
 40
0.5
 40
1.0
 40
1.0
 40
1.0
 40
1.0
 10
166.4598293891052
 20
100.1594369964396
 30
0.0
 10
166.461523533931
 20
100.1737142981943
 30
0.0
 10
166.4634497434872
 20
100.1854294056157
 30
0.0
 10
166.4663652047777
 20
100.2045127634059
 30
0.0
 10
166.4673544565121
 20
100.2118810137746
 30
0.0
 10
166.4668151440594
 20
100.2286317767229
 30
0.0
 10
166.4617795122166
 20
100.2326603011444
 30
0.0
 10
166.4464634410375
 20
100.2326603011444
 30
0.0
  0
SPLINE
  5
95
330
1F
100
AcDbEntity
  8
0
  6
Continuous
 62
     7
370
    25
100
AcDbSpline
210
0.0
220
0.0
230
1.0
 70
     8
 71
     3
 72
    10
 73
     6
 74
     0
 42
0.000000001
 43
0.00000001
 40
0.0
 40
0.0
 40
0.0
 40
0.0
 40
0.5
 40
0.5
 40
1.0
 40
1.0
 40
1.0
 40
1.0
 10
166.4598293891052
 20
100.1594369964396
 30
0.0
 10
166.4564410994534
 20
100.1308823929302
 30
0.0
 10
166.4530996124365
 20
100.0978608578533
 30
0.0
 10
166.4481107832285
 20
100.0349224507074
 30
0.0
 10
166.4464634410375
 20
100.0050055786383
 30
0.0
 10
166.4464634410375
 20
99.98266030114445
 30
0.0
  0
LINE
  5
96
330
1F
100
AcDbEntity
  8
0
  6
Continuous
 62
     7
370
    25
100
AcDbLine
 10
166.4464635235
 20
99.9826600925
 30
0.0
 11
163.3422147409
 21
99.9826600925
 31
0.0
  0
LINE
  5
97
330
1F
100
AcDbEntity
  8
0
  6
Continuous
 62
     7
370
    25
100
AcDbLine
 10
163.3422147409
 20
100.2326601335
 30
0.0
 11
163.3422147409
 21
99.9826600925
 31
0.0
  0
LINE
  5
98
330
1F
100
AcDbEntity
  8
0
  6
Continuous
 62
     7
370
    25
100
AcDbLine
 10
176.3422145435
 20
86.98266029
 30
0.0
 11
176.3422145435
 21
90.0869090726
 31
0.0
  0
SPLINE
  5
99
330
1F
100
AcDbEntity
  8
0
  6
Continuous
 62
     7
370
    25
100
AcDbSpline
210
0.0
220
0.0
230
1.0
 70
     8
 71
     3
 72
    10
 73
     6
 74
     0
 42
0.000000001
 43
0.00000001
 40
0.0
 40
0.0
 40
0.0
 40
0.0
 40
0.5
 40
0.5
 40
1.0
 40
1.0
 40
1.0
 40
1.0
 10
176.5189914473973
 20
90.10027493814748
 30
0.0
 10
176.4904368438879
 20
90.09688664849568
 30
0.0
 10
176.457415308811
 20
90.09354516147879
 30
0.0
 10
176.3944769016651
 20
90.08855633227087
 30
0.0
 10
176.364560029596
 20
90.08690899007986
 30
0.0
 10
176.3422147521021
 20
90.08690899007986
 30
0.0
  0
SPLINE
  5
9A
330
1F
100
AcDbEntity
  8
0
  6
Continuous
 62
     7
370
    25
100
AcDbSpline
210
0.0
220
0.0
230
1.0
 70
     8
 71
     3
 72
    12
 73
     8
 74
     0
 42
0.000000001
 43
0.00000001
 40
0.0
 40
0.0
 40
0.0
 40
0.0
 40
0.25
 40
0.25
 40
0.5
 40
0.5
 40
1.0
 40
1.0
 40
1.0
 40
1.0
 10
176.5189914473973
 20
90.10027493814748
 30
0.0
 10
176.5332687491519
 20
90.10196908297337
 30
0.0
 10
176.5449838565734
 20
90.10389529252947
 30
0.0
 10
176.5640672143635
 20
90.10681075381997
 30
0.0
 10
176.5714354647323
 20
90.10780000555438
 30
0.0
 10
176.5881862276806
 20
90.10726069310176
 30
0.0
 10
176.5922147521021
 20
90.10222506125896
 30
0.0
 10
176.5922147521021
 20
90.08690899007986
 30
0.0
  0
LINE
  5
9B
330
1F
100
AcDbEntity
  8
0
  6
Continuous
 62
     7
370
    25
100
AcDbLine
 10
176.5922145845
 20
90.0869090726
 30
0.0
 11
176.5922145845
 21
86.98266029
 31
0.0
  0
LINE
  5
9C
330
1F
100
AcDbEntity
  8
0
  6
Continuous
 62
     7
370
    25
100
AcDbLine
 10
176.3422145435
 20
86.98266029
 30
0.0
 11
176.5922145845
 21
86.98266029
 31
0.0
  0
SPLINE
  5
9D
330
1F
100
AcDbEntity
  8
0
  6
Continuous
 62
     7
370
    25
100
AcDbSpline
210
0.0
220
0.0
230
1.0
 70
     8
 71
     3
 72
     8
 73
     4
 74
     0
 42
0.000000001
 43
0.00000001
 40
0.0
 40
0.0
 40
0.0
 40
0.0
 40
1.0
 40
1.0
 40
1.0
 40
1.0
 10
163.0767137785841
 20
88.43587389148871
 30
0.0
 10
163.0641979208995
 20
88.53328931060005
 30
0.0
 10
163.0577319934814
 20
88.63217004812732
 30
0.0
 10
163.0577319934814
 20
88.73266030114445
 30
0.0
  0
LINE
  5
9E
330
1F
100
AcDbEntity
  8
0
  6
Continuous
 62
     7
370
    25
100
AcDbLine
 10
175.4605011941
 20
99.1009467432
 30
0.0
 11
176.0922149682
 21
99.7326605172
 31
0.0
  0
SPLINE
  5
9F
330
1F
100
AcDbEntity
  8
0
  6
Continuous
 62
     7
370
    25
100
AcDbSpline
210
0.0
220
0.0
230
1.0
 70
     8
 71
     3
 72
    12
 73
     8
 74
     0
 42
0.000000001
 43
0.00000001
 40
0.0
 40
0.0
 40
0.0
 40
0.0
 40
0.2500000000000002
 40
0.2500000000000002
 40
0.5000000000000004
 40
0.5000000000000004
 40
1.0
 40
1.0
 40
1.0
 40
1.0
 10
175.1266975107228
 20
99.73266030114446
 30
0.0
 10
175.1266975107228
 20
99.64585452402783
 30
0.0
 10
175.141796363661
 20
99.56236932549095
 30
0.0
 10
175.1892482218475
 20
99.41838913675268
 30
0.0
 10
175.2201532337638
 20
99.35915300382945
 30
0.0
 10
175.3194869855129
 20
99.20883943567245
 30
0.0
 10
175.3918192572484
 20
99.1464706627437
 30
0.0
 10
175.4605012407994
 20
99.10094678984174
 30
0.0
  0
LINE
  5
A0
330
1F
100
AcDbEntity
  8
0
  6
Continuous
 62
     7
370
    25
100
AcDbLine
 10
175.1266974882
 20
99.9826600925
 30
0.0
 11
175.1266974882
 21
99.7326605172
 31
0.0
  0
SPLINE
  5
A1
330
1F
100
AcDbEntity
  8
0
  6
Continuous
 62
     7
370
    25
100
AcDbSpline
210
0.0
220
0.0
230
1.0
 70
     8
 71
     3
 72
    14
 73
    10
 74
     0
 42
0.000000001
 43
0.00000001
 40
0.0
 40
0.0
 40
0.0
 40
0.0
 40
0.25
 40
0.25
 40
0.5
 40
0.5
 40
0.75
 40
0.75
 40
1.0
 40
1.0
 40
1.0
 40
1.0
 10
175.1266975107228
 20
99.98266030114445
 30
0.0
 10
175.1266975107228
 20
100.0744626957574
 30
0.0
 10
175.1011873167837
 20
100.1586266346728
 30
0.0
 10
175.0342209489942
 20
100.2857223152442
 30
0.0
 10
174.9924063163928
 20
100.3338447844953
 30
0.0
 10
174.9024457987112
 20
100.4091625642741
 30
0.0
 10
174.8534388066115
 20
100.4365387773674
 30
0.0
 10
174.7521249560723
 20
100.4731006279896
 30
0.0
 10
174.6992563394217
 20
100.4826603011445
 30
0.0
 10
174.6439388900332
 20
100.4826603011444
 30
0.0
  0
LINE
  5
A2
330
1F
100
AcDbEntity
  8
0
  6
Continuous
 62
     7
370
    25
100
AcDbLine
 10
171.6467331556
 20
100.4826601745
 30
0.0
 11
174.6439389811
 21
100.4826601745
 31
0.0
  0
SPLINE
  5
A3
330
1F
100
AcDbEntity
  8
0
  6
Continuous
 62
     7
370
    25
100
AcDbSpline
210
0.0
220
0.0
230
1.0
 70
    24
 71
     3
 72
    14
 73
    10
 74
     0
 42
0.000000001
 43
0.00000001
 40
0.0
 40
0.0
 40
0.0
 40
0.0
 40
0.25
 40
0.25
 40
0.5
 40
0.5
 40
0.75
 40
0.75
 40
1.0
 40
1.0
 40
1.0
 40
1.0
 10
169.0922147521021
 20
100.4826603011445
 30
0.0
 10
169.3075109826247
 20
100.4826603011445
 30
0.0
 10
169.522808343768
 20
100.4826603011445
 30
0.0
 10
169.952542108364
 20
100.4826603011445
 30
0.0
 10
170.1669807777604
 20
100.4826603011445
 30
0.0
 10
170.5940705814706
 20
100.4826603011445
 30
0.0
 10
170.8067239929051
 20
100.4826603011445
 30
0.0
 10
171.2291806954175
 20
100.4826603011445
 30
0.0
 10
171.4389862723027
 20
100.4826603011445
 30
0.0
 10
171.6467332593369
 20
100.4826603011445
 30
0.0
  0
SPLINE
  5
A4
330
1F
100
AcDbEntity
  8
0
  6
Continuous
 62
     7
370
    25
100
AcDbSpline
210
0.0
220
0.0
230
1.0
 70
    24
 71
     3
 72
    14
 73
    10
 74
     0
 42
0.000000001
 43
0.00000001
 40
0.0
 40
0.0
 40
0.0
 40
0.0
 40
0.25
 40
0.25
 40
0.5
 40
0.5
 40
0.75
 40
0.75
 40
1.0
 40
1.0
 40
1.0
 40
1.0
 10
169.0922147521021
 20
100.4826603011445
 30
0.0
 10
168.8769185215795
 20
100.4826603011445
 30
0.0
 10
168.6616211604363
 20
100.4826603011445
 30
0.0
 10
168.2318873958403
 20
100.4826603011445
 30
0.0
 10
168.0174487264438
 20
100.4826603011445
 30
0.0
 10
167.5903589227337
 20
100.4826603011445
 30
0.0
 10
167.3777055112992
 20
100.4826603011445
 30
0.0
 10
166.9552488087868
 20
100.4826603011445
 30
0.0
 10
166.7454432319015
 20
100.4826603011445
 30
0.0
 10
166.5376962448674
 20
100.4826603011445
 30
0.0
  0
LINE
  5
A5
330
1F
100
AcDbEntity
  8
0
  6
Continuous
 62
     7
370
    25
100
AcDbLine
 10
163.5404905231
 20
100.4826601745
 30
0.0
 11
166.5376963486
 21
100.4826601745
 31
0.0
  0
SPLINE
  5
A6
330
1F
100
AcDbEntity
  8
0
  6
Continuous
 62
     7
370
    25
100
AcDbSpline
210
0.0
220
0.0
230
1.0
 70
     8
 71
     3
 72
    14
 73
    10
 74
     0
 42
0.000000001
 43
0.00000001
 40
0.0
 40
0.0
 40
0.0
 40
0.0
 40
0.25
 40
0.25
 40
0.5
 40
0.5
 40
0.75
 40
0.75
 40
1.0
 40
1.0
 40
1.0
 40
1.0
 10
163.5404906141711
 20
100.4826603011444
 30
0.0
 10
163.4852118375455
 20
100.4826603011445
 30
0.0
 10
163.4322331593793
 20
100.4731117369083
 30
0.0
 10
163.3304916916531
 20
100.4363216187835
 30
0.0
 10
163.2814474179307
 20
100.4087705714953
 30
0.0
 10
163.1919993729625
 20
100.3337674839252
 30
0.0
 10
163.1501248046379
 20
100.2855871037332
 30
0.0
 10
163.0832531764342
 20
100.1586237259564
 30
0.0
 10
163.0577319934814
 20
100.0746012458676
 30
0.0
 10
163.0577319934814
 20
99.98266030114446
 30
0.0
  0
LINE
  5
A7
330
1F
100
AcDbEntity
  8
0
  6
Continuous
 62
     7
370
    25
100
AcDbLine
 10
163.057732016
 20
88.7326601112
 30
0.0
 11
163.057732016
 21
99.9826600925
 31
0.0
  0
LINE
  5
A8
330
1F
100
AcDbEntity
  8
0
  6
Continuous
 62
     7
370
    25
100
AcDbLine
 10
176.5922145845
 20
98.4826603123
 30
0.0
 11
176.5922145845
 21
95.3784115297
 31
0.0
  0
SPLINE
  5
A9
330
1F
100
AcDbEntity
  8
0
  6
Continuous
 62
     7
370
    25
100
AcDbSpline
210
0.0
220
0.0
230
1.0
 70
     8
 71
     3
 72
    12
 73
     8
 74
     0
 42
0.000000001
 43
0.00000001
 40
0.0
 40
0.0
 40
0.0
 40
0.0
 40
0.25
 40
0.25
 40
0.5
 40
0.5
 40
1.0
 40
1.0
 40
1.0
 40
1.0
 10
176.5189914473973
 20
95.36504566414143
 30
0.0
 10
176.5332687491519
 20
95.36335151931553
 30
0.0
 10
176.5449838565734
 20
95.36142530975943
 30
0.0
 10
176.5640672143635
 20
95.35850984846893
 30
0.0
 10
176.5714354647323
 20
95.35752059673453
 30
0.0
 10
176.5881862276806
 20
95.35805990918715
 30
0.0
 10
176.5922147521021
 20
95.36309554102994
 30
0.0
 10
176.5922147521021
 20
95.37841161220905
 30
0.0
  0
SPLINE
  5
AA
330
1F
100
AcDbEntity
  8
0
  6
Continuous
 62
     7
370
    25
100
AcDbSpline
210
0.0
220
0.0
230
1.0
 70
     8
 71
     3
 72
    10
 73
     6
 74
     0
 42
0.000000001
 43
0.00000001
 40
0.0
 40
0.0
 40
0.0
 40
0.0
 40
0.5
 40
0.5
 40
1.0
 40
1.0
 40
1.0
 40
1.0
 10
176.5189914473973
 20
95.36504566414143
 30
0.0
 10
176.4904368438879
 20
95.36843395379321
 30
0.0
 10
176.457415308811
 20
95.37177544081011
 30
0.0
 10
176.3944769016651
 20
95.37676427001804
 30
0.0
 10
176.364560029596
 20
95.37841161220905
 30
0.0
 10
176.3422147521021
 20
95.37841161220905
 30
0.0
  0
LINE
  5
AB
330
1F
100
AcDbEntity
  8
0
  6
Continuous
 62
     7
370
    25
100
AcDbLine
 10
176.3422145435
 20
95.3784115297
 30
0.0
 11
176.3422145435
 21
98.4826603123
 31
0.0
  0
LINE
  5
AC
330
1F
100
AcDbEntity
  8
0
  6
Continuous
 62
     7
370
    25
100
AcDbLine
 10
176.3422145435
 20
98.4826603123
 30
0.0
 11
176.5922145845
 21
98.4826603123
 31
0.0
  0
SPLINE
  5
AD
330
1F
100
AcDbEntity
  8
0
  6
Continuous
 62
     7
370
    25
100
AcDbSpline
210
0.0
220
0.0
230
1.0
 70
     8
 71
     3
 72
    12
 73
     8
 74
     0
 42
0.000000001
 43
0.00000001
 40
0.0
 40
0.0
 40
0.0
 40
0.0
 40
0.25
 40
0.25
 40
0.5
 40
0.5
 40
1.0
 40
1.0
 40
1.0
 40
1.0
 10
171.7246001150991
 20
100.1594369964396
 30
0.0
 10
171.7229059702732
 20
100.1737142981943
 30
0.0
 10
171.7209797607171
 20
100.1854294056157
 30
0.0
 10
171.7180642994266
 20
100.2045127634059
 30
0.0
 10
171.7170750476922
 20
100.2118810137746
 30
0.0
 10
171.7176143601448
 20
100.2286317767229
 30
0.0
 10
171.7226499919876
 20
100.2326603011444
 30
0.0
 10
171.7379660631667
 20
100.2326603011444
 30
0.0
  0
LINE
  5
AE
330
1F
100
AcDbEntity
  8
0
  6
Continuous
 62
     7
370
    25
100
AcDbLine
 10
171.7379659807
 20
100.2326601335
 30
0.0
 11
174.8422147633
 21
100.2326601335
 31
0.0
  0
LINE
  5
AF
330
1F
100
AcDbEntity
  8
0
  6
Continuous
 62
     7
370
    25
100
AcDbLine
 10
174.8422147633
 20
100.2326601335
 30
0.0
 11
174.8422147633
 21
99.9826600925
 31
0.0
  0
LINE
  5
B0
330
1F
100
AcDbEntity
  8
0
  6
Continuous
 62
     7
370
    25
100
AcDbLine
 10
174.8422147633
 20
99.9826600925
 30
0.0
 11
171.7379659807
 21
99.9826600925
 31
0.0
  0
SPLINE
  5
B1
330
1F
100
AcDbEntity
  8
0
  6
Continuous
 62
     7
370
    25
100
AcDbSpline
210
0.0
220
0.0
230
1.0
 70
     8
 71
     3
 72
    10
 73
     6
 74
     0
 42
0.000000001
 43
0.00000001
 40
0.0
 40
0.0
 40
0.0
 40
0.0
 40
0.5
 40
0.5
 40
1.0
 40
1.0
 40
1.0
 40
1.0
 10
171.7246001150991
 20
100.1594369964396
 30
0.0
 10
171.7279884047509
 20
100.1308823929302
 30
0.0
 10
171.7313298917678
 20
100.0978608578533
 30
0.0
 10
171.7363187209757
 20
100.0349224507074
 30
0.0
 10
171.7379660631667
 20
100.0050055786383
 30
0.0
 10
171.7379660631667
 20
99.98266030114445
 30
0.0
  0
LINE
  5
B2
330
1F
100
AcDbEntity
  8
0
  6
Continuous
 62
     7
370
    25
100
AcDbLine
 10
174.8422147633
 20
99.7326605172
 30
0.0
 11
174.8422147633
 21
99.9826600925
 31
0.0
  0
ARC
  5
B3
330
1F
100
AcDbEntity
  8
0
  6
Continuous
 62
     7
370
    25
100
AcDbCircle
 10
176.0922147521
 20
99.7326603011
 30
0.0
 40
1.25
100
AcDbArc
 50
180.0
 51
270.0
  0
LINE
  5
B4
330
1F
100
AcDbEntity
  8
0
  6
Continuous
 62
     7
370
    25
100
AcDbLine
 10
176.3422145435
 20
98.4826603123
 30
0.0
 11
176.0922149682
 21
98.4826603123
 31
0.0
  0
LINE
  5
B5
330
1F
100
AcDbEntity
  8
0
  6
Continuous
 62
     7
370
    25
100
AcDbLine
 10
176.3422145435
 20
95.3784115297
 30
0.0
 11
176.3422145435
 21
92.7326603011
 31
0.0
  0
LINE
  5
B6
330
1F
100
AcDbEntity
  8
0
  6
Continuous
 62
     7
370
    25
100
AcDbLine
 10
176.3422145435
 20
92.7326603011
 30
0.0
 11
176.3422145435
 21
90.0869090726
 31
0.0
  0
LINE
  5
B7
330
1F
100
AcDbEntity
  8
0
  6
Continuous
 62
     7
370
    25
100
AcDbLine
 10
165.0922145621
 20
86.98266029
 30
0.0
 11
176.3422145435
 21
86.98266029
 31
0.0
  0
ARC
  5
B8
330
1F
100
AcDbEntity
  8
0
  6
Continuous
 62
     7
370
    25
100
AcDbCircle
 10
165.0922147521
 20
88.7326603011
 30
0.0
 40
1.75
100
AcDbArc
 50
180.0
 51
270.0
  0
LINE
  5
B9
330
1F
100
AcDbEntity
  8
0
  6
Continuous
 62
     7
370
    25
100
AcDbLine
 10
163.3422147409
 20
99.9826600925
 30
0.0
 11
163.3422147409
 21
88.7326601112
 31
0.0
  0
LINE
  5
BA
330
1F
100
AcDbEntity
  8
0
  6
Continuous
 62
     7
370
    25
100
AcDbLine
 10
166.4464635235
 20
99.9826600925
 30
0.0
 11
169.0922147521
 21
99.9826600925
 31
0.0
  0
LINE
  5
BB
330
1F
100
AcDbEntity
  8
0
  6
Continuous
 62
     7
370
    25
100
AcDbLine
 10
169.0922147521
 20
99.9826600925
 30
0.0
 11
171.7379659807
 21
99.9826600925
 31
0.0
  0
LINE
  5
BC
330
1F
100
AcDbEntity
  8
0
  6
Continuous
 62
     7
370
    25
100
AcDbLine
 10
173.9441166559
 20
92.5517058092
 30
0.0
 11
174.9193920681
 21
89.8248784394
 31
0.0
  0
SPLINE
  5
BD
330
1F
100
AcDbEntity
  8
0
  6
Continuous
 62
     7
370
    25
100
AcDbSpline
210
0.0
220
0.0
230
1.0
 70
     8
 71
     3
 72
    14
 73
    10
 74
     0
 42
0.000000001
 43
0.00000001
 40
0.0
 40
0.0
 40
0.0
 40
0.0
 40
0.25
 40
0.25
 40
0.5
 40
0.5
 40
0.75
 40
0.75
 40
1.0
 40
1.0
 40
1.0
 40
1.0
 10
172.5704689817484
 20
92.55170580578722
 30
0.0
 10
172.6308654049472
 20
92.68234318609207
 30
0.0
 10
172.7303949666046
 20
92.79240755125758
 30
0.0
 10
172.971480657351
 20
92.94218483473077
 30
0.0
 10
173.1127976906444
 20
92.98253077186519
 30
0.0
 10
173.400390904757
 20
92.98278920279473
 30
0.0
 10
173.5418485606459
 20
92.942968165697
 30
0.0
 10
173.7854684977443
 20
92.79161075154191
 30
0.0
 10
173.8837254967113
 20
92.68233150564225
 30
0.0
 10
173.9441165197911
 20
92.55170580578776
 30
0.0
  0
LINE
  5
BE
330
1F
100
AcDbEntity
  8
0
  6
Continuous
 62
     7
370
    25
100
AcDbLine
 10
171.5954198429
 20
89.8255110403
 30
0.0
 11
172.5704689437
 21
92.5517058092
 31
0.0
  0
SPLINE
  5
BF
330
1F
100
AcDbEntity
  8
0
  6
Continuous
 62
     7
370
    25
100
AcDbSpline
210
0.0
220
0.0
230
1.0
 70
     8
 71
     3
 72
    10
 73
     6
 74
     0
 42
0.000000001
 43
0.00000001
 40
0.0
 40
0.0
 40
0.0
 40
0.0
 40
0.5
 40
0.5
 40
1.0
 40
1.0
 40
1.0
 40
1.0
 10
171.1948158062853
 20
89.68947743285952
 30
0.0
 10
171.2652677045423
 20
89.65070697072937
 30
0.0
 10
171.3505996996371
 20
89.64338463067578
 30
0.0
 10
171.5025856127988
 20
89.69234994571818
 30
0.0
 10
171.5682901780638
 20
89.74965802724286
 30
0.0
 10
171.5954197646129
 20
89.82551115589007
 30
0.0
  0
LINE
  5
C0
330
1F
100
AcDbEntity
  8
0
  6
Continuous
 62
     7
370
    25
100
AcDbLine
 10
170.427206291
 20
90.1119015795
 30
0.0
 11
171.1948158612
 21
89.6894774084
 31
0.0
  0
LINE
  5
C1
330
1F
100
AcDbEntity
  8
0
  6
Continuous
 62
     7
370
    25
100
AcDbLine
 10
171.4269936477
 20
88.2059734465
 30
0.0
 11
170.427206291
 21
90.1119015795
 31
0.0
  0
SPLINE
  5
C2
330
1F
100
AcDbEntity
  8
0
  6
Continuous
 62
     7
370
    25
100
AcDbSpline
210
0.0
220
0.0
230
1.0
 70
     8
 71
     3
 72
    10
 73
     6
 74
     0
 42
0.000000001
 43
0.00000001
 40
0.0
 40
0.0
 40
0.0
 40
0.0
 40
0.5
 40
0.5
 40
1.0
 40
1.0
 40
1.0
 40
1.0
 10
171.9173654964878
 20
88.11739921363925
 30
0.0
 10
171.8452545021657
 20
88.05339344383525
 30
0.0
 10
171.7441503753259
 20
88.02580810558167
 30
0.0
 10
171.5565925172859
 20
88.05960886554543
 30
0.0
 10
171.4717892916936
 20
88.12057782371583
 30
0.0
 10
171.42699365291
 20
88.2059732548419
 30
0.0
  0
SPLINE
  5
C3
330
1F
100
AcDbEntity
  8
0
  6
Continuous
 62
     7
370
    25
100
AcDbSpline
210
0.0
220
0.0
230
1.0
 70
     8
 71
     3
 72
    14
 73
    10
 74
     0
 42
0.000000001
 43
0.00000001
 40
0.0
 40
0.0
 40
0.0
 40
0.0
 40
0.4999999999999987
 40
0.4999999999999987
 40
0.6249999999999988
 40
0.6249999999999988
 40
0.7499999999999993
 40
0.7499999999999993
 40
1.0
 40
1.0
 40
1.0
 40
1.0
 10
174.5972200050518
 20
88.11739921363915
 30
0.0
 10
174.2291995164819
 20
88.44405446081734
 30
0.0
 10
173.7451517327605
 20
88.61917730420943
 30
0.0
 10
173.1354259466889
 20
88.6192004026986
 30
0.0
 10
173.0123190880482
 20
88.60823352030864
 30
0.0
 10
172.7732509955914
 20
88.56535303637847
 30
0.0
 10
172.6560640634792
 20
88.533507179652
 30
0.0
 10
172.3118270011566
 20
88.40550081972322
 30
0.0
 10
172.1013962145896
 20
88.2807450098027
 30
0.0
 10
171.9173654964878
 20
88.11739921363925
 30
0.0
  0
SPLINE
  5
C4
330
1F
100
AcDbEntity
  8
0
  6
Continuous
 62
     7
370
    25
100
AcDbSpline
210
0.0
220
0.0
230
1.0
 70
     8
 71
     3
 72
    10
 73
     6
 74
     0
 42
0.000000001
 43
0.00000001
 40
0.0
 40
0.0
 40
0.0
 40
0.0
 40
0.5
 40
0.5
 40
1.0
 40
1.0
 40
1.0
 40
1.0
 10
175.0875918486296
 20
88.20597325484223
 30
0.0
 10
175.0427928592424
 20
88.12057143634749
 30
0.0
 10
174.9575090135848
 20
88.05938298657178
 30
0.0
 10
174.770019153984
 20
88.02587246849866
 30
0.0
 10
174.6693400886647
 20
88.05338537617403
 30
0.0
 10
174.5972200050517
 20
88.11739921363915
 30
0.0
  0
LINE
  5
C5
330
1F
100
AcDbEntity
  8
0
  6
Continuous
 62
     7
370
    25
100
AcDbLine
 10
176.0989386515
 20
90.1339378358
 30
0.0
 11
175.087591719
 21
88.2059734465
 31
0.0
  0
LINE
  5
C6
330
1F
100
AcDbEntity
  8
0
  6
Continuous
 62
     7
370
    25
100
AcDbLine
 10
175.3239171506
 20
89.691043893
 30
0.0
 11
176.0989386515
 21
90.1339378358
 31
0.0
  0
SPLINE
  5
C7
330
1F
100
AcDbEntity
  8
0
  6
Continuous
 62
     7
370
    25
100
AcDbSpline
210
0.0
220
0.0
230
1.0
 70
     8
 71
     3
 72
    10
 73
     6
 74
     0
 42
0.000000001
 43
0.00000001
 40
0.0
 40
0.0
 40
0.0
 40
0.0
 40
0.5
 40
0.5
 40
1.0
 40
1.0
 40
1.0
 40
1.0
 10
174.9193920386594
 20
89.8248784262142
 30
0.0
 10
174.9468342138496
 20
89.74815131349993
 30
0.0
 10
175.013916844522
 20
89.69054412813487
 30
0.0
 10
175.1667246989821
 20
89.64258837925142
 30
0.0
 10
175.253317184147
 20
89.65069872749817
 30
0.0
 10
175.3239172429977
 20
89.69104386049501
 30
0.0
  0
SPLINE
  5
C8
330
1F
100
AcDbEntity
  8
0
  6
Continuous
 62
     7
370
    25
100
AcDbSpline
210
0.0
220
0.0
230
1.0
 70
    24
 71
     3
 72
    14
 73
    10
 74
     0
 42
0.000000001
 43
0.00000001
 40
0.0
 40
0.0
 40
0.0
 40
0.0
 40
0.25
 40
0.25
 40
0.5
 40
0.5
 40
0.75
 40
0.75
 40
1.0
 40
1.0
 40
1.0
 40
1.0
 10
176.8422147521022
 20
92.73266030114445
 30
0.0
 10
176.8422147521022
 20
92.51736407062187
 30
0.0
 10
176.8422147521022
 20
92.30206670947864
 30
0.0
 10
176.8422147521021
 20
91.87233294488261
 30
0.0
 10
176.8422147521021
 20
91.65789427548616
 30
0.0
 10
176.8422147521021
 20
91.23080447177605
 30
0.0
 10
176.8422147521021
 20
91.01815106034147
 30
0.0
 10
176.8422147521021
 20
90.59569435782909
 30
0.0
 10
176.8422147521021
 20
90.38588878094383
 30
0.0
 10
176.8422147521021
 20
90.17814179390967
 30
0.0
  0
SPLINE
  5
C9
330
1F
100
AcDbEntity
  8
0
  6
Continuous
 62
     7
370
    25
100
AcDbSpline
210
0.0
220
0.0
230
1.0
 70
    24
 71
     3
 72
    14
 73
    10
 74
     0
 42
0.000000001
 43
0.00000001
 40
0.0
 40
0.0
 40
0.0
 40
0.0
 40
0.25
 40
0.25
 40
0.5
 40
0.5
 40
0.75
 40
0.75
 40
1.0
 40
1.0
 40
1.0
 40
1.0
 10
176.8422147521022
 20
92.73266030114445
 30
0.0
 10
176.8422147521022
 20
92.94795653166705
 30
0.0
 10
176.8422147521022
 20
93.16325389281027
 30
0.0
 10
176.8422147521022
 20
93.5929876574063
 30
0.0
 10
176.8422147521022
 20
93.80742632680277
 30
0.0
 10
176.8422147521021
 20
94.23451613051287
 30
0.0
 10
176.8422147521021
 20
94.44716954194743
 30
0.0
 10
176.8422147521021
 20
94.86962624445981
 30
0.0
 10
176.8422147521021
 20
95.07943182134507
 30
0.0
 10
176.8422147521021
 20
95.28717880837922
 30
0.0
  0
LINE
  5
CA
330
1F
100
AcDbEntity
  8
0
  6
Continuous
 62
     7
370
    25
100
AcDbLine
 10
176.8422146254
 20
98.2843845302
 30
0.0
 11
176.8422146254
 21
95.2871787046
 31
0.0
  0
SPLINE
  5
CB
330
1F
100
AcDbEntity
  8
0
  6
Continuous
 62
     7
370
    25
100
AcDbSpline
210
0.0
220
0.0
230
1.0
 70
     8
 71
     3
 72
    14
 73
    10
 74
     0
 42
0.000000001
 43
0.00000001
 40
0.0
 40
0.0
 40
0.0
 40
0.0
 40
0.25
 40
0.25
 40
0.5
 40
0.5
 40
0.75
 40
0.75
 40
1.0
 40
1.0
 40
1.0
 40
1.0
 10
176.8422147521021
 20
98.28438443907548
 30
0.0
 10
176.8422147521021
 20
98.33966321570108
 30
0.0
 10
176.832666187866
 20
98.39264189386732
 30
0.0
 10
176.7958760697412
 20
98.49438336159348
 30
0.0
 10
176.768325022453
 20
98.5434276353159
 30
0.0
 10
176.6933219348828
 20
98.63287568028412
 30
0.0
 10
176.6451415546909
 20
98.67475024860869
 30
0.0
 10
176.518178176914
 20
98.74162187681239
 30
0.0
 10
176.4341556968253
 20
98.76714305976513
 30
0.0
 10
176.3422147521021
 20
98.76714305976513
 30
0.0
  0
LINE
  5
CC
330
1F
100
AcDbEntity
  8
0
  6
Continuous
 62
     7
370
    25
100
AcDbLine
 10
176.0922149682
 20
98.7671430373
 30
0.0
 11
176.3422145435
 21
98.7671430373
 31
0.0
  0
SPLINE
  5
CD
330
1F
100
AcDbEntity
  8
0
  6
Continuous
 62
     7
370
    25
100
AcDbSpline
210
0.0
220
0.0
230
1.0
 70
     8
 71
     3
 72
    12
 73
     8
 74
     0
 42
0.000000001
 43
0.00000001
 40
0.0
 40
0.0
 40
0.0
 40
0.0
 40
0.4999999999999991
 40
0.4999999999999991
 40
0.7499999999999996
 40
0.7499999999999996
 40
1.0
 40
1.0
 40
1.0
 40
1.0
 10
175.4605012407994
 20
99.10094678984174
 30
0.0
 10
175.5060251137014
 20
99.03226480629077
 30
0.0
 10
175.5683938866301
 20
98.95993253455524
 30
0.0
 10
175.7187074547871
 20
98.86059878280608
 30
0.0
 10
175.7779435877104
 20
98.82969377088985
 30
0.0
 10
175.9219237764486
 20
98.78224191270336
 30
0.0
 10
176.0054089749855
 20
98.76714305976513
 30
0.0
 10
176.0922147521021
 20
98.76714305976513
 30
0.0
  0
SPLINE
  5
CE
330
1F
100
AcDbEntity
  8
0
  6
Continuous
 62
     7
370
    25
100
AcDbSpline
210
0.0
220
0.0
230
1.0
 70
     8
 71
     3
 72
     8
 73
     4
 74
     0
 42
0.000000001
 43
0.00000001
 40
0.0
 40
0.0
 40
0.0
 40
0.0
 40
1.0
 40
1.0
 40
1.0
 40
1.0
 10
165.0922147521021
 20
86.69817754252377
 30
0.0
 10
164.991724499085
 20
86.69817754252377
 30
0.0
 10
164.8928437615577
 20
86.70464346994184
 30
0.0
 10
164.7954283424464
 20
86.71715932762642
 30
0.0
  0
LINE
  5
CF
330
1F
100
AcDbEntity
  8
0
  6
Continuous
 62
     7
370
    25
100
AcDbLine
 10
176.3422145435
 20
86.698177565
 30
0.0
 11
165.0922145621
 21
86.698177565
 31
0.0
  0
SPLINE
  5
D0
330
1F
100
AcDbEntity
  8
0
  6
Continuous
 62
     7
370
    25
100
AcDbSpline
210
0.0
220
0.0
230
1.0
 70
     8
 71
     3
 72
    14
 73
    10
 74
     0
 42
0.000000001
 43
0.00000001
 40
0.0
 40
0.0
 40
0.0
 40
0.0
 40
0.25
 40
0.25
 40
0.5
 40
0.5
 40
0.75
 40
0.75
 40
1.0
 40
1.0
 40
1.0
 40
1.0
 10
176.3422147521021
 20
86.69817754252377
 30
0.0
 10
176.4340171467151
 20
86.69817754252377
 30
0.0
 10
176.5181810856305
 20
86.72368773646288
 30
0.0
 10
176.6452767662019
 20
86.79065410425237
 30
0.0
 10
176.693399235453
 20
86.83246873685383
 30
0.0
 10
176.7687170152318
 20
86.92242925453536
 30
0.0
 10
176.7960932283251
 20
86.97143624663505
 30
0.0
 10
176.8326550789473
 20
87.07275009717434
 30
0.0
 10
176.8422147521021
 20
87.12561871382495
 30
0.0
 10
176.8422147521021
 20
87.18093616321342
 30
0.0
  0
LINE
  5
D1
330
1F
100
AcDbEntity
  8
0
  6
Continuous
 62
     7
370
    25
100
AcDbLine
 10
176.8422146254
 20
90.1781418977
 30
0.0
 11
176.8422146254
 21
87.1809360721
 31
0.0
  0
SPLINE
  5
D2
330
1F
100
AcDbEntity
  8
0
  6
Continuous
 62
     7
370
    25
100
AcDbSpline
210
0.0
220
0.0
230
1.0
 70
    24
 71
     3
 72
    10
 73
     6
 74
     0
 42
0.000000001
 43
0.00000001
 40
0.0
 40
0.0
 40
0.0
 40
0.0
 40
0.5
 40
0.5
 40
1.0
 40
1.0
 40
1.0
 40
1.0
 10
176.5939345097565
 20
92.73266030114445
 30
0.0
 10
176.5529661159602
 20
92.73266030114445
 30
0.0
 10
176.5090016062157
 20
92.73266030114445
 30
0.0
 10
176.4179549664719
 20
92.73266030114445
 30
0.0
 10
176.385006525891
 20
92.73266030114445
 30
0.0
 10
176.3422147521021
 20
92.73266030114445
 30
0.0
  0
SPLINE
  5
D3
330
1F
100
AcDbEntity
  8
0
  6
Continuous
 62
     7
370
    25
100
AcDbSpline
210
0.0
220
0.0
230
1.0
 70
     8
 71
     3
 72
    12
 73
     8
 74
     0
 42
0.000000001
 43
0.00000001
 40
0.0
 40
0.0
 40
0.0
 40
0.0
 40
0.25
 40
0.25
 40
0.5
 40
0.5
 40
1.0
 40
1.0
 40
1.0
 40
1.0
 10
176.5939345097565
 20
92.73266030114445
 30
0.0
 10
176.5836924113074
 20
92.9513493873508
 30
0.0
 10
176.5761531997541
 20
93.16973218876414
 30
0.0
 10
176.5618236841297
 20
93.60800234079187
 30
0.0
 10
176.5550333800587
 20
93.82788969140626
 30
0.0
 10
176.5288005296054
 20
94.49298424523151
 30
0.0
 10
176.5191178129171
 20
94.92617195030356
 30
0.0
 10
176.5189914473973
 20
95.36504566414143
 30
0.0
  0
SPLINE
  5
D4
330
1F
100
AcDbEntity
  8
0
  6
Continuous
 62
     7
370
    25
100
AcDbSpline
210
0.0
220
0.0
230
1.0
 70
     8
 71
     3
 72
    12
 73
     8
 74
     0
 42
0.000000001
 43
0.00000001
 40
0.0
 40
0.0
 40
0.0
 40
0.0
 40
0.25
 40
0.25
 40
0.5
 40
0.5
 40
1.0
 40
1.0
 40
1.0
 40
1.0
 10
176.5939345097565
 20
92.73266030114445
 30
0.0
 10
176.5836924113074
 20
92.5139712149381
 30
0.0
 10
176.5761531997541
 20
92.29558841352475
 30
0.0
 10
176.5618236841297
 20
91.85731826149703
 30
0.0
 10
176.5550333800587
 20
91.63743091088266
 30
0.0
 10
176.5288005296054
 20
90.97233635705739
 30
0.0
 10
176.5191178129171
 20
90.53914865198534
 30
0.0
 10
176.5189914473973
 20
90.10027493814748
 30
0.0
  0
SPLINE
  5
D5
330
1F
100
AcDbEntity
  8
0
  6
Continuous
 62
     7
370
    25
100
AcDbSpline
210
0.0
220
0.0
230
1.0
 70
    24
 71
     3
 72
    10
 73
     6
 74
     0
 42
0.000000001
 43
0.00000001
 40
0.0
 40
0.0
 40
0.0
 40
0.0
 40
0.5
 40
0.5
 40
1.0
 40
1.0
 40
1.0
 40
1.0
 10
169.0922147521021
 20
100.2343800587988
 30
0.0
 10
169.0922147521021
 20
100.1934116650025
 30
0.0
 10
169.0922147521021
 20
100.149447155258
 30
0.0
 10
169.0922147521021
 20
100.0584005155142
 30
0.0
 10
169.0922147521021
 20
100.0254520749333
 30
0.0
 10
169.0922147521021
 20
99.98266030114445
 30
0.0
  0
SPLINE
  5
D6
330
1F
100
AcDbEntity
  8
0
  6
Continuous
 62
     7
370
    25
100
AcDbSpline
210
0.0
220
0.0
230
1.0
 70
     8
 71
     3
 72
    12
 73
     8
 74
     0
 42
0.000000001
 43
0.00000001
 40
0.0
 40
0.0
 40
0.0
 40
0.0
 40
0.25
 40
0.25
 40
0.5
 40
0.5
 40
1.0
 40
1.0
 40
1.0
 40
1.0
 10
169.0922147521021
 20
100.2343800587988
 30
0.0
 10
168.8735256658958
 20
100.2241379603497
 30
0.0
 10
168.6551428644824
 20
100.2165987487964
 30
0.0
 10
168.2168727124547
 20
100.202269233172
 30
0.0
 10
167.9969853618403
 20
100.195478929101
 30
0.0
 10
167.3318908080151
 20
100.1692460786477
 30
0.0
 10
166.898703102943
 20
100.1595633619594
 30
0.0
 10
166.4598293891052
 20
100.1594369964396
 30
0.0
  0
SPLINE
  5
D7
330
1F
100
AcDbEntity
  8
0
  6
Continuous
 62
     7
370
    25
100
AcDbSpline
210
0.0
220
0.0
230
1.0
 70
     8
 71
     3
 72
    12
 73
     8
 74
     0
 42
0.000000001
 43
0.00000001
 40
0.0
 40
0.0
 40
0.0
 40
0.0
 40
0.25
 40
0.25
 40
0.5
 40
0.5
 40
1.0
 40
1.0
 40
1.0
 40
1.0
 10
169.0922147521021
 20
100.2343800587988
 30
0.0
 10
169.3109038383085
 20
100.2241379603497
 30
0.0
 10
169.5292866397218
 20
100.2165987487964
 30
0.0
 10
169.9675567917496
 20
100.202269233172
 30
0.0
 10
170.1874441423639
 20
100.195478929101
 30
0.0
 10
170.8525386961892
 20
100.1692460786477
 30
0.0
 10
171.2857264012613
 20
100.1595633619594
 30
0.0
 10
171.7246001150991
 20
100.1594369964396
 30
0.0
  0
SPLINE
  5
D8
330
1F
100
AcDbEntity
  8
0
  6
Continuous
 62
     7
370
    25
100
AcDbSpline
210
0.0
220
0.0
230
1.0
 70
     8
 71
     3
 72
    10
 73
     6
 74
     0
 42
0.000000001
 43
0.00000001
 40
0.0
 40
0.0
 40
0.0
 40
0.0
 40
0.5
 40
0.5
 40
1.0
 40
1.0
 40
1.0
 40
1.0
 10
173.7128957114078
 20
92.45583759839427
 30
0.0
 10
173.7128957114078
 20
92.45583759839427
 30
0.0
 10
173.7379132188416
 20
92.46641852892468
 30
0.0
 10
173.8231300933522
 20
92.50195331998891
 30
0.0
 10
173.8838196798389
 20
92.52703083818324
 30
0.0
 10
173.9441165197911
 20
92.55170580578778
 30
0.0
  0
SPLINE
  5
D9
330
1F
100
AcDbEntity
  8
0
  6
Continuous
 62
     7
370
    25
100
AcDbSpline
210
0.0
220
0.0
230
1.0
 70
     8
 71
     3
 72
    14
 73
    10
 74
     0
 42
0.000000001
 43
0.00000001
 40
0.0
 40
0.0
 40
0.0
 40
0.0
 40
0.25
 40
0.25
 40
0.5
 40
0.5
 40
0.75
 40
0.75
 40
1.0
 40
1.0
 40
1.0
 40
1.0
 10
173.7128957114078
 20
92.45583759839427
 30
0.0
 10
173.6714476921059
 20
92.54068004287532
 30
0.0
 10
173.6055216368787
 20
92.6108374321714
 30
0.0
 10
173.4436792974191
 20
92.70772737199408
 30
0.0
 10
173.3510750317032
 20
92.73275677217897
 30
0.0
 10
173.1624288167487
 20
92.73256327537749
 30
0.0
 10
173.0695919586711
 20
92.70699012908324
 30
0.0
 10
172.9099801498841
 20
92.6113363050678
 30
0.0
 10
172.8431449897157
 20
92.54069474062642
 30
0.0
 10
172.8016897901318
 20
92.45583759839415
 30
0.0
  0
SPLINE
  5
DA
330
1F
100
AcDbEntity
  8
0
  6
Continuous
 62
     7
370
    25
100
AcDbSpline
210
0.0
220
0.0
230
1.0
 70
     8
 71
     3
 72
    10
 73
     6
 74
     0
 42
0.000000001
 43
0.00000001
 40
0.0
 40
0.0
 40
0.0
 40
0.0
 40
0.5
 40
0.5
 40
1.0
 40
1.0
 40
1.0
 40
1.0
 10
172.8016897901318
 20
92.45583759839415
 30
0.0
 10
172.8016897901318
 20
92.45583759839415
 30
0.0
 10
172.7766722826977
 20
92.46641852892422
 30
0.0
 10
172.6914554081868
 20
92.50195331998854
 30
0.0
 10
172.6307658217009
 20
92.52703083818227
 30
0.0
 10
172.5704689817484
 20
92.55170580578722
 30
0.0
  0
LWPOLYLINE
  5
DB
330
1F
100
AcDbEntity
  8
0
  6
Continuous
 62
     7
370
    25
100
AcDbPolyline
 90
        9
 70
   128
 43
0.0
 10
174.9193920681
 20
89.8248784394
 10
174.8734685519
 20
89.8084534017
 10
174.8293094264
 20
89.7926595678
 10
174.7886124925
 20
89.7781039273
 10
174.7529414409
 20
89.7653457393
 10
174.7236667128
 20
89.7548753453
 10
174.7019138114
 20
89.7470953093
 10
174.6885181331
 20
89.7423041203
 10
174.683995165
 20
89.740686413
  0
LINE
  5
DC
330
1F
100
AcDbEntity
  8
0
  6
Continuous
 62
     7
370
    25
100
AcDbLine
 10
174.683995165
 20
89.740686413
 30
0.0
 11
173.7128958033
 21
92.4558375879
 31
0.0
  0
LINE
  5
DD
330
1F
100
AcDbEntity
  8
0
  6
Continuous
 62
     7
370
    25
100
AcDbLine
 10
172.8016897963
 20
92.4558375879
 30
0.0
 11
171.8308167459
 21
89.7413192467
 31
0.0
  0
LWPOLYLINE
  5
DE
330
1F
100
AcDbEntity
  8
0
  6
Continuous
 62
     7
370
    25
100
AcDbPolyline
 90
        9
 70
   128
 43
0.0
 10
171.5954198429
 20
89.8255110403
 10
171.641343359
 20
89.8090862354
 10
171.6855022517
 20
89.7932924015
 10
171.7261991856
 20
89.7787365281
 10
171.76187047
 20
89.765978573
 10
171.7911451982
 20
89.755508179
 10
171.8128980995
 20
89.7477279102
 10
171.826293545
 20
89.742936954
 10
171.8308167459
 20
89.7413192467
  0
SPLINE
  5
DF
330
1F
100
AcDbEntity
  8
0
  6
Continuous
 62
     7
370
    25
100
AcDbSpline
210
0.0
220
0.0
230
1.0
 70
     8
 71
     3
 72
    12
 73
     8
 74
     0
 42
0.000000001
 43
0.00000001
 40
0.0
 40
0.0
 40
0.0
 40
0.0
 40
0.25
 40
0.25
 40
0.5
 40
0.5
 40
1.0
 40
1.0
 40
1.0
 40
1.0
 10
169.0922147521021
 20
100.2343800587988
 30
0.0
 10
168.8735256658958
 20
100.2446221572478
 30
0.0
 10
168.6563467608873
 20
100.2593048717112
 30
0.0
 10
168.2249977263069
 20
100.2911272623691
 30
0.0
 10
168.0108275967349
 20
100.3082669385636
 30
0.0
 10
167.3728129907351
 20
100.3537350042971
 30
0.0
 10
166.9432863673989
 20
100.346902153233
 30
0.0
 10
166.5231183527683
 20
100.3058775952177
 30
0.0
  0
SPLINE
  5
E0
330
1F
100
AcDbEntity
  8
0
  6
Continuous
 62
     7
370
    25
100
AcDbSpline
210
0.0
220
0.0
230
1.0
 70
     8
 71
     3
 72
    10
 73
     6
 74
     0
 42
0.000000001
 43
0.00000001
 40
0.0
 40
0.0
 40
0.0
 40
0.0
 40
0.5
 40
0.5
 40
1.0
 40
1.0
 40
1.0
 40
1.0
 10
166.5231183527683
 20
100.3058775952177
 30
0.0
 10
166.530410333226
 20
100.3344314171813
 30
0.0
 10
166.5343074958508
 20
100.3687914489138
 30
0.0
 10
166.5378436998325
 20
100.4318342734429
 30
0.0
 10
166.5376962448674
 20
100.4603131834211
 30
0.0
 10
166.5376962448674
 20
100.4826603011445
 30
0.0
  0
SPLINE
  5
E1
330
1F
100
AcDbEntity
  8
0
  6
Continuous
 62
     7
370
    25
100
AcDbSpline
210
0.0
220
0.0
230
1.0
 70
    24
 71
     3
 72
    10
 73
     6
 74
     0
 42
0.000000001
 43
0.00000001
 40
0.0
 40
0.0
 40
0.0
 40
0.0
 40
0.5
 40
0.5
 40
1.0
 40
1.0
 40
1.0
 40
1.0
 10
169.0922147521021
 20
100.2343800587988
 30
0.0
 10
169.0922147521021
 20
100.275348452595
 30
0.0
 10
169.0922147521021
 20
100.318803899667
 30
0.0
 10
169.0922147521021
 20
100.4078897448842
 30
0.0
 10
169.0922147521021
 20
100.4402769734995
 30
0.0
 10
169.0922147521021
 20
100.4826603011445
 30
0.0
  0
SPLINE
  5
E2
330
1F
100
AcDbEntity
  8
0
  6
Continuous
 62
     7
370
    25
100
AcDbSpline
210
0.0
220
0.0
230
1.0
 70
     8
 71
     3
 72
     8
 73
     4
 74
     0
 42
0.000000001
 43
0.00000001
 40
0.0
 40
0.0
 40
0.0
 40
0.0
 40
1.0
 40
1.0
 40
1.0
 40
1.0
 10
171.6467332593369
 20
100.4826603011444
 30
0.0
 10
171.64272802908
 20
100.4172076207083
 30
0.0
 10
171.6485503420054
 20
100.3521580557001
 30
0.0
 10
171.661311151436
 20
100.3058775952177
 30
0.0
  0
SPLINE
  5
E3
330
1F
100
AcDbEntity
  8
0
  6
Continuous
 62
     7
370
    25
100
AcDbSpline
210
0.0
220
0.0
230
1.0
 70
     8
 71
     3
 72
    12
 73
     8
 74
     0
 42
0.000000001
 43
0.00000001
 40
0.0
 40
0.0
 40
0.0
 40
0.0
 40
0.25
 40
0.25
 40
0.5
 40
0.5
 40
1.0
 40
1.0
 40
1.0
 40
1.0
 10
169.0922147521021
 20
100.2343800587988
 30
0.0
 10
169.3109038383085
 20
100.2446221572478
 30
0.0
 10
169.528082743317
 20
100.2593048717112
 30
0.0
 10
169.9594317778974
 20
100.2911272623691
 30
0.0
 10
170.1736019074693
 20
100.3082669385635
 30
0.0
 10
170.8116165134691
 20
100.3537350042971
 30
0.0
 10
171.2411431368053
 20
100.346902153233
 30
0.0
 10
171.661311151436
 20
100.3058775952177
 30
0.0
  0
SPLINE
  5
E4
330
1F
100
AcDbEntity
  8
0
  6
Continuous
 62
     7
370
    25
100
AcDbSpline
210
0.0
220
0.0
230
1.0
 70
    24
 71
     3
 72
    10
 73
     6
 74
     0
 42
0.000000001
 43
0.00000001
 40
0.0
 40
0.0
 40
0.0
 40
0.0
 40
0.5
 40
0.5
 40
1.0
 40
1.0
 40
1.0
 40
1.0
 10
176.5939345097565
 20
92.73266030114445
 30
0.0
 10
176.6349029035527
 20
92.73266030114445
 30
0.0
 10
176.6783583506246
 20
92.73266030114445
 30
0.0
 10
176.7674441958419
 20
92.73266030114445
 30
0.0
 10
176.7998314244572
 20
92.73266030114445
 30
0.0
 10
176.8422147521022
 20
92.73266030114445
 30
0.0
  0
SPLINE
  5
E5
330
1F
100
AcDbEntity
  8
0
  6
Continuous
 62
     7
370
    25
100
AcDbSpline
210
0.0
220
0.0
230
1.0
 70
     8
 71
     3
 72
    10
 73
     6
 74
     0
 42
0.000000001
 43
0.00000001
 40
0.0
 40
0.0
 40
0.0
 40
0.0
 40
0.5
 40
0.5
 40
1.0
 40
1.0
 40
1.0
 40
1.0
 10
176.6654320461754
 20
90.16356390181063
 30
0.0
 10
176.693985868139
 20
90.17085588226827
 30
0.0
 10
176.7283458998714
 20
90.17475304489308
 30
0.0
 10
176.7913887244005
 20
90.1782892488748
 30
0.0
 10
176.8198676343788
 20
90.17814179390967
 30
0.0
 10
176.8422147521021
 20
90.17814179390967
 30
0.0
  0
SPLINE
  5
E6
330
1F
100
AcDbEntity
  8
0
  6
Continuous
 62
     7
370
    25
100
AcDbSpline
210
0.0
220
0.0
230
1.0
 70
     8
 71
     3
 72
    14
 73
    10
 74
     0
 42
0.000000001
 43
0.00000001
 40
0.0
 40
0.0
 40
0.0
 40
0.0
 40
0.25
 40
0.25
 40
0.5
 40
0.5
 40
0.75
 40
0.75
 40
1.0
 40
1.0
 40
1.0
 40
1.0
 10
176.5939345097565
 20
92.73266030114445
 30
0.0
 10
176.6041766082055
 20
92.5139712149381
 30
0.0
 10
176.6188593226689
 20
92.29679230992961
 30
0.0
 10
176.6506817133268
 20
91.8654432753492
 30
0.0
 10
176.6678213895213
 20
91.65127314577725
 30
0.0
 10
176.6981334333436
 20
91.22593007511071
 30
0.0
 10
176.7040032315332
 20
91.01221265161003
 30
0.0
 10
176.6979086774529
 20
90.58607156861764
 30
0.0
 10
176.685944325183
 20
90.37364790912594
 30
0.0
 10
176.6654320461754
 20
90.16356390181063
 30
0.0
  0
SPLINE
  5
E7
330
1F
100
AcDbEntity
  8
0
  6
Continuous
 62
     7
370
    25
100
AcDbSpline
210
0.0
220
0.0
230
1.0
 70
     8
 71
     3
 72
    14
 73
    10
 74
     0
 42
0.000000001
 43
0.00000001
 40
0.0
 40
0.0
 40
0.0
 40
0.0
 40
0.25
 40
0.25
 40
0.5
 40
0.5
 40
0.75
 40
0.75
 40
1.0
 40
1.0
 40
1.0
 40
1.0
 10
176.5939345097565
 20
92.73266030114445
 30
0.0
 10
176.6041766082055
 20
92.9513493873508
 30
0.0
 10
176.6188593226689
 20
93.16852829235928
 30
0.0
 10
176.6506817133268
 20
93.5998773269397
 30
0.0
 10
176.6678213895213
 20
93.81404745651164
 30
0.0
 10
176.6981334333436
 20
94.2393905271782
 30
0.0
 10
176.7040032315332
 20
94.45310795067888
 30
0.0
 10
176.6979086774529
 20
94.87924903367126
 30
0.0
 10
176.685944325183
 20
95.09167269316296
 30
0.0
 10
176.6654320461754
 20
95.30175670047828
 30
0.0
  0
SPLINE
  5
E8
330
1F
100
AcDbEntity
  8
0
  6
Continuous
 62
     7
370
    25
100
AcDbSpline
210
0.0
220
0.0
230
1.0
 70
     8
 71
     3
 72
     8
 73
     4
 74
     0
 42
0.000000001
 43
0.00000001
 40
0.0
 40
0.0
 40
0.0
 40
0.0
 40
1.0
 40
1.0
 40
1.0
 40
1.0
 10
176.6654320461754
 20
95.30175670047828
 30
0.0
 10
176.7117125066577
 20
95.28899589104772
 30
0.0
 10
176.776762071666
 20
95.28317357812226
 30
0.0
 10
176.8422147521021
 20
95.28717880837922
 30
0.0
  0
SPLINE
  5
E9
330
1F
100
AcDbEntity
  8
0
  6
Continuous
 62
     7
370
    25
100
AcDbSpline
210
0.0
220
0.0
230
1.0
 70
     8
 71
     3
 72
    15
 73
    11
 74
     0
 42
0.000000001
 43
0.00000001
 40
0.0
 40
0.0
 40
0.0
 40
0.0
 40
0.0425877399909041
 40
0.1028282325346875
 40
0.1864706729280299
 40
0.2956205441869006
 40
0.4311891005861807
 40
0.5936297641565581
 40
0.7831876993469636
 40
1.0
 40
1.0
 40
1.0
 40
1.0
 10
176.5922147521021
 20
95.37841161220905
 30
0.0
 10
176.5922205452043
 20
95.37559228872854
 30
0.0
 10
176.5922345326677
 20
95.36878502329239
 30
0.0
 10
176.5927262334994
 20
95.3602448269515
 30
0.0
 10
176.594353587458
 20
95.35094714442111
 30
0.0
 10
176.5981787358421
 20
95.3411394087941
 30
0.0
 10
176.6055510458829
 20
95.33081376274501
 30
0.0
 10
176.6181690348597
 20
95.32034705129304
 30
0.0
 10
176.6374132370639
 20
95.31001381605236
 30
0.0
 10
176.6556839834342
 20
95.30462944501063
 30
0.0
 10
176.6654320461754
 20
95.30175670047828
 30
0.0
  0
SPLINE
  5
EA
330
1F
100
AcDbEntity
  8
0
  6
Continuous
 62
     7
370
    25
100
AcDbSpline
210
0.0
220
0.0
230
1.0
 70
     8
 71
     3
 72
    12
 73
     8
 74
     0
 42
0.000000001
 43
0.00000001
 40
0.0
 40
0.0
 40
0.0
 40
0.0
 40
0.25
 40
0.25
 40
0.5
 40
0.5
 40
1.0
 40
1.0
 40
1.0
 40
1.0
 10
166.5231183527683
 20
100.3058775952177
 30
0.0
 10
166.5194723625395
 20
100.2916006842359
 30
0.0
 10
166.5149158296071
 20
100.2788381479864
 30
0.0
 10
166.5042972156231
 20
100.2576913951075
 30
0.0
 10
166.4982351345716
 20
100.2493071784782
 30
0.0
 10
166.4782638751706
 20
100.232746363254
 30
0.0
 10
166.4629130822014
 20
100.2326603011444
 30
0.0
 10
166.4464634410375
 20
100.2326603011444
 30
0.0
  0
SPLINE
  5
EB
330
1F
100
AcDbEntity
  8
0
  6
Continuous
 62
     7
370
    25
100
AcDbSpline
210
0.0
220
0.0
230
1.0
 70
     8
 71
     3
 72
    12
 73
     8
 74
     0
 42
0.000000001
 43
0.00000001
 40
0.0
 40
0.0
 40
0.0
 40
0.0
 40
0.25
 40
0.25
 40
0.5
 40
0.5
 40
1.0
 40
1.0
 40
1.0
 40
1.0
 10
176.6654320461754
 20
90.16356390181063
 30
0.0
 10
176.6511551351936
 20
90.15991791158181
 30
0.0
 10
176.6383925989441
 20
90.15536137864937
 30
0.0
 10
176.6172458460652
 20
90.14474276466541
 30
0.0
 10
176.6088616294359
 20
90.1386806836139
 30
0.0
 10
176.5923008142117
 20
90.11870942421294
 30
0.0
 10
176.5922147521021
 20
90.10335863124372
 30
0.0
 10
176.5922147521021
 20
90.08690899007986
 30
0.0
  0
SPLINE
  5
EC
330
1F
100
AcDbEntity
  8
0
  6
Continuous
 62
     7
370
    25
100
AcDbSpline
210
0.0
220
0.0
230
1.0
 70
     8
 71
     3
 72
    14
 73
    10
 74
     0
 42
0.000000001
 43
0.00000001
 40
0.0
 40
0.0
 40
0.0
 40
0.0
 40
0.2455893235675696
 40
0.4556181963142487
 40
0.6303106213393677
 40
0.7701164303669036
 40
0.8759901151610805
 40
0.9502659312389182
 40
1.0
 40
1.0
 40
1.0
 40
1.0
 10
171.661311151436
 20
100.3058775952177
 30
0.0
 10
171.6646027289092
 20
100.2949125559024
 30
0.0
 10
171.6707092752753
 20
100.2745701755303
 30
0.0
 10
171.6826322655345
 20
100.2544181630538
 30
0.0
 10
171.694561348049
 20
100.242298603583
 30
0.0
 10
171.7060085554131
 20
100.2360927803506
 30
0.0
 10
171.71689408046
 20
100.2334730813767
 30
0.0
 10
171.726581342251
 20
100.2326928870317
 30
0.0
 10
171.7347071958444
 20
100.2326696288288
 30
0.0
 10
171.7379660631667
 20
100.2326603011444
 30
0.0
  0
ARC
  5
ED
330
1F
100
AcDbEntity
  8
0
  6
Continuous
 62
     7
370
    25
100
AcDbCircle
 10
174.8422147521
 20
99.9826603011
 30
0.0
 40
0.25
100
AcDbArc
 50
0.0
 51
90.0
  0
LINE
  5
EE
330
1F
100
AcDbEntity
  8
0
  6
Continuous
 62
     7
370
    25
100
AcDbLine
 10
174.8422147633
 20
99.9826600925
 30
0.0
 11
175.0922148043
 21
99.9826600925
 31
0.0
  0
LWPOLYLINE
  5
EF
330
1F
100
AcDbEntity
  8
0
  6
Continuous
 62
     7
370
    25
100
AcDbPolyline
 90
        9
 70
   128
 43
0.0
 10
175.3239171506
 20
89.691043893
 10
175.3481161707
 20
89.6486980525
 10
175.3713852653
 20
89.6079794654
 10
175.3928303645
 20
89.5704529864
 10
175.4116267824
 20
89.5375607685
 10
175.4270527438
 20
89.5105668494
 10
175.4385149964
 20
89.4905084894
 10
175.4455739559
 20
89.4781568238
 10
175.4479572104
 20
89.4739861285
  0
SPLINE
  5
F0
330
1F
100
AcDbEntity
  8
0
  6
Continuous
 62
     7
370
    25
100
AcDbSpline
210
0.0
220
0.0
230
1.0
 70
     8
 71
     3
 72
    10
 73
     6
 74
     0
 42
0.000000001
 43
0.00000001
 40
0.0
 40
0.0
 40
0.0
 40
0.0
 40
0.5
 40
0.5
 40
1.0
 40
1.0
 40
1.0
 40
1.0
 10
175.4479571743071
 20
89.47398604460085
 30
0.0
 10
175.3135226267152
 20
89.39716203354094
 30
0.0
 10
175.1478572595537
 20
89.38291254305548
 30
0.0
 10
174.8590778178437
 20
89.48099859809975
 30
0.0
 10
174.7361950294029
 20
89.59473779241738
 30
0.0
 10
174.6839951009894
 20
89.74068649230387
 30
0.0
  0
LINE
  5
F1
330
1F
100
AcDbEntity
  8
0
  6
Continuous
 62
     7
370
    25
100
AcDbLine
 10
165.0922145621
 20
86.98266029
 30
0.0
 11
165.0922145621
 21
86.732660249
 31
0.0
  0
ARC
  5
F2
330
1F
100
AcDbEntity
  8
0
  6
Continuous
 62
     7
370
    25
100
AcDbCircle
 10
165.0922147521
 20
88.7326603011
 30
0.0
 40
2.0
100
AcDbArc
 50
180.0
 51
270.0
  0
LINE
  5
F3
330
1F
100
AcDbEntity
  8
0
  6
Continuous
 62
     7
370
    25
100
AcDbLine
 10
163.3422147409
 20
88.7326601112
 30
0.0
 11
163.0922146999
 21
88.7326601112
 31
0.0
  0
LINE
  5
F4
330
1F
100
AcDbEntity
  8
0
  6
Continuous
 62
     7
370
    25
100
AcDbLine
 10
163.0922146999
 20
99.9826600925
 30
0.0
 11
163.3422147409
 21
99.9826600925
 31
0.0
  0
ARC
  5
F5
330
1F
100
AcDbEntity
  8
0
  6
Continuous
 62
     7
370
    25
100
AcDbCircle
 10
163.3422147521
 20
99.9826603011
 30
0.0
 40
0.25
100
AcDbArc
 50
90.0
 51
180.0
  0
SPLINE
  5
F6
330
1F
100
AcDbEntity
  8
0
  6
Continuous
 62
     7
370
    25
100
AcDbSpline
210
0.0
220
0.0
230
1.0
 70
     8
 71
     3
 72
    20
 73
    16
 74
     0
 42
0.000000001
 43
0.00000001
 40
0.0
 40
0.0
 40
0.0
 40
0.0
 40
0.2500000000000003
 40
0.2500000000000003
 40
0.3750000000000002
 40
0.3750000000000002
 40
0.5000000000000002
 40
0.5000000000000002
 40
0.6250000000000002
 40
0.6250000000000002
 40
0.7500000000000001
 40
0.7500000000000001
 40
0.8750000000000001
 40
0.8750000000000001
 40
1.0
 40
1.0
 40
1.0
 40
1.0
 10
171.7514091253683
 20
88.30437109089584
 30
0.0
 10
171.9582643417462
 20
88.48797592794874
 30
0.0
 10
172.1946140683942
 20
88.62841202777331
 30
0.0
 10
172.5814963916539
 20
88.77261661178166
 30
0.0
 10
172.7132051801873
 20
88.8085057997017
 30
0.0
 10
172.981913562712
 20
88.85683569503203
 30
0.0
 10
173.1202952637041
 20
88.86920065161505
 30
0.0
 10
173.3944549114406
 20
88.86919091443042
 30
0.0
 10
173.5302245789562
 20
88.85713198417791
 30
0.0
 10
173.7991589005367
 20
88.80904676076997
 30
0.0
 10
173.933491703615
 20
88.77243822214953
 30
0.0
 10
174.1897813135383
 20
88.67696668004102
 30
0.0
 10
174.3126028810914
 20
88.61817910085094
 30
0.0
 10
174.5473841958904
 20
88.4780532379231
 30
0.0
 10
174.659758945522
 20
88.39616447583067
 30
0.0
 10
174.7631763761711
 20
88.30437109089583
 30
0.0
  0
LWPOLYLINE
  5
F7
330
1F
100
AcDbEntity
  8
0
  6
Continuous
 62
     7
370
    25
100
AcDbPolyline
 90
        9
 70
   128
 43
0.0
 10
174.7631762103
 20
88.3043709361
 10
174.7599873618
 20
88.3007783593
 10
174.7505437509
 20
88.2901389302
 10
174.7352076621
 20
88.2728605681
 10
174.7145690882
 20
88.2496082374
 10
174.6894205847
 20
88.2212750764
 10
174.6607288645
 20
88.1889502668
 10
174.6295966135
 20
88.1538757273
 10
174.5972201155
 20
88.1173990817
  0
LWPOLYLINE
  5
F8
330
1F
100
AcDbEntity
  8
0
  6
Continuous
 62
     7
370
    25
100
AcDbPolyline
 90
        9
 70
   128
 43
0.0
 10
171.7514091564
 20
88.3043709361
 10
171.7545980049
 20
88.3007783593
 10
171.7640418486
 20
88.2901389302
 10
171.7793777046
 20
88.2728605681
 10
171.8000165113
 20
88.2496082374
 10
171.8251650148
 20
88.2212750764
 10
171.853856735
 20
88.1889502668
 10
171.8849889861
 20
88.1538757273
 10
171.9173654841
 20
88.1173990817
  0
SPLINE
  5
F9
330
1F
100
AcDbEntity
  8
0
  6
Continuous
 62
     7
370
    25
100
AcDbSpline
210
0.0
220
0.0
230
1.0
 70
     8
 71
     3
 72
    23
 73
    19
 74
     0
 42
0.000000001
 43
0.00000001
 40
0.0
 40
0.0
 40
0.0
 40
0.0
 40
0.0000221251499261
 40
0.0000221251499261
 40
0.0000221251499261
 40
0.0000448428854419
 40
0.0000448428854419
 40
0.0000448428854419
 40
0.000067774629955
 40
0.000067774629955
 40
0.000067774629955
 40
0.0000902663208602
 40
0.0000902663208602
 40
0.0000902663208602
 40
0.000111841557339
 40
0.000111841557339
 40
0.000111841557339
 40
0.0001193253350659
 40
0.0001193253350659
 40
0.0001193253350659
 40
0.0001193253350659
 10
174.7631763761711
 20
88.30437109089581
 30
0.0
 10
174.7686920839261
 20
88.29947534477286
 30
0.0
 10
174.7751457182214
 20
88.29548947058183
 30
0.0
 10
174.7819729304798
 20
88.29270010955861
 30
0.0
 10
174.7889822994402
 20
88.28983632565448
 30
0.0
 10
174.7965819316243
 20
88.28815000902489
 30
0.0
 10
174.8041433977198
 20
88.28775410252025
 30
0.0
 10
174.8117748288074
 20
88.28735453275837
 30
0.0
 10
174.8195810320122
 20
88.28825806234127
 30
0.0
 10
174.8269153648807
 20
88.29040421187342
 30
0.0
 10
174.8341092786925
 20
88.29250927242063
 30
0.0
 10
174.8410488035479
 20
88.29587082370327
 30
0.0
 10
174.8471318837057
 20
88.30025029988568
 30
0.0
 10
174.8529689151889
 20
88.30445263483662
 30
0.0
 10
174.8581761917744
 20
88.30971125843887
 30
0.0
 10
174.8622737591572
 20
88.31562230717151
 30
0.0
 10
174.8637135752849
 20
88.31769935008555
 30
0.0
 10
174.8650289382205
 20
88.31986854924888
 30
0.0
 10
174.8662029472473
 20
88.32210660209755
 30
0.0
  0
LWPOLYLINE
  5
FA
330
1F
100
AcDbEntity
  8
0
  6
Continuous
 62
     7
370
    25
100
AcDbPolyline
 90
        9
 70
   128
 43
0.0
 10
174.8662028388
 20
88.3221065776
 10
174.8704566547
 20
88.3198751287
 10
174.8830551208
 20
88.3132664637
 10
174.9035134838
 20
88.3025348337
 10
174.9310461731
 20
88.2880918832
 10
174.9645947405
 20
88.2704936118
 10
175.00286977
 20
88.2504156941
 10
175.0444011689
 20
88.2286297308
 10
175.087591719
 20
88.2059734465
  0
LINE
  5
FB
330
1F
100
AcDbEntity
  8
0
  6
Continuous
 62
     7
370
    25
100
AcDbLine
 10
171.0345190644
 20
89.4923352787
 30
0.0
 11
171.6483825279
 21
88.3221065776
 31
0.0
  0
LWPOLYLINE
  5
FC
330
1F
100
AcDbEntity
  8
0
  6
Continuous
 62
     7
370
    25
100
AcDbPolyline
 90
        9
 70
   128
 43
0.0
 10
171.6483825279
 20
88.3221065776
 10
171.644128712
 20
88.3198751287
 10
171.6315302459
 20
88.3132664637
 10
171.6110718829
 20
88.3025348337
 10
171.5835391936
 20
88.2880918832
 10
171.5499906262
 20
88.2704936118
 10
171.5117155967
 20
88.2504156941
 10
171.4701844306
 20
88.2286297308
 10
171.4269936477
 20
88.2059734465
  0
LWPOLYLINE
  5
FD
330
1F
100
AcDbEntity
  8
0
  6
Continuous
 62
     7
370
    25
100
AcDbPolyline
 90
       10
 70
   128
 43
0.0
 10
171.0345190644
 20
89.4923352787
 10
171.025292568
 20
89.5017479231
 10
170.99789364
 20
89.5296997075
 10
170.9531545333
 20
89.5753412658
 10
170.8924348626
 20
89.6372860913
 10
170.8175794614
 20
89.7136519813
 10
170.7308626195
 20
89.8021183127
 10
170.6349195141
 20
89.8999972885
 10
170.5326650684
 20
90.0043149629
 10
170.427206291
 20
90.1119015795
  0
LINE
  5
FE
330
1F
100
AcDbEntity
  8
0
  6
Continuous
 62
     7
370
    25
100
AcDbLine
 10
174.8662028388
 20
88.3221065776
 30
0.0
 11
175.4800664188
 21
89.4923352787
 31
0.0
  0
LWPOLYLINE
  5
FF
330
1F
100
AcDbEntity
  8
0
  6
Continuous
 62
     7
370
    25
100
AcDbPolyline
 90
       10
 70
   128
 43
0.0
 10
175.4800664188
 20
89.4923352787
 10
175.4894685858
 20
89.5020825007
 10
175.5173891709
 20
89.5310287048
 10
175.5629797393
 20
89.5782937912
 10
175.6248549485
 20
89.6424416603
 10
175.7011353896
 20
89.7215237526
 10
175.7895025351
 20
89.8131365572
 10
175.8872718477
 20
89.9144968168
 10
175.991472874
 20
90.0225248804
 10
176.0989386515
 20
90.1339378358
  0
ARC
  5
100
330
1F
100
AcDbEntity
  8
0
  6
Continuous
 62
     7
370
    25
100
AcDbCircle
 10
176.0922147521
 20
99.7326603011
 30
0.0
 40
1.0
100
AcDbArc
 50
180.0
 51
270.0
  0
LINE
  5
101
330
1F
100
AcDbEntity
  8
0
  6
Continuous
 62
     7
370
    25
100
AcDbLine
 10
176.0922149682
 20
98.7326603533
 30
0.0
 11
176.0922149682
 21
98.4826603123
 31
0.0
  0
LINE
  5
102
330
1F
100
AcDbEntity
  8
0
  6
Continuous
 62
     7
370
    25
100
AcDbLine
 10
175.0922148043
 20
99.7326605172
 30
0.0
 11
174.8422147633
 21
99.7326605172
 31
0.0
  0
ARC
  5
103
330
1F
100
AcDbEntity
  8
0
  6
Continuous
 62
     7
370
    25
100
AcDbCircle
 10
176.3422147521
 20
86.9826603011
 30
0.0
 40
0.25
100
AcDbArc
 50
270.0
 51
0.0
  0
LINE
  5
104
330
1F
100
AcDbEntity
  8
0
  6
Continuous
 62
     7
370
    25
100
AcDbLine
 10
176.3422145435
 20
86.98266029
 30
0.0
 11
176.3422145435
 21
86.732660249
 31
0.0
  0
ARC
  5
105
330
1F
100
AcDbEntity
  8
0
  6
Continuous
 62
     7
370
    25
100
AcDbCircle
 10
176.3422147521
 20
98.4826603011
 30
0.0
 40
0.25
100
AcDbArc
 50
0.0
 51
90.0
  0
LINE
  5
106
330
1F
100
AcDbEntity
  8
0
  6
Continuous
 62
     7
370
    25
100
AcDbLine
 10
176.3422145435
 20
98.7326603533
 30
0.0
 11
176.3422145435
 21
98.4826603123
 31
0.0
  0
SPLINE
  5
107
330
1F
100
AcDbEntity
  8
0
  6
Continuous
 62
     7
370
    25
100
AcDbSpline
210
0.0
220
0.0
230
1.0
 70
     8
 71
     3
 72
    23
 73
    19
 74
     0
 42
0.000000001
 43
0.00000001
 40
0.0
 40
0.0
 40
0.0
 40
0.0
 40
0.0000210594021204
 40
0.0000210594021204
 40
0.0000210594021204
 40
0.0000429122282046
 40
0.0000429122282046
 40
0.0000429122282046
 40
0.0000655452306719
 40
0.0000655452306719
 40
0.0000655452306719
 40
0.000088492665435
 40
0.000088492665435
 40
0.000088492665435
 40
0.0001110534468608
 40
0.0001110534468608
 40
0.0001110534468608
 40
0.000119364715226
 40
0.000119364715226
 40
0.000119364715226
 40
0.000119364715226
 10
171.6483825542922
 20
88.32210660209756
 30
0.0
 10
171.6516434861047
 20
88.31589017823195
 30
0.0
 10
171.6560474173944
 20
88.31016867429716
 30
0.0
 10
171.6611863326685
 20
88.30538650410267
 30
0.0
 10
171.6665180655594
 20
88.30042490174968
 30
0.0
 10
171.6727873242634
 20
88.29633208571505
 30
0.0
 10
171.6794536154073
 20
88.29339858338614
 30
0.0
 10
171.6863557633092
 20
88.29036129225862
 30
0.0
 10
171.6938754961997
 20
88.28847924869511
 30
0.0
 10
171.7013923885628
 20
88.28787832253043
 30
0.0
 10
171.7090118894546
 20
88.28726919348794
 30
0.0
 10
171.7168415958583
 20
88.28795915422666
 30
0.0
 10
171.7242343378352
 20
88.2899021411265
 30
0.0
 10
171.7315026723275
 20
88.29181243080608
 30
0.0
 10
171.7385505103876
 20
88.29498938418593
 30
0.0
 10
171.7447693063346
 20
88.29920891851087
 30
0.0
 10
171.7470891764221
 20
88.30078298068413
 30
0.0
 10
171.7493124418511
 20
88.30251007311603
 30
0.0
 10
171.7514091253683
 20
88.30437109089584
 30
0.0
  0
LINE
  5
108
330
1F
100
AcDbEntity
  8
0
  6
Continuous
 62
     7
370
    25
100
AcDbLine
 10
175.0922148043
 20
99.9826600925
 30
0.0
 11
175.0922148043
 21
99.7326605172
 31
0.0
  0
ELLIPSE
  5
109
330
1F
100
AcDbEntity
  8
0
  6
Continuous
 62
     7
370
    25
100
AcDbEllipse
 10
173.4914028011
 20
89.8039049417
 30
0.0
 11
0.0653756970743018
 21
1.421085471520200E-14
 31
0.0
210
0.0
220
0.0
230
1.0
 40
0.9531667975
 41
4.712388980384496
 42
6.626209245739391
  0
LINE
  5
10A
330
1F
100
AcDbEntity
  8
0
  6
Continuous
 62
     7
370
    25
100
AcDbLine
 10
173.3188597412
 20
90.4496720211
 30
0.0
 11
173.5529700221
 21
89.8248633054
 31
0.0
  0
ELLIPSE
  5
10B
330
1F
100
AcDbEntity
  8
0
  6
Continuous
 62
     7
370
    25
100
AcDbEllipse
 10
173.2572927523
 20
90.4287135368
 30
0.0
 11
0.06537569707427338
 21
0.0
 31
0.0
210
0.0
220
0.0
230
1.0
 40
0.9531667975
 41
0.3430239404203566
 42
2.798568713169437
  0
LINE
  5
10C
330
1F
100
AcDbEntity
  8
0
  6
Continuous
 62
     7
370
    25
100
AcDbLine
 10
172.9616155775
 20
89.8248633054
 30
0.0
 11
173.1957258583
 21
90.4496720211
 31
0.0
  0
LINE
  5
10D
330
1F
100
AcDbEntity
  8
0
  6
Continuous
 62
     7
370
    25
100
AcDbLine
 10
173.491402615
 20
89.7415909601
 30
0.0
 11
173.0231825189
 21
89.7415909601
 31
0.0
  0
ELLIPSE
  5
10E
330
1F
100
AcDbEntity
  8
0
  6
Continuous
 62
     7
370
    25
100
AcDbEllipse
 10
173.0231827008
 20
89.8039049417
 30
0.0
 11
-0.0653756970743018
 21
0.0
 31
0.0
210
0.0
220
0.0
230
1.0
 40
0.9531667975
 41
5.94016136489568
 42
7.853981633974483
  0
SPLINE
  5
10F
330
1F
100
AcDbEntity
  8
0
  6
Continuous
 62
     7
370
    25
100
AcDbSpline
210
0.0
220
0.0
230
1.0
 70
     8
 71
     3
 72
    10
 73
     6
 74
     0
 42
0.000000001
 43
0.00000001
 40
0.0
 40
0.0
 40
0.0
 40
0.0
 40
0.5
 40
0.5
 40
1.0
 40
1.0
 40
1.0
 40
1.0
 10
171.8308167022829
 20
89.7413192219796
 30
0.0
 10
171.7791997842825
 20
89.59700059352014
 30
0.0
 10
171.6586195602125
 20
89.4838813318484
 30
0.0
 10
171.3720519367374
 20
89.38404158163048
 30
0.0
 10
171.2084443119433
 20
89.39662221933014
 30
0.0
 10
171.0742838072658
 20
89.47045223519412
 30
0.0
  0
LWPOLYLINE
  5
110
330
1F
100
AcDbEntity
  8
0
  6
Continuous
 62
     7
370
    25
100
AcDbPolyline
 90
        9
 70
   128
 43
0.0
 10
171.1948158612
 20
89.6894774084
 10
171.1713011303
 20
89.6467476302
 10
171.148690248
 20
89.6056600065
 10
171.1278519054
 20
89.5677935948
 10
171.1095868071
 20
89.5346031209
 10
171.0945971702
 20
89.5073647295
 10
171.0834587851
 20
89.4871245289
 10
171.0765998271
 20
89.4746606388
 10
171.0742838607
 20
89.470452225
  0
LINE
  5
111
330
1F
100
AcDbEntity
  8
0
  6
Continuous
 62
     7
370
    25
100
AcDbLine
 10
175.4800664188
 20
89.4923352787
 30
0.0
 11
175.4479572104
 21
89.4739861285
 31
0.0
  0
LINE
  5
112
330
1F
100
AcDbEntity
  8
0
  6
Continuous
 62
     7
370
    25
100
AcDbLine
 10
176.3422145435
 20
86.732660249
 30
0.0
 11
165.0922145621
 21
86.732660249
 31
0.0
  0
LINE
  5
113
330
1F
100
AcDbEntity
  8
0
  6
Continuous
 62
     7
370
    25
100
AcDbLine
 10
171.0742838607
 20
89.470452225
 30
0.0
 11
171.0345190644
 21
89.4923352787
 31
0.0
  0
LINE
  5
114
330
1F
100
AcDbEntity
  8
0
  6
Continuous
 62
     7
370
    25
100
AcDbLine
 10
163.0922146999
 20
88.7326601112
 30
0.0
 11
163.0922146999
 21
99.9826600925
 31
0.0
  0
LINE
  5
115
330
1F
100
AcDbEntity
  8
0
  6
Continuous
 62
     7
370
    25
100
AcDbLine
 10
176.0922149682
 20
98.7326603533
 30
0.0
 11
176.3422145435
 21
98.7326603533
 31
0.0
  0
ARC
  5
116
330
1F
100
AcDbEntity
  8
0
  6
Continuous
 62
     7
370
    25
100
AcDbCircle
 10
174.8714501041
 20
100.4594733492
 30
0.0
 40
0.2286896149092581
100
AcDbArc
 50
174.1807852453
 51
262.6552938174
  0
ARC
  5
117
330
1F
100
AcDbEntity
  8
0
  6
Continuous
 62
     7
370
    25
100
AcDbCircle
 10
176.8190278002
 20
86.9534249491
 30
0.0
 40
0.228689614909261
100
AcDbArc
 50
84.1807852453
 51
172.6552938174
  0
ARC
  5
118
330
1F
100
AcDbEntity
  8
0
  6
Continuous
 62
     7
370
    25
100
AcDbCircle
 10
163.3129794001
 20
100.4594733492
 30
0.0
 40
0.2286896149092581
100
AcDbArc
 50
277.3447061826
 51
5.8192147547
  0
ARC
  5
119
330
1F
100
AcDbEntity
  8
0
  6
Continuous
 62
     7
370
    25
100
AcDbCircle
 10
176.8190278002
 20
98.5118956532
 30
0.0
 40
0.2286896149092751
100
AcDbArc
 50
187.3447061826
 51
275.8192147547
  0
LINE
  5
11A
330
1F
100
AcDbEntity
  8
0
  6
Continuous
 62
     7
370
    25
100
AcDbLine
 10
175.1266974882
 20
99.9826600925
 30
0.0
 11
175.0922148043
 21
99.9826600925
 31
0.0
  0
LINE
  5
11B
330
1F
100
AcDbEntity
  8
0
  6
Continuous
 62
     7
370
    25
100
AcDbLine
 10
176.3422145435
 20
86.732660249
 30
0.0
 11
176.3422145435
 21
86.698177565
 31
0.0
  0
LINE
  5
11C
330
1F
100
AcDbEntity
  8
0
  6
Continuous
 62
     7
370
    25
100
AcDbLine
 10
163.057732016
 20
99.9826600925
 30
0.0
 11
163.0922146999
 21
99.9826600925
 31
0.0
  0
LINE
  5
11D
330
1F
100
AcDbEntity
  8
0
  6
Continuous
 62
     7
370
    25
100
AcDbLine
 10
176.3422145435
 20
98.7326603533
 30
0.0
 11
176.3422145435
 21
98.7671430373
 31
0.0
  0
LWPOLYLINE
  5
11E
330
1F
100
AcDbEntity
  8
0
  6
Continuous
 62
     7
370
    25
100
AcDbPolyline
 90
        9
 70
   128
 43
0.0
 10
164.8284044043
 20
86.7501355858
 10
164.8246334792
 20
86.7500387282
 10
164.8207237871
 20
86.7487660759
 10
164.8166939543
 20
86.7463236825
 10
164.8125635387
 20
86.7427227237
 10
164.8083511667
 20
86.7379808949
 10
164.804077793
 20
86.7321200819
 10
164.7997634412
 20
86.7251686902
 10
164.7954281346
 20
86.7171593161
  0
SPLINE
  5
11F
330
1F
100
AcDbEntity
  8
0
  6
Continuous
 62
     7
370
    25
100
AcDbSpline
210
0.0
220
0.0
230
1.0
 70
     8
 71
     3
 72
    14
 73
    10
 74
     0
 42
0.000000001
 43
0.00000001
 40
0.0
 40
0.0
 40
0.0
 40
0.0
 40
0.25
 40
0.25
 40
0.5
 40
0.5
 40
0.75
 40
0.75
 40
1.0
 40
1.0
 40
1.0
 40
1.0
 10
164.7954283424464
 20
86.71715932762642
 30
0.0
 10
164.5795690703487
 20
86.74361026454281
 30
0.0
 10
164.3717375759565
 20
86.80399611039819
 30
0.0
 10
163.9743341850458
 20
86.99627667567877
 30
0.0
 10
163.7958513771654
 20
87.12284446758926
 30
0.0
 10
163.4820355643302
 20
87.43675291206087
 30
0.0
 10
163.3551041402386
 20
87.61603522282583
 30
0.0
 10
163.1634372777278
 20
88.01266538210734
 30
0.0
 10
163.1031635278222
 20
88.22002431172727
 30
0.0
 10
163.0767137785841
 20
88.43587389148871
 30
0.0
  0
LWPOLYLINE
  5
120
330
1F
100
AcDbEntity
  8
0
  6
Continuous
 62
     7
370
    25
100
AcDbPolyline
 90
        9
 70
   128
 43
0.0
 10
163.1096900367
 20
88.4688499534
 10
163.1095931792
 20
88.4650790283
 10
163.1083205269
 20
88.4611693361
 10
163.1058781334
 20
88.4571395033
 10
163.1022771747
 20
88.4530090877
 10
163.0975353458
 20
88.4487967157
 10
163.0916745329
 20
88.4445233421
 10
163.0847231412
 20
88.4402089902
 10
163.076713767
 20
88.4358736837
  0
LINE
  5
121
330
1F
100
AcDbEntity
  8
0
  6
Continuous
 62
     7
370
    25
100
AcDbLine
 10
165.0922145621
 20
86.732660249
 30
0.0
 11
165.0922145621
 21
86.698177565
 31
0.0
  0
LINE
  5
122
330
1F
100
AcDbEntity
  8
0
  6
Continuous
 62
     7
370
    25
100
AcDbLine
 10
163.057732016
 20
88.7326601112
 30
0.0
 11
163.0922146999
 21
88.7326601112
 31
0.0
  0
SPLINE
  5
123
330
1F
100
AcDbEntity
  8
0
  6
Continuous
 62
     7
370
    25
100
AcDbSpline
210
0.0
220
0.0
230
1.0
 70
    24
 71
     3
 72
     9
 73
     5
 74
     0
 42
0.000000001
 43
0.00000001
 40
0.0
 40
0.0
 40
0.0
 40
0.0
 40
0.6549048073992468
 40
1.0
 40
1.0
 40
1.0
 40
1.0
 10
175.4605011941137
 20
99.10094674315604
 30
0.0
 10
175.4361778336825
 20
99.07662338272478
 30
0.0
 10
175.3990375345787
 20
99.03948308362104
 30
0.0
 10
175.3923786006906
 20
99.03282414973299
 30
0.0
 10
175.390080634618
 20
99.03052618366036
 30
0.0
  0
LINE
  5
124
330
1F
100
AcDbEntity
  8
0
  6
Continuous
 62
     7
370
    25
100
AcDbLine
 10
175.1266974882
 20
99.7326605172
 30
0.0
 11
175.0922148043
 21
99.7326605172
 31
0.0
  0
LINE
  5
125
330
1F
100
AcDbEntity
  8
0
  6
Continuous
 62
     7
370
    25
100
AcDbLine
 10
176.0922149682
 20
98.7326603533
 30
0.0
 11
176.0922149682
 21
98.7671430373
 31
0.0
  0
LINE
  5
126
330
1F
100
AcDbEntity
  8
0
  6
Continuous
 62
     8
370
    25
100
AcDbLine
 10
180.0922146925
 20
85.7326600851
 30
0.0
 11
180.0922146925
 21
99.7326605172
 31
0.0
  0
LINE
  5
127
330
1F
100
AcDbEntity
  8
0
  6
Continuous
 62
     8
370
    25
100
AcDbLine
 10
176.0922149682
 20
103.7326602415
 30
0.0
 11
162.092214536
 21
103.7326602415
 31
0.0
  0
LWPOLYLINE
  5
128
330
1F
100
AcDbEntity
  8
0
  6
Continuous
 62
     8
370
    25
100
AcDbPolyline
 90
        9
 70
   128
 43
0.0
 10
162.092214536
 20
87.7326604129
 10
162.1079664604
 20
87.7439112553
 10
162.1551505217
 20
87.7776144223
 10
162.2335543783
 20
87.833617177
 10
162.3428255246
 20
87.9116680623
 10
162.4824722224
 20
88.011415504
 10
162.6518658289
 20
88.1324110703
 10
162.8502440565
 20
88.2741094717
 10
163.076713767
 20
88.4358736837
  0
LWPOLYLINE
  5
129
330
1F
100
AcDbEntity
  8
0
  6
Continuous
 62
     8
370
    25
100
AcDbPolyline
 90
        9
 70
   128
 43
0.0
 10
164.7954281346
 20
86.7171593161
 10
164.6336639227
 20
86.4906896056
 10
164.4919655212
 20
86.2923113779
 10
164.370969955
 20
86.1229177715
 10
164.2712225133
 20
85.9832710737
 10
164.1931716279
 20
85.8739999273
 10
164.1371688732
 20
85.7955960707
 10
164.1034657062
 20
85.7484120094
 10
164.0922148639
 20
85.7326600851
  0
LINE
  5
12A
330
1F
100
AcDbEntity
  8
0
  6
Continuous
 62
     7
370
    18
100
AcDbLine
 10
193.2224111157
 20
85.2304789375
 30
0.0
 11
181.2522147521
 21
84.8564103011
 31
0.0
  0
LINE
  5
12B
330
1F
100
AcDbEntity
  8
0
  6
Continuous
 62
     7
370
    18
100
AcDbLine
 10
193.2224111157
 20
100.2348416648
 30
0.0
 11
181.2522147521
 21
100.6089103011
 31
0.0
  0
LINE
  5
12C
330
1F
100
AcDbEntity
  8
0
  6
Continuous
 62
     7
370
    18
100
AcDbLine
 10
181.2522147521
 20
101.2617853011
 30
0.0
 11
181.2522147521
 21
84.2035353011
 31
0.0
  0
LINE
  5
12D
330
1F
100
AcDbEntity
  8
0
  6
Continuous
 62
     7
370
    18
100
AcDbLine
 10
176.5943961157
 20
116.8628566647
 30
0.0
 11
176.9684647521
 21
104.8926603011
 31
0.0
  0
LINE
  5
12E
330
1F
100
AcDbEntity
  8
0
  6
Continuous
 62
     7
370
    18
100
AcDbLine
 10
161.5900333885
 20
116.8628566647
 30
0.0
 11
161.2159647521
 21
104.8926603011
 31
0.0
  0
LINE
  5
12F
330
1F
100
AcDbEntity
  8
0
  6
Continuous
 62
     7
370
    18
100
AcDbLine
 10
160.5630897521
 20
104.8926603011
 30
0.0
 11
177.6213397521
 21
104.8926603011
 31
0.0
  0
LINE
  5
130
330
1F
100
AcDbEntity
  8
0
  6
CENTERX2
 62
     7
370
    18
100
AcDbLine
 10
169.0922147521
 20
84.0911603388
 30
0.0
 11
169.0922147521
 21
119.7326603011
 31
0.0
  0
LINE
  5
131
330
1F
100
AcDbEntity
  8
0
  6
CENTERX2
 62
     7
370
    18
100
AcDbLine
 10
192.026888907
 20
92.7326603011
 30
0.0
 11
159.8113690692
 21
92.7326603011
 31
0.0
  0
LINE
  5
132
330
1F
100
AcDbEntity
  8
0
  6
CENTERX2
 62
     7
370
    18
100
AcDbLine
 10
192.026888907
 20
92.7326603011
 30
0.0
 11
196.0922147521
 21
92.7326603011
 31
0.0
  0
LINE
  5
133
330
1F
100
AcDbEntity
  8
0
  6
Continuous
 62
     7
370
    25
100
AcDbLine
 10
225.8354354328
 20
104.8842797206
 30
0.0
 11
225.4984652301
 21
115.6673336552
 31
0.0
  0
LINE
  5
134
330
1F
100
AcDbEntity
  8
0
  6
Continuous
 62
     7
370
    25
100
AcDbLine
 10
209.1136326691
 20
115.6673336552
 30
0.0
 11
208.7766624665
 21
104.8842797206
 31
0.0
  0
ARC
  5
135
330
1F
100
AcDbEntity
  8
0
  6
Continuous
 62
     7
370
    25
100
AcDbCircle
 10
209.3060489496
 20
105.7326603011
 30
0.0
 40
1.0
100
AcDbArc
 50
238.0359610897
 51
270.0
  0
ARC
  5
136
330
1F
100
AcDbEntity
  8
0
  6
Continuous
 62
     7
370
    25
100
AcDbCircle
 10
225.3060489496
 20
105.7326603011
 30
0.0
 40
1.0
100
AcDbArc
 50
270.0
 51
301.9640389103
  0
LINE
  5
137
330
1F
100
AcDbEntity
  8
0
  6
Continuous
 62
     7
370
    25
100
AcDbLine
 10
225.4984652301
 20
115.6673336552
 30
0.0
 11
224.3060491657
 21
117.7326606737
 31
0.0
  0
LINE
  5
138
330
1F
100
AcDbEntity
  8
0
  6
Continuous
 62
     7
370
    25
100
AcDbLine
 10
210.3060487336
 20
117.7326606737
 30
0.0
 11
209.1136326691
 21
115.6673336552
 31
0.0
  0
ARC
  5
139
330
1F
100
AcDbEntity
  8
0
  6
Continuous
 62
     7
370
    25
100
AcDbCircle
 10
209.3060489496
 20
103.7326603011
 30
0.0
 40
1.0
100
AcDbArc
 50
0.0
 51
90.0
  0
ARC
  5
13A
330
1F
100
AcDbEntity
  8
0
  6
Continuous
 62
     7
370
    25
100
AcDbCircle
 10
225.3060489496
 20
103.7326603011
 30
0.0
 40
1.0
100
AcDbArc
 50
90.0
 51
180.0
  0
LINE
  5
13B
330
1F
100
AcDbEntity
  8
0
  6
Continuous
 62
     7
370
    25
100
AcDbLine
 10
224.3060491657
 20
100.4826601745
 30
0.0
 11
224.3060491657
 21
103.7326602415
 31
0.0
  0
LINE
  5
13C
330
1F
100
AcDbEntity
  8
0
  6
Continuous
 62
     7
370
    25
100
AcDbLine
 10
210.3060487336
 20
103.7326602415
 30
0.0
 11
210.3060487336
 21
100.4826601745
 31
0.0
  0
SPLINE
  5
13D
330
1F
100
AcDbEntity
  8
0
  6
Continuous
 62
     7
370
    25
100
AcDbSpline
210
0.0
220
0.0
230
1.0
 70
     8
 71
     3
 72
    16
 73
    12
 74
     0
 42
0.000000001
 43
0.00000001
 40
0.0
 40
0.0
 40
0.0
 40
0.0
 40
0.7221229069155195
 40
0.9390266461983071
 40
0.9870920850039897
 40
0.9916400445717392
 40
0.9930292243381138
 40
0.9935063600177917
 40
0.994757573876845
 40
0.9994756227886644
 40
1.0
 40
1.0
 40
1.0
 40
1.0
 10
210.3083556195774
 20
100.3574270905212
 30
0.0
 10
210.3081264981425
 20
100.350649266535
 30
0.0
 10
210.3078285556032
 20
100.3418355905452
 30
0.0
 10
210.3076553328879
 20
100.3334206755259
 30
0.0
 10
210.3075857580034
 20
100.3305557065077
 30
0.0
 10
210.3075829216153
 20
100.3302194741825
 30
0.0
 10
210.3075797661776
 20
100.3301093596406
 30
0.0
 10
210.3075811752045
 20
100.3301471022579
 30
0.0
 10
210.3075808514
 20
100.3301899072533
 30
0.0
 10
210.3075854602424
 20
100.3303464931829
 30
0.0
 10
210.3075837265743
 20
100.3302923676554
 30
0.0
 10
210.307583553163
 20
100.330286953713
 30
0.0
  0
CIRCLE
  5
13E
330
1F
100
AcDbEntity
  8
0
  6
Continuous
 62
     7
370
    25
100
AcDbCircle
 10
217.3060489496
 20
92.7326603011
 30
0.0
 40
7.000000000000028
  0
CIRCLE
  5
13F
330
1F
100
AcDbEntity
  8
0
  6
Continuous
 62
     7
370
    25
100
AcDbCircle
 10
217.3060489496
 20
92.7326603011
 30
0.0
 40
6.375
  0
CIRCLE
  5
140
330
1F
100
AcDbEntity
  8
0
  6
Continuous
 62
     7
370
    25
100
AcDbCircle
 10
217.3060489496
 20
92.7326603011
 30
0.0
 40
6.25
  0
CIRCLE
  5
141
330
1F
100
AcDbEntity
  8
0
  6
Continuous
 62
     7
370
    25
100
AcDbCircle
 10
217.3060489496
 20
92.7326603011
 30
0.0
 40
8.192416432660877
  0
CIRCLE
  5
142
330
1F
100
AcDbEntity
  8
0
  6
Continuous
 62
     7
370
    25
100
AcDbCircle
 10
217.3060489496
 20
92.7326603011
 30
0.0
 40
5.0
  0
CIRCLE
  5
143
330
1F
100
AcDbEntity
  8
0
  6
Continuous
 62
     7
370
    25
100
AcDbCircle
 10
217.3060489496
 20
92.7326603011
 30
0.0
 40
5.5
  0
CIRCLE
  5
144
330
1F
100
AcDbEntity
  8
0
  6
Continuous
 62
     7
370
    25
100
AcDbCircle
 10
217.3060489496
 20
92.7326603011
 30
0.0
 40
6.125
  0
CIRCLE
  5
145
330
1F
100
AcDbEntity
  8
0
  6
Continuous
 62
     7
370
    25
100
AcDbCircle
 10
217.3060489496
 20
92.7326603011
 30
0.0
 40
8.529386891478595
  0
LINE
  5
146
330
1F
100
AcDbEntity
  8
0
  6
Continuous
 62
     7
370
    25
100
AcDbLine
 10
217.3060489496
 20
104.8842797206
 30
0.0
 11
208.7766624665
 21
104.8842797206
 31
0.0
  0
LINE
  5
147
330
1F
100
AcDbEntity
  8
0
  6
Continuous
 62
     7
370
    25
100
AcDbLine
 10
225.8354354328
 20
104.8842797206
 30
0.0
 11
217.3060489496
 21
104.8842797206
 31
0.0
  0
LINE
  5
148
330
1F
100
AcDbEntity
  8
0
  6
Continuous
 62
     7
370
    25
100
AcDbLine
 10
209.1136326691
 20
115.6673336552
 30
0.0
 11
225.4984652301
 21
115.6673336552
 31
0.0
  0
LINE
  5
149
330
1F
100
AcDbEntity
  8
0
  6
Continuous
 62
     7
370
    25
100
AcDbLine
 10
217.3060489496
 20
104.7326604055
 30
0.0
 11
225.3060493296
 21
104.7326604055
 31
0.0
  0
LINE
  5
14A
330
1F
100
AcDbEntity
  8
0
  6
Continuous
 62
     7
370
    25
100
AcDbLine
 10
209.3060485696
 20
104.7326604055
 30
0.0
 11
217.3060489496
 21
104.7326604055
 31
0.0
  0
LINE
  5
14B
330
1F
100
AcDbEntity
  8
0
  6
Continuous
 62
     7
370
    25
100
AcDbLine
 10
224.3060491657
 20
117.7326606737
 30
0.0
 11
210.3060487336
 21
117.7326606737
 31
0.0
  0
LINE
  5
14C
330
1F
100
AcDbEntity
  8
0
  6
Continuous
 62
     7
370
    25
100
AcDbLine
 10
210.3060487336
 20
97.6061027647
 30
0.0
 11
210.3060487336
 21
98.4826603123
 31
0.0
  0
LINE
  5
14D
330
1F
100
AcDbEntity
  8
0
  6
Continuous
 62
     7
370
    25
100
AcDbLine
 10
210.3060487336
 20
98.4826603123
 30
0.0
 11
210.5560487745
 21
98.4826603123
 31
0.0
  0
LINE
  5
14E
330
1F
100
AcDbEntity
  8
0
  6
Continuous
 62
     7
370
    25
100
AcDbLine
 10
224.0560491247
 20
98.4826603123
 30
0.0
 11
224.3060491657
 21
98.4826603123
 31
0.0
  0
LINE
  5
14F
330
1F
100
AcDbEntity
  8
0
  6
Continuous
 62
     7
370
    25
100
AcDbLine
 10
224.3060491657
 20
98.4826603123
 30
0.0
 11
224.3060491657
 21
97.6061027647
 31
0.0
  0
LINE
  5
150
330
1F
100
AcDbEntity
  8
0
  6
Continuous
 62
     7
370
    25
100
AcDbLine
 10
210.3060487336
 20
86.98266029
 30
0.0
 11
210.3060487336
 21
87.8592178376
 31
0.0
  0
LINE
  5
151
330
1F
100
AcDbEntity
  8
0
  6
Continuous
 62
     7
370
    25
100
AcDbLine
 10
210.3060487336
 20
86.98266029
 30
0.0
 11
210.5560487745
 21
86.98266029
 31
0.0
  0
LINE
  5
152
330
1F
100
AcDbEntity
  8
0
  6
Continuous
 62
     7
370
    25
100
AcDbLine
 10
224.3060491657
 20
87.8592178376
 30
0.0
 11
224.3060491657
 21
86.98266029
 31
0.0
  0
LINE
  5
153
330
1F
100
AcDbEntity
  8
0
  6
Continuous
 62
     7
370
    25
100
AcDbLine
 10
224.0560491247
 20
86.98266029
 30
0.0
 11
224.3060491657
 21
86.98266029
 31
0.0
  0
LINE
  5
154
330
1F
100
AcDbEntity
  8
0
  6
Continuous
 62
     7
370
    25
100
AcDbLine
 10
210.5560487745
 20
98.7326603533
 30
0.0
 11
211.2438346868
 21
98.7326603533
 31
0.0
  0
LINE
  5
155
330
1F
100
AcDbEntity
  8
0
  6
Continuous
 62
     7
370
    25
100
AcDbLine
 10
210.5560487745
 20
98.7326603533
 30
0.0
 11
210.5560487745
 21
98.4826603123
 31
0.0
  0
LINE
  5
156
330
1F
100
AcDbEntity
  8
0
  6
Continuous
 62
     7
370
    25
100
AcDbLine
 10
224.0560491247
 20
86.98266029
 30
0.0
 11
224.0560491247
 21
86.732660249
 31
0.0
  0
LINE
  5
157
330
1F
100
AcDbEntity
  8
0
  6
Continuous
 62
     7
370
    25
100
AcDbLine
 10
224.0560491247
 20
86.732660249
 30
0.0
 11
223.3682632124
 21
86.732660249
 31
0.0
  0
LINE
  5
158
330
1F
100
AcDbEntity
  8
0
  6
Continuous
 62
     7
370
    25
100
AcDbLine
 10
223.3682632124
 20
98.7326603533
 30
0.0
 11
224.0560491247
 21
98.7326603533
 31
0.0
  0
LINE
  5
159
330
1F
100
AcDbEntity
  8
0
  6
Continuous
 62
     7
370
    25
100
AcDbLine
 10
224.0560491247
 20
98.4826603123
 30
0.0
 11
224.0560491247
 21
98.7326603533
 31
0.0
  0
ARC
  5
15A
330
1F
100
AcDbEntity
  8
0
  6
Continuous
 62
     7
370
    25
100
AcDbCircle
 10
224.0560489496
 20
98.4826603011
 30
0.0
 40
0.2500000000000284
100
AcDbArc
 50
0.0
 51
90.0
  0
LINE
  5
15B
330
1F
100
AcDbEntity
  8
0
  6
Continuous
 62
     7
370
    25
100
AcDbLine
 10
210.5560487745
 20
86.732660249
 30
0.0
 11
210.5560487745
 21
86.98266029
 31
0.0
  0
ARC
  5
15C
330
1F
100
AcDbEntity
  8
0
  6
Continuous
 62
     7
370
    25
100
AcDbCircle
 10
210.5560489496
 20
86.9826603011
 30
0.0
 40
0.25
100
AcDbArc
 50
180.0
 51
270.0
  0
ARC
  5
15D
330
1F
100
AcDbEntity
  8
0
  6
Continuous
 62
     7
370
    25
100
AcDbCircle
 10
224.0560489496
 20
86.9826603011
 30
0.0
 40
0.2500000000000284
100
AcDbArc
 50
270.0
 51
0.0
  0
LINE
  5
15E
330
1F
100
AcDbEntity
  8
0
  6
Continuous
 62
     7
370
    25
100
AcDbLine
 10
211.2438346868
 20
86.732660249
 30
0.0
 11
210.5560487745
 21
86.732660249
 31
0.0
  0
ARC
  5
15F
330
1F
100
AcDbEntity
  8
0
  6
Continuous
 62
     7
370
    25
100
AcDbCircle
 10
210.5560489496
 20
98.4826603011
 30
0.0
 40
0.25
100
AcDbArc
 50
90.0
 51
180.0
  0
LINE
  5
160
330
1F
100
AcDbEntity
  8
0
  6
Continuous
 62
     7
370
    25
100
AcDbLine
 10
210.5560487745
 20
99.7326605172
 30
0.0
 11
210.5560487745
 21
98.7326603533
 31
0.0
  0
LINE
  5
161
330
1F
100
AcDbEntity
  8
0
  6
Continuous
 62
     7
370
    25
100
AcDbLine
 10
210.5560487745
 20
99.7326605172
 30
0.0
 11
210.3060487336
 21
99.7326605172
 31
0.0
  0
LINE
  5
162
330
1F
100
AcDbEntity
  8
0
  6
Continuous
 62
     7
370
    25
100
AcDbLine
 10
210.3060487336
 20
98.4826603123
 30
0.0
 11
210.3060487336
 21
99.7326605172
 31
0.0
  0
LINE
  5
163
330
1F
100
AcDbEntity
  8
0
  6
Continuous
 62
     7
370
    25
100
AcDbLine
 10
224.0560491247
 20
98.7326603533
 30
0.0
 11
224.0560491247
 21
99.7326605172
 31
0.0
  0
LINE
  5
164
330
1F
100
AcDbEntity
  8
0
  6
Continuous
 62
     7
370
    25
100
AcDbLine
 10
224.0560491247
 20
99.7326605172
 30
0.0
 11
224.3060491657
 21
99.7326605172
 31
0.0
  0
LINE
  5
165
330
1F
100
AcDbEntity
  8
0
  6
Continuous
 62
     7
370
    25
100
AcDbLine
 10
224.3060491657
 20
99.7326605172
 30
0.0
 11
224.3060491657
 21
98.4826603123
 31
0.0
  0
SPLINE
  5
166
330
1F
100
AcDbEntity
  8
0
  6
Continuous
 62
     7
370
    25
100
AcDbSpline
210
0.0
220
0.0
230
1.0
 70
    24
 71
     3
 72
    14
 73
    10
 74
     0
 42
0.000000001
 43
0.00000001
 40
0.0
 40
0.0
 40
0.0
 40
0.0
 40
0.25
 40
0.25
 40
0.5
 40
0.5
 40
0.75
 40
0.75
 40
1.0
 40
1.0
 40
1.0
 40
1.0
 10
224.3060489496269
 20
100.4826603011445
 30
0.0
 10
224.3060489496269
 20
100.4826603011445
 30
0.0
 10
224.2961242597015
 20
100.4826603011445
 30
0.0
 10
224.2563295570388
 20
100.4826603011445
 30
0.0
 10
224.2264592118172
 20
100.4826603011445
 30
0.0
 10
224.1464896718852
 20
100.4826603011445
 30
0.0
 10
224.0963897914493
 20
100.4826603011445
 30
0.0
 10
223.9755052424615
 20
100.4826603011445
 30
0.0
 10
223.9047194938729
 20
100.4826603011445
 30
0.0
 10
223.8232903289372
 20
100.4826603011445
 30
0.0
  0
LINE
  5
167
330
1F
100
AcDbEntity
  8
0
  6
Continuous
 62
     7
370
    25
100
AcDbLine
 10
221.5696576661
 20
100.4826601745
 30
0.0
 11
223.8232901929
 21
100.4826601745
 31
0.0
  0
LINE
  5
168
330
1F
100
AcDbEntity
  8
0
  6
Continuous
 62
     7
370
    25
100
AcDbLine
 10
210.7888077064
 20
100.4826601745
 30
0.0
 11
213.0424402332
 21
100.4826601745
 31
0.0
  0
SPLINE
  5
169
330
1F
100
AcDbEntity
  8
0
  6
Continuous
 62
     7
370
    25
100
AcDbSpline
210
0.0
220
0.0
230
1.0
 70
    24
 71
     3
 72
    14
 73
    10
 74
     0
 42
0.000000001
 43
0.00000001
 40
0.0
 40
0.0
 40
0.0
 40
0.0
 40
0.25
 40
0.25
 40
0.5
 40
0.5
 40
0.75
 40
0.75
 40
1.0
 40
1.0
 40
1.0
 40
1.0
 10
210.3060489496269
 20
100.4826603011445
 30
0.0
 10
210.3060489496269
 20
100.4826603011445
 30
0.0
 10
210.3159736395523
 20
100.4826603011445
 30
0.0
 10
210.355768342215
 20
100.4826603011445
 30
0.0
 10
210.3856386874367
 20
100.4826603011445
 30
0.0
 10
210.4656082273686
 20
100.4826603011445
 30
0.0
 10
210.5157081078045
 20
100.4826603011445
 30
0.0
 10
210.6365926567923
 20
100.4826603011445
 30
0.0
 10
210.707378405381
 20
100.4826603011445
 30
0.0
 10
210.7888075703166
 20
100.4826603011445
 30
0.0
  0
LWPOLYLINE
  5
16A
330
1F
100
AcDbEntity
  8
0
  6
Continuous
 62
     7
370
    25
100
AcDbPolyline
 90
        9
 70
   128
 43
0.0
 10
213.0424402332
 20
100.4826601745
 10
213.0395144833
 20
100.4338877426
 10
213.0308494581
 20
100.3869895973
 10
213.0167776397
 20
100.343767848
 10
212.9978410577
 20
100.3058835083
 10
212.974766144
 20
100.2747927011
 10
212.9484404488
 20
100.2516903133
 10
212.9198753884
 20
100.2374638953
 10
212.8901685266
 20
100.2326601335
  0
LWPOLYLINE
  5
16B
330
1F
100
AcDbEntity
  8
0
  6
Continuous
 62
     7
370
    25
100
AcDbPolyline
 90
        9
 70
   128
 43
0.0
 10
221.7219293727
 20
100.2326601335
 10
221.6922225108
 20
100.2374638953
 10
221.6636574505
 20
100.2516903133
 10
221.6373317553
 20
100.2747927011
 10
221.6142568415
 20
100.3058835083
 10
221.5953202596
 20
100.343767848
 10
221.5812484412
 20
100.3869895973
 10
221.5725834159
 20
100.4338877426
 10
221.5696576661
 20
100.4826601745
  0
LINE
  5
16C
330
1F
100
AcDbEntity
  8
0
  6
Continuous
 62
     7
370
    25
100
AcDbLine
 10
224.0560491247
 20
99.7326605172
 30
0.0
 11
224.0560491247
 21
99.9826600925
 31
0.0
  0
LINE
  5
16D
330
1F
100
AcDbEntity
  8
0
  6
Continuous
 62
     7
370
    25
100
AcDbLine
 10
210.5560487745
 20
100.2326601335
 30
0.0
 11
212.8901685266
 21
100.2326601335
 31
0.0
  0
LINE
  5
16E
330
1F
100
AcDbEntity
  8
0
  6
Continuous
 62
     7
370
    25
100
AcDbLine
 10
210.5560487745
 20
100.2326601335
 30
0.0
 11
210.5560487745
 21
99.9826600925
 31
0.0
  0
LINE
  5
16F
330
1F
100
AcDbEntity
  8
0
  6
Continuous
 62
     7
370
    25
100
AcDbLine
 10
224.0560491247
 20
99.9826600925
 30
0.0
 11
224.3060491657
 21
99.9826600925
 31
0.0
  0
LINE
  5
170
330
1F
100
AcDbEntity
  8
0
  6
Continuous
 62
     7
370
    25
100
AcDbLine
 10
224.3060491657
 20
99.9826600925
 30
0.0
 11
224.3060491657
 21
99.7326605172
 31
0.0
  0
LINE
  5
171
330
1F
100
AcDbEntity
  8
0
  6
Continuous
 62
     7
370
    25
100
AcDbLine
 10
224.0560491247
 20
99.9826600925
 30
0.0
 11
224.0560491247
 21
100.2326601335
 31
0.0
  0
ARC
  5
172
330
1F
100
AcDbEntity
  8
0
  6
Continuous
 62
     7
370
    25
100
AcDbCircle
 10
224.0560489496
 20
99.9826603011
 30
0.0
 40
0.2500000000000284
100
AcDbArc
 50
0.0
 51
90.0
  0
LINE
  5
173
330
1F
100
AcDbEntity
  8
0
  6
Continuous
 62
     7
370
    25
100
AcDbLine
 10
210.3060487336
 20
99.9826600925
 30
0.0
 11
210.5560487745
 21
99.9826600925
 31
0.0
  0
ARC
  5
174
330
1F
100
AcDbEntity
  8
0
  6
Continuous
 62
     7
370
    25
100
AcDbCircle
 10
210.5560489496
 20
99.9826603011
 30
0.0
 40
0.25
100
AcDbArc
 50
90.0
 51
180.0
  0
LINE
  5
175
330
1F
100
AcDbEntity
  8
0
  6
Continuous
 62
     7
370
    25
100
AcDbLine
 10
210.5560487745
 20
99.9826600925
 30
0.0
 11
210.5560487745
 21
99.7326605172
 31
0.0
  0
LINE
  5
176
330
1F
100
AcDbEntity
  8
0
  6
Continuous
 62
     7
370
    25
100
AcDbLine
 10
210.3060487336
 20
99.7326605172
 30
0.0
 11
210.3060487336
 21
99.9826600925
 31
0.0
  0
LINE
  5
177
330
1F
100
AcDbEntity
  8
0
  6
Continuous
 62
     7
370
    25
100
AcDbLine
 10
221.7219293727
 20
100.2326601335
 30
0.0
 11
224.0560491247
 21
100.2326601335
 31
0.0
  0
SPLINE
  5
178
330
1F
100
AcDbEntity
  8
0
  6
Continuous
 62
     7
370
    25
100
AcDbSpline
210
0.0
220
0.0
230
1.0
 70
     8
 71
     3
 72
     8
 73
     4
 74
     0
 42
0.000000001
 43
0.00000001
 40
0.0
 40
0.0
 40
0.0
 40
0.0
 40
1.0
 40
1.0
 40
1.0
 40
1.0
 10
210.7888075703166
 20
100.4826603011444
 30
0.0
 10
210.7872376676198
 20
100.4172076207083
 30
0.0
 10
210.7605823332158
 20
100.3521580557001
 30
0.0
 10
210.7158807695943
 20
100.3058775952177
 30
0.0
  0
SPLINE
  5
179
330
1F
100
AcDbEntity
  8
0
  6
Continuous
 62
     7
370
    25
100
AcDbSpline
210
0.0
220
0.0
230
1.0
 70
     8
 71
     3
 72
    14
 73
    10
 74
     0
 42
0.000000001
 43
0.00000001
 40
0.0
 40
0.0
 40
0.0
 40
0.0
 40
0.2455893235675696
 40
0.4556181963142487
 40
0.6303106213393677
 40
0.7701164303669036
 40
0.8759901151610805
 40
0.9502659312389182
 40
1.0
 40
1.0
 40
1.0
 40
1.0
 10
210.7158807695943
 20
100.3058775952177
 30
0.0
 10
210.7039898290552
 20
100.2949125559024
 30
0.0
 10
210.6819297134026
 20
100.2745701755303
 30
0.0
 10
210.6463660150824
 20
100.2544181630538
 30
0.0
 10
210.6155737064792
 20
100.242298603583
 30
0.0
 10
210.5903341239064
 20
100.2360927803506
 30
0.0
 10
210.5723518309715
 20
100.2334730813767
 30
0.0
 10
210.5594296675556
 20
100.2326928870317
 30
0.0
 10
210.5570166774496
 20
100.2326696288288
 30
0.0
 10
210.5560489496269
 20
100.2326603011444
 30
0.0
  0
SPLINE
  5
17A
330
1F
100
AcDbEntity
  8
0
  6
Continuous
 62
     7
370
    25
100
AcDbSpline
210
0.0
220
0.0
230
1.0
 70
     8
 71
     3
 72
    15
 73
    11
 74
     0
 42
0.000000001
 43
0.00000001
 40
0.0
 40
0.0
 40
0.0
 40
0.0
 40
0.0425877399909108
 40
0.1028282325346858
 40
0.1864706729280343
 40
0.2956205441869044
 40
0.4311891005861843
 40
0.5936297641565587
 40
0.7831876993469675
 40
1.0
 40
1.0
 40
1.0
 40
1.0
 10
224.0560489496269
 20
100.2326603011445
 30
0.0
 10
224.0553334480301
 20
100.2326660942466
 30
0.0
 10
224.0536058671678
 20
100.23268008171
 30
0.0
 10
224.0437316880729
 20
100.2331717825417
 30
0.0
 10
224.0298380082506
 20
100.2347991365003
 30
0.0
 10
224.0103407504289
 20
100.2386242848844
 30
0.0
 10
223.9861358975797
 20
100.2459965949252
 30
0.0
 10
223.9577672409155
 20
100.258614583902
 30
0.0
 10
223.9262280701719
 20
100.2778587861062
 30
0.0
 10
223.9066582775996
 20
100.2961295324765
 30
0.0
 10
223.8962171296594
 20
100.3058775952177
 30
0.0
  0
SPLINE
  5
17B
330
1F
100
AcDbEntity
  8
0
  6
Continuous
 62
     7
370
    25
100
AcDbSpline
210
0.0
220
0.0
230
1.0
 70
     8
 71
     3
 72
     8
 73
     4
 74
     0
 42
0.000000001
 43
0.00000001
 40
0.0
 40
0.0
 40
0.0
 40
0.0
 40
1.0
 40
1.0
 40
1.0
 40
1.0
 10
223.8962171296594
 20
100.3058775952177
 30
0.0
 10
223.851515566038
 20
100.3521580557001
 30
0.0
 10
223.8248602316341
 20
100.4172076207083
 30
0.0
 10
223.8232903289372
 20
100.4826603011444
 30
0.0
  0
SPLINE
  5
17C
330
1F
100
AcDbEntity
  8
0
  6
Continuous
 62
     7
370
    25
100
AcDbSpline
210
0.0
220
0.0
230
1.0
 70
     8
 71
     3
 72
    10
 73
     6
 74
     0
 42
0.000000001
 43
0.00000001
 40
0.0
 40
0.0
 40
0.0
 40
0.0
 40
0.5
 40
0.5
 40
1.0
 40
1.0
 40
1.0
 40
1.0
 10
222.2050284351933
 20
93.73266030114443
 30
0.0
 10
222.1958710095952
 20
93.40420747653522
 30
0.0
 10
222.1903898221509
 20
93.07329601774886
 30
0.0
 10
222.1902485516883
 20
92.40566761456023
 30
0.0
 10
222.1957050651886
 20
92.06706511613321
 30
0.0
 10
222.2050284351933
 20
91.73266030114446
 30
0.0
  0
LINE
  5
17D
330
1F
100
AcDbEntity
  8
0
  6
Continuous
 62
     7
370
    25
100
AcDbLine
 10
222.2050282782
 20
91.7326602536
 30
0.0
 11
212.4070696211
 21
91.7326602536
 31
0.0
  0
SPLINE
  5
17E
330
1F
100
AcDbEntity
  8
0
  6
Continuous
 62
     7
370
    25
100
AcDbSpline
210
0.0
220
0.0
230
1.0
 70
     8
 71
     3
 72
    10
 73
     6
 74
     0
 42
0.000000001
 43
0.00000001
 40
0.0
 40
0.0
 40
0.0
 40
0.0
 40
0.5
 40
0.5
 40
1.0
 40
1.0
 40
1.0
 40
1.0
 10
212.4070694640606
 20
91.73266030114445
 30
0.0
 10
212.4163154312391
 20
92.06428887988643
 30
0.0
 10
212.4217522300999
 20
92.39671093444547
 30
0.0
 10
212.4218064249616
 20
93.06336826088015
 30
0.0
 10
212.4164109812046
 20
93.39760459589114
 30
0.0
 10
212.4070694640606
 20
93.73266030114443
 30
0.0
  0
SPLINE
  5
17F
330
1F
100
AcDbEntity
  8
0
  6
Continuous
 62
     7
370
    25
100
AcDbSpline
210
0.0
220
0.0
230
1.0
 70
     8
 71
     3
 72
    12
 73
     8
 74
     0
 42
0.000000001
 43
0.00000001
 40
0.0
 40
0.0
 40
0.0
 40
0.0
 40
0.25
 40
0.25
 40
0.5
 40
0.5
 40
1.0
 40
1.0
 40
1.0
 40
1.0
 10
210.307158488909
 20
100.2343800587988
 30
0.0
 10
210.3071670962942
 20
100.2241379603497
 30
0.0
 10
210.3157769066243
 20
100.2165987487964
 30
0.0
 10
210.3372580168946
 20
100.202269233172
 30
0.0
 10
210.3501293168347
 20
100.195478929101
 30
0.0
 10
210.3757240766499
 20
100.1692460786477
 30
0.0
 10
210.3793986198486
 20
100.1595633619594
 30
0.0
 10
210.3792722543288
 20
100.1594369964396
 30
0.0
  0
LINE
  5
180
330
1F
100
AcDbEntity
  8
0
  6
Continuous
 62
     7
370
    25
100
AcDbLine
 10
210.3056938997
 20
100.040794179
 30
0.0
 11
210.3053083321
 21
100.1039294676
 31
0.0
  0
SPLINE
  5
181
330
1F
100
AcDbEntity
  8
0
  6
Continuous
 62
     7
370
    25
100
AcDbSpline
210
0.0
220
0.0
230
1.0
 70
     8
 71
     3
 72
    14
 73
    10
 74
     0
 42
0.000000001
 43
0.00000001
 40
0.0
 40
0.0
 40
0.0
 40
0.0
 40
0.25
 40
0.25
 40
0.5
 40
0.5
 40
0.75
 40
0.75
 40
1.0
 40
1.0
 40
1.0
 40
1.0
 10
224.3049394103448
 20
100.2343800587988
 30
0.0
 10
224.3049480177301
 20
100.2446221572478
 30
0.0
 10
224.2963568825452
 20
100.2593048717112
 30
0.0
 10
224.260047283035
 20
100.2911272623691
 30
0.0
 10
224.2323288187095
 20
100.3082669385636
 30
0.0
 10
224.1558367169173
 20
100.3385789823859
 30
0.0
 10
224.1113109808116
 20
100.3444487805755
 30
0.0
 10
224.0114418606154
 20
100.3383542264952
 30
0.0
 10
223.9560984765249
 20
100.3263898742253
 30
0.0
 10
223.8962171296594
 20
100.3058775952177
 30
0.0
  0
SPLINE
  5
182
330
1F
100
AcDbEntity
  8
0
  6
Continuous
 62
     7
370
    25
100
AcDbSpline
210
0.0
220
0.0
230
1.0
 70
     8
 71
     3
 72
    12
 73
     8
 74
     0
 42
0.000000001
 43
0.00000001
 40
0.0
 40
0.0
 40
0.0
 40
0.0
 40
0.25
 40
0.25
 40
0.5
 40
0.5
 40
1.0
 40
1.0
 40
1.0
 40
1.0
 10
224.3049394103448
 20
100.2343800587988
 30
0.0
 10
224.3049308029597
 20
100.2241379603497
 30
0.0
 10
224.2963209926295
 20
100.2165987487964
 30
0.0
 10
224.2748398823592
 20
100.202269233172
 30
0.0
 10
224.2619685824191
 20
100.195478929101
 30
0.0
 10
224.2363738226039
 20
100.1692460786477
 30
0.0
 10
224.2326992794052
 20
100.1595633619594
 30
0.0
 10
224.232825644925
 20
100.1594369964396
 30
0.0
  0
LINE
  5
183
330
1F
100
AcDbEntity
  8
0
  6
Continuous
 62
     7
370
    25
100
AcDbLine
 10
224.3064039996
 20
100.040794179
 30
0.0
 11
224.3067895671
 21
100.1039294676
 31
0.0
  0
SPLINE
  5
184
330
1F
100
AcDbEntity
  8
0
  6
Continuous
 62
     7
370
    25
100
AcDbSpline
210
0.0
220
0.0
230
1.0
 70
     8
 71
     3
 72
    12
 73
     8
 74
     0
 42
0.000000001
 43
0.00000001
 40
0.0
 40
0.0
 40
0.0
 40
0.0
 40
0.25
 40
0.25
 40
0.5
 40
0.5
 40
1.0
 40
1.0
 40
1.0
 40
1.0
 10
210.307158488909
 20
100.2343800587988
 30
0.0
 10
210.3071498815238
 20
100.2446221572478
 30
0.0
 10
210.3157410167086
 20
100.2593048717112
 30
0.0
 10
210.3520506162189
 20
100.2911272623691
 30
0.0
 10
210.3797690805443
 20
100.3082669385635
 30
0.0
 10
210.4945072332325
 20
100.3537350042971
 30
0.0
 10
210.5961180758634
 20
100.346902153233
 30
0.0
 10
210.7158807695943
 20
100.3058775952177
 30
0.0
  0
SPLINE
  5
185
330
1F
100
AcDbEntity
  8
0
  6
Continuous
 62
     7
370
    25
100
AcDbSpline
210
0.0
220
0.0
230
1.0
 70
     8
 71
     3
 72
    10
 73
     6
 74
     0
 42
0.000000001
 43
0.00000001
 40
0.0
 40
0.0
 40
0.0
 40
0.0
 40
0.5
 40
0.5
 40
1.0
 40
1.0
 40
1.0
 40
1.0
 10
210.307158488909
 20
100.2343800587988
 30
0.0
 10
210.3071240593682
 20
100.275348452595
 30
0.0
 10
210.306742381934
 20
100.318803899667
 30
0.0
 10
210.3104343960602
 20
100.4078897448842
 30
0.0
 10
210.3060489496269
 20
100.4402769734995
 30
0.0
 10
210.3060489496269
 20
100.4826603011445
 30
0.0
  0
SPLINE
  5
186
330
1F
100
AcDbEntity
  8
0
  6
Continuous
 62
     7
370
    25
100
AcDbSpline
210
0.0
220
0.0
230
1.0
 70
     8
 71
     3
 72
     9
 73
     5
 74
     0
 42
0.000000001
 43
0.00000001
 40
0.0
 40
0.0
 40
0.0
 40
0.0
 40
0.1238817103976022
 40
1.0
 40
1.0
 40
1.0
 40
1.0
 10
224.3043145773985
 20
100.3633349352733
 30
0.0
 10
224.3042298219864
 20
100.3580102790703
 30
0.0
 10
224.3035456579411
 20
100.3150285008414
 30
0.0
 10
224.3042885945207
 20
100.2720417579549
 30
0.0
 10
224.3049394948461
 20
100.2343802863017
 30
0.0
  0
SPLINE
  5
187
330
1F
100
AcDbEntity
  8
0
  6
Continuous
 62
     7
370
    25
100
AcDbSpline
210
0.0
220
0.0
230
1.0
 70
     8
 71
     3
 72
    24
 73
    20
 74
     0
 42
0.000000001
 43
0.00000001
 40
0.0
 40
0.0
 40
0.0
 40
0.0
 40
0.125
 40
0.125
 40
0.2499999999999999
 40
0.2499999999999999
 40
0.3749999999999999
 40
0.3749999999999999
 40
0.4374999999999999
 40
0.4374999999999999
 40
0.5
 40
0.5
 40
0.6250000000000001
 40
0.6250000000000001
 40
0.7500000000000001
 40
0.7500000000000001
 40
0.8750000000000001
 40
0.8750000000000001
 40
1.0
 40
1.0
 40
1.0
 40
1.0
 10
222.2050284351933
 20
91.73266030114445
 30
0.0
 10
221.8408417208166
 20
91.54125732111515
 30
0.0
 10
221.4703386682093
 20
91.35715424954202
 30
0.0
 10
220.7091334864753
 20
91.0122925512474
 30
0.0
 10
220.3185847857825
 20
90.85135660445835
 30
0.0
 10
219.5035547278266
 20
90.56870130720415
 30
0.0
 10
219.079960561488
 20
90.44790674704002
 30
0.0
 10
218.4269356736096
 20
90.32118854340905
 30
0.0
 10
218.2056427030394
 20
90.28785657567194
 30
0.0
 10
217.7543511221052
 20
90.24262567973152
 30
0.0
 10
217.5262464575253
 20
90.23114698835438
 30
0.0
 10
216.8504554880098
 20
90.23166072066962
 30
0.0
 10
216.4040714459374
 20
90.27851326351804
 30
0.0
 10
215.524278036079
 20
90.44962968701677
 30
0.0
 10
215.1065851989939
 20
90.56942730887114
 30
0.0
 10
214.2976842244142
 20
90.849863206882
 30
0.0
 10
213.9058463364223
 20
91.01103320222796
 30
0.0
 10
213.1420501728749
 20
91.35697633339502
 30
0.0
 10
212.7711590705166
 20
91.54130835742329
 30
0.0
 10
212.4070694640606
 20
91.73266030114445
 30
0.0
  0
LINE
  5
188
330
1F
100
AcDbEntity
  8
0
  6
Continuous
 62
     8
370
    25
100
AcDbLine
 10
217.3060489496
 20
103.7326602415
 30
0.0
 11
210.3060487336
 21
103.7326602415
 31
0.0
  0
LINE
  5
189
330
1F
100
AcDbEntity
  8
0
  6
Continuous
 62
     8
370
    25
100
AcDbLine
 10
224.3060491657
 20
103.7326602415
 30
0.0
 11
217.3060489496
 21
103.7326602415
 31
0.0
  0
LINE
  5
18A
330
1F
100
AcDbEntity
  8
0
  6
Continuous
 62
     8
370
    25
100
AcDbLine
 10
210.5560487745
 20
98.4826603123
 30
0.0
 11
210.5560487745
 21
97.9468657785
 31
0.0
  0
LINE
  5
18B
330
1F
100
AcDbEntity
  8
0
  6
Continuous
 62
     8
370
    25
100
AcDbLine
 10
224.0560491247
 20
98.4826603123
 30
0.0
 11
223.6058855107
 21
98.4826603123
 31
0.0
  0
LINE
  5
18C
330
1F
100
AcDbEntity
  8
0
  6
Continuous
 62
     8
370
    25
100
AcDbLine
 10
224.0560491247
 20
97.9468657785
 30
0.0
 11
224.0560491247
 21
98.4826603123
 31
0.0
  0
LINE
  5
18D
330
1F
100
AcDbEntity
  8
0
  6
Continuous
 62
     8
370
    25
100
AcDbLine
 10
210.5560487745
 20
87.5184548238
 30
0.0
 11
210.5560487745
 21
86.98266029
 31
0.0
  0
LINE
  5
18E
330
1F
100
AcDbEntity
  8
0
  6
Continuous
 62
     8
370
    25
100
AcDbLine
 10
223.6058855107
 20
86.98266029
 30
0.0
 11
224.0560491247
 21
86.98266029
 31
0.0
  0
LINE
  5
18F
330
1F
100
AcDbEntity
  8
0
  6
Continuous
 62
     8
370
    25
100
AcDbLine
 10
224.0560491247
 20
86.98266029
 30
0.0
 11
224.0560491247
 21
87.5184548238
 31
0.0
  0
LINE
  5
190
330
1F
100
AcDbEntity
  8
0
  6
Continuous
 62
     8
370
    25
100
AcDbLine
 10
211.0062123885
 20
98.4826603123
 30
0.0
 11
210.5560487745
 21
98.4826603123
 31
0.0
  0
LINE
  5
191
330
1F
100
AcDbEntity
  8
0
  6
Continuous
 62
     8
370
    25
100
AcDbLine
 10
210.5560487745
 20
86.98266029
 30
0.0
 11
211.0062123885
 21
86.98266029
 31
0.0
  0
LINE
  5
192
330
1F
100
AcDbEntity
  8
0
  6
Continuous
 62
     8
370
    25
100
AcDbLine
 10
210.5560487745
 20
99.7326605172
 30
0.0
 11
212.4326064861
 21
99.7326605172
 31
0.0
  0
LINE
  5
193
330
1F
100
AcDbEntity
  8
0
  6
Continuous
 62
     8
370
    25
100
AcDbLine
 10
222.1794914132
 20
99.7326605172
 30
0.0
 11
224.0560491247
 21
99.7326605172
 31
0.0
  0
SPLINE
  5
194
330
1F
100
AcDbEntity
  8
0
  6
Continuous
 62
     8
370
    25
100
AcDbSpline
210
0.0
220
0.0
230
1.0
 70
     8
 71
     3
 72
     9
 73
     5
 74
     0
 42
0.000000001
 43
0.00000001
 40
0.0
 40
0.0
 40
0.0
 40
0.0
 40
0.3218519333112338
 40
1.0
 40
1.0
 40
1.0
 40
1.0
 10
221.1214004693606
 20
100.3469264284924
 30
0.0
 10
221.1672227902653
 20
100.3757945652939
 30
0.0
 10
221.309593601692
 20
100.4654884083743
 30
0.0
 10
221.464564470786
 20
100.4757209775088
 30
0.0
 10
221.5696576660552
 20
100.4826601744846
 30
0.0
  0
SPLINE
  5
195
330
1F
100
AcDbEntity
  8
0
  6
Continuous
 62
     8
370
    25
100
AcDbSpline
210
0.0
220
0.0
230
1.0
 70
     8
 71
     3
 72
    10
 73
     6
 74
     0
 42
0.000000001
 43
0.00000001
 40
0.0
 40
0.0
 40
0.0
 40
0.0
 40
0.3859052566576224
 40
0.7717024334673742
 40
1.0
 40
1.0
 40
1.0
 40
1.0
 10
213.0424402331986
 20
100.4826601744846
 30
0.0
 10
213.1020988403734
 20
100.4784569704762
 30
0.0
 10
213.2213993462354
 20
100.4700517396437
 30
0.0
 10
213.3783660986565
 20
100.4245258892365
 30
0.0
 10
213.466508143633
 20
100.3675677110847
 30
0.0
 10
213.4992760749587
 20
100.3463927806571
 30
0.0
  0
LINE
  5
196
330
1F
100
AcDbEntity
  8
0
  6
Continuous
 62
     8
370
    25
100
AcDbLine
 10
212.8901685266
 20
100.2326601335
 30
0.0
 11
213.2022807984
 21
100.200302262
 31
0.0
  0
LINE
  5
197
330
1F
100
AcDbEntity
  8
0
  6
Continuous
 62
     8
370
    25
100
AcDbLine
 10
221.4116355082
 20
100.2048964762
 30
0.0
 11
221.7219293727
 21
100.2326601335
 31
0.0
  0
LINE
  5
198
330
1F
100
AcDbEntity
  8
0
  6
Continuous
 62
     8
370
    25
100
AcDbLine
 10
224.0560491247
 20
99.9826600925
 30
0.0
 11
221.7991481213
 21
99.9826600925
 31
0.0
  0
LINE
  5
199
330
1F
100
AcDbEntity
  8
0
  6
Continuous
 62
     8
370
    25
100
AcDbLine
 10
212.812949778
 20
99.9826600925
 30
0.0
 11
210.5560487745
 21
99.9826600925
 31
0.0
  0
SPLINE
  5
19A
330
1F
100
AcDbEntity
  8
0
  6
Continuous
 62
     8
370
    25
100
AcDbSpline
210
0.0
220
0.0
230
1.0
 70
     8
 71
     3
 72
     9
 73
     5
 74
     0
 42
0.000000001
 43
0.00000001
 40
0.0
 40
0.0
 40
0.0
 40
0.0
 40
0.1250373943442832
 40
1.0
 40
1.0
 40
1.0
 40
1.0
 10
210.3053083321132
 20
100.103929467614
 30
0.0
 10
210.3052672317772
 20
100.1093671929335
 30
0.0
 10
210.3049385274221
 20
100.1528559856099
 30
0.0
 10
210.3061224854268
 20
100.1963364798053
 30
0.0
 10
210.3071584044077
 20
100.2343802863017
 30
0.0
  0
SPLINE
  5
19B
330
1F
100
AcDbEntity
  8
0
  6
Continuous
 62
     8
370
    25
100
AcDbSpline
210
0.0
220
0.0
230
1.0
 70
     8
 71
     3
 72
     9
 73
     5
 74
     0
 42
0.000000001
 43
0.00000001
 40
0.0
 40
0.0
 40
0.0
 40
0.0
 40
0.1250373943442832
 40
1.0
 40
1.0
 40
1.0
 40
1.0
 10
224.3067895671406
 20
100.103929467614
 30
0.0
 10
224.3068306674766
 20
100.1093671929335
 30
0.0
 10
224.3071593718318
 20
100.1528559856099
 30
0.0
 10
224.305975413827
 20
100.1963364798053
 30
0.0
 10
224.3049394948461
 20
100.2343802863017
 30
0.0
  0
LINE
  5
19C
330
1F
100
AcDbEntity
  8
0
  6
Continuous
 62
     8
370
    25
100
AcDbLine
 10
224.3060491657
 20
100.4826601745
 30
0.0
 11
224.3043145774
 21
100.3633349353
 31
0.0
  0
INSERT
  5
1A8
330
1F
100
AcDbEntity
  8
0
  6
Continuous
 62
     7
370
    18
100
AcDbBlockReference
  2
SW_CENTERMARKSYMBOL_0
 10
217.3060489496
 20
92.7326603011
 30
0.0
  0
ARC
  5
1A9
330
1F
100
AcDbEntity
  8
0
  6
Continuous
 62
     7
370
    18
100
AcDbCircle
 10
217.3060489496
 20
92.7326603011
 30
0.0
 40
7.47500000000003
100
AcDbArc
 50
75.0
 51
345.0
  0
LINE
  5
1AA
330
1F
100
AcDbEntity
  8
0
  6
Continuous
 62
     7
370
    18
100
AcDbLine
 10
224.8082303133
 20
116.8628566647
 30
0.0
 11
225.1822989496
 21
104.8926603011
 31
0.0
  0
LINE
  5
1AB
330
1F
100
AcDbEntity
  8
0
  6
Continuous
 62
     7
370
    18
100
AcDbLine
 10
209.803867586
 20
116.8628566647
 30
0.0
 11
209.4297989496
 21
104.8926603011
 31
0.0
  0
LINE
  5
1AC
330
1F
100
AcDbEntity
  8
0
  6
Continuous
 62
     7
370
    18
100
AcDbLine
 10
208.7769239496
 20
104.8926603011
 30
0.0
 11
225.8351739496
 21
104.8926603011
 31
0.0
  0
LINE
  5
1AD
330
1F
100
AcDbEntity
  8
0
  6
Continuous
 62
     7
370
    25
100
AcDbLine
 10
181.2438341716
 20
131.7345404649
 30
0.0
 11
192.0268881061
 21
132.0715106675
 31
0.0
  0
LINE
  5
1AE
330
1F
100
AcDbEntity
  8
0
  6
Continuous
 62
     7
370
    25
100
AcDbLine
 10
192.0268881061
 20
148.4563432286
 30
0.0
 11
181.2438341716
 21
148.7933134312
 31
0.0
  0
ARC
  5
1AF
330
1F
100
AcDbEntity
  8
0
  6
Continuous
 62
     7
370
    25
100
AcDbCircle
 10
182.0922147521
 20
148.2639269481
 30
0.0
 40
1.000000000000018
100
AcDbArc
 50
148.0359610897
 51
180.0
  0
ARC
  5
1B0
330
1F
100
AcDbEntity
  8
0
  6
Continuous
 62
     7
370
    25
100
AcDbCircle
 10
182.0922147521
 20
132.2639269481
 30
0.0
 40
1.000000000000002
100
AcDbArc
 50
180.0
 51
211.9640389103
  0
LINE
  5
1B1
330
1F
100
AcDbEntity
  8
0
  6
Continuous
 62
     7
370
    25
100
AcDbLine
 10
192.0268881061
 20
132.0715106675
 30
0.0
 11
194.0922151246
 21
133.263926732
 31
0.0
  0
LINE
  5
1B2
330
1F
100
AcDbEntity
  8
0
  6
Continuous
 62
     7
370
    25
100
AcDbLine
 10
194.0922151246
 20
147.2639271641
 30
0.0
 11
192.0268881061
 21
148.4563432286
 31
0.0
  0
ARC
  5
1B3
330
1F
100
AcDbEntity
  8
0
  6
Continuous
 62
     7
370
    25
100
AcDbCircle
 10
180.0922147521
 20
148.2639269481
 30
0.0
 40
1.0
100
AcDbArc
 50
270.0
 51
0.0
  0
ARC
  5
1B4
330
1F
100
AcDbEntity
  8
0
  6
Continuous
 62
     7
370
    25
100
AcDbCircle
 10
180.0922147521
 20
132.2639269481
 30
0.0
 40
1.0
100
AcDbArc
 50
0.0
 51
90.0
  0
LINE
  5
1B5
330
1F
100
AcDbEntity
  8
0
  6
Continuous
 62
     7
370
    25
100
AcDbLine
 10
176.8422146254
 20
133.263926732
 30
0.0
 11
180.0922146925
 21
133.263926732
 31
0.0
  0
LINE
  5
1B6
330
1F
100
AcDbEntity
  8
0
  6
Continuous
 62
     7
370
    25
100
AcDbLine
 10
180.0922146925
 20
147.2639271641
 30
0.0
 11
176.8422146254
 21
147.2639271641
 31
0.0
  0
CIRCLE
  5
1B7
330
1F
100
AcDbEntity
  8
0
  6
Continuous
 62
     7
370
    25
100
AcDbCircle
 10
169.0922147521
 20
140.2639269481
 30
0.0
 40
7.0
  0
CIRCLE
  5
1B8
330
1F
100
AcDbEntity
  8
0
  6
Continuous
 62
     7
370
    25
100
AcDbCircle
 10
169.0922147521
 20
140.2639269481
 30
0.0
 40
6.374999999999972
  0
CIRCLE
  5
1B9
330
1F
100
AcDbEntity
  8
0
  6
Continuous
 62
     7
370
    25
100
AcDbCircle
 10
169.0922147521
 20
140.2639269481
 30
0.0
 40
8.192416432660877
  0
CIRCLE
  5
1BA
330
1F
100
AcDbEntity
  8
0
  6
Continuous
 62
     7
370
    25
100
AcDbCircle
 10
169.0922147521
 20
140.2639269481
 30
0.0
 40
6.25
  0
CIRCLE
  5
1BB
330
1F
100
AcDbEntity
  8
0
  6
Continuous
 62
     7
370
    25
100
AcDbCircle
 10
169.0922147521
 20
140.2639269481
 30
0.0
 40
5.500000000000028
  0
CIRCLE
  5
1BC
330
1F
100
AcDbEntity
  8
0
  6
Continuous
 62
     7
370
    25
100
AcDbCircle
 10
169.0922147521
 20
140.2639269481
 30
0.0
 40
6.124999999999972
  0
CIRCLE
  5
1BD
330
1F
100
AcDbEntity
  8
0
  6
Continuous
 62
     7
370
    25
100
AcDbCircle
 10
169.0922147521
 20
140.2639269481
 30
0.0
 40
5.000000000000028
  0
CIRCLE
  5
1BE
330
1F
100
AcDbEntity
  8
0
  6
Continuous
 62
     7
370
    25
100
AcDbCircle
 10
169.0922147521
 20
140.2639269481
 30
0.0
 40
8.529386891478623
  0
LINE
  5
1BF
330
1F
100
AcDbEntity
  8
0
  6
Continuous
 62
     7
370
    25
100
AcDbLine
 10
192.0268881061
 20
132.0715106675
 30
0.0
 11
192.0268881061
 21
148.4563432286
 31
0.0
  0
LINE
  5
1C0
330
1F
100
AcDbEntity
  8
0
  6
Continuous
 62
     7
370
    25
100
AcDbLine
 10
181.2438341716
 20
131.7345404649
 30
0.0
 11
181.2438341716
 21
148.7933134312
 31
0.0
  0
LINE
  5
1C1
330
1F
100
AcDbEntity
  8
0
  6
Continuous
 62
     7
370
    25
100
AcDbLine
 10
181.0922148564
 20
132.2639265681
 30
0.0
 11
181.0922148564
 21
148.263927328
 31
0.0
  0
LINE
  5
1C2
330
1F
100
AcDbEntity
  8
0
  6
Continuous
 62
     7
370
    25
100
AcDbLine
 10
194.0922151246
 20
147.2639271641
 30
0.0
 11
194.0922151246
 21
133.263926732
 31
0.0
  0
LINE
  5
1C3
330
1F
100
AcDbEntity
  8
0
  6
Continuous
 62
     7
370
    25
100
AcDbLine
 10
173.9656572157
 20
147.2639271641
 30
0.0
 11
174.8422147633
 21
147.2639271641
 31
0.0
  0
LINE
  5
1C4
330
1F
100
AcDbEntity
  8
0
  6
Continuous
 62
     7
370
    25
100
AcDbLine
 10
174.8422147633
 20
147.2639271641
 30
0.0
 11
174.8422147633
 21
147.0139271231
 31
0.0
  0
LINE
  5
1C5
330
1F
100
AcDbEntity
  8
0
  6
Continuous
 62
     7
370
    25
100
AcDbLine
 10
163.3422147409
 20
147.2639271641
 30
0.0
 11
164.2187722885
 21
147.2639271641
 31
0.0
  0
LINE
  5
1C6
330
1F
100
AcDbEntity
  8
0
  6
Continuous
 62
     7
370
    25
100
AcDbLine
 10
163.3422147409
 20
147.2639271641
 30
0.0
 11
163.3422147409
 21
147.0139271231
 31
0.0
  0
LINE
  5
1C7
330
1F
100
AcDbEntity
  8
0
  6
Continuous
 62
     7
370
    25
100
AcDbLine
 10
164.2187722885
 20
133.263926732
 30
0.0
 11
163.3422147409
 21
133.263926732
 31
0.0
  0
LINE
  5
1C8
330
1F
100
AcDbEntity
  8
0
  6
Continuous
 62
     7
370
    25
100
AcDbLine
 10
163.3422147409
 20
133.513926773
 30
0.0
 11
163.3422147409
 21
133.263926732
 31
0.0
  0
LINE
  5
1C9
330
1F
100
AcDbEntity
  8
0
  6
Continuous
 62
     7
370
    25
100
AcDbLine
 10
174.8422147633
 20
133.513926773
 30
0.0
 11
174.8422147633
 21
133.263926732
 31
0.0
  0
LINE
  5
1CA
330
1F
100
AcDbEntity
  8
0
  6
Continuous
 62
     7
370
    25
100
AcDbLine
 10
174.8422147633
 20
133.263926732
 30
0.0
 11
173.9656572157
 21
133.263926732
 31
0.0
  0
LINE
  5
1CB
330
1F
100
AcDbEntity
  8
0
  6
Continuous
 62
     7
370
    25
100
AcDbLine
 10
175.0922148043
 20
147.0139271231
 30
0.0
 11
174.8422147633
 21
147.0139271231
 31
0.0
  0
ARC
  5
1CC
330
1F
100
AcDbEntity
  8
0
  6
Continuous
 62
     7
370
    25
100
AcDbCircle
 10
174.8422147521
 20
147.0139269481
 30
0.0
 40
0.25
100
AcDbArc
 50
0.0
 51
90.0
  0
LINE
  5
1CD
330
1F
100
AcDbEntity
  8
0
  6
Continuous
 62
     7
370
    25
100
AcDbLine
 10
163.0922146999
 20
147.0139271231
 30
0.0
 11
163.3422147409
 21
147.0139271231
 31
0.0
  0
ARC
  5
1CE
330
1F
100
AcDbEntity
  8
0
  6
Continuous
 62
     7
370
    25
100
AcDbCircle
 10
163.3422147521
 20
147.0139269481
 30
0.0
 40
0.25
100
AcDbArc
 50
90.0
 51
180.0
  0
LINE
  5
1CF
330
1F
100
AcDbEntity
  8
0
  6
Continuous
 62
     7
370
    25
100
AcDbLine
 10
175.0922148043
 20
147.0139271231
 30
0.0
 11
175.0922148043
 21
146.3261412108
 31
0.0
  0
LINE
  5
1D0
330
1F
100
AcDbEntity
  8
0
  6
Continuous
 62
     7
370
    25
100
AcDbLine
 10
163.0922146999
 20
146.3261412108
 30
0.0
 11
163.0922146999
 21
147.0139271231
 31
0.0
  0
LINE
  5
1D1
330
1F
100
AcDbEntity
  8
0
  6
Continuous
 62
     7
370
    25
100
AcDbLine
 10
163.3422147409
 20
133.513926773
 30
0.0
 11
163.0922146999
 21
133.513926773
 31
0.0
  0
LINE
  5
1D2
330
1F
100
AcDbEntity
  8
0
  6
Continuous
 62
     7
370
    25
100
AcDbLine
 10
163.0922146999
 20
133.513926773
 30
0.0
 11
163.0922146999
 21
134.2017126853
 31
0.0
  0
LINE
  5
1D3
330
1F
100
AcDbEntity
  8
0
  6
Continuous
 62
     7
370
    25
100
AcDbLine
 10
175.0922148043
 20
134.2017126853
 30
0.0
 11
175.0922148043
 21
133.513926773
 31
0.0
  0
LINE
  5
1D4
330
1F
100
AcDbEntity
  8
0
  6
Continuous
 62
     7
370
    25
100
AcDbLine
 10
174.8422147633
 20
133.513926773
 30
0.0
 11
175.0922148043
 21
133.513926773
 31
0.0
  0
ARC
  5
1D5
330
1F
100
AcDbEntity
  8
0
  6
Continuous
 62
     7
370
    25
100
AcDbCircle
 10
163.3422147521
 20
133.5139269481
 30
0.0
 40
0.25
100
AcDbArc
 50
180.0
 51
270.0
  0
ARC
  5
1D6
330
1F
100
AcDbEntity
  8
0
  6
Continuous
 62
     7
370
    25
100
AcDbCircle
 10
174.8422147521
 20
133.5139269481
 30
0.0
 40
0.25
100
AcDbArc
 50
270.0
 51
0.0
  0
LINE
  5
1D7
330
1F
100
AcDbEntity
  8
0
  6
Continuous
 62
     7
370
    25
100
AcDbLine
 10
176.0922149682
 20
147.0139271231
 30
0.0
 11
175.0922148043
 21
147.0139271231
 31
0.0
  0
LINE
  5
1D8
330
1F
100
AcDbEntity
  8
0
  6
Continuous
 62
     7
370
    25
100
AcDbLine
 10
176.0922149682
 20
147.2639271641
 30
0.0
 11
176.0922149682
 21
147.0139271231
 31
0.0
  0
LINE
  5
1D9
330
1F
100
AcDbEntity
  8
0
  6
Continuous
 62
     7
370
    25
100
AcDbLine
 10
174.8422147633
 20
147.2639271641
 30
0.0
 11
176.0922149682
 21
147.2639271641
 31
0.0
  0
SPLINE
  5
1DA
330
1F
100
AcDbEntity
  8
0
  6
Continuous
 62
     7
370
    25
100
AcDbSpline
210
0.0
220
0.0
230
1.0
 70
    24
 71
     3
 72
    14
 73
    10
 74
     0
 42
0.000000001
 43
0.00000001
 40
0.0
 40
0.0
 40
0.0
 40
0.0
 40
0.25
 40
0.25
 40
0.5
 40
0.5
 40
0.75
 40
0.75
 40
1.0
 40
1.0
 40
1.0
 40
1.0
 10
176.8422147521022
 20
133.2639269480543
 30
0.0
 10
176.8422147521022
 20
133.2639269480543
 30
0.0
 10
176.8422147521022
 20
133.2738516379797
 30
0.0
 10
176.8422147521022
 20
133.3136463406424
 30
0.0
 10
176.8422147521022
 20
133.343516685864
 30
0.0
 10
176.8422147521021
 20
133.423486225796
 30
0.0
 10
176.8422147521021
 20
133.4735861062319
 30
0.0
 10
176.8422147521021
 20
133.5944706552197
 30
0.0
 10
176.8422147521021
 20
133.6652564038084
 30
0.0
 10
176.8422147521021
 20
133.746685568744
 30
0.0
  0
LINE
  5
1DB
330
1F
100
AcDbEntity
  8
0
  6
Continuous
 62
     7
370
    25
100
AcDbLine
 10
176.8422146254
 20
136.0003182316
 30
0.0
 11
176.8422146254
 21
133.7466857048
 31
0.0
  0
LINE
  5
1DC
330
1F
100
AcDbEntity
  8
0
  6
Continuous
 62
     7
370
    25
100
AcDbLine
 10
176.8422146254
 20
146.7811681913
 30
0.0
 11
176.8422146254
 21
144.5275356645
 31
0.0
  0
SPLINE
  5
1DD
330
1F
100
AcDbEntity
  8
0
  6
Continuous
 62
     7
370
    25
100
AcDbSpline
210
0.0
220
0.0
230
1.0
 70
    24
 71
     3
 72
    14
 73
    10
 74
     0
 42
0.000000001
 43
0.00000001
 40
0.0
 40
0.0
 40
0.0
 40
0.0
 40
0.25
 40
0.25
 40
0.5
 40
0.5
 40
0.75
 40
0.75
 40
1.0
 40
1.0
 40
1.0
 40
1.0
 10
176.8422147521022
 20
147.2639269480543
 30
0.0
 10
176.8422147521022
 20
147.2639269480543
 30
0.0
 10
176.8422147521022
 20
147.2540022581289
 30
0.0
 10
176.8422147521021
 20
147.2142075554662
 30
0.0
 10
176.8422147521021
 20
147.1843372102446
 30
0.0
 10
176.8422147521021
 20
147.1043676703126
 30
0.0
 10
176.8422147521021
 20
147.0542677898767
 30
0.0
 10
176.8422147521021
 20
146.9333832408889
 30
0.0
 10
176.8422147521021
 20
146.8625974923003
 30
0.0
 10
176.8422147521021
 20
146.7811683273646
 30
0.0
  0
LINE
  5
1DE
330
1F
100
AcDbEntity
  8
0
  6
Continuous
 62
     7
370
    25
100
AcDbLine
 10
175.0922148043
 20
133.513926773
 30
0.0
 11
176.0922149682
 21
133.513926773
 31
0.0
  0
LINE
  5
1DF
330
1F
100
AcDbEntity
  8
0
  6
Continuous
 62
     7
370
    25
100
AcDbLine
 10
176.0922149682
 20
133.513926773
 30
0.0
 11
176.0922149682
 21
133.263926732
 31
0.0
  0
LINE
  5
1E0
330
1F
100
AcDbEntity
  8
0
  6
Continuous
 62
     7
370
    25
100
AcDbLine
 10
176.0922149682
 20
133.263926732
 30
0.0
 11
174.8422147633
 21
133.263926732
 31
0.0
  0
LWPOLYLINE
  5
1E1
330
1F
100
AcDbEntity
  8
0
  6
Continuous
 62
     7
370
    25
100
AcDbPolyline
 90
        9
 70
   128
 43
0.0
 10
176.8422146254
 20
144.5275356645
 10
176.7934421935
 20
144.5304614144
 10
176.7465440483
 20
144.5391264396
 10
176.7033222989
 20
144.553198258
 10
176.6654379592
 20
144.5721348399
 10
176.6343471521
 20
144.5952097537
 10
176.6112447643
 20
144.6215354489
 10
176.5970183463
 20
144.6501005093
 10
176.5922145845
 20
144.6798073711
  0
LWPOLYLINE
  5
1E2
330
1F
100
AcDbEntity
  8
0
  6
Continuous
 62
     7
370
    25
100
AcDbPolyline
 90
        9
 70
   128
 43
0.0
 10
176.5922145845
 20
135.848046525
 10
176.5970183463
 20
135.8777533868
 10
176.6112447643
 20
135.9063184472
 10
176.6343471521
 20
135.9326441424
 10
176.6654379592
 20
135.9557190562
 10
176.7033222989
 20
135.9746556381
 10
176.7465440483
 20
135.9887274565
 10
176.7934421935
 20
135.9973924818
 10
176.8422146254
 20
136.0003182316
  0
LINE
  5
1E3
330
1F
100
AcDbEntity
  8
0
  6
Continuous
 62
     7
370
    25
100
AcDbLine
 10
176.3422145435
 20
147.2639271641
 30
0.0
 11
176.3422145435
 21
147.0139271231
 31
0.0
  0
LINE
  5
1E4
330
1F
100
AcDbEntity
  8
0
  6
Continuous
 62
     7
370
    25
100
AcDbLine
 10
176.3422145435
 20
147.0139271231
 30
0.0
 11
176.0922149682
 21
147.0139271231
 31
0.0
  0
LINE
  5
1E5
330
1F
100
AcDbEntity
  8
0
  6
Continuous
 62
     7
370
    25
100
AcDbLine
 10
176.0922149682
 20
147.2639271641
 30
0.0
 11
176.3422145435
 21
147.2639271641
 31
0.0
  0
LINE
  5
1E6
330
1F
100
AcDbEntity
  8
0
  6
Continuous
 62
     7
370
    25
100
AcDbLine
 10
176.5922145845
 20
147.0139271231
 30
0.0
 11
176.3422145435
 21
147.0139271231
 31
0.0
  0
ARC
  5
1E7
330
1F
100
AcDbEntity
  8
0
  6
Continuous
 62
     7
370
    25
100
AcDbCircle
 10
176.3422147521
 20
147.0139269481
 30
0.0
 40
0.25
100
AcDbArc
 50
0.0
 51
90.0
  0
LINE
  5
1E8
330
1F
100
AcDbEntity
  8
0
  6
Continuous
 62
     7
370
    25
100
AcDbLine
 10
176.5922145845
 20
147.0139271231
 30
0.0
 11
176.5922145845
 21
144.6798073711
 31
0.0
  0
LINE
  5
1E9
330
1F
100
AcDbEntity
  8
0
  6
Continuous
 62
     7
370
    25
100
AcDbLine
 10
176.5922145845
 20
135.848046525
 30
0.0
 11
176.5922145845
 21
133.513926773
 31
0.0
  0
LINE
  5
1EA
330
1F
100
AcDbEntity
  8
0
  6
Continuous
 62
     7
370
    25
100
AcDbLine
 10
176.3422145435
 20
133.513926773
 30
0.0
 11
176.5922145845
 21
133.513926773
 31
0.0
  0
LINE
  5
1EB
330
1F
100
AcDbEntity
  8
0
  6
Continuous
 62
     7
370
    25
100
AcDbLine
 10
176.0922149682
 20
133.513926773
 30
0.0
 11
176.3422145435
 21
133.513926773
 31
0.0
  0
ARC
  5
1EC
330
1F
100
AcDbEntity
  8
0
  6
Continuous
 62
     7
370
    25
100
AcDbCircle
 10
176.3422147521
 20
133.5139269481
 30
0.0
 40
0.25
100
AcDbArc
 50
270.0
 51
0.0
  0
LINE
  5
1ED
330
1F
100
AcDbEntity
  8
0
  6
Continuous
 62
     7
370
    25
100
AcDbLine
 10
176.3422145435
 20
133.513926773
 30
0.0
 11
176.3422145435
 21
133.263926732
 31
0.0
  0
LINE
  5
1EE
330
1F
100
AcDbEntity
  8
0
  6
Continuous
 62
     7
370
    25
100
AcDbLine
 10
176.3422145435
 20
133.263926732
 30
0.0
 11
176.0922149682
 21
133.263926732
 31
0.0
  0
SPLINE
  5
1EF
330
1F
100
AcDbEntity
  8
0
  6
Continuous
 62
     7
370
    25
100
AcDbSpline
210
0.0
220
0.0
230
1.0
 70
     8
 71
     3
 72
     8
 73
     4
 74
     0
 42
0.000000001
 43
0.00000001
 40
0.0
 40
0.0
 40
0.0
 40
0.0
 40
1.0
 40
1.0
 40
1.0
 40
1.0
 10
176.8422147521021
 20
146.7811683273646
 30
0.0
 10
176.776762071666
 20
146.7827382300615
 30
0.0
 10
176.7117125066577
 20
146.8093935644654
 30
0.0
 10
176.6654320461754
 20
146.8540951280869
 30
0.0
  0
SPLINE
  5
1F0
330
1F
100
AcDbEntity
  8
0
  6
Continuous
 62
     7
370
    25
100
AcDbSpline
210
0.0
220
0.0
230
1.0
 70
     8
 71
     3
 72
    14
 73
    10
 74
     0
 42
0.000000001
 43
0.00000001
 40
0.0
 40
0.0
 40
0.0
 40
0.0
 40
0.245589323567575
 40
0.455618196314265
 40
0.6303106213393797
 40
0.77011643036692
 40
0.8759901151610914
 40
0.9502659312389357
 40
1.0
 40
1.0
 40
1.0
 40
1.0
 10
176.6654320461754
 20
146.8540951280869
 30
0.0
 10
176.6544670068601
 20
146.8659860686261
 30
0.0
 10
176.634124626488
 20
146.8880461842786
 30
0.0
 10
176.6139726140115
 20
146.9236098825988
 30
0.0
 10
176.6018530545406
 20
146.954402191202
 30
0.0
 10
176.5956472313082
 20
146.9796417737748
 30
0.0
 10
176.5930275323344
 20
146.9976240667097
 30
0.0
 10
176.5922473379894
 20
147.0105462301256
 30
0.0
 10
176.5922240797865
 20
147.0129592202316
 30
0.0
 10
176.5922147521021
 20
147.0139269480543
 30
0.0
  0
SPLINE
  5
1F1
330
1F
100
AcDbEntity
  8
0
  6
Continuous
 62
     7
370
    25
100
AcDbSpline
210
0.0
220
0.0
230
1.0
 70
     8
 71
     3
 72
    15
 73
    11
 74
     0
 42
0.000000001
 43
0.00000001
 40
0.0
 40
0.0
 40
0.0
 40
0.0
 40
0.0425877399909041
 40
0.1028282325346875
 40
0.1864706729280299
 40
0.2956205441869006
 40
0.4311891005861807
 40
0.5936297641565581
 40
0.7831876993469636
 40
1.0
 40
1.0
 40
1.0
 40
1.0
 10
176.5922147521021
 20
133.5139269480543
 30
0.0
 10
176.5922205452043
 20
133.5146424496511
 30
0.0
 10
176.5922345326677
 20
133.5163700305135
 30
0.0
 10
176.5927262334994
 20
133.5262442096083
 30
0.0
 10
176.594353587458
 20
133.5401378894306
 30
0.0
 10
176.5981787358421
 20
133.5596351472523
 30
0.0
 10
176.6055510458829
 20
133.5838400001016
 30
0.0
 10
176.6181690348597
 20
133.6122086567657
 30
0.0
 10
176.6374132370639
 20
133.6437478275093
 30
0.0
 10
176.6556839834342
 20
133.6633176200816
 30
0.0
 10
176.6654320461754
 20
133.6737587680218
 30
0.0
  0
SPLINE
  5
1F2
330
1F
100
AcDbEntity
  8
0
  6
Continuous
 62
     7
370
    25
100
AcDbSpline
210
0.0
220
0.0
230
1.0
 70
     8
 71
     3
 72
     8
 73
     4
 74
     0
 42
0.000000001
 43
0.00000001
 40
0.0
 40
0.0
 40
0.0
 40
0.0
 40
1.0
 40
1.0
 40
1.0
 40
1.0
 10
176.6654320461754
 20
133.6737587680218
 30
0.0
 10
176.7117125066577
 20
133.7184603316432
 30
0.0
 10
176.776762071666
 20
133.7451156660472
 30
0.0
 10
176.8422147521021
 20
133.746685568744
 30
0.0
  0
LINE
  5
1F3
330
1F
100
AcDbEntity
  8
0
  6
Continuous
 62
     7
370
    25
100
AcDbLine
 10
168.0922147046
 20
135.3649476195
 30
0.0
 11
168.0922147046
 21
145.1629062766
 31
0.0
  0
SPLINE
  5
1F4
330
1F
100
AcDbEntity
  8
0
  6
Continuous
 62
     7
370
    25
100
AcDbSpline
210
0.0
220
0.0
230
1.0
 70
     8
 71
     3
 72
    10
 73
     6
 74
     0
 42
0.000000001
 43
0.00000001
 40
0.0
 40
0.0
 40
0.0
 40
0.0
 40
0.5
 40
0.5
 40
1.0
 40
1.0
 40
1.0
 40
1.0
 10
170.0922147521021
 20
145.1629064336207
 30
0.0
 10
169.7637619274929
 20
145.1537490080225
 30
0.0
 10
169.4328504687065
 20
145.1482678205783
 30
0.0
 10
168.7652220655179
 20
145.1481265501157
 30
0.0
 10
168.4266195670909
 20
145.153583063616
 30
0.0
 10
168.0922147521021
 20
145.1629064336207
 30
0.0
  0
SPLINE
  5
1F5
330
1F
100
AcDbEntity
  8
0
  6
Continuous
 62
     7
370
    25
100
AcDbSpline
210
0.0
220
0.0
230
1.0
 70
     8
 71
     3
 72
    10
 73
     6
 74
     0
 42
0.000000001
 43
0.00000001
 40
0.0
 40
0.0
 40
0.0
 40
0.0
 40
0.5
 40
0.5
 40
1.0
 40
1.0
 40
1.0
 40
1.0
 10
168.0922147521021
 20
135.3649474624879
 30
0.0
 10
168.4238433308441
 20
135.3741934296665
 30
0.0
 10
168.7562653854032
 20
135.3796302285273
 30
0.0
 10
169.4229227118379
 20
135.3796844233891
 30
0.0
 10
169.7571590468488
 20
135.374288979632
 30
0.0
 10
170.0922147521021
 20
135.3649474624879
 30
0.0
  0
SPLINE
  5
1F6
330
1F
100
AcDbEntity
  8
0
  6
Continuous
 62
     7
370
    25
100
AcDbSpline
210
0.0
220
0.0
230
1.0
 70
     8
 71
     3
 72
    12
 73
     8
 74
     0
 42
0.000000001
 43
0.00000001
 40
0.0
 40
0.0
 40
0.0
 40
0.0
 40
0.25
 40
0.25
 40
0.5
 40
0.5
 40
1.0
 40
1.0
 40
1.0
 40
1.0
 10
176.5939345097565
 20
147.2628174087723
 30
0.0
 10
176.6041766082055
 20
147.2628260161574
 30
0.0
 10
176.6188593226689
 20
147.2542348809726
 30
0.0
 10
176.6506817133268
 20
147.2179252814624
 30
0.0
 10
176.6678213895213
 20
147.1902068171369
 30
0.0
 10
176.7132894552548
 20
147.0754686644487
 30
0.0
 10
176.7064566041907
 20
146.9738578218178
 30
0.0
 10
176.6654320461754
 20
146.8540951280869
 30
0.0
  0
SPLINE
  5
1F7
330
1F
100
AcDbEntity
  8
0
  6
Continuous
 62
     7
370
    25
100
AcDbSpline
210
0.0
220
0.0
230
1.0
 70
     8
 71
     3
 72
    12
 73
     8
 74
     0
 42
0.000000001
 43
0.00000001
 40
0.0
 40
0.0
 40
0.0
 40
0.0
 40
0.25
 40
0.25
 40
0.5
 40
0.5
 40
1.0
 40
1.0
 40
1.0
 40
1.0
 10
176.5939345097565
 20
147.2628174087723
 30
0.0
 10
176.5836924113074
 20
147.2628088013871
 30
0.0
 10
176.5761531997541
 20
147.2541989910569
 30
0.0
 10
176.5618236841297
 20
147.2327178807866
 30
0.0
 10
176.5550333800587
 20
147.2198465808465
 30
0.0
 10
176.5288005296054
 20
147.1942518210313
 30
0.0
 10
176.5191178129171
 20
147.1905772778326
 30
0.0
 10
176.5189914473973
 20
147.1907036433525
 30
0.0
  0
SPLINE
  5
1F8
330
1F
100
AcDbEntity
  8
0
  6
Continuous
 62
     7
370
    25
100
AcDbSpline
210
0.0
220
0.0
230
1.0
 70
     8
 71
     3
 72
    10
 73
     6
 74
     0
 42
0.000000001
 43
0.00000001
 40
0.0
 40
0.0
 40
0.0
 40
0.0
 40
0.5
 40
0.5
 40
1.0
 40
1.0
 40
1.0
 40
1.0
 10
176.5939345097565
 20
147.2628174087723
 30
0.0
 10
176.5529661159602
 20
147.2627829792314
 30
0.0
 10
176.5090016062157
 20
147.2630911895684
 30
0.0
 10
176.4179549664719
 20
147.2680459229488
 30
0.0
 10
176.385006525891
 20
147.2639269480543
 30
0.0
 10
176.3422147521021
 20
147.2639269480543
 30
0.0
  0
SPLINE
  5
1F9
330
1F
100
AcDbEntity
  8
0
  6
Continuous
 62
     7
370
    25
100
AcDbSpline
210
0.0
220
0.0
230
1.0
 70
     8
 71
     3
 72
    14
 73
    10
 74
     0
 42
0.000000001
 43
0.00000001
 40
0.0
 40
0.0
 40
0.0
 40
0.0
 40
0.25
 40
0.25
 40
0.5
 40
0.5
 40
0.75
 40
0.75
 40
1.0
 40
1.0
 40
1.0
 40
1.0
 10
176.5939345097565
 20
133.2650364873364
 30
0.0
 10
176.6041766082055
 20
133.2650278799512
 30
0.0
 10
176.6188593226689
 20
133.273619015136
 30
0.0
 10
176.6506817133268
 20
133.3099286146463
 30
0.0
 10
176.6678213895213
 20
133.3376470789717
 30
0.0
 10
176.6981334333436
 20
133.4141391807639
 30
0.0
 10
176.7040032315332
 20
133.4586649168696
 30
0.0
 10
176.6979086774529
 20
133.5585340370658
 30
0.0
 10
176.685944325183
 20
133.6138774211563
 30
0.0
 10
176.6654320461754
 20
133.6737587680218
 30
0.0
  0
SPLINE
  5
1FA
330
1F
100
AcDbEntity
  8
0
  6
Continuous
 62
     7
370
    25
100
AcDbSpline
210
0.0
220
0.0
230
1.0
 70
     8
 71
     3
 72
    12
 73
     8
 74
     0
 42
0.000000001
 43
0.00000001
 40
0.0
 40
0.0
 40
0.0
 40
0.0
 40
0.25
 40
0.25
 40
0.5
 40
0.5
 40
1.0
 40
1.0
 40
1.0
 40
1.0
 10
176.5939345097565
 20
133.2650364873364
 30
0.0
 10
176.5836924113074
 20
133.2650450947216
 30
0.0
 10
176.5761531997541
 20
133.2736549050517
 30
0.0
 10
176.5618236841297
 20
133.295136015322
 30
0.0
 10
176.5550333800587
 20
133.3080073152621
 30
0.0
 10
176.5288005296054
 20
133.3336020750773
 30
0.0
 10
176.5191178129171
 20
133.337276618276
 30
0.0
 10
176.5189914473973
 20
133.3371502527562
 30
0.0
  0
SPLINE
  5
1FB
330
1F
100
AcDbEntity
  8
0
  6
Continuous
 62
     7
370
    25
100
AcDbSpline
210
0.0
220
0.0
230
1.0
 70
     8
 71
     3
 72
    10
 73
     6
 74
     0
 42
0.000000001
 43
0.00000001
 40
0.0
 40
0.0
 40
0.0
 40
0.0
 40
0.5
 40
0.5
 40
1.0
 40
1.0
 40
1.0
 40
1.0
 10
176.5939345097565
 20
133.2650364873364
 30
0.0
 10
176.5529661159602
 20
133.2650709168772
 30
0.0
 10
176.5090016062157
 20
133.2647627065402
 30
0.0
 10
176.4179549664719
 20
133.2598079731598
 30
0.0
 10
176.385006525891
 20
133.2639269480543
 30
0.0
 10
176.3422147521021
 20
133.2639269480543
 30
0.0
  0
SPLINE
  5
1FC
330
1F
100
AcDbEntity
  8
0
  6
Continuous
 62
     7
370
    25
100
AcDbSpline
210
0.0
220
0.0
230
1.0
 70
     8
 71
     3
 72
    10
 73
     6
 74
     0
 42
0.000000001
 43
0.00000001
 40
0.0
 40
0.0
 40
0.0
 40
0.0
 40
0.5
 40
0.5
 40
1.0
 40
1.0
 40
1.0
 40
1.0
 10
176.5939345097565
 20
147.2628174087723
 30
0.0
 10
176.6349029035527
 20
147.2628518383131
 30
0.0
 10
176.6783583506246
 20
147.2632335157472
 30
0.0
 10
176.7674441958419
 20
147.259541501621
 30
0.0
 10
176.7998314244572
 20
147.2639269480543
 30
0.0
 10
176.8422147521022
 20
147.2639269480543
 30
0.0
  0
SPLINE
  5
1FD
330
1F
100
AcDbEntity
  8
0
  6
Continuous
 62
     7
370
    25
100
AcDbSpline
210
0.0
220
0.0
230
1.0
 70
     8
 71
     3
 72
    10
 73
     6
 74
     0
 42
0.000000001
 43
0.00000001
 40
0.0
 40
0.0
 40
0.0
 40
0.0
 40
0.5
 40
0.5
 40
1.0
 40
1.0
 40
1.0
 40
1.0
 10
176.5939345097565
 20
133.2650364873364
 30
0.0
 10
176.6349029035527
 20
133.2650020577956
 30
0.0
 10
176.6783583506246
 20
133.2646203803614
 30
0.0
 10
176.7674441958419
 20
133.2683123944876
 30
0.0
 10
176.7998314244572
 20
133.2639269480543
 30
0.0
 10
176.8422147521022
 20
133.2639269480543
 30
0.0
  0
SPLINE
  5
1FE
330
1F
100
AcDbEntity
  8
0
  6
Continuous
 62
     7
370
    25
100
AcDbSpline
210
0.0
220
0.0
230
1.0
 70
     8
 71
     3
 72
    24
 73
    20
 74
     0
 42
0.000000001
 43
0.00000001
 40
0.0
 40
0.0
 40
0.0
 40
0.0
 40
0.125
 40
0.125
 40
0.2499999999999999
 40
0.2499999999999999
 40
0.3749999999999999
 40
0.3749999999999999
 40
0.4374999999999999
 40
0.4374999999999999
 40
0.5
 40
0.5
 40
0.6250000000000001
 40
0.6250000000000001
 40
0.7500000000000001
 40
0.7500000000000001
 40
0.8750000000000001
 40
0.8750000000000001
 40
1.0
 40
1.0
 40
1.0
 40
1.0
 10
168.0922147521021
 20
145.1629064336207
 30
0.0
 10
167.9008117720728
 20
144.798719719244
 30
0.0
 10
167.7167087004997
 20
144.4282166666367
 30
0.0
 10
167.3718470022051
 20
143.6670114849027
 30
0.0
 10
167.210911055416
 20
143.2764627842099
 30
0.0
 10
166.9282557581618
 20
142.461432726254
 30
0.0
 10
166.8074611979977
 20
142.0378385599154
 30
0.0
 10
166.6807429943667
 20
141.3848136720371
 30
0.0
 10
166.6474110266296
 20
141.1635207014668
 30
0.0
 10
166.6021801306892
 20
140.7122291205326
 30
0.0
 10
166.5907014393121
 20
140.4841244559527
 30
0.0
 10
166.5912151716273
 20
139.8083334864372
 30
0.0
 10
166.6380677144757
 20
139.3619494443648
 30
0.0
 10
166.8091841379745
 20
138.4821560345065
 30
0.0
 10
166.9289817598288
 20
138.0644631974213
 30
0.0
 10
167.2094176578397
 20
137.2555622228416
 30
0.0
 10
167.3705876531856
 20
136.8637243348497
 30
0.0
 10
167.7165307843527
 20
136.0999281713023
 30
0.0
 10
167.900862808381
 20
135.7290370689441
 30
0.0
 10
168.0922147521021
 20
135.3649474624879
 30
0.0
  0
LINE
  5
1FF
330
1F
100
AcDbEntity
  8
0
  6
Continuous
 62
     8
370
    25
100
AcDbLine
 10
180.0922146925
 20
133.263926732
 30
0.0
 11
180.0922146925
 21
147.2639271641
 31
0.0
  0
LINE
  5
200
330
1F
100
AcDbEntity
  8
0
  6
Continuous
 62
     8
370
    25
100
AcDbLine
 10
174.8422147633
 20
147.0139271231
 30
0.0
 11
174.3064202295
 21
147.0139271231
 31
0.0
  0
LINE
  5
201
330
1F
100
AcDbEntity
  8
0
  6
Continuous
 62
     8
370
    25
100
AcDbLine
 10
163.8780092747
 20
147.0139271231
 30
0.0
 11
163.3422147409
 21
147.0139271231
 31
0.0
  0
LINE
  5
202
330
1F
100
AcDbEntity
  8
0
  6
Continuous
 62
     8
370
    25
100
AcDbLine
 10
174.8422147633
 20
146.5637635091
 30
0.0
 11
174.8422147633
 21
147.0139271231
 31
0.0
  0
LINE
  5
203
330
1F
100
AcDbEntity
  8
0
  6
Continuous
 62
     8
370
    25
100
AcDbLine
 10
163.3422147409
 20
147.0139271231
 30
0.0
 11
163.3422147409
 21
146.5637635091
 31
0.0
  0
LINE
  5
204
330
1F
100
AcDbEntity
  8
0
  6
Continuous
 62
     8
370
    25
100
AcDbLine
 10
174.8422147633
 20
133.513926773
 30
0.0
 11
174.8422147633
 21
133.964090387
 31
0.0
  0
LINE
  5
205
330
1F
100
AcDbEntity
  8
0
  6
Continuous
 62
     8
370
    25
100
AcDbLine
 10
174.3064202295
 20
133.513926773
 30
0.0
 11
174.8422147633
 21
133.513926773
 31
0.0
  0
LINE
  5
206
330
1F
100
AcDbEntity
  8
0
  6
Continuous
 62
     8
370
    25
100
AcDbLine
 10
163.3422147409
 20
133.964090387
 30
0.0
 11
163.3422147409
 21
133.513926773
 31
0.0
  0
LINE
  5
207
330
1F
100
AcDbEntity
  8
0
  6
Continuous
 62
     8
370
    25
100
AcDbLine
 10
163.3422147409
 20
133.513926773
 30
0.0
 11
163.8780092747
 21
133.513926773
 31
0.0
  0
LINE
  5
208
330
1F
100
AcDbEntity
  8
0
  6
Continuous
 62
     8
370
    25
100
AcDbLine
 10
176.0922149682
 20
145.1373694116
 30
0.0
 11
176.0922149682
 21
147.0139271231
 31
0.0
  0
SPLINE
  5
209
330
1F
100
AcDbEntity
  8
0
  6
Continuous
 62
     8
370
    25
100
AcDbSpline
210
0.0
220
0.0
230
1.0
 70
     8
 71
     3
 72
     9
 73
     5
 74
     0
 42
0.000000001
 43
0.00000001
 40
0.0
 40
0.0
 40
0.0
 40
0.0
 40
0.3265128639074082
 40
1.0
 40
1.0
 40
1.0
 40
1.0
 10
176.7047956512513
 20
136.4515593858497
 30
0.0
 10
176.734325117667
 20
136.4047582025136
 30
0.0
 10
176.8247640243071
 20
136.2614217875988
 30
0.0
 10
176.8351917119533
 20
136.1053981466986
 30
0.0
 10
176.8422146254422
 20
136.000318231626
 30
0.0
  0
SPLINE
  5
20A
330
1F
100
AcDbEntity
  8
0
  6
Continuous
 62
     8
370
    25
100
AcDbSpline
210
0.0
220
0.0
230
1.0
 70
     8
 71
     3
 72
    10
 73
     6
 74
     0
 42
0.000000001
 43
0.00000001
 40
0.0
 40
0.0
 40
0.0
 40
0.0
 40
0.3918385089222118
 40
0.7835672762803907
 40
1.0
 40
1.0
 40
1.0
 40
1.0
 10
176.8422146254423
 20
144.5275356644826
 30
0.0
 10
176.8379851799832
 20
144.4678845154361
 30
0.0
 10
176.8295274735988
 20
144.3485989237419
 30
0.0
 10
176.7850257735775
 20
144.1939138229295
 30
0.0
 10
176.7296144452231
 20
144.1079044830819
 30
0.0
 10
176.7098946423473
 20
144.077295449196
 30
0.0
  0
LINE
  5
20B
330
1F
100
AcDbEntity
  8
0
  6
Continuous
 62
     8
370
    25
100
AcDbLine
 10
176.0922149682
 20
133.513926773
 30
0.0
 11
176.0922149682
 21
135.3904844845
 31
0.0
  0
LINE
  5
20C
330
1F
100
AcDbEntity
  8
0
  6
Continuous
 62
     8
370
    25
100
AcDbLine
 10
176.5922145845
 20
144.6798073711
 30
0.0
 11
176.5582743959
 21
144.3524293253
 31
0.0
  0
LINE
  5
20D
330
1F
100
AcDbEntity
  8
0
  6
Continuous
 62
     8
370
    25
100
AcDbLine
 10
176.5645552353
 20
136.1571753049
 30
0.0
 11
176.5922145845
 21
135.848046525
 31
0.0
  0
LINE
  5
20E
330
1F
100
AcDbEntity
  8
0
  6
Continuous
 62
     8
370
    25
100
AcDbLine
 10
176.3422145435
 20
144.7570261197
 30
0.0
 11
176.3422145435
 21
147.0139271231
 31
0.0
  0
LINE
  5
20F
330
1F
100
AcDbEntity
  8
0
  6
Continuous
 62
     8
370
    25
100
AcDbLine
 10
176.3422145435
 20
133.513926773
 30
0.0
 11
176.3422145435
 21
135.7708277764
 31
0.0
  0
INSERT
  5
21B
330
1F
100
AcDbEntity
  8
0
  6
Continuous
 62
     7
370
    18
100
AcDbBlockReference
  2
SW_CENTERMARKSYMBOL_1
 10
169.0922147521
 20
140.2639269481
 30
0.0
  0
LINE
  5
21C
330
1F
100
AcDbEntity
  8
0
  6
Continuous
 62
     7
370
    18
100
AcDbLine
 10
193.2224111157
 20
132.7617455844
 30
0.0
 11
181.2522147521
 21
132.3876769481
 31
0.0
  0
LINE
  5
21D
330
1F
100
AcDbEntity
  8
0
  6
Continuous
 62
     7
370
    18
100
AcDbLine
 10
193.2224111157
 20
147.7661083117
 30
0.0
 11
181.2522147521
 21
148.1401769481
 31
0.0
  0
LINE
  5
21E
330
1F
100
AcDbEntity
  8
0
  6
Continuous
 62
     7
370
    18
100
AcDbLine
 10
181.2522147521
 20
148.7930519481
 30
0.0
 11
181.2522147521
 21
131.7348019481
 31
0.0
  0
ARC
  5
21F
330
1F
100
AcDbEntity
  8
0
  6
Continuous
 62
     7
370
    18
100
AcDbCircle
 10
169.0922147521
 20
140.2639269481
 30
0.0
 40
7.475000000000033
100
AcDbArc
 50
75.0
 51
345.0
  0
ENDSEC
  0
SECTION
  2
OBJECTS
  0
DICTIONARY
  5
C
330
0
100
AcDbDictionary
281
     1
  3
ACAD_GROUP
350
D
  3
ACAD_LAYOUT
350
1A
  3
ACAD_MLINESTYLE
350
17
  3
ACAD_PLOTSETTINGS
350
19
  3
ACAD_PLOTSTYLENAME
350
E
  3
ACAD_SCALELIST
350
47
  0
DICTIONARY
  5
D
102
{ACAD_REACTORS
330
C
102
}
330
C
100
AcDbDictionary
281
     1
  0
DICTIONARY
  5
1A
102
{ACAD_REACTORS
330
C
102
}
330
C
100
AcDbDictionary
281
     1
  3
Layout1
350
1E
  3
Layout2
350
26
  3
Model
350
22
  0
DICTIONARY
  5
17
102
{ACAD_REACTORS
330
C
102
}
330
C
100
AcDbDictionary
281
     1
  3
Standard
350
18
  0
DICTIONARY
  5
19
102
{ACAD_REACTORS
330
C
102
}
330
C
100
AcDbDictionary
281
     1
  0
ACDBDICTIONARYWDFLT
  5
E
102
{ACAD_REACTORS
330
C
102
}
330
C
100
AcDbDictionary
281
     1
  3
Normal
350
F
100
AcDbDictionaryWithDefault
340
F
  0
DICTIONARY
  5
47
102
{ACAD_REACTORS
330
C
102
}
330
C
100
AcDbDictionary
281
     1
  3
A0
350
48
  3
A1
350
49
  3
A2
350
4A
  3
A3
350
4B
  3
A4
350
4C
  3
A5
350
4D
  3
A6
350
4E
  3
A7
350
4F
  3
A8
350
50
  3
A9
350
51
  3
B0
350
52
  3
B1
350
53
  3
B2
350
54
  3
B3
350
55
  3
B4
350
56
  3
B5
350
57
  3
B6
350
58
  3
B7
350
59
  3
B8
350
5A
  3
B9
350
5B
  3
C0
350
5C
  3
C1
350
5D
  3
C2
350
5E
  3
C3
350
5F
  3
C4
350
60
  3
C5
350
61
  3
C6
350
62
  3
C7
350
63
  3
C8
350
64
  3
C9
350
65
  3
D0
350
66
  3
D1
350
67
  3
D2
350
68
  0
LAYOUT
  5
1E
102
{ACAD_REACTORS
330
1A
102
}
330
1A
100
AcDbPlotSettings
  1

  2
none_device
  4

  6

 40
0.0
 41
0.0
 42
0.0
 43
0.0
 44
0.0
 45
0.0
 46
0.0
 47
0.0
 48
0.0
 49
0.0
140
0.0
141
0.0
142
1.0
143
1.0
 70
   688
 72
     1
 73
     0
 74
     5
  7

 75
    16
147
1.0
148
0.0
149
0.0
100
AcDbLayout
  1
Layout1
 70
     1
 71
     1
 10
0.0
 20
0.0
 11
420.0
 21
297.0
 12
0.0
 22
0.0
 32
0.0
 14
1.0000000000E+20
 24
1.0000000000E+20
 34
1.0000000000E+20
 15
-1.0000000000E+20
 25
-1.0000000000E+20
 35
-1.0000000000E+20
146
0.0
 13
0.0
 23
0.0
 33
0.0
 16
1.0
 26
0.0
 36
0.0
 17
0.0
 27
1.0
 37
0.0
 76
     0
330
1B
  0
LAYOUT
  5
26
102
{ACAD_REACTORS
330
1A
102
}
330
1A
100
AcDbPlotSettings
  1

  2
none_device
  4

  6

 40
0.0
 41
0.0
 42
0.0
 43
0.0
 44
0.0
 45
0.0
 46
0.0
 47
0.0
 48
0.0
 49
0.0
140
0.0
141
0.0
142
1.0
143
1.0
 70
   688
 72
     1
 73
     0
 74
     5
  7

 75
    16
147
1.0
148
0.0
149
0.0
100
AcDbLayout
  1
Layout2
 70
     1
 71
     2
 10
0.0
 20
0.0
 11
0.0
 21
0.0
 12
0.0
 22
0.0
 32
0.0
 14
0.0
 24
0.0
 34
0.0
 15
0.0
 25
0.0
 35
0.0
146
0.0
 13
0.0
 23
0.0
 33
0.0
 16
1.0
 26
0.0
 36
0.0
 17
0.0
 27
1.0
 37
0.0
 76
     0
330
23
  0
LAYOUT
  5
22
102
{ACAD_REACTORS
330
1A
102
}
330
1A
100
AcDbPlotSettings
  1

  2
none_device
  4
Letter_(8.50_x_11.00_Inches)
  6

 40
6.35
 41
6.35
 42
6.35000508
 43
6.35000508
 44
215.9
 45
279.4
 46
0.0
 47
0.0
 48
0.0
 49
0.0
140
0.0
141
0.0
142
1.0
143
1.0
 70
  1712
 72
     1
 73
     0
 74
     0
  7

 75
     0
147
1.0
148
0.0
149
0.0
100
AcDbLayout
  1
Model
 70
     1
 71
     0
 10
0.0
 20
0.0
 11
431.8
 21
279.4
 12
0.0
 22
0.0
 32
0.0
 14
0.0
 24
0.0
 34
0.0
 15
431.8
 25
279.4
 35
0.0
146
0.0
 13
0.0
 23
0.0
 33
0.0
 16
1.0
 26
0.0
 36
0.0
 17
0.0
 27
1.0
 37
0.0
 76
     0
330
1F
331
29
  0
MLINESTYLE
  5
18
102
{ACAD_REACTORS
330
17
102
}
330
17
100
AcDbMlineStyle
  2
Standard
 70
     0
  3

 62
   256
 51
90.0
 52
90.0
 71
     2
 49
0.5
 62
   256
  6
BYLAYER
 49
-0.5
 62
   256
  6
BYLAYER
  0
ACDBPLACEHOLDER
  5
F
102
{ACAD_REACTORS
330
E
102
}
330
E
  0
SCALE
  5
48
102
{ACAD_REACTORS
330
47
102
}
330
47
100
AcDbScale
 70
     0
300
1:1
140
1.0
141
1.0
290
     1
  0
SCALE
  5
49
102
{ACAD_REACTORS
330
47
102
}
330
47
100
AcDbScale
 70
     0
300
1:2
140
1.0
141
2.0
290
     0
  0
SCALE
  5
4A
102
{ACAD_REACTORS
330
47
102
}
330
47
100
AcDbScale
 70
     0
300
1:4
140
1.0
141
4.0
290
     0
  0
SCALE
  5
4B
102
{ACAD_REACTORS
330
47
102
}
330
47
100
AcDbScale
 70
     0
300
1:5
140
1.0
141
5.0
290
     0
  0
SCALE
  5
4C
102
{ACAD_REACTORS
330
47
102
}
330
47
100
AcDbScale
 70
     0
300
1:8
140
1.0
141
8.0
290
     0
  0
SCALE
  5
4D
102
{ACAD_REACTORS
330
47
102
}
330
47
100
AcDbScale
 70
     0
300
1:10
140
1.0
141
10.0
290
     0
  0
SCALE
  5
4E
102
{ACAD_REACTORS
330
47
102
}
330
47
100
AcDbScale
 70
     0
300
1:16
140
1.0
141
16.0
290
     0
  0
SCALE
  5
4F
102
{ACAD_REACTORS
330
47
102
}
330
47
100
AcDbScale
 70
     0
300
1:20
140
1.0
141
20.0
290
     0
  0
SCALE
  5
50
102
{ACAD_REACTORS
330
47
102
}
330
47
100
AcDbScale
 70
     0
300
1:30
140
1.0
141
30.0
290
     0
  0
SCALE
  5
51
102
{ACAD_REACTORS
330
47
102
}
330
47
100
AcDbScale
 70
     0
300
1:40
140
1.0
141
40.0
290
     0
  0
SCALE
  5
52
102
{ACAD_REACTORS
330
47
102
}
330
47
100
AcDbScale
 70
     0
300
1:50
140
1.0
141
50.0
290
     0
  0
SCALE
  5
53
102
{ACAD_REACTORS
330
47
102
}
330
47
100
AcDbScale
 70
     0
300
1:100
140
1.0
141
100.0
290
     0
  0
SCALE
  5
54
102
{ACAD_REACTORS
330
47
102
}
330
47
100
AcDbScale
 70
     0
300
2:1
140
2.0
141
1.0
290
     0
  0
SCALE
  5
55
102
{ACAD_REACTORS
330
47
102
}
330
47
100
AcDbScale
 70
     0
300
4:1
140
4.0
141
1.0
290
     0
  0
SCALE
  5
56
102
{ACAD_REACTORS
330
47
102
}
330
47
100
AcDbScale
 70
     0
300
8:1
140
8.0
141
1.0
290
     0
  0
SCALE
  5
57
102
{ACAD_REACTORS
330
47
102
}
330
47
100
AcDbScale
 70
     0
300
10:1
140
10.0
141
1.0
290
     0
  0
SCALE
  5
58
102
{ACAD_REACTORS
330
47
102
}
330
47
100
AcDbScale
 70
     0
300
100:1
140
100.0
141
1.0
290
     0
  0
SCALE
  5
59
102
{ACAD_REACTORS
330
47
102
}
330
47
100
AcDbScale
 70
     0
300
1/128" = 1'-0"
140
0.0078125
141
12.0
290
     0
  0
SCALE
  5
5A
102
{ACAD_REACTORS
330
47
102
}
330
47
100
AcDbScale
 70
     0
300
1/64" = 1'-0"
140
0.015625
141
12.0
290
     0
  0
SCALE
  5
5B
102
{ACAD_REACTORS
330
47
102
}
330
47
100
AcDbScale
 70
     0
300
1/32" = 1'-0"
140
0.03125
141
12.0
290
     0
  0
SCALE
  5
5C
102
{ACAD_REACTORS
330
47
102
}
330
47
100
AcDbScale
 70
     0
300
1/16" = 1'-0"
140
0.0625
141
12.0
290
     0
  0
SCALE
  5
5D
102
{ACAD_REACTORS
330
47
102
}
330
47
100
AcDbScale
 70
     0
300
3/32" = 1'-0"
140
0.09375
141
12.0
290
     0
  0
SCALE
  5
5E
102
{ACAD_REACTORS
330
47
102
}
330
47
100
AcDbScale
 70
     0
300
1/8" = 1'-0"
140
0.125
141
12.0
290
     0
  0
SCALE
  5
5F
102
{ACAD_REACTORS
330
47
102
}
330
47
100
AcDbScale
 70
     0
300
3/16" = 1'-0"
140
0.1875
141
12.0
290
     0
  0
SCALE
  5
60
102
{ACAD_REACTORS
330
47
102
}
330
47
100
AcDbScale
 70
     0
300
1/4" = 1'-0"
140
0.25
141
12.0
290
     0
  0
SCALE
  5
61
102
{ACAD_REACTORS
330
47
102
}
330
47
100
AcDbScale
 70
     0
300
3/8" = 1'-0"
140
0.375
141
12.0
290
     0
  0
SCALE
  5
62
102
{ACAD_REACTORS
330
47
102
}
330
47
100
AcDbScale
 70
     0
300
1/2" = 1'-0"
140
0.5
141
12.0
290
     0
  0
SCALE
  5
63
102
{ACAD_REACTORS
330
47
102
}
330
47
100
AcDbScale
 70
     0
300
3/4" = 1'-0"
140
0.75
141
12.0
290
     0
  0
SCALE
  5
64
102
{ACAD_REACTORS
330
47
102
}
330
47
100
AcDbScale
 70
     0
300
1" = 1'-0"
140
1.0
141
12.0
290
     0
  0
SCALE
  5
65
102
{ACAD_REACTORS
330
47
102
}
330
47
100
AcDbScale
 70
     0
300
1-1/2" = 1'-0"
140
1.5
141
12.0
290
     0
  0
SCALE
  5
66
102
{ACAD_REACTORS
330
47
102
}
330
47
100
AcDbScale
 70
     0
300
3" = 1'-0"
140
3.0
141
12.0
290
     0
  0
SCALE
  5
67
102
{ACAD_REACTORS
330
47
102
}
330
47
100
AcDbScale
 70
     0
300
6" = 1'-0"
140
6.0
141
12.0
290
     0
  0
SCALE
  5
68
102
{ACAD_REACTORS
330
47
102
}
330
47
100
AcDbScale
 70
     0
300
1'-0" = 1'-0"
140
12.0
141
12.0
290
     0
  0
ENDSEC
  0
EOF
