  0
SECTION
  2
HEADER
  9
$ACADVER
  1
AC1015
  9
$ACADMAINTVER
 70
     6
  9
$DWGCODEPAGE
  3
DOS932
  9
$INSBASE
 10
0.0
 20
0.0
 30
0.0
  9
$EXTMIN
 10
0.0
 20
0.0
 30
0.0
  9
$EXTMAX
 10
215.9
 20
139.7
 30
0.0
  9
$LIMMIN
 10
0.0
 20
0.0
  9
$LIMMAX
 10
215.9
 20
139.7
  9
$ORTHOMODE
 70
     0
  9
$REGENMODE
 70
     1
  9
$FILLMODE
 70
     1
  9
$QTEXTMODE
 70
     0
  9
$MIRRTEXT
 70
     1
  9
$LTSCALE
 40
0.5
  9
$ATTMODE
 70
     1
  9
$TEXTSIZE
 40
1.75
  9
$TRACEWID
 40
1.0
  9
$TEXTSTYLE
  7
Standard
  9
$CLAYER
  8
0
  9
$CELTYPE
  6
ByLayer
  9
$CECOLOR
 62
   256
  9
$CELTSCALE
 40
1.0
  9
$DISPSILH
 70
     0
  9
$DIMSCALE
 40
1.0
  9
$DIMASZ
 40
1.651
  9
$DIMEXO
 40
0.5
  9
$DIMDLI
 40
3.75
  9
$DIMRND
 40
0.0
  9
$DIMDLE
 40
0.0
  9
$DIMEXE
 40
0.5
  9
$DIMTP
 40
0.0
  9
$DIMTM
 40
0.0
  9
$DIMTXT
 40
1.75
  9
$DIMCEN
 40
2.5
  9
$DIMTSZ
 40
0.0
  9
$DIMTOL
 70
     0
  9
$DIMLIM
 70
     0
  9
$DIMTIH
 70
     1
  9
$DIMTOH
 70
     1
  9
$DIMSE1
 70
     0
  9
$DIMSE2
 70
     0
  9
$DIMTAD
 70
     1
  9
$DIMZIN
 70
     1
  9
$DIMBLK
  1

  9
$DIMASO
 70
     1
  9
$DIMSHO
 70
     1
  9
$DIMPOST
  1

  9
$DIMAPOST
  1

  9
$DIMALT
 70
     0
  9
$DIMALTD
 70
     3
  9
$DIMALTF
 40
0.0393700787
  9
$DIMLFAC
 40
1.0
  9
$DIMTOFL
 70
     1
  9
$DIMTVP
 40
0.0
  9
$DIMTIX
 70
     0
  9
$DIMSOXD
 70
     0
  9
$DIMSAH
 70
     0
  9
$DIMBLK1
  1

  9
$DIMBLK2
  1

  9
$DIMSTYLE
  2
ISO-25
  9
$DIMCLRD
 70
     0
  9
$DIMCLRE
 70
     0
  9
$DIMCLRT
 70
     0
  9
$DIMTFAC
 40
1.0
  9
$DIMGAP
 40
0.762
  9
$DIMJUST
 70
     0
  9
$DIMSD1
 70
     0
  9
$DIMSD2
 70
     0
  9
$DIMTOLJ
 70
     0
  9
$DIMTZIN
 70
     1
  9
$DIMALTZ
 70
     0
  9
$DIMALTTZ
 70
     0
  9
$DIMUPT
 70
     0
  9
$DIMDEC
 70
     2
  9
$DIMTDEC
 70
     2
  9
$DIMALTU
 70
     2
  9
$DIMALTTD
 70
     3
  9
$DIMTXSTY
  7
Standard
  9
$DIMAUNIT
 70
     0
  9
$DIMADEC
 70
     2
  9
$DIMALTRND
 40
0.0
  9
$DIMAZIN
 70
     0
  9
$DIMDSEP
 70
    44
  9
$DIMATFIT
 70
     3
  9
$DIMFRAC
 70
     0
  9
$DIMLDRBLK
  1

  9
$DIMLUNIT
 70
     2
  9
$DIMLWD
 70
    -2
  9
$DIMLWE
 70
    -2
  9
$DIMTMOVE
 70
     0
  9
$LUNITS
 70
     2
  9
$LUPREC
 70
     2
  9
$SKETCHINC
 40
1.0
  9
$FILLETRAD
 40
10.0
  9
$AUNITS
 70
     0
  9
$AUPREC
 70
     2
  9
$MENU
  1
.
  9
$ELEVATION
 40
0.0
  9
$PELEVATION
 40
0.0
  9
$THICKNESS
 40
0.0
  9
$LIMCHECK
 70
     0
  9
$CHAMFERA
 40
0.0
  9
$CHAMFERB
 40
0.0
  9
$CHAMFERC
 40
0.0
  9
$CHAMFERD
 40
0.0
  9
$SKPOLY
 70
     0
  9
$TDCREATE
 40
2459230.767905578
  9
$TDUCREATE
 40
2459230.392905578
  9
$TDUPDATE
 40
2459230.767906377
  9
$TDUUPDATE
 40
2459230.392906377
  9
$TDINDWG
 40
0.0000000116
  9
$TDUSRTIMER
 40
0.0000000116
  9
$USRTIMER
 70
     1
  9
$ANGBASE
 50
0.0
  9
$ANGDIR
 70
     0
  9
$PDMODE
 70
     0
  9
$PDSIZE
 40
-1.0
  9
$PLINEWID
 40
0.0
  9
$SPLFRAME
 70
     0
  9
$SPLINETYPE
 70
     6
  9
$SPLINESEGS
 70
     8
  9
$HANDSEED
  5
22E
  9
$SURFTAB1
 70
     6
  9
$SURFTAB2
 70
     6
  9
$SURFTYPE
 70
     6
  9
$SURFU
 70
     6
  9
$SURFV
 70
     6
  9
$UCSBASE
  2

  9
$UCSNAME
  2

  9
$UCSORG
 10
0.0
 20
0.0
 30
0.0
  9
$UCSXDIR
 10
1.0
 20
0.0
 30
0.0
  9
$UCSYDIR
 10
0.0
 20
1.0
 30
0.0
  9
$UCSORTHOREF
  2

  9
$UCSORTHOVIEW
 70
     0
  9
$UCSORGTOP
 10
0.0
 20
0.0
 30
0.0
  9
$UCSORGBOTTOM
 10
0.0
 20
0.0
 30
0.0
  9
$UCSORGLEFT
 10
0.0
 20
0.0
 30
0.0
  9
$UCSORGRIGHT
 10
0.0
 20
0.0
 30
0.0
  9
$UCSORGFRONT
 10
0.0
 20
0.0
 30
0.0
  9
$UCSORGBACK
 10
0.0
 20
0.0
 30
0.0
  9
$PUCSBASE
  2

  9
$PUCSNAME
  2

  9
$PUCSORG
 10
0.0
 20
0.0
 30
0.0
  9
$PUCSXDIR
 10
1.0
 20
0.0
 30
0.0
  9
$PUCSYDIR
 10
0.0
 20
1.0
 30
0.0
  9
$PUCSORTHOREF
  2

  9
$PUCSORTHOVIEW
 70
     0
  9
$PUCSORGTOP
 10
0.0
 20
0.0
 30
0.0
  9
$PUCSORGBOTTOM
 10
0.0
 20
0.0
 30
0.0
  9
$PUCSORGLEFT
 10
0.0
 20
0.0
 30
0.0
  9
$PUCSORGRIGHT
 10
0.0
 20
0.0
 30
0.0
  9
$PUCSORGFRONT
 10
0.0
 20
0.0
 30
0.0
  9
$PUCSORGBACK
 10
0.0
 20
0.0
 30
0.0
  9
$USERI1
 70
     0
  9
$USERI2
 70
     0
  9
$USERI3
 70
     0
  9
$USERI4
 70
     0
  9
$USERI5
 70
     0
  9
$USERR1
 40
0.0
  9
$USERR2
 40
0.0
  9
$USERR3
 40
0.0
  9
$USERR4
 40
0.0
  9
$USERR5
 40
0.0
  9
$WORLDVIEW
 70
     1
  9
$SHADEDGE
 70
     3
  9
$SHADEDIF
 70
    70
  9
$TILEMODE
 70
     1
  9
$MAXACTVP
 70
    64
  9
$PINSBASE
 10
0.0
 20
0.0
 30
0.0
  9
$PLIMCHECK
 70
     0
  9
$PEXTMIN
 10
1.0000000000E+20
 20
1.0000000000E+20
 30
1.0000000000E+20
  9
$PEXTMAX
 10
-1.0000000000E+20
 20
-1.0000000000E+20
 30
-1.0000000000E+20
  9
$PLIMMIN
 10
0.0
 20
0.0
  9
$PLIMMAX
 10
420.0
 20
297.0
  9
$UNITMODE
 70
     0
  9
$VISRETAIN
 70
     1
  9
$PLINEGEN
 70
     0
  9
$PSLTSCALE
 70
     1
  9
$TREEDEPTH
 70
  3020
  9
$CMLSTYLE
  2
Standard
  9
$CMLJUST
 70
     0
  9
$CMLSCALE
 40
20.0
  9
$PROXYGRAPHICS
 70
     1
  9
$MEASUREMENT
 70
     1
  9
$CELWEIGHT
370
    -1
  9
$ENDCAPS
280
     0
  9
$JOINSTYLE
280
     0
  9
$LWDISPLAY
290
     1
  9
$INSUNITS
 70
     4
  9
$HYPERLINKBASE
  1

  9
$STYLESHEET
  1

  9
$XEDIT
290
     1
  9
$CEPSNTYPE
380
     0
  9
$PSTYLEMODE
290
     1
  9
$FINGERPRINTGUID
  2
{BC4B1233-399E-4252-AECA-65B46ED111D1}
  9
$VERSIONGUID
  2
{FAEB1C32-E019-11D5-929B-00C0DF256EC4}
  9
$EXTNAMES
290
     1
  9
$PSVPSCALE
 40
0.0
  9
$OLESTARTUP
290
     0
  0
ENDSEC
  0
SECTION
  2
CLASSES
  0
CLASS
  1
ACDBDICTIONARYWDFLT
  2
AcDbDictionaryWithDefault
  3
ObjectDBX Classes
 90
        0
280
     0
281
     0
  0
CLASS
  1
VISUALSTYLE
  2
AcDbVisualStyle
  3
ObjectDBX Classes
 90
     4095
280
     0
281
     0
  0
CLASS
  1
MATERIAL
  2
AcDbMaterial
  3
ObjectDBX Classes
 90
     1153
280
     0
281
     0
  0
CLASS
  1
SCALE
  2
AcDbScale
  3
ObjectDBX Classes
 90
     1153
280
     0
281
     0
  0
CLASS
  1
TABLESTYLE
  2
AcDbTableStyle
  3
ObjectDBX Classes
 90
     4095
280
     0
281
     0
  0
CLASS
  1
MLEADERSTYLE
  2
AcDbMLeaderStyle
  3
ACDB_MLEADERSTYLE_CLASS
 90
     4095
280
     0
281
     0
  0
CLASS
  1
SUN
  2
AcDbSun
  3
SCENEOE
 90
     1153
280
     0
281
     0
  0
CLASS
  1
ACDBPLACEHOLDER
  2
AcDbPlaceHolder
  3
ObjectDBX Classes
 90
        0
280
     0
281
     0
  0
CLASS
  1
LAYOUT
  2
AcDbLayout
  3
ObjectDBX Classes
 90
        0
280
     0
281
     0
  0
ENDSEC
  0
SECTION
  2
TABLES
  0
TABLE
  2
VPORT
  5
8
330
0
100
AcDbSymbolTable
 70
     1
  0
VPORT
  5
29
330
8
100
AcDbSymbolTableRecord
100
AcDbViewportTableRecord
  2
*Active
 70
     0
 10
0.0
 20
0.0
 11
1.0
 21
1.0
 12
107.95
 22
69.85
 13
0.0
 23
0.0
 14
10.0
 24
10.0
 15
10.0
 25
10.0
 16
0.0
 26
0.0
 36
1.0
 17
0.0
 27
0.0
 37
0.0
 40
139.7
 41
1.5454545455
 42
50.0
 43
0.0
 44
0.0
 50
0.0
 51
0.0
 71
     0
 72
  2000
 73
     1
 74
     3
 75
     0
 76
     0
 77
     0
 78
     0
281
     0
 65
     1
110
0.0
120
0.0
130
0.0
111
1.0
121
0.0
131
0.0
112
0.0
122
1.0
132
0.0
 79
     0
146
0.0
  0
ENDTAB
  0
TABLE
  2
LTYPE
  5
5
330
0
100
AcDbSymbolTable
 70
     6
  0
LTYPE
  5
14
330
5
100
AcDbSymbolTableRecord
100
AcDbLinetypeTableRecord
  2
ByBlock
 70
     0
  3

 72
    65
 73
     0
 40
0.0
  0
LTYPE
  5
15
330
5
100
AcDbSymbolTableRecord
100
AcDbLinetypeTableRecord
  2
ByLayer
 70
     0
  3

 72
    65
 73
     0
 40
0.0
  0
LTYPE
  5
16
330
5
100
AcDbSymbolTableRecord
100
AcDbLinetypeTableRecord
  2
Continuous
 70
     0
  3
Solid line
 72
    65
 73
     0
 40
0.0
  0
LTYPE
  5
6E
330
5
100
AcDbSymbolTableRecord
100
AcDbLinetypeTableRecord
  2
HIDDEN
 70
     0
  3
Hidden __ __ __ __ __ __ __ __ __ __ __ __ __ __
 72
    65
 73
     2
 40
1.905
 49
1.27
 74
     0
 49
-0.635
 74
     0
  0
LTYPE
  5
6F
330
5
100
AcDbSymbolTableRecord
100
AcDbLinetypeTableRecord
  2
PHANTOM
 70
     0
  3
Phantom ______  __  __  ______  __  __  ______
 72
    65
 73
     6
 40
12.7
 49
6.35
 74
     0
 49
-1.27
 74
     0
 49
1.27
 74
     0
 49
-1.27
 74
     0
 49
1.27
 74
     0
 49
-1.27
 74
     0
  0
LTYPE
  5
70
330
5
100
AcDbSymbolTableRecord
100
AcDbLinetypeTableRecord
  2
CENTER
 70
     0
  3
Center ____ _ ____ _ ____ _ ____ _ ____ _ ____
 72
    65
 73
     4
 40
10.16
 49
6.35
 74
     0
 49
-1.27
 74
     0
 49
1.27
 74
     0
 49
-1.27
 74
     0
  0
LTYPE
  5
71
330
5
100
AcDbSymbolTableRecord
100
AcDbLinetypeTableRecord
  2
CENTERX2
 70
     0
  3
Center (2x) ________  __  ________  __  _____
 72
    65
 73
     4
 40
20.32
 49
12.7
 74
     0
 49
-2.54
 74
     0
 49
2.54
 74
     0
 49
-2.54
 74
     0
  0
LTYPE
  5
72
330
5
100
AcDbSymbolTableRecord
100
AcDbLinetypeTableRecord
  2
DOT2
 70
     0
  3
Dot (.5x) ........................................
 72
    65
 73
     2
 40
0.635
 49
0.0
 74
     0
 49
-0.635
 74
     0
  0
ENDTAB
  0
TABLE
  2
LAYER
  5
2
330
0
100
AcDbSymbolTable
 70
     1
  0
LAYER
  5
10
330
2
100
AcDbSymbolTableRecord
100
AcDbLayerTableRecord
  2
0
 70
     0
 62
     7
  6
Continuous
370
    -3
390
F
  0
ENDTAB
  0
TABLE
  2
STYLE
  5
3
330
0
100
AcDbSymbolTable
 70
     2
  0
STYLE
  5
11
330
3
100
AcDbSymbolTableRecord
100
AcDbTextStyleTableRecord
  2
Standard
 70
     0
 40
0.0
 41
1.0
 50
0.0
 71
     0
 42
1.75
  3
txt
  4
bigfont
  0
STYLE
  5
73
330
3
100
AcDbSymbolTableRecord
100
AcDbTextStyleTableRecord
  2
SLDTEXTSTYLE0
 70
     0
 40
0.0
 41
0.7
 50
0.0
 71
     0
 42
1.75
  3
TXT
  4
bigfont
  0
ENDTAB
  0
TABLE
  2
VIEW
  5
6
330
0
100
AcDbSymbolTable
 70
     0
  0
ENDTAB
  0
TABLE
  2
UCS
  5
7
330
0
100
AcDbSymbolTable
 70
     0
  0
ENDTAB
  0
TABLE
  2
APPID
  5
9
330
0
100
AcDbSymbolTable
 70
     1
  0
APPID
  5
12
330
9
100
AcDbSymbolTableRecord
100
AcDbRegAppTableRecord
  2
ACAD
 70
     0
  0
ENDTAB
  0
TABLE
  2
DIMSTYLE
  5
A
330
0
100
AcDbSymbolTable
 70
     1
100
AcDbDimStyleTable
  0
DIMSTYLE
105
27
330
A
100
AcDbSymbolTableRecord
100
AcDbDimStyleTableRecord
  2
ISO-25
 70
     0
 41
2.5
 42
0.625
 43
3.75
 44
1.25
 73
     0
 74
     0
 77
     1
 78
     8
140
2.5
141
2.5
143
0.0393700787
147
0.625
171
     3
172
     1
178
     0
271
     2
272
     2
274
     3
278
    44
283
     0
284
     8
340
11
  0
ENDTAB
  0
TABLE
  2
BLOCK_RECORD
  5
1
330
0
100
AcDbSymbolTable
 70
     3
  0
BLOCK_RECORD
  5
1F
330
1
100
AcDbSymbolTableRecord
100
AcDbBlockTableRecord
  2
*Model_Space
340
22
  0
BLOCK_RECORD
  5
1B
330
1
100
AcDbSymbolTableRecord
100
AcDbBlockTableRecord
  2
*Paper_Space
340
1E
  0
BLOCK_RECORD
  5
23
330
1
100
AcDbSymbolTableRecord
100
AcDbBlockTableRecord
  2
*Paper_Space0
340
26
  0
BLOCK_RECORD
  5
19D
330
1
100
AcDbSymbolTableRecord
100
AcDbBlockTableRecord
  2
SW_CENTERMARKSYMBOL_0
340
0
102
{BLKREFS
331
1A8
102
}
  0
BLOCK_RECORD
  5
21E
330
1
100
AcDbSymbolTableRecord
100
AcDbBlockTableRecord
  2
SW_CENTERMARKSYMBOL_1
340
0
102
{BLKREFS
331
229
102
}
  0
ENDTAB
  0
ENDSEC
  0
SECTION
  2
BLOCKS
  0
BLOCK
  5
20
330
1F
100
AcDbEntity
  8
0
100
AcDbBlockBegin
  2
*Model_Space
 70
     0
 10
0.0
 20
0.0
 30
0.0
  3
*Model_Space
  1

  0
ENDBLK
  5
21
330
1F
100
AcDbEntity
  8
0
100
AcDbBlockEnd
  0
BLOCK
  5
1C
330
1B
100
AcDbEntity
 67
     1
  8
0
100
AcDbBlockBegin
  2
*Paper_Space
 70
     0
 10
0.0
 20
0.0
 30
0.0
  3
*Paper_Space
  1

  0
ENDBLK
  5
1D
330
1B
100
AcDbEntity
 67
     1
  8
0
100
AcDbBlockEnd
  0
BLOCK
  5
24
330
23
100
AcDbEntity
  8
0
100
AcDbBlockBegin
  2
*Paper_Space0
 70
     0
 10
0.0
 20
0.0
 30
0.0
  3
*Paper_Space0
  1

  0
ENDBLK
  5
25
330
23
100
AcDbEntity
  8
0
100
AcDbBlockEnd
  0
BLOCK
  5
19E
330
19D
100
AcDbEntity
  8
0
100
AcDbBlockBegin
  2
SW_CENTERMARKSYMBOL_0
 70
     0
 10
0.0
 20
0.0
 30
0.0
  3
SW_CENTERMARKSYMBOL_0
  1

  0
LINE
  5
1A0
330
19D
100
AcDbEntity
  8
0
  6
Continuous
 62
     0
370
    18
100
AcDbLine
 10
0.0
 20
0.0
 30
0.0
 11
0.0
 21
2.5
 31
0.0
  0
LINE
  5
1A1
330
19D
100
AcDbEntity
  8
0
  6
Continuous
 62
     0
370
    18
100
AcDbLine
 10
0.0
 20
0.0
 30
0.0
 11
-2.5
 21
0.0
 31
0.0
  0
LINE
  5
1A2
330
19D
100
AcDbEntity
  8
0
  6
Continuous
 62
     0
370
    18
100
AcDbLine
 10
0.0
 20
0.0
 30
0.0
 11
0.0
 21
-2.5
 31
0.0
  0
LINE
  5
1A3
330
19D
100
AcDbEntity
  8
0
  6
Continuous
 62
     0
370
    18
100
AcDbLine
 10
0.0
 20
0.0
 30
0.0
 11
2.5
 21
0.0
 31
0.0
  0
LINE
  5
1A4
330
19D
100
AcDbEntity
  8
0
  6
Continuous
 62
     0
370
    18
100
AcDbLine
 10
0.0
 20
2.5
 30
0.0
 11
0.0
 21
18.4539863651
 31
0.0
  0
LINE
  5
1A5
330
19D
100
AcDbEntity
  8
0
  6
Continuous
 62
     0
370
    18
100
AcDbLine
 10
-2.5
 20
0.0
 30
0.0
 11
-5.9527519678
 21
0.0
 31
0.0
  0
LINE
  5
1A6
330
19D
100
AcDbEntity
  8
0
  6
Continuous
 62
     0
370
    18
100
AcDbLine
 10
0.0
 20
-2.5
 30
0.0
 11
0.0
 21
-6.0066293641
 31
0.0
  0
LINE
  5
1A7
330
19D
100
AcDbEntity
  8
0
  6
Continuous
 62
     0
370
    18
100
AcDbLine
 10
2.5
 20
0.0
 30
0.0
 11
5.7883435822
 21
0.0
 31
0.0
  0
ENDBLK
  5
19F
330
19D
100
AcDbEntity
  8
0
100
AcDbBlockEnd
  0
BLOCK
  5
21F
330
21E
100
AcDbEntity
  8
0
100
AcDbBlockBegin
  2
SW_CENTERMARKSYMBOL_1
 70
     0
 10
0.0
 20
0.0
 30
0.0
  3
SW_CENTERMARKSYMBOL_1
  1

  0
LINE
  5
221
330
21E
100
AcDbEntity
  8
0
  6
Continuous
 62
     0
370
    18
100
AcDbLine
 10
0.0
 20
0.0
 30
0.0
 11
0.0
 21
2.5
 31
0.0
  0
LINE
  5
222
330
21E
100
AcDbEntity
  8
0
  6
Continuous
 62
     0
370
    18
100
AcDbLine
 10
0.0
 20
0.0
 30
0.0
 11
-2.5
 21
0.0
 31
0.0
  0
LINE
  5
223
330
21E
100
AcDbEntity
  8
0
  6
Continuous
 62
     0
370
    18
100
AcDbLine
 10
0.0
 20
0.0
 30
0.0
 11
0.0
 21
-2.5
 31
0.0
  0
LINE
  5
224
330
21E
100
AcDbEntity
  8
0
  6
Continuous
 62
     0
370
    18
100
AcDbLine
 10
0.0
 20
0.0
 30
0.0
 11
2.5
 21
0.0
 31
0.0
  0
LINE
  5
225
330
21E
100
AcDbEntity
  8
0
  6
Continuous
 62
     0
370
    18
100
AcDbLine
 10
0.0
 20
2.5
 30
0.0
 11
0.0
 21
5.5712915125
 31
0.0
  0
LINE
  5
226
330
21E
100
AcDbEntity
  8
0
  6
Continuous
 62
     0
370
    18
100
AcDbLine
 10
-2.5
 20
0.0
 30
0.0
 11
-6.0391364008
 21
0.0
 31
0.0
  0
LINE
  5
227
330
21E
100
AcDbEntity
  8
0
  6
Continuous
 62
     0
370
    18
100
AcDbLine
 10
0.0
 20
-2.5
 30
0.0
 11
0.0
 21
-5.4909197357
 31
0.0
  0
LINE
  5
228
330
21E
100
AcDbEntity
  8
0
  6
Continuous
 62
     0
370
    18
100
AcDbLine
 10
2.5
 20
0.0
 30
0.0
 11
17.8850903067
 21
0.0
 31
0.0
  0
ENDBLK
  5
220
330
21E
100
AcDbEntity
  8
0
100
AcDbBlockEnd
  0
ENDSEC
  0
SECTION
  2
ENTITIES
  0
MTEXT
  5
74
330
1F
100
AcDbEntity
  8
0
  6
Continuous
 62
     7
370
     0
100
AcDbMText
 10
81.0251232772
 20
70.1667846777
 30
0.0
 40
2.6458333333
 41
0.0
 71
     1
 72
     1
  1
5R-LM1011
  7
SLDTEXTSTYLE0
 73
     1
 44
1.0
  0
ARC
  5
75
330
1F
100
AcDbEntity
  8
0
  6
Continuous
 62
     7
370
    25
100
AcDbCircle
 10
57.5569198395
 20
53.7927371806
 30
0.0
 40
0.3000000000000052
100
AcDbArc
 50
256.3254917114
 51
270.0
  0
ARC
  5
76
330
1F
100
AcDbEntity
  8
0
  6
Continuous
 62
     7
370
    25
100
AcDbCircle
 10
67.4569198395
 20
53.7927371806
 30
0.0
 40
0.3000000000000043
100
AcDbArc
 50
270.0
 51
283.6745082886
  0
LINE
  5
77
330
1F
100
AcDbEntity
  8
0
  6
Continuous
 62
     7
370
    25
100
AcDbLine
 10
67.5278414237
 20
53.5012405356
 30
0.0
 11
67.2891993272
 21
61.1377885556
 31
0.0
  0
LINE
  5
78
330
1F
100
AcDbEntity
  8
0
  6
Continuous
 62
     7
370
    25
100
AcDbLine
 10
57.7246403518
 20
61.1377885556
 30
0.0
 11
57.4859982553
 21
53.5012405356
 31
0.0
  0
LINE
  5
79
330
1F
100
AcDbEntity
  8
0
  6
Continuous
 62
     7
370
    25
100
AcDbLine
 10
70.5154231946
 20
40.4718155963
 30
0.0
 11
78.1519712146
 21
40.7104576929
 31
0.0
  0
LINE
  5
7A
330
1F
100
AcDbEntity
  8
0
  6
Continuous
 62
     7
370
    25
100
AcDbLine
 10
78.1519712146
 20
50.2750166683
 30
0.0
 11
70.5154231946
 21
50.5136587648
 31
0.0
  0
ARC
  5
7B
330
1F
100
AcDbEntity
  8
0
  6
Continuous
 62
     7
370
    25
100
AcDbCircle
 10
70.8069198395
 20
50.4427371806
 30
0.0
 40
0.2999999999999972
100
AcDbArc
 50
166.3254917112
 51
180.0
  0
ARC
  5
7C
330
1F
100
AcDbEntity
  8
0
  6
Continuous
 62
     7
370
    25
100
AcDbCircle
 10
70.8069198395
 20
40.5427371806
 30
0.0
 40
0.2999999999999972
100
AcDbArc
 50
180.0
 51
193.6745082888
  0
ARC
  5
7D
330
1F
100
AcDbEntity
  8
0
  6
Continuous
 62
     7
370
    25
100
AcDbCircle
 10
70.2069198395
 20
50.2927371806
 30
0.0
 40
0.2999999999999972
100
AcDbArc
 50
270.0
 51
0.0
  0
ARC
  5
7E
330
1F
100
AcDbEntity
  8
0
  6
Continuous
 62
     7
370
    25
100
AcDbCircle
 10
70.2069198395
 20
40.6927371806
 30
0.0
 40
0.3000000000000043
100
AcDbArc
 50
0.0
 51
90.0
  0
ARC
  5
7F
330
1F
100
AcDbEntity
  8
0
  6
Continuous
 62
     7
370
    25
100
AcDbCircle
 10
57.7069198395
 20
53.1927371806
 30
0.0
 40
0.2999999999999972
100
AcDbArc
 50
0.0
 51
90.0
  0
ARC
  5
80
330
1F
100
AcDbEntity
  8
0
  6
Continuous
 62
     7
370
    25
100
AcDbCircle
 10
67.3069198395
 20
53.1927371806
 30
0.0
 40
0.2999999999999972
100
AcDbArc
 50
90.0
 51
180.0
  0
LINE
  5
81
330
1F
100
AcDbEntity
  8
0
  6
Continuous
 62
     7
370
    25
100
AcDbLine
 10
67.2891993272
 20
61.1377885556
 30
0.0
 11
66.5069200295
 21
62.4927381044
 31
0.0
  0
LINE
  5
82
330
1F
100
AcDbEntity
  8
0
  6
Continuous
 62
     7
370
    25
100
AcDbLine
 10
58.5069196495
 20
62.4927381044
 30
0.0
 11
57.7246403518
 21
61.1377885556
 31
0.0
  0
LINE
  5
83
330
1F
100
AcDbEntity
  8
0
  6
Continuous
 62
     7
370
    25
100
AcDbLine
 10
78.1519712146
 20
40.7104576929
 30
0.0
 11
79.5069207634
 21
41.4927369906
 31
0.0
  0
LINE
  5
84
330
1F
100
AcDbEntity
  8
0
  6
Continuous
 62
     7
370
    25
100
AcDbLine
 10
79.5069207634
 20
49.4927373706
 30
0.0
 11
78.1519712146
 21
50.2750166683
 31
0.0
  0
LINE
  5
85
330
1F
100
AcDbEntity
  8
0
  6
Continuous
 62
     7
370
    25
100
AcDbLine
 10
67.0069196458
 20
49.9927369868
 30
0.0
 11
67.0069196458
 21
53.1927371388
 31
0.0
  0
LINE
  5
86
330
1F
100
AcDbEntity
  8
0
  6
Continuous
 62
     7
370
    25
100
AcDbLine
 10
58.0069200332
 20
53.1927371388
 30
0.0
 11
58.0069200332
 21
42.9927372364
 31
0.0
  0
LINE
  5
87
330
1F
100
AcDbEntity
  8
0
  6
Continuous
 62
     7
370
    25
100
AcDbLine
 10
60.0069198954
 20
40.9927373743
 30
0.0
 11
70.2069197978
 21
40.9927373743
 31
0.0
  0
LINE
  5
88
330
1F
100
AcDbEntity
  8
0
  6
Continuous
 62
     7
370
    25
100
AcDbLine
 10
70.2069197978
 20
49.9927369868
 30
0.0
 11
67.0069196458
 21
49.9927369868
 31
0.0
  0
ARC
  5
89
330
1F
100
AcDbEntity
  8
0
  6
Continuous
 62
     7
370
    25
100
AcDbCircle
 10
60.0069198395
 20
42.9927371806
 30
0.0
 40
2.000000000000003
100
AcDbArc
 50
179.883701121
 51
270.1108582457
  0
LINE
  5
8A
330
1F
100
AcDbEntity
  8
0
  6
Continuous
 62
     7
370
    25
100
AcDbLine
 10
67.5278414237
 20
53.5012405356
 30
0.0
 11
57.4859982553
 21
53.5012405356
 31
0.0
  0
LINE
  5
8B
330
1F
100
AcDbEntity
  8
0
  6
Continuous
 62
     7
370
    25
100
AcDbLine
 10
67.4569198127
 20
53.4927375605
 30
0.0
 11
57.5569198663
 21
53.4927375605
 31
0.0
  0
LINE
  5
8C
330
1F
100
AcDbEntity
  8
0
  6
Continuous
 62
     7
370
    25
100
AcDbLine
 10
57.7246403518
 20
61.1377885556
 30
0.0
 11
67.2891993272
 21
61.1377885556
 31
0.0
  0
LINE
  5
8D
330
1F
100
AcDbEntity
  8
0
  6
Continuous
 62
     7
370
    25
100
AcDbLine
 10
78.1519712146
 20
40.7104576929
 30
0.0
 11
78.1519712146
 21
50.2750166683
 31
0.0
  0
LINE
  5
8E
330
1F
100
AcDbEntity
  8
0
  6
Continuous
 62
     7
370
    25
100
AcDbLine
 10
70.5154231946
 20
40.4718155963
 30
0.0
 11
70.5154231946
 21
50.5136587648
 31
0.0
  0
LINE
  5
8F
330
1F
100
AcDbEntity
  8
0
  6
Continuous
 62
     7
370
    25
100
AcDbLine
 10
70.5069202195
 20
40.5427372074
 30
0.0
 11
70.5069202195
 21
50.4427371537
 31
0.0
  0
LINE
  5
90
330
1F
100
AcDbEntity
  8
0
  6
Continuous
 62
     7
370
    25
100
AcDbLine
 10
66.5069200295
 20
62.4927381044
 30
0.0
 11
58.5069196495
 21
62.4927381044
 31
0.0
  0
LINE
  5
91
330
1F
100
AcDbEntity
  8
0
  6
Continuous
 62
     7
370
    25
100
AcDbLine
 10
79.5069207634
 20
49.4927373706
 30
0.0
 11
79.5069207634
 21
41.4927369906
 31
0.0
  0
LINE
  5
92
330
1F
100
AcDbEntity
  8
0
  6
Continuous
 62
     7
370
    25
100
AcDbLine
 10
65.9069198846
 20
49.8927371567
 30
0.0
 11
63.8485606724
 21
49.8927371567
 31
0.0
  0
LINE
  5
93
330
1F
100
AcDbEntity
  8
0
  6
Continuous
 62
     7
370
    25
100
AcDbLine
 10
65.9069198846
 20
49.4927373706
 30
0.0
 11
65.9069198846
 21
49.8927371567
 31
0.0
  0
ARC
  5
94
330
1F
100
AcDbEntity
  8
0
  6
Continuous
 62
     7
370
    25
100
AcDbCircle
 10
66.5069198395
 20
49.4927371806
 30
0.0
 40
0.6000000000000014
100
AcDbArc
 50
180.0
 51
270.0
  0
LINE
  5
95
330
1F
100
AcDbEntity
  8
0
  6
Continuous
 62
     7
370
    25
100
AcDbLine
 10
66.9069198157
 20
48.8927372256
 30
0.0
 11
66.5069200295
 21
48.8927372256
 31
0.0
  0
LINE
  5
96
330
1F
100
AcDbEntity
  8
0
  6
Continuous
 62
     7
370
    25
100
AcDbLine
 10
66.9069198157
 20
46.8343780134
 30
0.0
 11
66.9069198157
 21
48.8927372256
 31
0.0
  0
LINE
  5
97
330
1F
100
AcDbEntity
  8
0
  6
Continuous
 62
     7
370
    25
100
AcDbLine
 10
66.9069198157
 20
46.8343780134
 30
0.0
 11
66.9069198157
 21
45.4927371806
 31
0.0
  0
LINE
  5
98
330
1F
100
AcDbEntity
  8
0
  6
Continuous
 62
     7
370
    25
100
AcDbLine
 10
66.9069198157
 20
45.4927371806
 30
0.0
 11
66.9069198157
 21
44.1510963477
 31
0.0
  0
LINE
  5
99
330
1F
100
AcDbEntity
  8
0
  6
Continuous
 62
     7
370
    25
100
AcDbLine
 10
66.9069198157
 20
42.0927371355
 30
0.0
 11
66.9069198157
 21
44.1510963477
 31
0.0
  0
LINE
  5
9A
330
1F
100
AcDbEntity
  8
0
  6
Continuous
 62
     7
370
    25
100
AcDbLine
 10
61.0069198265
 20
42.0927371355
 30
0.0
 11
66.9069198157
 21
42.0927371355
 31
0.0
  0
ARC
  5
9B
330
1F
100
AcDbEntity
  8
0
  6
Continuous
 62
     7
370
    25
100
AcDbCircle
 10
61.0069198395
 20
43.9927371806
 30
0.0
 40
1.900000000000006
100
AcDbArc
 50
180.0
 51
270.0
  0
LINE
  5
9C
330
1F
100
AcDbEntity
  8
0
  6
Continuous
 62
     7
370
    25
100
AcDbLine
 10
59.1069197944
 20
49.8927371567
 30
0.0
 11
59.1069197944
 21
43.9927371675
 31
0.0
  0
LINE
  5
9D
330
1F
100
AcDbEntity
  8
0
  6
Continuous
 62
     7
370
    25
100
AcDbLine
 10
61.1652790067
 20
49.8927371567
 30
0.0
 11
59.1069197944
 21
49.8927371567
 31
0.0
  0
LINE
  5
9E
330
1F
100
AcDbEntity
  8
0
  6
Continuous
 62
     7
370
    25
100
AcDbLine
 10
61.1652790067
 20
49.8927371567
 30
0.0
 11
62.5069198395
 21
49.8927371567
 31
0.0
  0
LINE
  5
9F
330
1F
100
AcDbEntity
  8
0
  6
Continuous
 62
     7
370
    25
100
AcDbLine
 10
62.5069198395
 20
49.8927371567
 30
0.0
 11
63.8485606724
 21
49.8927371567
 31
0.0
  0
SPLINE
  5
A0
330
1F
100
AcDbEntity
  8
0
  6
Continuous
 62
     7
370
    25
100
AcDbSpline
210
0.0
220
0.0
230
1.0
 70
     8
 71
     3
 72
    14
 73
    10
 74
     0
 42
0.000000001
 43
0.00000001
 40
0.0
 40
0.0
 40
0.0
 40
0.0
 40
0.25
 40
0.25
 40
0.5
 40
0.5
 40
0.75
 40
0.75
 40
1.0
 40
1.0
 40
1.0
 40
1.0
 10
64.18939258304387
 20
45.68001398672197
 30
0.0
 10
64.22731491775295
 20
45.76033918394432
 30
0.0
 10
64.28851815591108
 20
45.82726964116053
 30
0.0
 10
64.43945086451868
 20
45.91976887874823
 30
0.0
 10
64.52679943796714
 20
45.94401124907294
 30
0.0
 10
64.7042909101797
 20
45.94382739915463
 30
0.0
 10
64.79155757478463
 20
45.91922310758856
 30
0.0
 10
64.9408030954174
 20
45.82771658267303
 30
0.0
 10
65.00276429375293
 20
45.76034981901367
 30
0.0
 10
65.04069164938525
 20
45.68001398672236
 30
0.0
  0
LINE
  5
A1
330
1F
100
AcDbEntity
  8
0
  6
Continuous
 62
     7
370
    25
100
AcDbLine
 10
63.4775179751
 20
43.6896440564
 30
0.0
 11
64.189392604
 21
45.6800139849
 31
0.0
  0
SPLINE
  5
A2
330
1F
100
AcDbEntity
  8
0
  6
Continuous
 62
     7
370
    25
100
AcDbSpline
210
0.0
220
0.0
230
1.0
 70
     8
 71
     3
 72
    10
 73
     6
 74
     0
 42
0.000000001
 43
0.00000001
 40
0.0
 40
0.0
 40
0.0
 40
0.0
 40
0.5
 40
0.5
 40
1.0
 40
1.0
 40
1.0
 40
1.0
 10
63.06653980285954
 20
43.54545747833864
 30
0.0
 10
63.13929749251616
 20
43.50541811359054
 30
0.0
 10
63.22791957739199
 20
43.49850392581485
 30
0.0
 10
63.38291814847751
 20
43.55088736406447
 30
0.0
 10
63.44951093512645
 20
43.61133749875015
 30
0.0
 10
63.47751800282484
 20
43.68964402602823
 30
0.0
  0
LINE
  5
A3
330
1F
100
AcDbEntity
  8
0
  6
Continuous
 62
     7
370
    25
100
AcDbLine
 10
62.7463168312
 20
43.7216796903
 30
0.0
 11
63.0665398167
 21
43.5454575103
 31
0.0
  0
LINE
  5
A4
330
1F
100
AcDbEntity
  8
0
  6
Continuous
 62
     7
370
    25
100
AcDbLine
 10
63.349683649
 20
42.5714611532
 30
0.0
 11
62.7463168312
 21
43.7216796903
 31
0.0
  0
SPLINE
  5
A5
330
1F
100
AcDbEntity
  8
0
  6
Continuous
 62
     7
370
    25
100
AcDbSpline
210
0.0
220
0.0
230
1.0
 70
     8
 71
     3
 72
    23
 73
    19
 74
     0
 42
0.000000001
 43
0.00000001
 40
0.0
 40
0.0
 40
0.0
 40
0.0
 40
0.0000498781835487
 40
0.0000498781835487
 40
0.0000498781835487
 40
0.0000997268192993
 40
0.0000997268192993
 40
0.0000997268192993
 40
0.0001500011747122
 40
0.0001500011747122
 40
0.0001500011747122
 40
0.0002003877210666
 40
0.0002003877210666
 40
0.0002003877210666
 40
0.0002503535461228
 40
0.0002503535461228
 40
0.0002503535461228
 40
0.0002676752878394
 40
0.0002676752878394
 40
0.0002676752878394
 40
0.0002676752878394
 10
63.57997835579768
 20
42.53015358282599
 30
0.0
 10
63.56754393231468
 20
42.51911677970627
 30
0.0
 10
63.55301477010563
 20
42.5100976563688
 30
0.0
 10
63.53762157332871
 20
42.50381471092541
 30
0.0
 10
63.52223399905147
 20
42.49753406038277
 30
0.0
 10
63.50556075041934
 20
42.49381099301751
 30
0.0
 10
63.48896410351568
 20
42.49293046764525
 30
0.0
 10
63.47222914501227
 20
42.49204260423216
 30
0.0
 10
63.45511058140028
 20
42.49402105741763
 30
0.0
 10
63.43902225347753
 20
42.49871284196095
 30
0.0
 10
63.42290173230608
 20
42.50341401491227
 30
0.0
 10
63.40736624580613
 20
42.5109740178078
 30
0.0
 10
63.39374026287459
 20
42.52078751968565
 30
0.0
 10
63.38022867028734
 20
42.53051863705853
 30
0.0
 10
63.36821647548042
 20
42.5427427555343
 30
0.0
 10
63.35875837821906
 20
42.55644684892873
 30
0.0
 10
63.35543666016927
 20
42.56125977621487
 30
0.0
 10
63.35240021967836
 20
42.56628260280938
 30
0.0
 10
63.34968366909558
 20
42.5714612544481
 30
0.0
  0
SPLINE
  5
A6
330
1F
100
AcDbEntity
  8
0
  6
Continuous
 62
     7
370
    25
100
AcDbSpline
210
0.0
220
0.0
230
1.0
 70
     8
 71
     3
 72
    12
 73
     8
 74
     0
 42
0.000000001
 43
0.00000001
 40
0.0
 40
0.0
 40
0.0
 40
0.0
 40
0.25
 40
0.25
 40
0.5
 40
0.5
 40
1.0
 40
1.0
 40
1.0
 40
1.0
 10
65.65010587663187
 20
42.53015358282582
 30
0.0
 10
65.50793568867303
 20
42.65634394268733
 30
0.0
 10
65.34542425873413
 20
42.7527935680626
 30
0.0
 10
64.99087214372959
 20
42.88478509366649
 30
0.0
 10
64.80342903196527
 20
42.91807645904851
 30
0.0
 10
64.23813599996873
 20
42.91806083747843
 30
0.0
 10
63.86428836519172
 20
42.78250734920096
 30
0.0
 10
63.57997835579768
 20
42.53015358282599
 30
0.0
  0
SPLINE
  5
A7
330
1F
100
AcDbEntity
  8
0
  6
Continuous
 62
     7
370
    25
100
AcDbSpline
210
0.0
220
0.0
230
1.0
 70
     8
 71
     3
 72
    23
 73
    19
 74
     0
 42
0.000000001
 43
0.00000001
 40
0.0
 40
0.0
 40
0.0
 40
0.0
 40
0.0000491340929468
 40
0.0000491340929468
 40
0.0000491340929468
 40
0.0000982315553283
 40
0.0000982315553283
 40
0.0000982315553283
 40
0.0001478770455754
 40
0.0001478770455754
 40
0.0001478770455754
 40
0.0001981233645928
 40
0.0001981233645928
 40
0.0001981233645928
 40
0.0002485283804886
 40
0.0002485283804886
 40
0.0002485283804886
 40
0.0002676671342044
 40
0.0002676671342044
 40
0.0002676671342044
 40
0.0002676671342044
 10
65.88040056333385
 20
42.57146125444804
 30
0.0
 10
65.87279242109615
 20
42.55695759730417
 30
0.0
 10
65.8625481904239
 20
42.54358354924128
 30
0.0
 10
65.85055322486716
 20
42.53243183636166
 30
0.0
 10
65.83856356705832
 20
42.52128505809235
 30
0.0
 10
65.82449986065846
 20
42.51204968980355
 30
0.0
 10
65.80952178214136
 20
42.50544213926696
 30
0.0
 10
65.79437788001405
 20
42.49876143596359
 30
0.0
 10
65.77788819567793
 20
42.49458325643793
 30
0.0
 10
65.7613919480012
 20
42.49322554481252
 30
0.0
 10
65.74470080362237
 20
42.49185179235629
 30
0.0
 10
65.72754385445424
 20
42.49332865024381
 30
0.0
 10
65.7113349795535
 20
42.49754218450126
 30
0.0
 10
65.69507882064904
 20
42.50176801034405
 30
0.0
 10
65.67932351345951
 20
42.50886761095844
 30
0.0
 10
65.66540832320862
 20
42.5182744056656
 30
0.0
 10
65.66005863748993
 20
42.52189084168955
 30
0.0
 10
65.65493526991553
 20
42.52586700991544
 30
0.0
 10
65.65010587663191
 20
42.53015358282587
 30
0.0
  0
LINE
  5
A8
330
1F
100
AcDbEntity
  8
0
  6
Continuous
 62
     7
370
    25
100
AcDbLine
 10
66.4883913669
 20
43.7304943092
 30
0.0
 11
65.8804004743
 21
42.5714611532
 31
0.0
  0
LINE
  5
A9
330
1F
100
AcDbEntity
  8
0
  6
Continuous
 62
     7
370
    25
100
AcDbLine
 10
66.1677407297
 20
43.5472553121
 30
0.0
 11
66.4883913669
 21
43.7304943092
 31
0.0
  0
SPLINE
  5
AA
330
1F
100
AcDbEntity
  8
0
  6
Continuous
 62
     7
370
    25
100
AcDbSpline
210
0.0
220
0.0
230
1.0
 70
     8
 71
     3
 72
    10
 73
     6
 74
     0
 42
0.000000001
 43
0.00000001
 40
0.0
 40
0.0
 40
0.0
 40
0.0
 40
0.4999999999999998
 40
0.4999999999999998
 40
1.0
 40
1.0
 40
1.0
 40
1.0
 10
65.75273175315749
 20
43.68918122946536
 30
0.0
 10
65.78095720839575
 20
43.61026410024843
 30
0.0
 10
65.84820773255468
 20
43.5494615321069
 30
0.0
 10
66.00578148245964
 20
43.49756026164863
 30
0.0
 10
66.09506248012654
 20
43.50572253894039
 30
0.0
 10
66.16774069347815
 20
43.54725525479618
 30
0.0
  0
LINE
  5
AB
330
1F
100
AcDbEntity
  8
0
  6
Continuous
 62
     7
370
    25
100
AcDbLine
 10
65.0406916357
 20
45.6800139849
 30
0.0
 11
65.752731749
 21
43.6891811891
 31
0.0
  0
SPLINE
  5
AC
330
1F
100
AcDbEntity
  8
0
  6
Continuous
 62
     7
370
    25
100
AcDbSpline
210
0.0
220
0.0
230
1.0
 70
     8
 71
     3
 72
    10
 73
     6
 74
     0
 42
0.000000001
 43
0.00000001
 40
0.0
 40
0.0
 40
0.0
 40
0.0
 40
0.5
 40
0.5
 40
1.0
 40
1.0
 40
1.0
 40
1.0
 10
63.84422236410573
 20
49.96344785867845
 30
0.0
 10
63.84533834942567
 20
49.95190762294569
 30
0.0
 10
63.84642291490459
 20
49.93861844817881
 30
0.0
 10
63.84803405320247
 20
49.91342172174917
 30
0.0
 10
63.84856062602142
 20
49.90151417008641
 30
0.0
 10
63.84856062602142
 20
49.89273718056187
 30
0.0
  0
SPLINE
  5
AD
330
1F
100
AcDbEntity
  8
0
  6
Continuous
 62
     7
370
    25
100
AcDbSpline
210
0.0
220
0.0
230
1.0
 70
     8
 71
     3
 72
    12
 73
     8
 74
     0
 42
0.000000001
 43
0.00000001
 40
0.0
 40
0.0
 40
0.0
 40
0.0
 40
0.25
 40
0.25
 40
0.5
 40
0.5
 40
1.0
 40
1.0
 40
1.0
 40
1.0
 10
63.84422236410573
 20
49.96344785867845
 30
0.0
 10
63.84366437144574
 20
49.96921797654483
 30
0.0
 10
63.84301967222843
 20
49.97393361809574
 30
0.0
 10
63.84203173844745
 20
49.98158916014877
 30
0.0
 10
63.8416885038838
 20
49.9845290606509
 30
0.0
 10
63.84182331382596
 20
49.99118496795739
 30
0.0
 10
63.84346587196485
 20
49.99273718056187
 30
0.0
 10
63.84856062602142
 20
49.99273718056187
 30
0.0
  0
LINE
  5
AE
330
1F
100
AcDbEntity
  8
0
  6
Continuous
 62
     7
370
    25
100
AcDbLine
 10
63.8485606724
 20
49.9927369868
 30
0.0
 11
65.9069198846
 21
49.9927369868
 31
0.0
  0
LINE
  5
AF
330
1F
100
AcDbEntity
  8
0
  6
Continuous
 62
     7
370
    25
100
AcDbLine
 10
65.9069198846
 20
49.8927371567
 30
0.0
 11
65.9069198846
 21
49.9927369868
 31
0.0
  0
SPLINE
  5
B0
330
1F
100
AcDbEntity
  8
0
  6
Continuous
 62
     7
370
    25
100
AcDbSpline
210
0.0
220
0.0
230
1.0
 70
     8
 71
     3
 72
    12
 73
     8
 74
     0
 42
0.000000001
 43
0.00000001
 40
0.0
 40
0.0
 40
0.0
 40
0.0
 40
0.25
 40
0.25
 40
0.5
 40
0.5
 40
1.0
 40
1.0
 40
1.0
 40
1.0
 10
66.97763051763808
 20
44.15543465597765
 30
0.0
 10
66.98340063550447
 20
44.15599264863762
 30
0.0
 10
66.98811627705537
 20
44.15663734785495
 30
0.0
 10
66.9957718191084
 20
44.15762528163592
 30
0.0
 10
66.99871171961054
 20
44.15796851619957
 30
0.0
 10
67.00536762691704
 20
44.15783370625741
 30
0.0
 10
67.0069198395215
 20
44.15619114811852
 30
0.0
 10
67.0069198395215
 20
44.15109639406195
 30
0.0
  0
LINE
  5
B1
330
1F
100
AcDbEntity
  8
0
  6
Continuous
 62
     7
370
    25
100
AcDbLine
 10
67.0069196458
 20
44.1510963477
 30
0.0
 11
67.0069196458
 21
42.0927371355
 31
0.0
  0
LINE
  5
B2
330
1F
100
AcDbEntity
  8
0
  6
Continuous
 62
     7
370
    25
100
AcDbLine
 10
67.0069196458
 20
42.0927371355
 30
0.0
 11
66.9069198157
 21
42.0927371355
 31
0.0
  0
SPLINE
  5
B3
330
1F
100
AcDbEntity
  8
0
  6
Continuous
 62
     7
370
    25
100
AcDbSpline
210
0.0
220
0.0
230
1.0
 70
     8
 71
     3
 72
    10
 73
     6
 74
     0
 42
0.000000001
 43
0.00000001
 40
0.0
 40
0.0
 40
0.0
 40
0.0
 40
0.5
 40
0.5
 40
1.0
 40
1.0
 40
1.0
 40
1.0
 10
66.97763051763808
 20
44.15543465597765
 30
0.0
 10
66.96609028190532
 20
44.1543186706577
 30
0.0
 10
66.95280110713846
 20
44.15323410517878
 30
0.0
 10
66.92760438070881
 20
44.1516229668809
 30
0.0
 10
66.91569682904606
 20
44.15109639406195
 30
0.0
 10
66.9069198395215
 20
44.15109639406195
 30
0.0
  0
LINE
  5
B4
330
1F
100
AcDbEntity
  8
0
  6
Continuous
 62
     7
370
    25
100
AcDbLine
 10
59.1069197944
 20
49.9927369868
 30
0.0
 11
61.1652790067
 21
49.9927369868
 31
0.0
  0
SPLINE
  5
B5
330
1F
100
AcDbEntity
  8
0
  6
Continuous
 62
     7
370
    25
100
AcDbSpline
210
0.0
220
0.0
230
1.0
 70
     8
 71
     3
 72
    12
 73
     8
 74
     0
 42
0.000000001
 43
0.00000001
 40
0.0
 40
0.0
 40
0.0
 40
0.0
 40
0.25
 40
0.25
 40
0.5
 40
0.5
 40
1.0
 40
1.0
 40
1.0
 40
1.0
 10
61.16961731493728
 20
49.96344785867846
 30
0.0
 10
61.17017530759725
 20
49.96921797654483
 30
0.0
 10
61.17082000681458
 20
49.97393361809574
 30
0.0
 10
61.17180794059556
 20
49.98158916014877
 30
0.0
 10
61.1721511751592
 20
49.9845290606509
 30
0.0
 10
61.17201636521705
 20
49.99118496795739
 30
0.0
 10
61.17037380707815
 20
49.99273718056187
 30
0.0
 10
61.16527905302159
 20
49.99273718056187
 30
0.0
  0
SPLINE
  5
B6
330
1F
100
AcDbEntity
  8
0
  6
Continuous
 62
     7
370
    25
100
AcDbSpline
210
0.0
220
0.0
230
1.0
 70
     8
 71
     3
 72
    10
 73
     6
 74
     0
 42
0.000000001
 43
0.00000001
 40
0.0
 40
0.0
 40
0.0
 40
0.0
 40
0.5
 40
0.5
 40
1.0
 40
1.0
 40
1.0
 40
1.0
 10
61.16961731493728
 20
49.96344785867846
 30
0.0
 10
61.16850132961734
 20
49.95190762294569
 30
0.0
 10
61.16741676413841
 20
49.93861844817881
 30
0.0
 10
61.16580562584053
 20
49.91342172174918
 30
0.0
 10
61.16527905302159
 20
49.90151417008641
 30
0.0
 10
61.16527905302159
 20
49.89273718056187
 30
0.0
  0
LINE
  5
B7
330
1F
100
AcDbEntity
  8
0
  6
Continuous
 62
     7
370
    25
100
AcDbLine
 10
59.1069197944
 20
49.8927371567
 30
0.0
 11
59.1069197944
 21
49.9927369868
 31
0.0
  0
LINE
  5
B8
330
1F
100
AcDbEntity
  8
0
  6
Continuous
 62
     7
370
    25
100
AcDbLine
 10
67.0069196458
 20
48.8927372256
 30
0.0
 11
67.0069196458
 21
46.8343780134
 31
0.0
  0
SPLINE
  5
B9
330
1F
100
AcDbEntity
  8
0
  6
Continuous
 62
     7
370
    25
100
AcDbSpline
210
0.0
220
0.0
230
1.0
 70
     8
 71
     3
 72
    12
 73
     8
 74
     0
 42
0.000000001
 43
0.00000001
 40
0.0
 40
0.0
 40
0.0
 40
0.0
 40
0.25
 40
0.25
 40
0.5
 40
0.5
 40
1.0
 40
1.0
 40
1.0
 40
1.0
 10
66.97763051763808
 20
46.83003970514608
 30
0.0
 10
66.98340063550447
 20
46.82948171248611
 30
0.0
 10
66.98811627705537
 20
46.82883701326879
 30
0.0
 10
66.9957718191084
 20
46.82784907948781
 30
0.0
 10
66.99871171961054
 20
46.82750584492416
 30
0.0
 10
67.00536762691704
 20
46.82764065486631
 30
0.0
 10
67.0069198395215
 20
46.82928321300522
 30
0.0
 10
67.0069198395215
 20
46.83437796706178
 30
0.0
  0
SPLINE
  5
BA
330
1F
100
AcDbEntity
  8
0
  6
Continuous
 62
     7
370
    25
100
AcDbSpline
210
0.0
220
0.0
230
1.0
 70
     8
 71
     3
 72
    10
 73
     6
 74
     0
 42
0.000000001
 43
0.00000001
 40
0.0
 40
0.0
 40
0.0
 40
0.0
 40
0.5
 40
0.5
 40
1.0
 40
1.0
 40
1.0
 40
1.0
 10
66.97763051763808
 20
46.83003970514608
 30
0.0
 10
66.96609028190532
 20
46.83115569046603
 30
0.0
 10
66.95280110713846
 20
46.83224025594496
 30
0.0
 10
66.92760438070881
 20
46.83385139424283
 30
0.0
 10
66.91569682904606
 20
46.83437796706178
 30
0.0
 10
66.9069198395215
 20
46.83437796706178
 30
0.0
  0
LINE
  5
BB
330
1F
100
AcDbEntity
  8
0
  6
Continuous
 62
     7
370
    25
100
AcDbLine
 10
67.0069196458
 20
48.8927372256
 30
0.0
 11
66.9069198157
 21
48.8927372256
 31
0.0
  0
SPLINE
  5
BC
330
1F
100
AcDbEntity
  8
0
  6
Continuous
 62
     7
370
    25
100
AcDbSpline
210
0.0
220
0.0
230
1.0
 70
    24
 71
     3
 72
    14
 73
    10
 74
     0
 42
0.000000001
 43
0.00000001
 40
0.0
 40
0.0
 40
0.0
 40
0.0
 40
0.25
 40
0.25
 40
0.5
 40
0.5
 40
0.75
 40
0.75
 40
1.0
 40
1.0
 40
1.0
 40
1.0
 10
62.5069198395215
 20
50.09273718056187
 30
0.0
 10
62.61708010656491
 20
50.09273718056187
 30
0.0
 10
62.72724059860373
 20
50.09273718056187
 30
0.0
 10
62.94727554847776
 20
50.09273718056187
 30
0.0
 10
63.05715045678523
 20
50.09273718056187
 30
0.0
 10
63.27631515080297
 20
50.09273718056187
 30
0.0
 10
63.38560538820155
 20
50.09273718056187
 30
0.0
 10
63.60327461780737
 20
50.09273718056187
 30
0.0
 10
63.71165406296033
 20
50.09273718056187
 30
0.0
 10
63.81939452196707
 20
50.09273718056187
 30
0.0
  0
SPLINE
  5
BD
330
1F
100
AcDbEntity
  8
0
  6
Continuous
 62
     7
370
    25
100
AcDbSpline
210
0.0
220
0.0
230
1.0
 70
    24
 71
     3
 72
    14
 73
    10
 74
     0
 42
0.000000001
 43
0.00000001
 40
0.0
 40
0.0
 40
0.0
 40
0.0
 40
0.25
 40
0.25
 40
0.5
 40
0.5
 40
0.75
 40
0.75
 40
1.0
 40
1.0
 40
1.0
 40
1.0
 10
62.5069198395215
 20
50.09273718056187
 30
0.0
 10
62.39675957247809
 20
50.09273718056187
 30
0.0
 10
62.28659908043929
 20
50.09273718056187
 30
0.0
 10
62.06656413056525
 20
50.09273718056187
 30
0.0
 10
61.95668922225779
 20
50.09273718056187
 30
0.0
 10
61.73752452824003
 20
50.09273718056187
 30
0.0
 10
61.62823429084145
 20
50.09273718056187
 30
0.0
 10
61.41056506123564
 20
50.09273718056187
 30
0.0
 10
61.30218561608266
 20
50.09273718056187
 30
0.0
 10
61.19444515707593
 20
50.09273718056187
 30
0.0
  0
LINE
  5
BE
330
1F
100
AcDbEntity
  8
0
  6
Continuous
 62
     7
370
    25
100
AcDbLine
 10
59.1808328136
 20
50.0927372826
 30
0.0
 11
61.1944451193
 21
50.0927372826
 31
0.0
  0
SPLINE
  5
BF
330
1F
100
AcDbEntity
  8
0
  6
Continuous
 62
     7
370
    25
100
AcDbSpline
210
0.0
220
0.0
230
1.0
 70
     8
 71
     3
 72
    12
 73
     8
 74
     0
 42
0.000000001
 43
0.00000001
 40
0.0
 40
0.0
 40
0.0
 40
0.0
 40
0.4999999999999984
 40
0.4999999999999984
 40
0.7499999999999992
 40
0.7499999999999992
 40
1.0
 40
1.0
 40
1.0
 40
1.0
 10
59.18083288299976
 20
50.09273718056187
 30
0.0
 10
59.13605214482788
 20
50.09273718056187
 30
0.0
 10
59.09267818728068
 20
50.07801076159615
 30
0.0
 10
59.03693659413671
 20
50.03048714975372
 30
0.0
 10
59.01994111390724
 20
50.01026979589712
 30
0.0
 10
58.99366972821073
 20
49.9579991152891
 30
0.0
 10
58.98518070908672
 20
49.92632880706808
 30
0.0
 10
58.98518070908672
 20
49.89273718056187
 30
0.0
  0
LINE
  5
C0
330
1F
100
AcDbEntity
  8
0
  6
Continuous
 62
     7
370
    25
100
AcDbLine
 10
58.9851808
 20
43.9927371675
 30
0.0
 11
58.9851808
 21
49.8927371567
 31
0.0
  0
SPLINE
  5
C1
330
1F
100
AcDbEntity
  8
0
  6
Continuous
 62
     7
370
    25
100
AcDbSpline
210
0.0
220
0.0
230
1.0
 70
     8
 71
     3
 72
     8
 73
     4
 74
     0
 42
0.000000001
 43
0.00000001
 40
0.0
 40
0.0
 40
0.0
 40
0.0
 40
1.0
 40
1.0
 40
1.0
 40
1.0
 10
59.02913950931131
 20
43.56063699711176
 30
0.0
 10
59.00025252885994
 20
43.70107622643171
 30
0.0
 10
58.98518070908672
 20
43.8449309333902
 30
0.0
 10
58.98518070908672
 20
43.99273718056187
 30
0.0
  0
LINE
  5
C2
330
1F
100
AcDbEntity
  8
0
  6
Continuous
 62
     7
370
    25
100
AcDbLine
 10
66.1861664812
 20
49.1719838223
 30
0.0
 11
67.0069196458
 21
49.9927369868
 31
0.0
  0
SPLINE
  5
C3
330
1F
100
AcDbEntity
  8
0
  6
Continuous
 62
     7
370
    25
100
AcDbSpline
210
0.0
220
0.0
230
1.0
 70
     8
 71
     3
 72
    10
 73
     6
 74
     0
 42
0.000000001
 43
0.00000001
 40
0.0
 40
0.0
 40
0.0
 40
0.0
 40
0.5
 40
0.5
 40
1.0
 40
1.0
 40
1.0
 40
1.0
 10
66.02865896995628
 20
49.49273718056187
 30
0.0
 10
66.02865896995628
 20
49.41873611414056
 30
0.0
 10
66.0498164275344
 20
49.34891913483541
 30
0.0
 10
66.1098270651938
 20
49.24105796889189
 30
0.0
 10
66.1474323030506
 20
49.201485957673
 30
0.0
 10
66.18616652258792
 20
49.17198386362805
 30
0.0
  0
LINE
  5
C4
330
1F
100
AcDbEntity
  8
0
  6
Continuous
 62
     7
370
    25
100
AcDbLine
 10
66.0286588791
 20
49.8927371567
 30
0.0
 11
66.0286588791
 21
49.4927373706
 31
0.0
  0
SPLINE
  5
C5
330
1F
100
AcDbEntity
  8
0
  6
Continuous
 62
     7
370
    25
100
AcDbSpline
210
0.0
220
0.0
230
1.0
 70
     8
 71
     3
 72
    12
 73
     8
 74
     0
 42
0.000000001
 43
0.00000001
 40
0.0
 40
0.0
 40
0.0
 40
0.0
 40
0.2500000000000005
 40
0.2500000000000005
 40
0.500000000000001
 40
0.500000000000001
 40
1.0
 40
1.0
 40
1.0
 40
1.0
 10
66.02865896995628
 20
49.89273718056187
 30
0.0
 10
66.02865896995628
 20
49.92632611856975
 30
0.0
 10
66.02000930136252
 20
49.95838442988303
 30
0.0
 10
65.99387438747138
 20
50.01025175470567
 30
0.0
 10
65.97674999985344
 20
50.03064829324055
 30
0.0
 10
65.92103659047578
 20
50.07805563618832
 30
0.0
 10
65.8778198283666
 20
50.09273718056186
 30
0.0
 10
65.83300679604325
 20
50.09273718056186
 30
0.0
  0
LINE
  5
C6
330
1F
100
AcDbEntity
  8
0
  6
Continuous
 62
     7
370
    25
100
AcDbLine
 10
63.8193945597
 20
50.0927372826
 30
0.0
 11
65.8330068654
 21
50.0927372826
 31
0.0
  0
SPLINE
  5
C7
330
1F
100
AcDbEntity
  8
0
  6
Continuous
 62
     7
370
    25
100
AcDbSpline
210
0.0
220
0.0
230
1.0
 70
     8
 71
     3
 72
     8
 73
     4
 74
     0
 42
0.000000001
 43
0.00000001
 40
0.0
 40
0.0
 40
0.0
 40
0.0
 40
1.0
 40
1.0
 40
1.0
 40
1.0
 10
61.0069198395215
 20
41.97099805012709
 30
0.0
 10
60.85911359234983
 20
41.97099805012709
 30
0.0
 10
60.71525888539135
 20
41.98606986990031
 30
0.0
 10
60.57481965607139
 20
42.01495685035168
 30
0.0
  0
LINE
  5
C8
330
1F
100
AcDbEntity
  8
0
  6
Continuous
 62
     7
370
    25
100
AcDbLine
 10
66.9069198157
 20
41.970998141
 30
0.0
 11
61.0069198265
 21
41.970998141
 31
0.0
  0
SPLINE
  5
C9
330
1F
100
AcDbEntity
  8
0
  6
Continuous
 62
     7
370
    25
100
AcDbSpline
210
0.0
220
0.0
230
1.0
 70
     8
 71
     3
 72
    12
 73
     8
 74
     0
 42
0.000000001
 43
0.00000001
 40
0.0
 40
0.0
 40
0.0
 40
0.0
 40
0.2500000000000008
 40
0.2500000000000008
 40
0.5000000000000016
 40
0.5000000000000016
 40
1.0
 40
1.0
 40
1.0
 40
1.0
 10
66.9069198395215
 20
41.97099805012708
 30
0.0
 10
66.94050877752939
 20
41.97099805012708
 30
0.0
 10
66.97256708884267
 20
41.97964771872085
 30
0.0
 10
67.0244344136653
 20
42.00578263261198
 30
0.0
 10
67.04483095220019
 20
42.02290702022993
 30
0.0
 10
67.09223829514796
 20
42.07862042960758
 30
0.0
 10
67.1069198395215
 20
42.12183719171676
 30
0.0
 10
67.1069198395215
 20
42.16665022404013
 30
0.0
  0
LINE
  5
CA
330
1F
100
AcDbEntity
  8
0
  6
Continuous
 62
     7
370
    25
100
AcDbLine
 10
67.1069199416
 20
44.1802624604
 30
0.0
 11
67.1069199416
 21
42.1666501546
 31
0.0
  0
SPLINE
  5
CB
330
1F
100
AcDbEntity
  8
0
  6
Continuous
 62
     7
370
    25
100
AcDbSpline
210
0.0
220
0.0
230
1.0
 70
    24
 71
     3
 72
    14
 73
    10
 74
     0
 42
0.000000001
 43
0.00000001
 40
0.0
 40
0.0
 40
0.0
 40
0.0
 40
0.25
 40
0.25
 40
0.5
 40
0.5
 40
0.75
 40
0.75
 40
1.0
 40
1.0
 40
1.0
 40
1.0
 10
67.1069198395215
 20
45.49273718056187
 30
0.0
 10
67.1069198395215
 20
45.38257691351845
 30
0.0
 10
67.1069198395215
 20
45.27241642147965
 30
0.0
 10
67.1069198395215
 20
45.05238147160561
 30
0.0
 10
67.1069198395215
 20
44.94250656329815
 30
0.0
 10
67.1069198395215
 20
44.7233418692804
 30
0.0
 10
67.1069198395215
 20
44.61405163188181
 30
0.0
 10
67.1069198395215
 20
44.39638240227601
 30
0.0
 10
67.1069198395215
 20
44.28800295712303
 30
0.0
 10
67.1069198395215
 20
44.1802624981163
 30
0.0
  0
SPLINE
  5
CC
330
1F
100
AcDbEntity
  8
0
  6
Continuous
 62
     7
370
    25
100
AcDbSpline
210
0.0
220
0.0
230
1.0
 70
    24
 71
     3
 72
    14
 73
    10
 74
     0
 42
0.000000001
 43
0.00000001
 40
0.0
 40
0.0
 40
0.0
 40
0.0
 40
0.25
 40
0.25
 40
0.5
 40
0.5
 40
0.75
 40
0.75
 40
1.0
 40
1.0
 40
1.0
 40
1.0
 10
67.1069198395215
 20
45.49273718056187
 30
0.0
 10
67.1069198395215
 20
45.60289744760528
 30
0.0
 10
67.1069198395215
 20
45.71305793964409
 30
0.0
 10
67.1069198395215
 20
45.93309288951813
 30
0.0
 10
67.1069198395215
 20
46.04296779782559
 30
0.0
 10
67.1069198395215
 20
46.26213249184334
 30
0.0
 10
67.1069198395215
 20
46.37142272924192
 30
0.0
 10
67.1069198395215
 20
46.58909195884772
 30
0.0
 10
67.1069198395215
 20
46.69747140400071
 30
0.0
 10
67.1069198395215
 20
46.80521186300744
 30
0.0
  0
LINE
  5
CD
330
1F
100
AcDbEntity
  8
0
  6
Continuous
 62
     7
370
    25
100
AcDbLine
 10
67.1069199416
 20
48.8188242065
 30
0.0
 11
67.1069199416
 21
46.8052119007
 31
0.0
  0
SPLINE
  5
CE
330
1F
100
AcDbEntity
  8
0
  6
Continuous
 62
     7
370
    25
100
AcDbSpline
210
0.0
220
0.0
230
1.0
 70
     8
 71
     3
 72
    12
 73
     8
 74
     0
 42
0.000000001
 43
0.00000001
 40
0.0
 40
0.0
 40
0.0
 40
0.0
 40
0.4999999999999991
 40
0.4999999999999991
 40
0.7499999999999996
 40
0.7499999999999996
 40
1.0
 40
1.0
 40
1.0
 40
1.0
 10
67.1069198395215
 20
48.8188241370836
 30
0.0
 10
67.1069198395215
 20
48.86360487525548
 30
0.0
 10
67.09219342055577
 20
48.9069788328027
 30
0.0
 10
67.04466980871337
 20
48.96272042594666
 30
0.0
 10
67.02445245485674
 20
48.97971590617613
 30
0.0
 10
66.97218177424874
 20
49.00598729187264
 30
0.0
 10
66.94051146602771
 20
49.01447631099665
 30
0.0
 10
66.90691983952149
 20
49.01447631099665
 30
0.0
  0
LINE
  5
CF
330
1F
100
AcDbEntity
  8
0
  6
Continuous
 62
     7
370
    25
100
AcDbLine
 10
66.5069200295
 20
49.0144762201
 30
0.0
 11
66.9069198157
 21
49.0144762201
 31
0.0
  0
SPLINE
  5
D0
330
1F
100
AcDbEntity
  8
0
  6
Continuous
 62
     7
370
    25
100
AcDbSpline
210
0.0
220
0.0
230
1.0
 70
     8
 71
     3
 72
    10
 73
     6
 74
     0
 42
0.000000001
 43
0.00000001
 40
0.0
 40
0.0
 40
0.0
 40
0.0
 40
0.5
 40
0.5
 40
1.0
 40
1.0
 40
1.0
 40
1.0
 10
66.18616652258771
 20
49.17198386362823
 30
0.0
 10
66.21566861663267
 20
49.13324964409094
 30
0.0
 10
66.25524062785163
 20
49.09564440623409
 30
0.0
 10
66.36310179379512
 20
49.03563376857473
 30
0.0
 10
66.43291877310023
 20
49.01447631099665
 30
0.0
 10
66.5069198395215
 20
49.01447631099665
 30
0.0
  0
SPLINE
  5
D1
330
1F
100
AcDbEntity
  8
0
  6
Continuous
 62
     7
370
    25
100
AcDbSpline
210
0.0
220
0.0
230
1.0
 70
    24
 71
     3
 72
    10
 73
     6
 74
     0
 42
0.000000001
 43
0.00000001
 40
0.0
 40
0.0
 40
0.0
 40
0.0
 40
0.5
 40
0.5
 40
1.0
 40
1.0
 40
1.0
 40
1.0
 10
62.5069198395215
 20
49.99316475259241
 30
0.0
 10
62.5069198395215
 20
49.97685099778325
 30
0.0
 10
62.5069198395215
 20
49.95936631433957
 30
0.0
 10
62.5069198395215
 20
49.92322954122096
 30
0.0
 10
62.5069198395215
 20
49.90986260558464
 30
0.0
 10
62.5069198395215
 20
49.89273718056187
 30
0.0
  0
SPLINE
  5
D2
330
1F
100
AcDbEntity
  8
0
  6
Continuous
 62
     7
370
    25
100
AcDbSpline
210
0.0
220
0.0
230
1.0
 70
     8
 71
     3
 72
    12
 73
     8
 74
     0
 42
0.000000001
 43
0.00000001
 40
0.0
 40
0.0
 40
0.0
 40
0.0
 40
0.25
 40
0.25
 40
0.5
 40
0.5
 40
1.0
 40
1.0
 40
1.0
 40
1.0
 10
62.5069198395215
 20
49.99316475259241
 30
0.0
 10
62.39569217952042
 20
49.98908631389012
 30
0.0
 10
62.28456854792855
 20
49.98610627952627
 30
0.0
 10
62.06183169099701
 20
49.9804504801705
 30
0.0
 10
61.95021846565734
 20
49.97777471517858
 30
0.0
 10
61.61359792316734
 20
49.96736501530336
 30
0.0
 10
61.39253817029203
 20
49.96347914605712
 30
0.0
 10
61.16961731493728
 20
49.96344785867846
 30
0.0
  0
SPLINE
  5
D3
330
1F
100
AcDbEntity
  8
0
  6
Continuous
 62
     7
370
    25
100
AcDbSpline
210
0.0
220
0.0
230
1.0
 70
     8
 71
     3
 72
    12
 73
     8
 74
     0
 42
0.000000001
 43
0.00000001
 40
0.0
 40
0.0
 40
0.0
 40
0.0
 40
0.25
 40
0.25
 40
0.5
 40
0.5
 40
1.0
 40
1.0
 40
1.0
 40
1.0
 10
67.00734741155203
 20
45.49273718056187
 30
0.0
 10
67.00326897284975
 20
45.38150952056079
 30
0.0
 10
67.0002889384859
 20
45.27038588896891
 30
0.0
 10
66.99463313913012
 20
45.04764903203737
 30
0.0
 10
66.99195737413821
 20
44.93603580669771
 30
0.0
 10
66.981547674263
 20
44.59941526420771
 30
0.0
 10
66.97766180501674
 20
44.37835551133239
 30
0.0
 10
66.97763051763808
 20
44.15543465597765
 30
0.0
  0
SPLINE
  5
D4
330
1F
100
AcDbEntity
  8
0
  6
Continuous
 62
     7
370
    25
100
AcDbSpline
210
0.0
220
0.0
230
1.0
 70
    24
 71
     3
 72
    10
 73
     6
 74
     0
 42
0.000000001
 43
0.00000001
 40
0.0
 40
0.0
 40
0.0
 40
0.0
 40
0.5
 40
0.5
 40
1.0
 40
1.0
 40
1.0
 40
1.0
 10
67.00734741155203
 20
45.49273718056187
 30
0.0
 10
66.99103365674289
 20
45.49273718056187
 30
0.0
 10
66.9735489732992
 20
45.49273718056186
 30
0.0
 10
66.9374122001806
 20
45.49273718056186
 30
0.0
 10
66.92404526454428
 20
45.49273718056186
 30
0.0
 10
66.9069198395215
 20
45.49273718056186
 30
0.0
  0
SPLINE
  5
D5
330
1F
100
AcDbEntity
  8
0
  6
Continuous
 62
     7
370
    25
100
AcDbSpline
210
0.0
220
0.0
230
1.0
 70
     8
 71
     3
 72
    12
 73
     8
 74
     0
 42
0.000000001
 43
0.00000001
 40
0.0
 40
0.0
 40
0.0
 40
0.0
 40
0.25
 40
0.25
 40
0.5
 40
0.5
 40
1.0
 40
1.0
 40
1.0
 40
1.0
 10
67.00734741155203
 20
45.49273718056187
 30
0.0
 10
67.00326897284975
 20
45.60396484056295
 30
0.0
 10
67.00028893848591
 20
45.71508847215483
 30
0.0
 10
66.99463313913013
 20
45.93782532908637
 30
0.0
 10
66.99195737413822
 20
46.04943855442603
 30
0.0
 10
66.981547674263
 20
46.38605909691602
 30
0.0
 10
66.97766180501675
 20
46.60711884979133
 30
0.0
 10
66.97763051763808
 20
46.83003970514608
 30
0.0
  0
SPLINE
  5
D6
330
1F
100
AcDbEntity
  8
0
  6
Continuous
 62
     7
370
    25
100
AcDbSpline
210
0.0
220
0.0
230
1.0
 70
     8
 71
     3
 72
    12
 73
     8
 74
     0
 42
0.000000001
 43
0.00000001
 40
0.0
 40
0.0
 40
0.0
 40
0.0
 40
0.25
 40
0.25
 40
0.5
 40
0.5
 40
1.0
 40
1.0
 40
1.0
 40
1.0
 10
62.5069198395215
 20
49.99316475259241
 30
0.0
 10
62.61814749952258
 20
49.98908631389011
 30
0.0
 10
62.72927113111446
 20
49.98610627952626
 30
0.0
 10
62.952007988046
 20
49.98045048017049
 30
0.0
 10
63.06362121338566
 20
49.97777471517858
 30
0.0
 10
63.40024175587565
 20
49.96736501530336
 30
0.0
 10
63.62130150875097
 20
49.96347914605712
 30
0.0
 10
63.84422236410573
 20
49.96344785867845
 30
0.0
  0
SPLINE
  5
D7
330
1F
100
AcDbEntity
  8
0
  6
Continuous
 62
     7
370
    25
100
AcDbSpline
210
0.0
220
0.0
230
1.0
 70
    24
 71
     3
 72
    10
 73
     6
 74
     0
 42
0.000000001
 43
0.00000001
 40
0.0
 40
0.0
 40
0.0
 40
0.0
 40
0.5
 40
0.5
 40
1.0
 40
1.0
 40
1.0
 40
1.0
 10
62.5069198395215
 20
49.99316475259241
 30
0.0
 10
62.5069198395215
 20
50.00947850740156
 30
0.0
 10
62.5069198395215
 20
50.02683835126457
 30
0.0
 10
62.5069198395215
 20
50.06248943093049
 30
0.0
 10
62.5069198395215
 20
50.0757124945469
 30
0.0
 10
62.5069198395215
 20
50.09273718056187
 30
0.0
  0
SPLINE
  5
D8
330
1F
100
AcDbEntity
  8
0
  6
Continuous
 62
     7
370
    25
100
AcDbSpline
210
0.0
220
0.0
230
1.0
 70
     8
 71
     3
 72
    10
 73
     6
 74
     0
 42
0.000000001
 43
0.00000001
 40
0.0
 40
0.0
 40
0.0
 40
0.0
 40
0.5
 40
0.5
 40
1.0
 40
1.0
 40
1.0
 40
1.0
 10
63.82385083626867
 20
50.02202549527615
 30
0.0
 10
63.82154670556772
 20
50.03356560114183
 30
0.0
 10
63.82043262699231
 20
50.04685487690318
 30
0.0
 10
63.81935653519199
 20
50.07205202105311
 30
0.0
 10
63.81939452196707
 20
50.0839598894417
 30
0.0
 10
63.81939452196707
 20
50.09273718056187
 30
0.0
  0
SPLINE
  5
D9
330
1F
100
AcDbEntity
  8
0
  6
Continuous
 62
     7
370
    25
100
AcDbSpline
210
0.0
220
0.0
230
1.0
 70
     8
 71
     3
 72
    14
 73
    10
 74
     0
 42
0.000000001
 43
0.00000001
 40
0.0
 40
0.0
 40
0.0
 40
0.0
 40
0.25
 40
0.25
 40
0.5
 40
0.5
 40
0.75
 40
0.75
 40
1.0
 40
1.0
 40
1.0
 40
1.0
 10
62.5069198395215
 20
49.99316475259241
 30
0.0
 10
62.61814749952258
 20
49.99724319129469
 30
0.0
 10
62.72888932174926
 20
50.00313355222204
 30
0.0
 10
62.94939261138401
 20
50.01594292809435
 30
0.0
 10
63.05915407879208
 20
50.02286194303929
 30
0.0
 10
63.27768797951977
 20
50.03513343651425
 30
0.0
 10
63.38731867157213
 20
50.03751592442075
 30
0.0
 10
63.60617334022076
 20
50.03508749033335
 30
0.0
 10
63.71539731681703
 20
50.03027656833947
 30
0.0
 10
63.82385083626867
 20
50.02202549527615
 30
0.0
  0
SPLINE
  5
DA
330
1F
100
AcDbEntity
  8
0
  6
Continuous
 62
     7
370
    25
100
AcDbSpline
210
0.0
220
0.0
230
1.0
 70
     8
 71
     3
 72
    12
 73
     8
 74
     0
 42
0.000000001
 43
0.00000001
 40
0.0
 40
0.0
 40
0.0
 40
0.0
 40
0.25
 40
0.25
 40
0.5
 40
0.5
 40
1.0
 40
1.0
 40
1.0
 40
1.0
 10
67.00734741155203
 20
45.49273718056187
 30
0.0
 10
67.01142585025433
 20
45.60396484056295
 30
0.0
 10
67.0173162111817
 20
45.71470666278963
 30
0.0
 10
67.03012558705399
 20
45.93520995242438
 30
0.0
 10
67.03704460199894
 20
46.04497141983245
 30
0.0
 10
67.05545184221137
 20
46.372772270924
 30
0.0
 10
67.05271030036242
 20
46.59276113840574
 30
0.0
 10
67.0362081542358
 20
46.80966817730905
 30
0.0
  0
SPLINE
  5
DB
330
1F
100
AcDbEntity
  8
0
  6
Continuous
 62
     7
370
    25
100
AcDbSpline
210
0.0
220
0.0
230
1.0
 70
     8
 71
     3
 72
    10
 73
     6
 74
     0
 42
0.000000001
 43
0.00000001
 40
0.0
 40
0.0
 40
0.0
 40
0.0
 40
0.5
 40
0.5
 40
1.0
 40
1.0
 40
1.0
 40
1.0
 10
67.0362081542358
 20
46.80966817730905
 30
0.0
 10
67.04774826010147
 20
46.80736404660809
 30
0.0
 10
67.06103753586282
 20
46.80624996803269
 30
0.0
 10
67.08623468001275
 20
46.80517387623236
 30
0.0
 10
67.09814254840134
 20
46.80521186300744
 30
0.0
 10
67.1069198395215
 20
46.80521186300744
 30
0.0
  0
SPLINE
  5
DC
330
1F
100
AcDbEntity
  8
0
  6
Continuous
 62
     7
370
    25
100
AcDbSpline
210
0.0
220
0.0
230
1.0
 70
    24
 71
     3
 72
    10
 73
     6
 74
     0
 42
0.000000001
 43
0.00000001
 40
0.0
 40
0.0
 40
0.0
 40
0.0
 40
0.5
 40
0.5
 40
1.0
 40
1.0
 40
1.0
 40
1.0
 10
67.00734741155203
 20
45.49273718056187
 30
0.0
 10
67.0236611663612
 20
45.49273718056187
 30
0.0
 10
67.0410210102242
 20
45.49273718056187
 30
0.0
 10
67.07667208989012
 20
45.49273718056187
 30
0.0
 10
67.08989515350653
 20
45.49273718056187
 30
0.0
 10
67.1069198395215
 20
45.49273718056187
 30
0.0
  0
SPLINE
  5
DD
330
1F
100
AcDbEntity
  8
0
  6
Continuous
 62
     7
370
    25
100
AcDbSpline
210
0.0
220
0.0
230
1.0
 70
     8
 71
     3
 72
     8
 73
     4
 74
     0
 42
0.000000001
 43
0.00000001
 40
0.0
 40
0.0
 40
0.0
 40
0.0
 40
1.0
 40
1.0
 40
1.0
 40
1.0
 10
67.1069198395215
 20
44.1802624981163
 30
0.0
 10
67.0807394259551
 20
44.18161567257125
 30
0.0
 10
67.05472023851861
 20
44.17982651518092
 30
0.0
 10
67.0362081542358
 20
44.17580618381469
 30
0.0
  0
SPLINE
  5
DE
330
1F
100
AcDbEntity
  8
0
  6
Continuous
 62
     7
370
    25
100
AcDbSpline
210
0.0
220
0.0
230
1.0
 70
     8
 71
     3
 72
    12
 73
     8
 74
     0
 42
0.000000001
 43
0.00000001
 40
0.0
 40
0.0
 40
0.0
 40
0.0
 40
0.25
 40
0.25
 40
0.5
 40
0.5
 40
1.0
 40
1.0
 40
1.0
 40
1.0
 10
67.00734741155203
 20
45.49273718056187
 30
0.0
 10
67.01142585025433
 20
45.38150952056079
 30
0.0
 10
67.01731621118168
 20
45.2707676983341
 30
0.0
 10
67.03012558705397
 20
45.05026440869936
 30
0.0
 10
67.03704460199893
 20
44.94050294129129
 30
0.0
 10
67.05545184221137
 20
44.61270209019973
 30
0.0
 10
67.05271030036242
 20
44.39271322271799
 30
0.0
 10
67.0362081542358
 20
44.17580618381469
 30
0.0
  0
SPLINE
  5
DF
330
1F
100
AcDbEntity
  8
0
  6
Continuous
 62
     7
370
    25
100
AcDbSpline
210
0.0
220
0.0
230
1.0
 70
     8
 71
     3
 72
    14
 73
    10
 74
     0
 42
0.000000001
 43
0.00000001
 40
0.0
 40
0.0
 40
0.0
 40
0.0
 40
0.25
 40
0.25
 40
0.5
 40
0.5
 40
0.75
 40
0.75
 40
1.0
 40
1.0
 40
1.0
 40
1.0
 10
62.5069198395215
 20
49.99316475259241
 30
0.0
 10
62.39569217952042
 20
49.99724319129469
 30
0.0
 10
62.28495035729375
 20
50.00313355222205
 30
0.0
 10
62.06444706765899
 20
50.01594292809435
 30
0.0
 10
61.95468560025092
 20
50.0228619430393
 30
0.0
 10
61.73615169952322
 20
50.03513343651425
 30
0.0
 10
61.62652100747086
 20
50.03751592442075
 30
0.0
 10
61.40766633882224
 20
50.03508749033336
 30
0.0
 10
61.29844236222598
 20
50.03027656833947
 30
0.0
 10
61.18998884277433
 20
50.02202549527615
 30
0.0
  0
SPLINE
  5
E0
330
1F
100
AcDbEntity
  8
0
  6
Continuous
 62
     7
370
    25
100
AcDbSpline
210
0.0
220
0.0
230
1.0
 70
     8
 71
     3
 72
     8
 73
     4
 74
     0
 42
0.000000001
 43
0.00000001
 40
0.0
 40
0.0
 40
0.0
 40
0.0
 40
1.0
 40
1.0
 40
1.0
 40
1.0
 10
61.18998884277433
 20
50.02202549527615
 30
0.0
 10
61.19400917414055
 20
50.04053757955896
 30
0.0
 10
61.19579833153088
 20
50.06655676699547
 30
0.0
 10
61.19444515707593
 20
50.09273718056187
 30
0.0
  0
SPLINE
  5
E1
330
1F
100
AcDbEntity
  8
0
  6
Continuous
 62
     7
370
    25
100
AcDbSpline
210
0.0
220
0.0
230
1.0
 70
     8
 71
     3
 72
     8
 73
     4
 74
     0
 42
0.000000001
 43
0.00000001
 40
0.0
 40
0.0
 40
0.0
 40
0.0
 40
1.0
 40
1.0
 40
1.0
 40
1.0
 10
61.16527905302159
 20
49.99273718056187
 30
0.0
 10
61.17429782772917
 20
49.99273718056187
 30
0.0
 10
61.18324396007583
 20
50.00351408243326
 30
0.0
 10
61.18998884277433
 20
50.02202549527615
 30
0.0
  0
SPLINE
  5
E2
330
1F
100
AcDbEntity
  8
0
  6
Continuous
 62
     7
370
    25
100
AcDbSpline
210
0.0
220
0.0
230
1.0
 70
     8
 71
     3
 72
     8
 73
     4
 74
     0
 42
0.000000001
 43
0.00000001
 40
0.0
 40
0.0
 40
0.0
 40
0.0
 40
1.0
 40
1.0
 40
1.0
 40
1.0
 10
67.0362081542358
 20
44.17580618381469
 30
0.0
 10
67.0176967413929
 20
44.16906130111619
 30
0.0
 10
67.0069198395215
 20
44.16011516876954
 30
0.0
 10
67.0069198395215
 20
44.15109639406195
 30
0.0
  0
SPLINE
  5
E3
330
1F
100
AcDbEntity
  8
0
  6
Continuous
 62
     7
370
    25
100
AcDbSpline
210
0.0
220
0.0
230
1.0
 70
     8
 71
     3
 72
    12
 73
     8
 74
     0
 42
0.000000001
 43
0.00000001
 40
0.0
 40
0.0
 40
0.0
 40
0.0
 40
0.25
 40
0.25
 40
0.5
 40
0.5
 40
1.0
 40
1.0
 40
1.0
 40
1.0
 10
67.0362081542358
 20
46.80966817730905
 30
0.0
 10
67.03043810130295
 20
46.81082024265952
 30
0.0
 10
67.02527558766748
 20
46.81227397551973
 30
0.0
 10
67.01674228300939
 20
46.81568065909587
 30
0.0
 10
67.01337149198677
 20
46.81763360981181
 30
0.0
 10
67.00681166886528
 20
46.82408511299764
 30
0.0
 10
67.0069198395215
 20
46.82905176015717
 30
0.0
 10
67.0069198395215
 20
46.83437796706178
 30
0.0
  0
SPLINE
  5
E4
330
1F
100
AcDbEntity
  8
0
  6
Continuous
 62
     7
370
    25
100
AcDbSpline
210
0.0
220
0.0
230
1.0
 70
     8
 71
     3
 72
    12
 73
     8
 74
     0
 42
0.000000001
 43
0.00000001
 40
0.0
 40
0.0
 40
0.0
 40
0.0
 40
0.25
 40
0.25
 40
0.5
 40
0.5
 40
1.0
 40
1.0
 40
1.0
 40
1.0
 10
63.82385083626867
 20
50.02202549527615
 30
0.0
 10
63.82500290161914
 20
50.01625544234331
 30
0.0
 10
63.82645663447936
 20
50.01109292870785
 30
0.0
 10
63.8298633180555
 20
50.00255962404976
 30
0.0
 10
63.83181626877143
 20
49.99918883302713
 30
0.0
 10
63.83826777195728
 20
49.99262900990564
 30
0.0
 10
63.84323441911681
 20
49.99273718056187
 30
0.0
 10
63.84856062602142
 20
49.99273718056187
 30
0.0
  0
SPLINE
  5
E5
330
1F
100
AcDbEntity
  8
0
  6
Continuous
 62
     7
370
    25
100
AcDbSpline
210
0.0
220
0.0
230
1.0
 70
     8
 71
     3
 72
    23
 73
    19
 74
     0
 42
0.000000001
 43
0.00000001
 40
0.0
 40
0.0
 40
0.0
 40
0.0
 40
0.0000335401906397
 40
0.0000335401906397
 40
0.0000335401906397
 40
0.0000670788044387
 40
0.0000670788044387
 40
0.0000670788044387
 40
0.0001006422835424
 40
0.0001006422835424
 40
0.0001006422835424
 40
0.0001342535319641
 40
0.0001342535319641
 40
0.0001342535319641
 40
0.0001499408123296
 40
0.0001499408123296
 40
0.0001499408123296
 40
0.0001563508302713
 40
0.0001563508302713
 40
0.0001563508302713
 40
0.0001563508302713
 10
64.94828313885269
 20
45.64144355064168
 30
0.0
 10
64.94828313885269
 20
45.64144355064168
 30
0.0
 10
64.95006260536364
 20
45.64219413355215
 30
0.0
 10
64.95347410346837
 20
45.64363048670559
 30
0.0
 10
64.9568855119858
 20
45.64506680213981
 30
0.0
 10
64.96202274487158
 20
45.6472280810817
 30
0.0
 10
64.96846127972555
 20
45.64992952645872
 30
0.0
 10
64.97490462609662
 20
45.65263299062587
 30
0.0
 10
64.98282855783526
 20
45.65595146796732
 30
0.0
 10
64.99157943963499
 20
45.65960504353819
 30
0.0
 10
65.00034259948761
 20
45.66326374531179
 30
0.0
 10
65.01017642373978
 20
45.66735904717127
 30
0.0
 10
65.02026897837611
 20
45.6715495962569
 30
0.0
 10
65.02503212293253
 20
45.67352731069938
 30
0.0
 10
65.02989677760515
 20
45.67554456981776
 30
0.0
 10
65.03477201358473
 20
45.67756363213183
 30
0.0
 10
65.03674205233663
 20
45.67837951694599
 30
0.0
 10
65.03871742808285
 20
45.67919678402689
 30
0.0
 10
65.0406916493954
 20
45.68001398670088
 30
0.0
  0
SPLINE
  5
E6
330
1F
100
AcDbEntity
  8
0
  6
Continuous
 62
     7
370
    25
100
AcDbSpline
210
0.0
220
0.0
230
1.0
 70
     8
 71
     3
 72
    10
 73
     6
 74
     0
 42
0.000000001
 43
0.00000001
 40
0.0
 40
0.0
 40
0.0
 40
0.0
 40
0.5
 40
0.5
 40
1.0
 40
1.0
 40
1.0
 40
1.0
 10
64.9482831388527
 20
45.64144355064168
 30
0.0
 10
64.88763395642148
 20
45.7655900111944
 30
0.0
 10
64.75346318060967
 20
45.84376504067037
 30
0.0
 10
64.47748355586718
 20
45.84407364640227
 30
0.0
 10
64.34243845460028
 20
45.76556581324358
 30
0.0
 10
64.28180109357679
 20
45.64144355064203
 30
0.0
  0
SPLINE
  5
E7
330
1F
100
AcDbEntity
  8
0
  6
Continuous
 62
     7
370
    25
100
AcDbSpline
210
0.0
220
0.0
230
1.0
 70
     8
 71
     3
 72
    23
 73
    19
 74
     0
 42
0.000000001
 43
0.00000001
 40
0.0
 40
0.0
 40
0.0
 40
0.0
 40
0.0000335401906397
 40
0.0000335401906397
 40
0.0000335401906397
 40
0.0000670788044387
 40
0.0000670788044387
 40
0.0000670788044387
 40
0.0001006422835424
 40
0.0001006422835424
 40
0.0001006422835424
 40
0.0001342535319641
 40
0.0001342535319641
 40
0.0001342535319641
 40
0.0001499408123296
 40
0.0001499408123296
 40
0.0001499408123296
 40
0.0001563508302713
 40
0.0001563508302713
 40
0.0001563508302713
 40
0.0001563508302713
 10
64.28180109357658
 20
45.6414435506416
 30
0.0
 10
64.28180109357658
 20
45.6414435506416
 30
0.0
 10
64.2800216270655
 20
45.64219413355178
 30
0.0
 10
64.27661012896075
 20
45.64363048670521
 30
0.0
 10
64.27319872044332
 20
45.64506680213943
 30
0.0
 10
64.26806148755756
 20
45.64722808108132
 30
0.0
 10
64.26162295270359
 20
45.64992952645834
 30
0.0
 10
64.2551796063325
 20
45.65263299062549
 30
0.0
 10
64.24725567459387
 20
45.65595146796693
 30
0.0
 10
64.23850479279413
 20
45.6596050435378
 30
0.0
 10
64.22974163294151
 20
45.6632637453114
 30
0.0
 10
64.21990780868933
 20
45.66735904717087
 30
0.0
 10
64.20981525405301
 20
45.6715495962565
 30
0.0
 10
64.2050521094966
 20
45.67352731069897
 30
0.0
 10
64.20018745482399
 20
45.67554456981736
 30
0.0
 10
64.19531221884442
 20
45.67756363213142
 30
0.0
 10
64.19334218009251
 20
45.67837951694559
 30
0.0
 10
64.1913668043463
 20
45.67919678402648
 30
0.0
 10
64.18939258303372
 20
45.68001398670048
 30
0.0
  0
LWPOLYLINE
  5
E8
330
1F
100
AcDbEntity
  8
0
  6
Continuous
 62
     7
370
    25
100
AcDbPolyline
 90
        9
 70
   128
 43
0.0
 10
65.752731749
 20
43.6891811891
 10
65.7343623425
 20
43.682611174
 10
65.7166986457
 20
43.6762936637
 10
65.7004198256
 20
43.6704713842
 10
65.6861514981
 20
43.6653682022
 10
65.6744415137
 20
43.6611800445
 10
65.6657403997
 20
43.6580679137
 10
65.6603822681
 20
43.6561516011
 10
65.6585729412
 20
43.6555044483
  0
LINE
  5
E9
330
1F
100
AcDbEntity
  8
0
  6
Continuous
 62
     7
370
    25
100
AcDbLine
 10
65.6585729412
 20
43.6555044483
 30
0.0
 11
64.9482832487
 21
45.6414435515
 31
0.0
  0
LINE
  5
EA
330
1F
100
AcDbEntity
  8
0
  6
Continuous
 62
     7
370
    25
100
AcDbLine
 10
64.2818011074
 20
45.6414435515
 30
0.0
 11
63.5716767247
 21
43.6559671993
 31
0.0
  0
LWPOLYLINE
  5
EB
330
1F
100
AcDbEntity
  8
0
  6
Continuous
 62
     7
370
    25
100
AcDbPolyline
 90
        9
 70
   128
 43
0.0
 10
63.4775179751
 20
43.6896440564
 10
63.4958874398
 20
43.6830740413
 10
63.5135510202
 20
43.676756531
 10
63.5298298403
 20
43.6709342515
 10
63.5440982842
 20
43.6658309531
 10
63.5558081522
 20
43.6616427954
 10
63.5645093826
 20
43.6585307811
 10
63.5698675142
 20
43.656614352
 10
63.5716767247
 20
43.6559671993
  0
LINE
  5
EC
330
1F
100
AcDbEntity
  8
0
  6
Continuous
 62
     7
370
    25
100
AcDbLine
 10
65.7918449688
 20
42.6179145919
 30
0.0
 11
66.2408423341
 21
43.4738533562
 31
0.0
  0
LWPOLYLINE
  5
ED
330
1F
100
AcDbEntity
  8
0
  6
Continuous
 62
     7
370
    25
100
AcDbPolyline
 90
        9
 70
   128
 43
0.0
 10
66.2408423341
 20
43.4738533562
 10
66.2455988313
 20
43.4787844764
 10
66.2596857837
 20
43.4933887785
 10
66.2825618601
 20
43.5171051407
 10
66.3133476592
 20
43.5490216818
 10
66.3508604012
 20
43.5879121991
 10
66.3936583988
 20
43.6322820364
 10
66.4400967035
 20
43.6804261748
 10
66.4883913669
 20
43.7304943092
  0
LWPOLYLINE
  5
EE
330
1F
100
AcDbEntity
  8
0
  6
Continuous
 62
     7
370
    25
100
AcDbPolyline
 90
        9
 70
   128
 43
0.0
 10
65.7918449688
 20
42.6179145919
 10
65.7935464951
 20
42.6170219192
 10
65.7985858816
 20
42.6143785929
 10
65.806769413
 20
42.6100858944
 10
65.8177823025
 20
42.6043086676
 10
65.8312017295
 20
42.5972692659
 10
65.8465117413
 20
42.5892382385
 10
65.8631242077
 20
42.5805238532
 10
65.8804004743
 20
42.5714611532
  0
ARC
  5
EF
330
1F
100
AcDbEntity
  8
0
  6
Continuous
 62
     7
370
    25
100
AcDbCircle
 10
59.1069198395
 20
49.8927371806
 30
0.0
 40
0.1000000000000014
100
AcDbArc
 50
90.0
 51
180.0
  0
LINE
  5
F0
330
1F
100
AcDbEntity
  8
0
  6
Continuous
 62
     7
370
    25
100
AcDbLine
 10
59.0069197315
 20
49.8927371567
 30
0.0
 11
59.1069197944
 21
49.8927371567
 31
0.0
  0
ARC
  5
F1
330
1F
100
AcDbEntity
  8
0
  6
Continuous
 62
     7
370
    25
100
AcDbCircle
 10
66.9069198395
 20
42.0927371806
 30
0.0
 40
0.0999999999999943
100
AcDbArc
 50
270.0
 51
0.0
  0
LINE
  5
F2
330
1F
100
AcDbEntity
  8
0
  6
Continuous
 62
     7
370
    25
100
AcDbLine
 10
66.9069198157
 20
42.0927371355
 30
0.0
 11
66.9069198157
 21
41.9927370725
 31
0.0
  0
SPLINE
  5
F3
330
1F
100
AcDbEntity
  8
0
  6
Continuous
 62
     7
370
    25
100
AcDbSpline
210
0.0
220
0.0
230
1.0
 70
     8
 71
     3
 72
    14
 73
    10
 74
     0
 42
0.000000001
 43
0.00000001
 40
0.0
 40
0.0
 40
0.0
 40
0.0
 40
0.4999999999999993
 40
0.4999999999999993
 40
0.6249999999999996
 40
0.6249999999999996
 40
0.7499999999999999
 40
0.7499999999999999
 40
1.0
 40
1.0
 40
1.0
 40
1.0
 10
63.51359580734983
 20
42.60494233372857
 30
0.0
 10
63.8161655251723
 20
42.87350343028043
 30
0.0
 10
64.21391853809122
 20
43.01806067201538
 30
0.0
 10
64.71526709986638
 20
43.01807389684342
 30
0.0
 10
64.81647609002283
 20
43.00902873312593
 30
0.0
 10
65.01300524552623
 20
42.97368003607545
 30
0.0
 10
65.10933712381565
 20
42.94743090804649
 30
0.0
 10
65.39230901729374
 20
42.84195807842812
 30
0.0
 10
65.56518842768756
 20
42.73923631893076
 30
0.0
 10
65.7164884250796
 20
42.60494233372849
 30
0.0
  0
LWPOLYLINE
  5
F4
330
1F
100
AcDbEntity
  8
0
  6
Continuous
 62
     7
370
    25
100
AcDbPolyline
 90
        9
 70
   128
 43
0.0
 10
65.7164883996
 20
42.6049424326
 10
65.7152129534
 20
42.6035054019
 10
65.7114352762
 20
42.5992494905
 10
65.7053008872
 20
42.5923381457
 10
65.6970454111
 20
42.58303726
 10
65.6869859631
 20
42.5717039956
 10
65.675509275
 20
42.5587739786
 10
65.6630565609
 20
42.5447440697
 10
65.650105822
 20
42.5301535046
  0
LWPOLYLINE
  5
F5
330
1F
100
AcDbEntity
  8
0
  6
Continuous
 62
     7
370
    25
100
AcDbPolyline
 90
        9
 70
   128
 43
0.0
 10
63.5135958401
 20
42.6049424326
 10
63.5148712863
 20
42.6035054019
 10
63.5186488471
 20
42.5992494905
 10
63.5247832361
 20
42.5923381457
 10
63.5330388286
 20
42.58303726
 10
63.5430981602
 20
42.5717039956
 10
63.5545748483
 20
42.5587739786
 10
63.5670277952
 20
42.5447440697
 10
63.5799783013
 20
42.5301535046
  0
SPLINE
  5
F6
330
1F
100
AcDbEntity
  8
0
  6
Continuous
 62
     7
370
    25
100
AcDbSpline
210
0.0
220
0.0
230
1.0
 70
     8
 71
     3
 72
    23
 73
    19
 74
     0
 42
0.000000001
 43
0.00000001
 40
0.0
 40
0.0
 40
0.0
 40
0.0
 40
0.0000062336341986
 40
0.0000062336341986
 40
0.0000062336341986
 40
0.0000229838733481
 40
0.0000229838733481
 40
0.0000229838733481
 40
0.0000399511377778
 40
0.0000399511377778
 40
0.0000399511377778
 40
0.0000566277009136
 40
0.0000566277009136
 40
0.0000566277009136
 40
0.0000727324427906
 40
0.0000727324427906
 40
0.0000727324427906
 40
0.0000883415521142
 40
0.0000883415521142
 40
0.0000883415521142
 40
0.0000883415521142
 10
65.71648842507965
 20
42.60494233372854
 30
0.0
 10
65.71804244413065
 20
42.60356298531456
 30
0.0
 10
65.71969158490049
 20
42.602284197222
 30
0.0
 10
65.72141302546981
 20
42.60112048779768
 30
0.0
 10
65.7259809104501
 20
42.59803255615745
 30
0.0
 10
65.73115769457058
 20
42.5957127547571
 30
0.0
 10
65.73649404015826
 20
42.59432555946559
 30
0.0
 10
65.74190001935841
 20
42.59292026275657
 30
0.0
 10
65.74762243100601
 20
42.59243038275741
 30
0.0
 10
65.75318925658097
 20
42.59288855627346
 30
0.0
 10
65.7586625147896
 20
42.59333902879573
 30
0.0
 10
65.76413536995886
 20
42.59471830109145
 30
0.0
 10
65.76915993604527
 20
42.59693487875877
 30
0.0
 10
65.77401368905478
 20
42.59907610256566
 30
0.0
 10
65.7785784307166
 20
42.60205778529347
 30
0.0
 10
65.78246376471363
 20
42.60566997817317
 30
0.0
 10
65.78622948600677
 20
42.60917096718786
 30
0.0
 10
65.78945648877443
 20
42.61336128885783
 30
0.0
 10
65.79184500278
 20
42.6179145933484
 30
0.0
  0
LWPOLYLINE
  5
F7
330
1F
100
AcDbEntity
  8
0
  6
Continuous
 62
     7
370
    25
100
AcDbPolyline
 90
       10
 70
   128
 43
0.0
 10
62.7463168312
 20
43.7216796903
 10
62.7885003305
 20
43.6786451368
 10
62.8294020971
 20
43.6369180437
 10
62.8677793684
 20
43.5977665233
 10
62.9024660702
 20
43.5623799907
 10
62.9324082365
 20
43.5318335416
 10
62.9566961398
 20
43.5070557045
 10
62.9745917359
 20
43.4887989881
 10
62.9855513362
 20
43.4776182277
 10
62.9892419347
 20
43.4738533562
  0
LINE
  5
F8
330
1F
100
AcDbEntity
  8
0
  6
Continuous
 62
     7
370
    25
100
AcDbLine
 10
62.9892419347
 20
43.4738533562
 30
0.0
 11
63.4382392127
 21
42.6179145919
 31
0.0
  0
LWPOLYLINE
  5
F9
330
1F
100
AcDbEntity
  8
0
  6
Continuous
 62
     7
370
    25
100
AcDbPolyline
 90
        9
 70
   128
 43
0.0
 10
63.4382392127
 20
42.6179145919
 10
63.4365376864
 20
42.6170219192
 10
63.4314983581
 20
42.6143785929
 10
63.4233149431
 20
42.6100858944
 10
63.412301879
 20
42.6043086676
 10
63.3988825102
 20
42.5972692659
 10
63.3835724402
 20
42.5892382385
 10
63.3669599738
 20
42.5805238532
 10
63.349683649
 20
42.5714611532
  0
ARC
  5
FA
330
1F
100
AcDbEntity
  8
0
  6
Continuous
 62
     7
370
    25
100
AcDbCircle
 10
65.9069198395
 20
49.8927371806
 30
0.0
 40
0.1000000000000014
100
AcDbArc
 50
0.0
 51
90.0
  0
LINE
  5
FB
330
1F
100
AcDbEntity
  8
0
  6
Continuous
 62
     7
370
    25
100
AcDbLine
 10
65.9069198846
 20
49.8927371567
 30
0.0
 11
66.0069199476
 21
49.8927371567
 31
0.0
  0
ARC
  5
FC
330
1F
100
AcDbEntity
  8
0
  6
Continuous
 62
     7
370
    25
100
AcDbCircle
 10
61.0069198395
 20
43.9927371806
 30
0.0
 40
2.0
100
AcDbArc
 50
180.0
 51
270.0
  0
LINE
  5
FD
330
1F
100
AcDbEntity
  8
0
  6
Continuous
 62
     7
370
    25
100
AcDbLine
 10
59.0069197315
 20
43.9927371675
 30
0.0
 11
59.1069197944
 21
43.9927371675
 31
0.0
  0
LINE
  5
FE
330
1F
100
AcDbEntity
  8
0
  6
Continuous
 62
     7
370
    25
100
AcDbLine
 10
61.0069198265
 20
42.0927371355
 30
0.0
 11
61.0069198265
 21
41.9927370725
 31
0.0
  0
LINE
  5
FF
330
1F
100
AcDbEntity
  8
0
  6
Continuous
 62
     7
370
    25
100
AcDbLine
 10
66.9069198157
 20
48.9927372886
 30
0.0
 11
66.9069198157
 21
48.8927372256
 31
0.0
  0
ARC
  5
100
330
1F
100
AcDbEntity
  8
0
  6
Continuous
 62
     7
370
    25
100
AcDbCircle
 10
66.9069198395
 20
48.8927371806
 30
0.0
 40
0.1000000000000014
100
AcDbArc
 50
0.0
 51
90.0
  0
LINE
  5
101
330
1F
100
AcDbEntity
  8
0
  6
Continuous
 62
     7
370
    25
100
AcDbLine
 10
66.5069200295
 20
48.9927372886
 30
0.0
 11
66.9069198157
 21
48.9927372886
 31
0.0
  0
LINE
  5
102
330
1F
100
AcDbEntity
  8
0
  6
Continuous
 62
     7
370
    25
100
AcDbLine
 10
66.5069200295
 20
48.9927372886
 30
0.0
 11
66.5069200295
 21
48.8927372256
 31
0.0
  0
LINE
  5
103
330
1F
100
AcDbEntity
  8
0
  6
Continuous
 62
     7
370
    25
100
AcDbLine
 10
66.0069199476
 20
49.8927371567
 30
0.0
 11
66.0069199476
 21
49.4927373706
 31
0.0
  0
LINE
  5
104
330
1F
100
AcDbEntity
  8
0
  6
Continuous
 62
     7
370
    25
100
AcDbLine
 10
65.9069198846
 20
49.4927373706
 30
0.0
 11
66.0069199476
 21
49.4927373706
 31
0.0
  0
LINE
  5
105
330
1F
100
AcDbEntity
  8
0
  6
Continuous
 62
     7
370
    25
100
AcDbLine
 10
66.9069198157
 20
41.9927370725
 30
0.0
 11
61.0069198265
 21
41.9927370725
 31
0.0
  0
SPLINE
  5
106
330
1F
100
AcDbEntity
  8
0
  6
Continuous
 62
     7
370
    25
100
AcDbSpline
210
0.0
220
0.0
230
1.0
 70
     8
 71
     3
 72
    10
 73
     6
 74
     0
 42
0.000000001
 43
0.00000001
 40
0.0
 40
0.0
 40
0.0
 40
0.0
 40
0.5
 40
0.5
 40
1.0
 40
1.0
 40
1.0
 40
1.0
 10
63.57167677789284
 20
43.65596725246404
 30
0.0
 10
63.53385964965344
 20
43.55023222815003
 30
0.0
 10
63.4452424699364
 20
43.46749067905639
 30
0.0
 10
63.23654134249657
 20
43.39480027102359
 30
0.0
 10
63.1166070509647
 20
43.40376279740925
 30
0.0
 10
63.01832700326171
 20
43.457847399267
 30
0.0
  0
LWPOLYLINE
  5
107
330
1F
100
AcDbEntity
  8
0
  6
Continuous
 62
     7
370
    25
100
AcDbPolyline
 90
        9
 70
   128
 43
0.0
 10
63.0665398167
 20
43.5454575103
 10
63.0571339243
 20
43.5283655292
 10
63.0480895598
 20
43.5119304797
 10
63.0397542227
 20
43.496783915
 10
63.0324482299
 20
43.4835079117
 10
63.026452317
 20
43.4726123689
 10
63.0219969862
 20
43.4645163817
 10
63.0192534263
 20
43.4595307792
 10
63.0183269932
 20
43.4578474136
  0
LINE
  5
108
330
1F
100
AcDbEntity
  8
0
  6
Continuous
 62
     7
370
    25
100
AcDbLine
 10
59.0069197315
 20
43.9927371675
 30
0.0
 11
59.0069197315
 21
49.8927371567
 31
0.0
  0
LINE
  5
109
330
1F
100
AcDbEntity
  8
0
  6
Continuous
 62
     7
370
    25
100
AcDbLine
 10
66.2408423341
 20
43.4738533562
 30
0.0
 11
66.2173567071
 21
43.4604320666
 31
0.0
  0
LWPOLYLINE
  5
10A
330
1F
100
AcDbEntity
  8
0
  6
Continuous
 62
     7
370
    25
100
AcDbPolyline
 90
        9
 70
   128
 43
0.0
 10
66.2173567071
 20
43.4604320666
 10
66.2164032656
 20
43.4621002982
 10
66.2135799612
 20
43.4670411972
 10
66.2089948273
 20
43.4750645412
 10
66.2028245824
 20
43.4858620623
 10
66.1953057825
 20
43.4990188563
 10
66.1867278359
 20
43.5140294479
 10
66.1774201981
 20
43.5303168828
 10
66.1677407297
 20
43.5472553121
  0
SPLINE
  5
10B
330
1F
100
AcDbEntity
  8
0
  6
Continuous
 62
     7
370
    25
100
AcDbSpline
210
0.0
220
0.0
230
1.0
 70
     8
 71
     3
 72
    10
 73
     6
 74
     0
 42
0.000000001
 43
0.00000001
 40
0.0
 40
0.0
 40
0.0
 40
0.0
 40
0.5
 40
0.5
 40
1.0
 40
1.0
 40
1.0
 40
1.0
 10
66.21735666600188
 20
43.46043212843848
 30
0.0
 10
66.11918543985948
 20
43.40433116705599
 30
0.0
 10
65.99827482285086
 20
43.39367937925895
 30
0.0
 10
65.78623647090531
 20
43.46569255463213
 30
0.0
 10
65.69668609404158
 20
43.54894186298414
 30
0.0
 10
65.65857297808947
 20
43.65550445590122
 30
0.0
  0
LINE
  5
10C
330
1F
100
AcDbEntity
  8
0
  6
Continuous
 62
     7
370
    25
100
AcDbLine
 10
64.7862768929
 20
43.6561660366
 30
0.0
 11
64.4438073468
 21
43.6561660366
 31
0.0
  0
ELLIPSE
  5
10D
330
1F
100
AcDbEntity
  8
0
  6
Continuous
 62
     7
370
    25
100
AcDbEllipse
 10
64.7862768959
 20
43.7017442361
 30
0.0
 11
0.04781765271719962
 21
0.0
 31
0.0
210
0.0
220
0.0
230
1.0
 40
0.9531667975
 41
4.712388980384703
 42
6.626209245739703
  0
LINE
  5
10E
330
1F
100
AcDbEntity
  8
0
  6
Continuous
 62
     7
370
    25
100
AcDbLine
 10
64.6600740693
 20
44.1740767323
 30
0.0
 11
64.8313086677
 21
43.7170738345
 31
0.0
  0
ELLIPSE
  5
10F
330
1F
100
AcDbEntity
  8
0
  6
Continuous
 62
     7
370
    25
100
AcDbEllipse
 10
64.4438073368
 20
43.7017442361
 30
0.0
 11
-0.04781765271718541
 21
0.0
 31
0.0
210
0.0
220
0.0
230
1.0
 40
0.9531667975
 41
5.940161364898114
 42
7.853981633974483
  0
LINE
  5
110
330
1F
100
AcDbEntity
  8
0
  6
Continuous
 62
     7
370
    25
100
AcDbLine
 10
64.3987754556
 20
43.7170738345
 30
0.0
 11
64.5700102869
 21
44.1740767323
 31
0.0
  0
ELLIPSE
  5
111
330
1F
100
AcDbEntity
  8
0
  6
Continuous
 62
     7
370
    25
100
AcDbEllipse
 10
64.6150421174
 20
44.1587470942
 30
0.0
 11
0.04781765271718541
 21
0.0
 31
0.0
210
0.0
220
0.0
230
1.0
 40
0.9531667975
 41
0.3430239404216887
 42
2.798568713168986
  0
SPLINE
  5
112
330
1F
100
AcDbEntity
  8
0
  6
Continuous
 62
     7
370
    25
100
AcDbSpline
210
0.0
220
0.0
230
1.0
 70
     8
 71
     3
 72
    23
 73
    19
 74
     0
 42
0.000000001
 43
0.00000001
 40
0.0
 40
0.0
 40
0.0
 40
0.0
 40
0.0000054523451471
 40
0.0000054523451471
 40
0.0000054523451471
 40
0.0000215286296671
 40
0.0000215286296671
 40
0.0000215286296671
 40
0.0000382514358266
 40
0.0000382514358266
 40
0.0000382514358266
 40
0.0000552347046226
 40
0.0000552347046226
 40
0.0000552347046226
 40
0.0000720169920566
 40
0.0000720169920566
 40
0.0000720169920566
 40
0.000088430616498
 40
0.000088430616498
 40
0.000088430616498
 40
0.000088430616498
 10
63.43823922964842
 20
42.61791459335038
 30
0.0
 10
63.43908349510485
 20
42.61630514174763
 30
0.0
 10
63.44002766579567
 20
42.61474441333249
 30
0.0
 10
63.44106000873204
 20
42.61324862368009
 30
0.0
 10
63.44406408817298
 20
42.6088959315809
 30
0.0
 10
63.44789014370519
 20
42.60502385880261
 30
0.0
 10
63.45218169372672
 20
42.6019330627546
 30
0.0
 10
63.45664472893624
 20
42.59871876220619
 30
0.0
 10
63.46173861677897
 20
42.5962536910943
 30
0.0
 10
63.46701870952129
 20
42.59471387554388
 30
0.0
 10
63.47238139107955
 20
42.59314997489699
 30
0.0
 10
63.47808789192164
 20
42.5924940762585
 30
0.0
 10
63.48366611321197
 20
42.59279002551901
 30
0.0
 10
63.48917961578367
 20
42.59308254116585
 30
0.0
 10
63.49471999080846
 20
42.59431298987739
 30
0.0
 10
63.49983183242575
 20
42.5963994584948
 30
0.0
 10
63.50483129185157
 20
42.59844005677169
 30
0.0
 10
63.5095573092643
 20
42.60135775995833
 30
0.0
 10
63.51359580734824
 20
42.60494233372715
 30
0.0
  0
LINE
  5
113
330
1F
100
AcDbEntity
  8
0
  6
Continuous
 62
     7
370
    25
100
AcDbLine
 10
63.0183269932
 20
43.4578474136
 30
0.0
 11
62.9892419347
 21
43.4738533562
 31
0.0
  0
ARC
  5
114
330
1F
100
AcDbEntity
  8
0
  6
Continuous
 62
     7
370
    25
100
AcDbCircle
 10
66.5069198395
 20
49.4927371806
 30
0.0
 40
0.5
100
AcDbArc
 50
180.0
 51
270.0
  0
ARC
  5
115
330
1F
100
AcDbEntity
  8
0
  6
Continuous
 62
     7
370
    25
100
AcDbCircle
 10
65.9222652619
 20
50.081394924
 30
0.0
 40
0.0899761659096693
100
AcDbArc
 50
172.7580501214
 51
260.1802386151
  0
ARC
  5
116
330
1F
100
AcDbEntity
  8
0
  6
Continuous
 62
     7
370
    25
100
AcDbCircle
 10
67.095577583
 20
42.0773917582
 30
0.0
 40
0.0899761659096786
100
AcDbArc
 50
82.7580501214
 51
170.1802386151
  0
ARC
  5
117
330
1F
100
AcDbEntity
  8
0
  6
Continuous
 62
     7
370
    25
100
AcDbCircle
 10
67.095577583
 20
48.9080826029
 30
0.0
 40
0.0899761659096786
100
AcDbArc
 50
189.8197613849
 51
277.2419498786
  0
ARC
  5
118
330
1F
100
AcDbEntity
  8
0
  6
Continuous
 62
     7
370
    25
100
AcDbCircle
 10
59.0915744172
 20
50.081394924
 30
0.0
 40
0.0899761659096623
100
AcDbArc
 50
279.8197613849
 51
7.2419498786
  0
LWPOLYLINE
  5
119
330
1F
100
AcDbEntity
  8
0
  6
Continuous
 62
     7
370
    25
100
AcDbPolyline
 90
        9
 70
   128
 43
0.0
 10
60.5748196795
 20
42.0149567993
 10
60.5776197008
 20
42.0200129496
 10
60.5803973704
 20
42.0244150786
 10
60.5831309185
 20
42.0281282617
 10
60.5857983428
 20
42.0311231623
 10
60.588378572
 20
42.0333760316
 10
60.5908512334
 20
42.0348687088
 10
60.5931965365
 20
42.0355897853
 10
60.5953958548
 20
42.0355329746
  0
SPLINE
  5
11A
330
1F
100
AcDbEntity
  8
0
  6
Continuous
 62
     7
370
    25
100
AcDbSpline
210
0.0
220
0.0
230
1.0
 70
     8
 71
     3
 72
    12
 73
     8
 74
     0
 42
0.000000001
 43
0.00000001
 40
0.0
 40
0.0
 40
0.0
 40
0.0
 40
0.25
 40
0.25
 40
0.5
 40
0.5
 40
1.0
 40
1.0
 40
1.0
 40
1.0
 10
60.57481965607139
 20
42.01495685035168
 30
0.0
 10
60.38787079533525
 20
42.0532982768086
 30
0.0
 10
60.20845056203638
 20
42.11751646175809
 30
0.0
 10
59.86589270946639
 20
42.30060093628736
 30
0.0
 10
59.7090961138973
 20
42.4166110054882
 30
0.0
 10
59.29512444884321
 20
42.82982269230551
 30
0.0
 10
59.10584003611913
 20
43.18665309954617
 30
0.0
 10
59.02913950931131
 20
43.56063699711176
 30
0.0
  0
LWPOLYLINE
  5
11B
330
1F
100
AcDbEntity
  8
0
  6
Continuous
 62
     7
370
    25
100
AcDbPolyline
 90
        9
 70
   128
 43
0.0
 10
59.0497156336
 20
43.5812131958
 10
59.0497724443
 20
43.5790138776
 10
59.0490513678
 20
43.5766685745
 10
59.0475586905
 20
43.574195913
 10
59.0453058212
 20
43.5716156839
 10
59.0423109206
 20
43.5689482596
 10
59.0385977375
 20
43.5662147114
 10
59.0341956086
 20
43.5634370418
 10
59.0291394583
 20
43.5606370205
  0
LINE
  5
11C
330
1F
100
AcDbEntity
  8
0
  6
Continuous
 62
     7
370
    25
100
AcDbLine
 10
66.0069199476
 20
49.8927371567
 30
0.0
 11
66.0286588791
 21
49.8927371567
 31
0.0
  0
LINE
  5
11D
330
1F
100
AcDbEntity
  8
0
  6
Continuous
 62
     7
370
    25
100
AcDbLine
 10
66.9069198157
 20
41.970998141
 30
0.0
 11
66.9069198157
 21
41.9927370725
 31
0.0
  0
LINE
  5
11E
330
1F
100
AcDbEntity
  8
0
  6
Continuous
 62
     7
370
    25
100
AcDbLine
 10
66.9069198157
 20
49.0144762201
 30
0.0
 11
66.9069198157
 21
48.9927372886
 31
0.0
  0
LINE
  5
11F
330
1F
100
AcDbEntity
  8
0
  6
Continuous
 62
     7
370
    25
100
AcDbLine
 10
59.0069197315
 20
49.8927371567
 30
0.0
 11
58.9851808
 21
49.8927371567
 31
0.0
  0
LINE
  5
120
330
1F
100
AcDbEntity
  8
0
  6
Continuous
 62
     7
370
    25
100
AcDbLine
 10
61.0069198265
 20
41.970998141
 30
0.0
 11
61.0069198265
 21
41.9927370725
 31
0.0
  0
LINE
  5
121
330
1F
100
AcDbEntity
  8
0
  6
Continuous
 62
     7
370
    25
100
AcDbLine
 10
59.0069197315
 20
43.9927371675
 30
0.0
 11
58.9851808
 21
43.9927371675
 31
0.0
  0
LINE
  5
122
330
1F
100
AcDbEntity
  8
0
  6
Continuous
 62
     7
370
    25
100
AcDbLine
 10
66.5069200295
 20
49.0144762201
 30
0.0
 11
66.5069200295
 21
48.9927372886
 31
0.0
  0
SPLINE
  5
123
330
1F
100
AcDbEntity
  8
0
  6
Continuous
 62
     7
370
    25
100
AcDbSpline
210
0.0
220
0.0
230
1.0
 70
    24
 71
     3
 72
    17
 73
    13
 74
     0
 42
0.000000001
 43
0.00000001
 40
0.0
 40
0.0
 40
0.0
 40
0.0
 40
0.0000507892261014
 40
0.0000507892261014
 40
0.0000507892261014
 40
0.0001012206134828
 40
0.0001012206134828
 40
0.0001012206134828
 40
0.0001277276396247
 40
0.0001277276396247
 40
0.0001277276396247
 40
0.0001298530789872
 40
0.0001298530789872
 40
0.0001298530789872
 40
0.0001298530789872
 10
66.18616652258783
 20
49.17198386362814
 30
0.0
 10
66.17771902545887
 20
49.16353636649919
 30
0.0
 10
66.17085328800704
 20
49.1566706290474
 30
0.0
 10
66.16568638224524
 20
49.15150372328561
 30
0.0
 10
66.16054248650408
 20
49.14635982754446
 30
0.0
 10
66.15694733898805
 20
49.14276468002841
 30
0.0
 10
66.15502663516232
 20
49.14084397620267
 30
0.0
 10
66.15400983058016
 20
49.13982717162052
 30
0.0
 10
66.15345191958431
 20
49.13926926062468
 30
0.0
 10
66.15337555049126
 20
49.13919289153163
 30
0.0
 10
66.1533694865352
 20
49.13918682757556
 30
0.0
 10
66.15336644892825
 20
49.13918378996861
 30
0.0
 10
66.15336644892824
 20
49.13918378996859
 30
0.0
  0
LINE
  5
124
330
1F
100
AcDbEntity
  8
0
  6
Continuous
 62
     7
370
    25
100
AcDbLine
 10
66.0069199476
 20
49.4927373706
 30
0.0
 11
66.0286588791
 21
49.4927373706
 31
0.0
  0
LINE
  5
125
330
1F
100
AcDbEntity
  8
0
  6
Continuous
 62
     8
370
    25
100
AcDbLine
 10
70.2069197978
 20
40.9927373743
 30
0.0
 11
70.2069197978
 21
49.9927369868
 31
0.0
  0
LINE
  5
126
330
1F
100
AcDbEntity
  8
0
  6
Continuous
 62
     8
370
    25
100
AcDbLine
 10
67.0069196458
 20
53.1927371388
 30
0.0
 11
58.0069200332
 21
53.1927371388
 31
0.0
  0
LWPOLYLINE
  5
127
330
1F
100
AcDbEntity
  8
0
  6
Continuous
 62
     8
370
    25
100
AcDbPolyline
 90
       11
 70
   128
 43
0.0
 10
58.0069200332
 20
42.9927372364
 10
58.0175501491
 20
42.9986429857
 10
58.0493911366
 20
43.0163322939
 10
58.1022916558
 20
43.0457215747
 10
58.176002578
 20
43.0866720611
 10
58.2701751228
 20
43.1389900381
 10
58.3843645836
 20
43.2024287051
 10
58.5180317248
 20
43.2766881762
 10
58.6705441783
 20
43.3614173429
 10
58.8411822646
 20
43.456216435
 10
59.0291394583
 20
43.5606370205
  0
LWPOLYLINE
  5
128
330
1F
100
AcDbEntity
  8
0
  6
Continuous
 62
     8
370
    25
100
AcDbPolyline
 90
       11
 70
   128
 43
0.0
 10
60.5748196795
 20
42.0149567993
 10
60.4703990939
 20
41.8269996056
 10
60.3756000019
 20
41.6563615194
 10
60.2908708352
 20
41.5038490659
 10
60.216611364
 20
41.3701819247
 10
60.153172697
 20
41.2559924638
 10
60.1008547201
 20
41.161819919
 10
60.0599042337
 20
41.0881089969
 10
60.0305149528
 20
41.0352084776
 10
60.0128256447
 20
41.0033674901
 10
60.0069198954
 20
40.9927373743
  0
LINE
  5
129
330
1F
100
AcDbEntity
  8
0
  6
Continuous
 62
     7
370
    18
100
AcDbLine
 10
78.9886999888
 20
41.1935428102
 30
0.0
 11
70.5155135206
 21
40.9287557331
 31
0.0
  0
LINE
  5
12A
330
1F
100
AcDbEntity
  8
0
  6
Continuous
 62
     7
370
    18
100
AcDbLine
 10
78.9886999888
 20
49.7919315509
 30
0.0
 11
70.5155135206
 21
50.056718628
 31
0.0
  0
LINE
  5
12B
330
1F
100
AcDbEntity
  8
0
  6
Continuous
 62
     7
370
    18
100
AcDbLine
 10
70.5155135206
 20
50.513656128
 30
0.0
 11
70.5155135206
 21
40.4718182331
 31
0.0
  0
LINE
  5
12C
330
1F
100
AcDbEntity
  8
0
  6
Continuous
 62
     7
370
    18
100
AcDbLine
 10
66.8061142099
 20
61.9745173298
 30
0.0
 11
67.070901287
 21
53.5013308616
 31
0.0
  0
LINE
  5
12D
330
1F
100
AcDbEntity
  8
0
  6
Continuous
 62
     7
370
    18
100
AcDbLine
 10
58.2077254692
 20
61.9745173298
 30
0.0
 11
57.9429383921
 21
53.5013308616
 31
0.0
  0
LINE
  5
12E
330
1F
100
AcDbEntity
  8
0
  6
Continuous
 62
     7
370
    18
100
AcDbLine
 10
57.4860008921
 20
53.5013308616
 30
0.0
 11
67.527838787
 21
53.5013308616
 31
0.0
  0
LINE
  5
12F
330
1F
100
AcDbEntity
  8
0
  6
CENTERX2
 62
     7
370
    18
100
AcDbLine
 10
62.5069198395
 20
44.4927371806
 30
0.0
 11
62.5069198395
 21
39.8530170524
 31
0.0
  0
LINE
  5
130
330
1F
100
AcDbEntity
  8
0
  6
CENTERX2
 62
     7
370
    18
100
AcDbLine
 10
62.5069198395
 20
44.4927371806
 30
0.0
 11
62.5069198395
 21
63.4927371806
 31
0.0
  0
LINE
  5
131
330
1F
100
AcDbEntity
  8
0
  6
CENTERX2
 62
     7
370
    18
100
AcDbLine
 10
78.1519717801
 20
45.4927371806
 30
0.0
 11
56.6331952415
 21
45.4927371806
 31
0.0
  0
LINE
  5
132
330
1F
100
AcDbEntity
  8
0
  6
CENTERX2
 62
     7
370
    18
100
AcDbLine
 10
78.1519717801
 20
45.4927371806
 30
0.0
 11
80.5069198395
 21
45.4927371806
 31
0.0
  0
LINE
  5
133
330
1F
100
AcDbEntity
  8
0
  6
Continuous
 62
     7
370
    25
100
AcDbLine
 10
103.3340441276
 20
53.5012405356
 30
0.0
 11
103.0954020311
 21
61.1377885556
 31
0.0
  0
LINE
  5
134
330
1F
100
AcDbEntity
  8
0
  6
Continuous
 62
     7
370
    25
100
AcDbLine
 10
93.5308430557
 20
61.1377885556
 30
0.0
 11
93.2922009591
 21
53.5012405356
 31
0.0
  0
ARC
  5
135
330
1F
100
AcDbEntity
  8
0
  6
Continuous
 62
     7
370
    25
100
AcDbCircle
 10
93.3631225434
 20
53.7927371806
 30
0.0
 40
0.3000000000000052
100
AcDbArc
 50
256.3254917114
 51
270.0
  0
ARC
  5
136
330
1F
100
AcDbEntity
  8
0
  6
Continuous
 62
     7
370
    25
100
AcDbCircle
 10
103.2631225434
 20
53.7927371806
 30
0.0
 40
0.3000000000000085
100
AcDbArc
 50
270.0
 51
283.6745082886
  0
ARC
  5
137
330
1F
100
AcDbEntity
  8
0
  6
Continuous
 62
     7
370
    25
100
AcDbCircle
 10
93.5131225434
 20
53.1927371806
 30
0.0
 40
0.2999999999999901
100
AcDbArc
 50
0.0
 51
90.0
  0
ARC
  5
138
330
1F
100
AcDbEntity
  8
0
  6
Continuous
 62
     7
370
    25
100
AcDbCircle
 10
103.1131225434
 20
53.1927371806
 30
0.0
 40
0.2999999999999972
100
AcDbArc
 50
90.0
 51
180.0
  0
LINE
  5
139
330
1F
100
AcDbEntity
  8
0
  6
Continuous
 62
     7
370
    25
100
AcDbLine
 10
103.0954020311
 20
61.1377885556
 30
0.0
 11
102.3131227333
 21
62.4927381044
 31
0.0
  0
LINE
  5
13A
330
1F
100
AcDbEntity
  8
0
  6
Continuous
 62
     7
370
    25
100
AcDbLine
 10
94.3131223534
 20
62.4927381044
 30
0.0
 11
93.5308430557
 21
61.1377885556
 31
0.0
  0
LINE
  5
13B
330
1F
100
AcDbEntity
  8
0
  6
Continuous
 62
     7
370
    25
100
AcDbLine
 10
102.8131223496
 20
50.0927372826
 30
0.0
 11
102.8131223496
 21
53.1927371388
 31
0.0
  0
LINE
  5
13C
330
1F
100
AcDbEntity
  8
0
  6
Continuous
 62
     7
370
    25
100
AcDbLine
 10
93.8131227371
 20
53.1927371388
 30
0.0
 11
93.8131227371
 21
50.0927372826
 31
0.0
  0
CIRCLE
  5
13D
330
1F
100
AcDbEntity
  8
0
  6
Continuous
 62
     7
370
    25
100
AcDbCircle
 10
98.3131225434
 20
45.4927371806
 30
0.0
 40
3.049999999999997
  0
CIRCLE
  5
13E
330
1F
100
AcDbEntity
  8
0
  6
Continuous
 62
     7
370
    25
100
AcDbCircle
 10
98.3131225434
 20
45.4927371806
 30
0.0
 40
2.200000000000003
  0
CIRCLE
  5
13F
330
1F
100
AcDbEntity
  8
0
  6
Continuous
 62
     7
370
    25
100
AcDbCircle
 10
98.3131225434
 20
45.4927371806
 30
0.0
 40
4.0
  0
CIRCLE
  5
140
330
1F
100
AcDbEntity
  8
0
  6
Continuous
 62
     7
370
    25
100
AcDbCircle
 10
98.3131225434
 20
45.4927371806
 30
0.0
 40
4.782279626857601
  0
CIRCLE
  5
141
330
1F
100
AcDbEntity
  8
0
  6
Continuous
 62
     7
370
    25
100
AcDbCircle
 10
98.3131225434
 20
45.4927371806
 30
0.0
 40
3.149999999999991
  0
CIRCLE
  5
142
330
1F
100
AcDbEntity
  8
0
  6
Continuous
 62
     7
370
    25
100
AcDbCircle
 10
98.3131225434
 20
45.4927371806
 30
0.0
 40
1.999999999999986
  0
CIRCLE
  5
143
330
1F
100
AcDbEntity
  8
0
  6
Continuous
 62
     7
370
    25
100
AcDbCircle
 10
98.3131225434
 20
45.4927371806
 30
0.0
 40
3.100000000000009
  0
CIRCLE
  5
144
330
1F
100
AcDbEntity
  8
0
  6
Continuous
 62
     7
370
    25
100
AcDbCircle
 10
98.3131225434
 20
45.4927371806
 30
0.0
 40
5.020921759967649
  0
LINE
  5
145
330
1F
100
AcDbEntity
  8
0
  6
Continuous
 62
     7
370
    25
100
AcDbLine
 10
98.3131225434
 20
53.5012405356
 30
0.0
 11
93.2922009591
 21
53.5012405356
 31
0.0
  0
LINE
  5
146
330
1F
100
AcDbEntity
  8
0
  6
Continuous
 62
     7
370
    25
100
AcDbLine
 10
103.3340441276
 20
53.5012405356
 30
0.0
 11
98.3131225434
 21
53.5012405356
 31
0.0
  0
LINE
  5
147
330
1F
100
AcDbEntity
  8
0
  6
Continuous
 62
     7
370
    25
100
AcDbLine
 10
93.5308430557
 20
61.1377885556
 30
0.0
 11
103.0954020311
 21
61.1377885556
 31
0.0
  0
LINE
  5
148
330
1F
100
AcDbEntity
  8
0
  6
Continuous
 62
     7
370
    25
100
AcDbLine
 10
98.3131225434
 20
53.4927375605
 30
0.0
 11
93.3631225702
 21
53.4927375605
 31
0.0
  0
LINE
  5
149
330
1F
100
AcDbEntity
  8
0
  6
Continuous
 62
     7
370
    25
100
AcDbLine
 10
103.2631225165
 20
53.4927375605
 30
0.0
 11
98.3131225434
 21
53.4927375605
 31
0.0
  0
LINE
  5
14A
330
1F
100
AcDbEntity
  8
0
  6
Continuous
 62
     7
370
    25
100
AcDbLine
 10
102.3131227333
 20
62.4927381044
 30
0.0
 11
94.3131223534
 21
62.4927381044
 31
0.0
  0
LINE
  5
14B
330
1F
100
AcDbEntity
  8
0
  6
Continuous
 62
     7
370
    25
100
AcDbLine
 10
102.8131223496
 20
48.8927372256
 30
0.0
 11
102.8131223496
 21
47.7197655467
 31
0.0
  0
LINE
  5
14C
330
1F
100
AcDbEntity
  8
0
  6
Continuous
 62
     7
370
    25
100
AcDbLine
 10
102.8131223496
 20
48.8927372256
 30
0.0
 11
102.7131225195
 21
48.8927372256
 31
0.0
  0
LINE
  5
14D
330
1F
100
AcDbEntity
  8
0
  6
Continuous
 62
     7
370
    25
100
AcDbLine
 10
93.9131225672
 20
42.0927371355
 30
0.0
 11
93.8131227371
 21
42.0927371355
 31
0.0
  0
LINE
  5
14E
330
1F
100
AcDbEntity
  8
0
  6
Continuous
 62
     7
370
    25
100
AcDbLine
 10
93.8131227371
 20
42.0927371355
 30
0.0
 11
93.8131227371
 21
43.2657088144
 31
0.0
  0
LINE
  5
14F
330
1F
100
AcDbEntity
  8
0
  6
Continuous
 62
     7
370
    25
100
AcDbLine
 10
93.8131227371
 20
47.7197655467
 30
0.0
 11
93.8131227371
 21
48.8927372256
 31
0.0
  0
LINE
  5
150
330
1F
100
AcDbEntity
  8
0
  6
Continuous
 62
     7
370
    25
100
AcDbLine
 10
93.9131225672
 20
48.8927372256
 30
0.0
 11
93.8131227371
 21
48.8927372256
 31
0.0
  0
LINE
  5
151
330
1F
100
AcDbEntity
  8
0
  6
Continuous
 62
     7
370
    25
100
AcDbLine
 10
102.8131223496
 20
43.2657088144
 30
0.0
 11
102.8131223496
 21
42.0927371355
 31
0.0
  0
LINE
  5
152
330
1F
100
AcDbEntity
  8
0
  6
Continuous
 62
     7
370
    25
100
AcDbLine
 10
102.7131225195
 20
42.0927371355
 30
0.0
 11
102.8131223496
 21
42.0927371355
 31
0.0
  0
LINE
  5
153
330
1F
100
AcDbEntity
  8
0
  6
Continuous
 62
     7
370
    25
100
AcDbLine
 10
93.9131225672
 20
48.8927372256
 30
0.0
 11
93.9131225672
 21
48.9927372886
 31
0.0
  0
LINE
  5
154
330
1F
100
AcDbEntity
  8
0
  6
Continuous
 62
     7
370
    25
100
AcDbLine
 10
93.9131225672
 20
48.9927372886
 30
0.0
 11
94.7131703355
 21
48.9927372886
 31
0.0
  0
ARC
  5
155
330
1F
100
AcDbEntity
  8
0
  6
Continuous
 62
     7
370
    25
100
AcDbCircle
 10
93.9131225434
 20
48.8927371806
 30
0.0
 40
0.1000000000000085
100
AcDbArc
 50
90.0
 51
180.0
  0
LINE
  5
156
330
1F
100
AcDbEntity
  8
0
  6
Continuous
 62
     7
370
    25
100
AcDbLine
 10
94.7131703355
 20
41.9927370725
 30
0.0
 11
93.9131225672
 21
41.9927370725
 31
0.0
  0
LINE
  5
157
330
1F
100
AcDbEntity
  8
0
  6
Continuous
 62
     7
370
    25
100
AcDbLine
 10
93.9131225672
 20
42.0927371355
 30
0.0
 11
93.9131225672
 21
41.9927370725
 31
0.0
  0
SPLINE
  5
158
330
1F
100
AcDbEntity
  8
0
  6
Continuous
 62
     7
370
    25
100
AcDbSpline
210
0.0
220
0.0
230
1.0
 70
    24
 71
     3
 72
    14
 73
    10
 74
     0
 42
0.000000001
 43
0.00000001
 40
0.0
 40
0.0
 40
0.0
 40
0.0
 40
0.25
 40
0.25
 40
0.5
 40
0.5
 40
0.75
 40
0.75
 40
1.0
 40
1.0
 40
1.0
 40
1.0
 10
93.81312254335259
 20
50.09273718056185
 30
0.0
 10
93.81312254335259
 20
50.09273718056185
 30
0.0
 10
93.81716567227525
 20
50.09273718056185
 30
0.0
 10
93.83336180498054
 20
50.09273718056185
 30
0.0
 10
93.84551486181691
 20
50.09273718056185
 30
0.0
 10
93.87800101364576
 20
50.09273718056185
 30
0.0
 10
93.89833421676367
 20
50.09273718056185
 30
0.0
 10
93.94729496290753
 20
50.09273718056185
 30
0.0
 10
93.97592267313847
 20
50.09273718056185
 30
0.0
 10
94.00877471726565
 20
50.09273718056185
 30
0.0
  0
SPLINE
  5
159
330
1F
100
AcDbEntity
  8
0
  6
Continuous
 62
     7
370
    25
100
AcDbSpline
210
0.0
220
0.0
230
1.0
 70
    24
 71
     3
 72
    14
 73
    10
 74
     0
 42
0.000000001
 43
0.00000001
 40
0.0
 40
0.0
 40
0.0
 40
0.0
 40
0.25
 40
0.25
 40
0.5
 40
0.5
 40
0.75
 40
0.75
 40
1.0
 40
1.0
 40
1.0
 40
1.0
 10
102.8131225433526
 20
50.09273718056185
 30
0.0
 10
102.8131225433526
 20
50.09273718056185
 30
0.0
 10
102.8090794144299
 20
50.09273718056185
 30
0.0
 10
102.7928832817247
 20
50.09273718056185
 30
0.0
 10
102.7807302248883
 20
50.09273718056185
 30
0.0
 10
102.7482440730595
 20
50.09273718056185
 30
0.0
 10
102.7279108699415
 20
50.09273718056185
 30
0.0
 10
102.6789501237977
 20
50.09273718056185
 30
0.0
 10
102.6503224135667
 20
50.09273718056185
 30
0.0
 10
102.6174703694395
 20
50.09273718056185
 30
0.0
  0
LINE
  5
15A
330
1F
100
AcDbEntity
  8
0
  6
Continuous
 62
     7
370
    25
100
AcDbLine
 10
101.1144353755
 20
50.0927372826
 30
0.0
 11
102.6174705688
 21
50.0927372826
 31
0.0
  0
SPLINE
  5
15B
330
1F
100
AcDbEntity
  8
0
  6
Continuous
 62
     7
370
    25
100
AcDbSpline
210
0.0
220
0.0
230
1.0
 70
     8
 71
     3
 72
    12
 73
     8
 74
     0
 42
0.000000001
 43
0.00000001
 40
0.0
 40
0.0
 40
0.0
 40
0.0
 40
0.2500000000000005
 40
0.2500000000000005
 40
0.500000000000001
 40
0.500000000000001
 40
1.0
 40
1.0
 40
1.0
 40
1.0
 10
95.51180972662462
 20
49.89273718056186
 30
0.0
 10
95.51180972662462
 20
49.92632611856975
 30
0.0
 10
95.500893058815
 20
49.95838442988302
 30
0.0
 10
95.46855223816894
 20
50.01025175470566
 30
0.0
 10
95.44761801821404
 20
50.03064829324054
 30
0.0
 10
95.38103166628072
 20
50.07805563618832
 30
0.0
 10
95.33126746806103
 20
50.09273718056185
 30
0.0
 10
95.28209209849463
 20
50.09273718056185
 30
0.0
  0
LINE
  5
15C
330
1F
100
AcDbEntity
  8
0
  6
Continuous
 62
     7
370
    25
100
AcDbLine
 10
94.0087745179
 20
50.0927372826
 30
0.0
 11
95.2820920132
 21
50.0927372826
 31
0.0
  0
LINE
  5
15D
330
1F
100
AcDbEntity
  8
0
  6
Continuous
 62
     7
370
    25
100
AcDbLine
 10
102.7131225195
 20
48.9927372886
 30
0.0
 11
102.7131225195
 21
48.8927372256
 31
0.0
  0
ARC
  5
15E
330
1F
100
AcDbEntity
  8
0
  6
Continuous
 62
     7
370
    25
100
AcDbCircle
 10
102.7131225434
 20
48.8927371806
 30
0.0
 40
0.1000000000000085
100
AcDbArc
 50
0.0
 51
90.0
  0
LINE
  5
15F
330
1F
100
AcDbEntity
  8
0
  6
Continuous
 62
     7
370
    25
100
AcDbLine
 10
102.7131225195
 20
41.9927370725
 30
0.0
 11
101.9130747512
 21
41.9927370725
 31
0.0
  0
LINE
  5
160
330
1F
100
AcDbEntity
  8
0
  6
Continuous
 62
     7
370
    25
100
AcDbLine
 10
102.7131225195
 20
41.9927370725
 30
0.0
 11
102.7131225195
 21
42.0927371355
 31
0.0
  0
ARC
  5
161
330
1F
100
AcDbEntity
  8
0
  6
Continuous
 62
     7
370
    25
100
AcDbCircle
 10
93.9131225434
 20
42.0927371806
 30
0.0
 40
0.1000000000000085
100
AcDbArc
 50
180.0
 51
270.0
  0
LINE
  5
162
330
1F
100
AcDbEntity
  8
0
  6
Continuous
 62
     7
370
    25
100
AcDbLine
 10
101.9130747512
 20
48.9927372886
 30
0.0
 11
102.7131225195
 21
48.9927372886
 31
0.0
  0
ARC
  5
163
330
1F
100
AcDbEntity
  8
0
  6
Continuous
 62
     7
370
    25
100
AcDbCircle
 10
102.7131225434
 20
42.0927371806
 30
0.0
 40
0.1000000000000085
100
AcDbArc
 50
270.0
 51
0.0
  0
LINE
  5
164
330
1F
100
AcDbEntity
  8
0
  6
Continuous
 62
     7
370
    25
100
AcDbLine
 10
102.7131225195
 20
48.9927372886
 30
0.0
 11
102.7131225195
 21
49.4927373706
 31
0.0
  0
LINE
  5
165
330
1F
100
AcDbEntity
  8
0
  6
Continuous
 62
     7
370
    25
100
AcDbLine
 10
102.8131223496
 20
49.4927373706
 30
0.0
 11
102.7131225195
 21
49.4927373706
 31
0.0
  0
LINE
  5
166
330
1F
100
AcDbEntity
  8
0
  6
Continuous
 62
     7
370
    25
100
AcDbLine
 10
102.8131223496
 20
49.4927373706
 30
0.0
 11
102.8131223496
 21
48.8927372256
 31
0.0
  0
LINE
  5
167
330
1F
100
AcDbEntity
  8
0
  6
Continuous
 62
     7
370
    25
100
AcDbLine
 10
93.8131227371
 20
49.4927373706
 30
0.0
 11
93.9131225672
 21
49.4927373706
 31
0.0
  0
LINE
  5
168
330
1F
100
AcDbEntity
  8
0
  6
Continuous
 62
     7
370
    25
100
AcDbLine
 10
93.9131225672
 20
49.4927373706
 30
0.0
 11
93.9131225672
 21
48.9927372886
 31
0.0
  0
LINE
  5
169
330
1F
100
AcDbEntity
  8
0
  6
Continuous
 62
     7
370
    25
100
AcDbLine
 10
93.8131227371
 20
48.8927372256
 30
0.0
 11
93.8131227371
 21
49.4927373706
 31
0.0
  0
SPLINE
  5
16A
330
1F
100
AcDbEntity
  8
0
  6
Continuous
 62
     7
370
    25
100
AcDbSpline
210
0.0
220
0.0
230
1.0
 70
     8
 71
     3
 72
    12
 73
     8
 74
     0
 42
0.000000001
 43
0.00000001
 40
0.0
 40
0.0
 40
0.0
 40
0.0
 40
0.4999999999999989
 40
0.4999999999999989
 40
0.7499999999999994
 40
0.7499999999999994
 40
1.0
 40
1.0
 40
1.0
 40
1.0
 10
95.21473586638666
 20
49.99273718056186
 30
0.0
 10
95.25903161778592
 20
49.99273718056186
 30
0.0
 10
95.30347510275851
 20
49.98721839959273
 30
0.0
 10
95.36814355163841
 20
49.96788501515871
 30
0.0
 10
95.38953720230239
 20
49.95959467275762
 30
0.0
 10
95.4284594121171
 20
49.93538034322098
 30
0.0
 10
95.44955833069733
 20
49.91759075052134
 30
0.0
 10
95.44955833069733
 20
49.89273718056186
 30
0.0
  0
ARC
  5
16B
330
1F
100
AcDbEntity
  8
0
  6
Continuous
 62
     7
370
    25
100
AcDbCircle
 10
95.1944582518
 20
50.0790794786
 30
0.0
 40
0.0886916668068555
100
AcDbArc
 50
283.2165225104
 51
8.858338227
  0
LINE
  5
16C
330
1F
100
AcDbEntity
  8
0
  6
Continuous
 62
     7
370
    25
100
AcDbLine
 10
95.4495582477
 20
49.8927371567
 30
0.0
 11
95.5118097112
 21
49.8927371567
 31
0.0
  0
SPLINE
  5
16D
330
1F
100
AcDbEntity
  8
0
  6
Continuous
 62
     7
370
    25
100
AcDbSpline
210
0.0
220
0.0
230
1.0
 70
     8
 71
     3
 72
     8
 73
     4
 74
     0
 42
0.000000001
 43
0.00000001
 40
0.0
 40
0.0
 40
0.0
 40
0.0
 40
1.0
 40
1.0
 40
1.0
 40
1.0
 10
101.2980848546725
 20
49.99273718056186
 30
0.0
 10
101.2546874748073
 20
49.99273718056186
 30
0.0
 10
101.2110135685894
 20
50.00300519334697
 30
0.0
 10
101.1766867560079
 20
50.02995086907879
 30
0.0
  0
SPLINE
  5
16E
330
1F
100
AcDbEntity
  8
0
  6
Continuous
 62
     7
370
    25
100
AcDbSpline
210
0.0
220
0.0
230
1.0
 70
     8
 71
     3
 72
    14
 73
    10
 74
     0
 42
0.000000001
 43
0.00000001
 40
0.0
 40
0.0
 40
0.0
 40
0.0
 40
0.0000506355776192
 40
0.0000506355776192
 40
0.0000506355776192
 40
0.0000895544011912
 40
0.0000895544011912
 40
0.0000895544011912
 40
0.0000915544256562
 40
0.0000915544256562
 40
0.0000915544256562
 40
0.0000915544256562
 10
101.1766867560079
 20
50.02995086907879
 30
0.0
 10
101.1634100920541
 20
50.04037271296104
 30
0.0
 10
101.1508522237932
 20
50.05192928955048
 30
0.0
 10
101.1395842749132
 20
50.0636617099124
 30
0.0
 10
101.1308761128121
 20
50.07272882757839
 30
0.0
 10
101.1228008808703
 20
50.08204153364343
 30
0.0
 10
101.1155421953439
 20
50.09131521831915
 30
0.0
 10
101.1151712107417
 20
50.09178918763595
 30
0.0
 10
101.1148022573159
 20
50.09226318735178
 30
0.0
 10
101.1144353600806
 20
50.09273718056185
 30
0.0
  0
SPLINE
  5
16F
330
1F
100
AcDbEntity
  8
0
  6
Continuous
 62
     7
370
    25
100
AcDbSpline
210
0.0
220
0.0
230
1.0
 70
     8
 71
     3
 72
    10
 73
     6
 74
     0
 42
0.000000001
 43
0.00000001
 40
0.0
 40
0.0
 40
0.0
 40
0.0
 40
0.5
 40
0.5
 40
1.0
 40
1.0
 40
1.0
 40
1.0
 10
102.6467311591309
 20
50.02202549527615
 30
0.0
 10
102.6353698198587
 20
50.03356560114182
 30
0.0
 10
102.6280546224359
 20
50.04685487690317
 30
0.0
 10
102.6191048972263
 20
50.0720520210531
 30
0.0
 10
102.6174703694395
 20
50.08395988944169
 30
0.0
 10
102.6174703694395
 20
50.09273718056185
 30
0.0
  0
SPLINE
  5
170
330
1F
100
AcDbEntity
  8
0
  6
Continuous
 62
     7
370
    25
100
AcDbSpline
210
0.0
220
0.0
230
1.0
 70
     8
 71
     3
 72
    12
 73
     8
 74
     0
 42
0.000000001
 43
0.00000001
 40
0.0
 40
0.0
 40
0.0
 40
0.0
 40
0.25
 40
0.25
 40
0.5
 40
0.5
 40
1.0
 40
1.0
 40
1.0
 40
1.0
 10
102.6467311591309
 20
50.02202549527615
 30
0.0
 10
102.652411828767
 20
50.0162554423433
 30
0.0
 10
102.6591099434952
 20
50.01109292870784
 30
0.0
 10
102.6731252274693
 20
50.00255962404975
 30
0.0
 10
102.6804423967152
 20
49.99918883302713
 30
0.0
 10
102.7011987327303
 20
49.99262900990564
 30
0.0
 10
102.7131225433526
 20
49.99273718056186
 30
0.0
 10
102.7131225433526
 20
49.99273718056186
 30
0.0
  0
LINE
  5
171
330
1F
100
AcDbEntity
  8
0
  6
Continuous
 62
     7
370
    25
100
AcDbLine
 10
93.9131225672
 20
49.8927371567
 30
0.0
 11
93.9131225672
 21
49.4927373706
 31
0.0
  0
LINE
  5
172
330
1F
100
AcDbEntity
  8
0
  6
Continuous
 62
     7
370
    25
100
AcDbLine
 10
95.4495582477
 20
49.8927371567
 30
0.0
 11
93.9131225672
 21
49.8927371567
 31
0.0
  0
LINE
  5
173
330
1F
100
AcDbEntity
  8
0
  6
Continuous
 62
     7
370
    25
100
AcDbLine
 10
93.9131225672
 20
49.9927369868
 30
0.0
 11
95.2147359707
 21
49.9927369868
 31
0.0
  0
LINE
  5
174
330
1F
100
AcDbEntity
  8
0
  6
Continuous
 62
     7
370
    25
100
AcDbLine
 10
93.9131225672
 20
49.8927371567
 30
0.0
 11
93.9131225672
 21
49.9927369868
 31
0.0
  0
LINE
  5
175
330
1F
100
AcDbEntity
  8
0
  6
Continuous
 62
     7
370
    25
100
AcDbLine
 10
102.7131225195
 20
49.4927373706
 30
0.0
 11
102.7131225195
 21
49.9927369868
 31
0.0
  0
ARC
  5
176
330
1F
100
AcDbEntity
  8
0
  6
Continuous
 62
     7
370
    25
100
AcDbCircle
 10
102.7131225434
 20
49.8927371806
 30
0.0
 40
0.1000000000000085
100
AcDbArc
 50
0.0
 51
90.0
  0
LINE
  5
177
330
1F
100
AcDbEntity
  8
0
  6
Continuous
 62
     7
370
    25
100
AcDbLine
 10
102.8131223496
 20
49.8927371567
 30
0.0
 11
102.8131223496
 21
49.4927373706
 31
0.0
  0
ARC
  5
178
330
1F
100
AcDbEntity
  8
0
  6
Continuous
 62
     7
370
    25
100
AcDbCircle
 10
93.9131225434
 20
49.8927371806
 30
0.0
 40
0.1000000000000085
100
AcDbArc
 50
90.0
 51
180.0
  0
LINE
  5
179
330
1F
100
AcDbEntity
  8
0
  6
Continuous
 62
     7
370
    25
100
AcDbLine
 10
93.8131227371
 20
49.8927371567
 30
0.0
 11
93.9131225672
 21
49.8927371567
 31
0.0
  0
LINE
  5
17A
330
1F
100
AcDbEntity
  8
0
  6
Continuous
 62
     7
370
    25
100
AcDbLine
 10
93.8131227371
 20
49.4927373706
 30
0.0
 11
93.8131227371
 21
49.8927371567
 31
0.0
  0
LINE
  5
17B
330
1F
100
AcDbEntity
  8
0
  6
Continuous
 62
     7
370
    25
100
AcDbLine
 10
101.2980849695
 20
49.9927369868
 30
0.0
 11
102.7131225195
 21
49.9927369868
 31
0.0
  0
SPLINE
  5
17C
330
1F
100
AcDbEntity
  8
0
  6
Continuous
 62
     7
370
    25
100
AcDbSpline
210
0.0
220
0.0
230
1.0
 70
     8
 71
     3
 72
    12
 73
     8
 74
     0
 42
0.000000001
 43
0.00000001
 40
0.0
 40
0.0
 40
0.0
 40
0.0
 40
0.25
 40
0.25
 40
0.5
 40
0.5
 40
1.0
 40
1.0
 40
1.0
 40
1.0
 10
93.97951392757432
 20
50.02202549527615
 30
0.0
 10
93.97383325793822
 20
50.0162554423433
 30
0.0
 10
93.96713514321004
 20
50.01109292870784
 30
0.0
 10
93.95311985923593
 20
50.00255962404975
 30
0.0
 10
93.94580268998996
 20
49.99918883302713
 30
0.0
 10
93.92504635397492
 20
49.99262900990564
 30
0.0
 10
93.9131225433526
 20
49.99273718056186
 30
0.0
 10
93.9131225433526
 20
49.99273718056186
 30
0.0
  0
SPLINE
  5
17D
330
1F
100
AcDbEntity
  8
0
  6
Continuous
 62
     7
370
    25
100
AcDbSpline
210
0.0
220
0.0
230
1.0
 70
     8
 71
     3
 72
    10
 73
     6
 74
     0
 42
0.000000001
 43
0.00000001
 40
0.0
 40
0.0
 40
0.0
 40
0.0
 40
0.5
 40
0.5
 40
1.0
 40
1.0
 40
1.0
 40
1.0
 10
93.97951392757432
 20
50.02202549527615
 30
0.0
 10
93.99087526684649
 20
50.03356560114182
 30
0.0
 10
93.99819046426933
 20
50.04685487690317
 30
0.0
 10
94.0071401894789
 20
50.0720520210531
 30
0.0
 10
94.00877471726565
 20
50.08395988944169
 30
0.0
 10
94.00877471726565
 20
50.09273718056185
 30
0.0
  0
SPLINE
  5
17E
330
1F
100
AcDbEntity
  8
0
  6
Continuous
 62
     7
370
    25
100
AcDbSpline
210
0.0
220
0.0
230
1.0
 70
     8
 71
     3
 72
    16
 73
    12
 74
     0
 42
0.000000001
 43
0.00000001
 40
0.0
 40
0.0
 40
0.0
 40
0.0
 40
0.2500000000000001
 40
0.2500000000000001
 40
0.3749999999999999
 40
0.3749999999999999
 40
0.4999999999999999
 40
0.4999999999999999
 40
0.7499999999999999
 40
0.7499999999999999
 40
1.0
 40
1.0
 40
1.0
 40
1.0
 10
100.0451733509215
 20
46.49273718056195
 30
0.0
 10
100.0060741823644
 20
46.33504310070341
 30
0.0
 10
99.96332583054603
 20
46.17692064954284
 30
0.0
 10
99.90605510446412
 20
45.93205128528086
 30
0.0
 10
99.88826814891905
 20
45.84906451138099
 30
0.0
 10
99.8614723247628
 20
45.6770088076936
 30
0.0
 10
99.85287860262098
 20
45.58638371428903
 30
0.0
 10
99.85210329678682
 20
45.31892414317156
 30
0.0
 10
99.88540014781384
 20
45.1424348981777
 30
0.0
 10
99.9624076226479
 20
44.81180313169371
 30
0.0
 10
100.0056730338432
 20
44.65204916559002
 30
0.0
 10
100.0451733509215
 20
44.49273718056185
 30
0.0
  0
LINE
  5
17F
330
1F
100
AcDbEntity
  8
0
  6
Continuous
 62
     7
370
    25
100
AcDbLine
 10
100.0451733338
 20
44.4927371331
 30
0.0
 11
96.5810717529
 21
44.4927371331
 31
0.0
  0
SPLINE
  5
180
330
1F
100
AcDbEntity
  8
0
  6
Continuous
 62
     7
370
    25
100
AcDbSpline
210
0.0
220
0.0
230
1.0
 70
     8
 71
     3
 72
    16
 73
    12
 74
     0
 42
0.000000001
 43
0.00000001
 40
0.0
 40
0.0
 40
0.0
 40
0.0
 40
0.25
 40
0.25
 40
0.375
 40
0.375
 40
0.5
 40
0.5
 40
0.75
 40
0.75
 40
1.0
 40
1.0
 40
1.0
 40
1.0
 10
96.58107173578372
 20
44.49273718056185
 30
0.0
 10
96.6201709043408
 20
44.65043126042038
 30
0.0
 10
96.66291925615919
 20
44.80855371158093
 30
0.0
 10
96.72018998224111
 20
45.05342307584291
 30
0.0
 10
96.73797693778614
 20
45.13640984974278
 30
0.0
 10
96.7647727619424
 20
45.30846555343017
 30
0.0
 10
96.77336648408424
 20
45.39909064683473
 30
0.0
 10
96.77414178991837
 20
45.6665502179522
 30
0.0
 10
96.74084493889136
 20
45.84303946294605
 30
0.0
 10
96.6638374640573
 20
46.17367122943001
 30
0.0
 10
96.620572052862
 20
46.3334251955337
 30
0.0
 10
96.58107173578372
 20
46.49273718056185
 30
0.0
  0
SPLINE
  5
181
330
1F
100
AcDbEntity
  8
0
  6
Continuous
 62
     7
370
    25
100
AcDbSpline
210
0.0
220
0.0
230
1.0
 70
    11
 71
     3
 72
    26
 73
    22
 74
     0
 42
0.000000001
 43
0.00000001
 40
0.0
 40
0.0
 40
0.0
 40
0.0
 40
0.1249999999999999
 40
0.1249999999999999
 40
0.2499999999999998
 40
0.2499999999999998
 40
0.3749999999999998
 40
0.3749999999999998
 40
0.4374999999999998
 40
0.4374999999999998
 40
0.4999999999999998
 40
0.4999999999999998
 40
0.6249999999999998
 40
0.6249999999999998
 40
0.7499999999999998
 40
0.7499999999999998
 40
0.8749999999999999
 40
0.8749999999999999
 40
0.9374999999999999
 40
0.9374999999999999
 40
1.0
 40
1.0
 40
1.0
 40
1.0
 10
97.93230838229255
 20
45.38190109119467
 30
0.0
 10
97.97158664789978
 20
45.292317634672
 30
0.0
 10
98.05121938744159
 20
45.22654634642134
 30
0.0
 10
98.22988155835017
 20
45.15422429967483
 30
0.0
 10
98.33225720499554
 20
45.14748331812267
 30
0.0
 10
98.51898083756294
 20
45.1941932835789
 30
0.0
 10
98.60683866832257
 20
45.24783385317144
 30
0.0
 10
98.6902362469488
 20
45.36572981251017
 30
0.0
 10
98.709710910101
 20
45.41177674257936
 30
0.0
 10
98.72160663241439
 20
45.50896089718834
 30
0.0
 10
98.71360384342132
 20
45.55836733511928
 30
0.0
 10
98.6556308439101
 20
45.69163038033046
 30
0.0
 10
98.57529409203502
 20
45.75879188756267
 30
0.0
 10
98.3963134036974
 20
45.83129780065259
 30
0.0
 10
98.2939369922206
 20
45.83804417308488
 30
0.0
 10
98.10672510083049
 20
45.7910801383109
 30
0.0
 10
98.01911594187195
 20
45.73750817819647
 30
0.0
 10
97.93566981251361
 20
45.61912491272883
 30
0.0
 10
97.91639279072831
 20
45.57291511495354
 30
0.0
 10
97.90471896330526
 20
45.47679668309651
 30
0.0
 10
97.91266924948893
 20
45.42669281945601
 30
0.0
 10
97.93230838229255
 20
45.38190109119468
 30
0.0
  0
SPLINE
  5
182
330
1F
100
AcDbEntity
  8
0
  6
Continuous
 62
     7
370
    25
100
AcDbSpline
210
0.0
220
0.0
230
1.0
 70
     8
 71
     3
 72
    12
 73
     8
 74
     0
 42
0.000000001
 43
0.00000001
 40
0.0
 40
0.0
 40
0.0
 40
0.0
 40
0.25
 40
0.25
 40
0.5
 40
0.5
 40
1.0
 40
1.0
 40
1.0
 40
1.0
 10
102.8128457778926
 20
49.9931647525924
 30
0.0
 10
102.8128436930338
 20
49.98908631389011
 30
0.0
 10
102.8093492320983
 20
49.98610627952625
 30
0.0
 10
102.8006568224719
 20
49.98045048017048
 30
0.0
 10
102.7954588737812
 20
49.97777471517857
 30
0.0
 10
102.7852316926734
 20
49.96736501530336
 30
0.0
 10
102.7838019340947
 20
49.96347914605711
 30
0.0
 10
102.7838332214733
 20
49.96344785867844
 30
0.0
  0
LINE
  5
183
330
1F
100
AcDbEntity
  8
0
  6
Continuous
 62
     7
370
    25
100
AcDbLine
 10
102.8133137364
 20
49.9160123048
 30
0.0
 11
102.8135214214
 21
49.9413009724
 31
0.0
  0
SPLINE
  5
184
330
1F
100
AcDbEntity
  8
0
  6
Continuous
 62
     7
370
    25
100
AcDbSpline
210
0.0
220
0.0
230
1.0
 70
     8
 71
     3
 72
    12
 73
     8
 74
     0
 42
0.000000001
 43
0.00000001
 40
0.0
 40
0.0
 40
0.0
 40
0.0
 40
0.25
 40
0.25
 40
0.5
 40
0.5
 40
1.0
 40
1.0
 40
1.0
 40
1.0
 10
102.8128457778926
 20
49.9931647525924
 30
0.0
 10
102.8128478627515
 20
49.99724319129469
 30
0.0
 10
102.8093579362771
 20
50.00313355222204
 30
0.0
 10
102.7945845778055
 20
50.01594292809433
 30
0.0
 10
102.7833011458083
 20
50.02286194303929
 30
0.0
 10
102.7365463672475
 20
50.04126918325173
 30
0.0
 10
102.6953987896289
 20
50.03852764140277
 30
0.0
 10
102.6467311591309
 20
50.02202549527615
 30
0.0
  0
SPLINE
  5
185
330
1F
100
AcDbEntity
  8
0
  6
Continuous
 62
     7
370
    25
100
AcDbSpline
210
0.0
220
0.0
230
1.0
 70
     8
 71
     3
 72
    12
 73
     8
 74
     0
 42
0.000000001
 43
0.00000001
 40
0.0
 40
0.0
 40
0.0
 40
0.0
 40
0.25
 40
0.25
 40
0.5
 40
0.5
 40
1.0
 40
1.0
 40
1.0
 40
1.0
 10
93.81339930881255
 20
49.9931647525924
 30
0.0
 10
93.8134013936714
 20
49.98908631389011
 30
0.0
 10
93.81689585460695
 20
49.98610627952625
 30
0.0
 10
93.82558826423326
 20
49.98045048017048
 30
0.0
 10
93.83078621292401
 20
49.97777471517857
 30
0.0
 10
93.84101339403176
 20
49.96736501530336
 30
0.0
 10
93.84244315261053
 20
49.9634791460571
 30
0.0
 10
93.84241186523187
 20
49.96344785867844
 30
0.0
  0
LINE
  5
186
330
1F
100
AcDbEntity
  8
0
  6
Continuous
 62
     7
370
    25
100
AcDbLine
 10
93.8129313503
 20
49.9160123048
 30
0.0
 11
93.8127236653
 21
49.9413009724
 31
0.0
  0
SPLINE
  5
187
330
1F
100
AcDbEntity
  8
0
  6
Continuous
 62
     7
370
    25
100
AcDbSpline
210
0.0
220
0.0
230
1.0
 70
     8
 71
     3
 72
    14
 73
    10
 74
     0
 42
0.000000001
 43
0.00000001
 40
0.0
 40
0.0
 40
0.0
 40
0.0
 40
0.25
 40
0.25
 40
0.5
 40
0.5
 40
0.75
 40
0.75
 40
1.0
 40
1.0
 40
1.0
 40
1.0
 10
93.81339930881255
 20
49.9931647525924
 30
0.0
 10
93.81339722395373
 20
49.99724319129469
 30
0.0
 10
93.81688715042807
 20
50.00313355222204
 30
0.0
 10
93.83166050889969
 20
50.01594292809433
 30
0.0
 10
93.84294394089693
 20
50.02286194303929
 30
0.0
 10
93.87411379327081
 20
50.03513343651424
 30
0.0
 10
93.8921931507689
 20
50.03751592442075
 30
0.0
 10
93.93272631029616
 20
50.03508749033335
 30
0.0
 10
93.9551801123253
 20
50.03027656833946
 30
0.0
 10
93.97951392757432
 20
50.02202549527615
 30
0.0
  0
SPLINE
  5
188
330
1F
100
AcDbEntity
  8
0
  6
Continuous
 62
     7
370
    25
100
AcDbSpline
210
0.0
220
0.0
230
1.0
 70
     8
 71
     3
 72
    10
 73
     6
 74
     0
 42
0.000000001
 43
0.00000001
 40
0.0
 40
0.0
 40
0.0
 40
0.0
 40
0.5
 40
0.5
 40
1.0
 40
1.0
 40
1.0
 40
1.0
 10
102.8128457778926
 20
49.9931647525924
 30
0.0
 10
102.812854117328
 20
50.00947850740155
 30
0.0
 10
102.812949136048
 20
50.02683835126456
 30
0.0
 10
102.8113177265543
 20
50.06248943093048
 30
0.0
 10
102.8131225433526
 20
50.07571249454689
 30
0.0
 10
102.8131225433526
 20
50.09273718056185
 30
0.0
  0
SPLINE
  5
189
330
1F
100
AcDbEntity
  8
0
  6
Continuous
 62
     7
370
    25
100
AcDbSpline
210
0.0
220
0.0
230
1.0
 70
     8
 71
     3
 72
    10
 73
     6
 74
     0
 42
0.000000001
 43
0.00000001
 40
0.0
 40
0.0
 40
0.0
 40
0.0
 40
0.5
 40
0.5
 40
1.0
 40
1.0
 40
1.0
 40
1.0
 10
93.81339930881255
 20
49.9931647525924
 30
0.0
 10
93.8133909693772
 20
50.00947850740155
 30
0.0
 10
93.8132959506572
 20
50.02683835126456
 30
0.0
 10
93.81492736015096
 20
50.06248943093048
 30
0.0
 10
93.81312254335259
 20
50.07571249454689
 30
0.0
 10
93.81312254335259
 20
50.09273718056185
 30
0.0
  0
SPLINE
  5
18A
330
1F
100
AcDbEntity
  8
0
  6
Continuous
 62
     7
370
    25
100
AcDbSpline
210
0.0
220
0.0
230
1.0
 70
     8
 71
     3
 72
    18
 73
    14
 74
     0
 42
0.000000001
 43
0.00000001
 40
0.0
 40
0.0
 40
0.0
 40
0.0
 40
0.2499999999999999
 40
0.2499999999999999
 40
0.3749999999999999
 40
0.3749999999999999
 40
0.5
 40
0.5
 40
0.6250000000000001
 40
0.6250000000000001
 40
0.75
 40
0.75
 40
1.0
 40
1.0
 40
1.0
 40
1.0
 10
100.0451733509215
 20
44.49273718056185
 30
0.0
 10
99.7785807925946
 20
44.38606152713829
 30
0.0
 10
99.50467952034762
 20
44.29350483789067
 30
0.0
 10
99.07422153511448
 20
44.19254479815394
 30
0.0
 10
98.92741496222757
 20
44.16530613952752
 30
0.0
 10
98.6251069486693
 20
44.1276255567078
 30
0.0
 10
98.47028009105017
 20
44.1175976122722
 30
0.0
 10
98.1652624403488
 20
44.11721064933546
 30
0.0
 10
98.01343528914394
 20
44.12659824162591
 30
0.0
 10
97.7110575660992
 20
44.16331601817589
 30
0.0
 10
97.5605591347622
 20
44.19077674538559
 30
0.0
 10
97.12463988975614
 20
44.29233184217593
 30
0.0
 10
96.848834372948
 20
44.38559332605526
 30
0.0
 10
96.58107173578372
 20
44.49273718056185
 30
0.0
  0
LINE
  5
18B
330
1F
100
AcDbEntity
  8
0
  6
Continuous
 62
     8
370
    25
100
AcDbLine
 10
98.3131225434
 20
53.1927371388
 30
0.0
 11
93.8131227371
 21
53.1927371388
 31
0.0
  0
LINE
  5
18C
330
1F
100
AcDbEntity
  8
0
  6
Continuous
 62
     8
370
    25
100
AcDbLine
 10
102.8131223496
 20
53.1927371388
 30
0.0
 11
98.3131225434
 21
53.1927371388
 31
0.0
  0
LINE
  5
18D
330
1F
100
AcDbEntity
  8
0
  6
Continuous
 62
     8
370
    25
100
AcDbLine
 10
102.7131225195
 20
48.8927372256
 30
0.0
 11
102.007666624
 21
48.8927372256
 31
0.0
  0
LINE
  5
18E
330
1F
100
AcDbEntity
  8
0
  6
Continuous
 62
     8
370
    25
100
AcDbLine
 10
102.7131225195
 20
47.911343257
 30
0.0
 11
102.7131225195
 21
48.8927372256
 31
0.0
  0
LINE
  5
18F
330
1F
100
AcDbEntity
  8
0
  6
Continuous
 62
     8
370
    25
100
AcDbLine
 10
93.9131225672
 20
42.0927371355
 30
0.0
 11
94.6185784627
 21
42.0927371355
 31
0.0
  0
LINE
  5
190
330
1F
100
AcDbEntity
  8
0
  6
Continuous
 62
     8
370
    25
100
AcDbLine
 10
93.9131225672
 20
43.0741311042
 30
0.0
 11
93.9131225672
 21
42.0927371355
 31
0.0
  0
LINE
  5
191
330
1F
100
AcDbEntity
  8
0
  6
Continuous
 62
     8
370
    25
100
AcDbLine
 10
93.9131225672
 20
48.8927372256
 30
0.0
 11
93.9131225672
 21
47.911343257
 31
0.0
  0
LINE
  5
192
330
1F
100
AcDbEntity
  8
0
  6
Continuous
 62
     8
370
    25
100
AcDbLine
 10
102.007666624
 20
42.0927371355
 30
0.0
 11
102.7131225195
 21
42.0927371355
 31
0.0
  0
LINE
  5
193
330
1F
100
AcDbEntity
  8
0
  6
Continuous
 62
     8
370
    25
100
AcDbLine
 10
102.7131225195
 20
42.0927371355
 30
0.0
 11
102.7131225195
 21
43.0741311042
 31
0.0
  0
LINE
  5
194
330
1F
100
AcDbEntity
  8
0
  6
Continuous
 62
     8
370
    25
100
AcDbLine
 10
94.6185784627
 20
48.8927372256
 30
0.0
 11
93.9131225672
 21
48.8927372256
 31
0.0
  0
LINE
  5
195
330
1F
100
AcDbEntity
  8
0
  6
Continuous
 62
     8
370
    25
100
AcDbLine
 10
101.1144353755
 20
49.6595465569
 30
0.0
 11
101.1144353755
 21
50.0927372826
 31
0.0
  0
LINE
  5
196
330
1F
100
AcDbEntity
  8
0
  6
Continuous
 62
     8
370
    25
100
AcDbLine
 10
95.5118097112
 20
49.8927371567
 30
0.0
 11
95.5118097112
 21
49.6595465569
 31
0.0
  0
LINE
  5
197
330
1F
100
AcDbEntity
  8
0
  6
Continuous
 62
     8
370
    25
100
AcDbLine
 10
101.3478639283
 20
49.4927373706
 30
0.0
 11
102.7131225195
 21
49.4927373706
 31
0.0
  0
LINE
  5
198
330
1F
100
AcDbEntity
  8
0
  6
Continuous
 62
     8
370
    25
100
AcDbLine
 10
93.9131225672
 20
49.4927373706
 30
0.0
 11
95.2783811584
 21
49.4927373706
 31
0.0
  0
LINE
  5
199
330
1F
100
AcDbEntity
  8
0
  6
Continuous
 62
     8
370
    25
100
AcDbLine
 10
101.176686839
 20
50.0299507743
 30
0.0
 11
101.176686839
 21
49.6170135206
 31
0.0
  0
LINE
  5
19A
330
1F
100
AcDbEntity
  8
0
  6
Continuous
 62
     8
370
    25
100
AcDbLine
 10
95.4495582477
 20
49.6170135206
 30
0.0
 11
95.4495582477
 21
49.8927371567
 31
0.0
  0
SPLINE
  5
19B
330
1F
100
AcDbEntity
  8
0
  6
Continuous
 62
     8
370
    25
100
AcDbSpline
210
0.0
220
0.0
230
1.0
 70
     8
 71
     3
 72
     9
 73
     5
 74
     0
 42
0.000000001
 43
0.00000001
 40
0.0
 40
0.0
 40
0.0
 40
0.0
 40
0.1248448109001593
 40
1.0
 40
1.0
 40
1.0
 40
1.0
 10
102.8135214213607
 20
49.94130097237333
 30
0.0
 10
102.8135423842247
 20
49.94345948049773
 30
0.0
 10
102.8137102956002
 20
49.96074901066592
 30
0.0
 10
102.8132492410846
 20
49.97803606994096
 30
0.0
 10
102.8128457468328
 20
49.9931649295698
 30
0.0
  0
SPLINE
  5
19C
330
1F
100
AcDbEntity
  8
0
  6
Continuous
 62
     8
370
    25
100
AcDbSpline
210
0.0
220
0.0
230
1.0
 70
     8
 71
     3
 72
     9
 73
     5
 74
     0
 42
0.000000001
 43
0.00000001
 40
0.0
 40
0.0
 40
0.0
 40
0.0
 40
0.1248448109001593
 40
1.0
 40
1.0
 40
1.0
 40
1.0
 10
93.81272366534448
 20
49.94130097237333
 30
0.0
 10
93.81270270248055
 20
49.94345948049773
 30
0.0
 10
93.812534791105
 20
49.96074901066592
 30
0.0
 10
93.81299584562058
 20
49.97803606994096
 30
0.0
 10
93.81339933987236
 20
49.9931649295698
 30
0.0
  0
INSERT
  5
1A8
330
1F
100
AcDbEntity
  8
0
  6
Continuous
 62
     7
370
    18
100
AcDbBlockReference
  2
SW_CENTERMARKSYMBOL_0
 10
98.3131225434
 20
45.4927371806
 30
0.0
  0
ARC
  5
1A9
330
1F
100
AcDbEntity
  8
0
  6
Continuous
 62
     7
370
    18
100
AcDbCircle
 10
98.3131225434
 20
45.4927371806
 30
0.0
 40
4.283000000000001
100
AcDbArc
 50
75.0
 51
345.0
  0
LINE
  5
1AA
330
1F
100
AcDbEntity
  8
0
  6
Continuous
 62
     7
370
    18
100
AcDbLine
 10
102.6123169137
 20
61.9745173298
 30
0.0
 11
102.8771039908
 21
53.5013308616
 31
0.0
  0
LINE
  5
1AB
330
1F
100
AcDbEntity
  8
0
  6
Continuous
 62
     7
370
    18
100
AcDbLine
 10
94.013928173
 20
61.9745173298
 30
0.0
 11
93.7491410959
 21
53.5013308616
 31
0.0
  0
LINE
  5
1AC
330
1F
100
AcDbEntity
  8
0
  6
Continuous
 62
     7
370
    18
100
AcDbLine
 10
93.2922035959
 20
53.5013308616
 30
0.0
 11
103.3340414908
 21
53.5013308616
 31
0.0
  0
ARC
  5
1AD
330
1F
100
AcDbEntity
  8
0
  6
Continuous
 62
     7
370
    25
100
AcDbCircle
 10
70.8069198395
 20
83.4499838938
 30
0.0
 40
0.2999999999999972
100
AcDbArc
 50
166.3254917112
 51
180.0
  0
ARC
  5
1AE
330
1F
100
AcDbEntity
  8
0
  6
Continuous
 62
     7
370
    25
100
AcDbCircle
 10
70.8069198395
 20
73.5499838938
 30
0.0
 40
0.2999999999999972
100
AcDbArc
 50
180.0
 51
193.6745082888
  0
LINE
  5
1AF
330
1F
100
AcDbEntity
  8
0
  6
Continuous
 62
     7
370
    25
100
AcDbLine
 10
70.5154231946
 20
73.4790623096
 30
0.0
 11
78.1519712146
 21
73.7177044061
 31
0.0
  0
LINE
  5
1B0
330
1F
100
AcDbEntity
  8
0
  6
Continuous
 62
     7
370
    25
100
AcDbLine
 10
78.1519712146
 20
83.2822633815
 30
0.0
 11
70.5154231946
 21
83.5209054781
 31
0.0
  0
ARC
  5
1B1
330
1F
100
AcDbEntity
  8
0
  6
Continuous
 62
     7
370
    25
100
AcDbCircle
 10
70.2069198395
 20
83.2999838938
 30
0.0
 40
0.3000000000000114
100
AcDbArc
 50
270.0
 51
0.0
  0
ARC
  5
1B2
330
1F
100
AcDbEntity
  8
0
  6
Continuous
 62
     7
370
    25
100
AcDbCircle
 10
70.2069198395
 20
73.6999838938
 30
0.0
 40
0.3000000000000114
100
AcDbArc
 50
0.0
 51
90.0
  0
LINE
  5
1B3
330
1F
100
AcDbEntity
  8
0
  6
Continuous
 62
     7
370
    25
100
AcDbLine
 10
78.1519712146
 20
73.7177044061
 30
0.0
 11
79.5069207634
 21
74.4999837038
 31
0.0
  0
LINE
  5
1B4
330
1F
100
AcDbEntity
  8
0
  6
Continuous
 62
     7
370
    25
100
AcDbLine
 10
79.5069207634
 20
82.4999840838
 30
0.0
 11
78.1519712146
 21
83.2822633815
 31
0.0
  0
LINE
  5
1B5
330
1F
100
AcDbEntity
  8
0
  6
Continuous
 62
     7
370
    25
100
AcDbLine
 10
67.1069199416
 20
73.9999840876
 30
0.0
 11
70.2069197978
 21
73.9999840876
 31
0.0
  0
LINE
  5
1B6
330
1F
100
AcDbEntity
  8
0
  6
Continuous
 62
     7
370
    25
100
AcDbLine
 10
67.5069197278
 20
82.9999837001
 30
0.0
 11
67.1069199416
 21
82.9999837001
 31
0.0
  0
LINE
  5
1B7
330
1F
100
AcDbEntity
  8
0
  6
Continuous
 62
     7
370
    25
100
AcDbLine
 10
70.2069197978
 20
82.9999837001
 30
0.0
 11
68.5069198917
 21
82.9999837001
 31
0.0
  0
SPLINE
  5
1B8
330
1F
100
AcDbEntity
  8
0
  6
Continuous
 62
     7
370
    25
100
AcDbSpline
210
0.0
220
0.0
230
1.0
 70
     8
 71
     3
 72
    11
 73
     7
 74
     0
 42
0.000000001
 43
0.00000001
 40
0.0
 40
0.0
 40
0.0
 40
0.0
 40
0.249999382573491
 40
0.4999999938522307
 40
0.7500006090671918
 40
0.9999999999999999
 40
0.9999999999999999
 40
0.9999999999999999
 40
0.9999999999999999
 10
67.75691976874099
 20
83.29998412182724
 30
0.0
 10
67.7241606195656
 20
83.29622616967661
 30
0.0
 10
67.65864216020908
 20
83.2887102469057
 30
0.0
 10
67.57600570224909
 20
83.23089814610394
 30
0.0
 10
67.51819360248535
 20
83.14826168853975
 30
0.0
 10
67.51067767986923
 20
83.08274322993722
 30
0.0
 10
67.50691972776279
 20
83.04998408084904
 30
0.0
  0
SPLINE
  5
1B9
330
1F
100
AcDbEntity
  8
0
  6
Continuous
 62
     7
370
    25
100
AcDbSpline
210
0.0
220
0.0
230
1.0
 70
     8
 71
     3
 72
    11
 73
     7
 74
     0
 42
0.000000001
 43
0.00000001
 40
0.0
 40
0.0
 40
0.0
 40
0.0
 40
0.2499993471287663
 40
0.4999999138901843
 40
0.7499994864635139
 40
1.0
 40
1.0
 40
1.0
 40
1.0
 10
68.50691989167557
 20
83.04998408084904
 30
0.0
 10
68.50316194310179
 20
83.08274323524087
 30
0.0
 10
68.49564602762092
 20
83.14826170384148
 30
0.0
 10
68.43783395234767
 20
83.2308979718637
 30
0.0
 10
68.35519771826444
 20
83.28871044625878
 30
0.0
 10
68.28967918098675
 20
83.29622622525638
 30
0.0
 10
68.25691985069737
 20
83.29998412182724
 30
0.0
  0
LINE
  5
1BA
330
1F
100
AcDbEntity
  8
0
  6
Continuous
 62
     7
370
    25
100
AcDbLine
 10
67.5069197278
 20
83.0502839667
 30
0.0
 11
67.5069197278
 21
82.9999837001
 31
0.0
  0
LINE
  5
1BB
330
1F
100
AcDbEntity
  8
0
  6
Continuous
 62
     7
370
    25
100
AcDbLine
 10
68.5069198917
 20
82.9999837001
 30
0.0
 11
68.5069198917
 21
83.0502839667
 31
0.0
  0
LINE
  5
1BC
330
1F
100
AcDbEntity
  8
0
  6
Continuous
 62
     7
370
    25
100
AcDbLine
 10
68.2569156597
 20
83.2999841218
 30
0.0
 11
67.7569197687
 21
83.2999841218
 31
0.0
  0
CIRCLE
  5
1BD
330
1F
100
AcDbEntity
  8
0
  6
Continuous
 62
     7
370
    25
100
AcDbCircle
 10
62.5069198395
 20
78.4999838938
 30
0.0
 40
3.999999999999986
  0
CIRCLE
  5
1BE
330
1F
100
AcDbEntity
  8
0
  6
Continuous
 62
     7
370
    25
100
AcDbCircle
 10
62.5069198395
 20
78.4999838938
 30
0.0
 40
4.782279626857616
  0
CIRCLE
  5
1BF
330
1F
100
AcDbEntity
  8
0
  6
Continuous
 62
     7
370
    25
100
AcDbCircle
 10
62.5069198395
 20
78.4999838938
 30
0.0
 40
3.149999999999991
  0
CIRCLE
  5
1C0
330
1F
100
AcDbEntity
  8
0
  6
Continuous
 62
     7
370
    25
100
AcDbCircle
 10
62.5069198395
 20
78.4999838938
 30
0.0
 40
3.049999999999997
  0
CIRCLE
  5
1C1
330
1F
100
AcDbEntity
  8
0
  6
Continuous
 62
     7
370
    25
100
AcDbCircle
 10
62.5069198395
 20
78.4999838938
 30
0.0
 40
2.200000000000003
  0
CIRCLE
  5
1C2
330
1F
100
AcDbEntity
  8
0
  6
Continuous
 62
     7
370
    25
100
AcDbCircle
 10
62.5069198395
 20
78.4999838938
 30
0.0
 40
3.099999999999994
  0
CIRCLE
  5
1C3
330
1F
100
AcDbEntity
  8
0
  6
Continuous
 62
     7
370
    25
100
AcDbCircle
 10
62.5069198395
 20
78.4999838938
 30
0.0
 40
2.0
  0
CIRCLE
  5
1C4
330
1F
100
AcDbEntity
  8
0
  6
Continuous
 62
     7
370
    25
100
AcDbCircle
 10
62.5069198395
 20
78.4999838938
 30
0.0
 40
5.020921759967834
  0
LINE
  5
1C5
330
1F
100
AcDbEntity
  8
0
  6
Continuous
 62
     7
370
    25
100
AcDbLine
 10
70.5154231946
 20
73.4790623096
 30
0.0
 11
70.5154231946
 21
83.5209054781
 31
0.0
  0
LINE
  5
1C6
330
1F
100
AcDbEntity
  8
0
  6
Continuous
 62
     7
370
    25
100
AcDbLine
 10
70.5069202195
 20
73.5499839207
 30
0.0
 11
70.5069202195
 21
83.449983867
 31
0.0
  0
LINE
  5
1C7
330
1F
100
AcDbEntity
  8
0
  6
Continuous
 62
     7
370
    25
100
AcDbLine
 10
78.1519712146
 20
78.4999838938
 30
0.0
 11
78.1519712146
 21
83.2822633815
 31
0.0
  0
LINE
  5
1C8
330
1F
100
AcDbEntity
  8
0
  6
Continuous
 62
     7
370
    25
100
AcDbLine
 10
78.1519712146
 20
73.7177044061
 30
0.0
 11
78.1519712146
 21
78.4999838938
 31
0.0
  0
LINE
  5
1C9
330
1F
100
AcDbEntity
  8
0
  6
Continuous
 62
     7
370
    25
100
AcDbLine
 10
79.5069207634
 20
82.4999840838
 30
0.0
 11
79.5069207634
 21
74.4999837038
 31
0.0
  0
LINE
  5
1CA
330
1F
100
AcDbEntity
  8
0
  6
Continuous
 62
     7
370
    25
100
AcDbLine
 10
59.1069197944
 20
82.89998387
 30
0.0
 11
59.1069197944
 21
82.9999837001
 31
0.0
  0
LINE
  5
1CB
330
1F
100
AcDbEntity
  8
0
  6
Continuous
 62
     7
370
    25
100
AcDbLine
 10
59.1069197944
 20
82.9999837001
 30
0.0
 11
60.2798914733
 21
82.9999837001
 31
0.0
  0
LINE
  5
1CC
330
1F
100
AcDbEntity
  8
0
  6
Continuous
 62
     7
370
    25
100
AcDbLine
 10
66.0069199476
 20
82.0999361017
 30
0.0
 11
66.0069199476
 21
82.89998387
 31
0.0
  0
LINE
  5
1CD
330
1F
100
AcDbEntity
  8
0
  6
Continuous
 62
     7
370
    25
100
AcDbLine
 10
64.7339482057
 20
82.9999837001
 30
0.0
 11
65.9069198846
 21
82.9999837001
 31
0.0
  0
ARC
  5
1CE
330
1F
100
AcDbEntity
  8
0
  6
Continuous
 62
     7
370
    25
100
AcDbCircle
 10
65.9069198395
 20
82.8999838938
 30
0.0
 40
0.0999999999999943
100
AcDbArc
 50
0.0
 51
90.0
  0
LINE
  5
1CF
330
1F
100
AcDbEntity
  8
0
  6
Continuous
 62
     7
370
    25
100
AcDbLine
 10
65.9069198846
 20
73.9999840876
 30
0.0
 11
64.7339482057
 21
73.9999840876
 31
0.0
  0
LINE
  5
1D0
330
1F
100
AcDbEntity
  8
0
  6
Continuous
 62
     7
370
    25
100
AcDbLine
 10
65.9069198846
 20
73.9999840876
 30
0.0
 11
65.9069198846
 21
74.0999839177
 31
0.0
  0
LINE
  5
1D1
330
1F
100
AcDbEntity
  8
0
  6
Continuous
 62
     7
370
    25
100
AcDbLine
 10
60.2798914733
 20
73.9999840876
 30
0.0
 11
59.1069197944
 21
73.9999840876
 31
0.0
  0
LINE
  5
1D2
330
1F
100
AcDbEntity
  8
0
  6
Continuous
 62
     7
370
    25
100
AcDbLine
 10
59.1069197944
 20
73.9999840876
 30
0.0
 11
59.1069197944
 21
74.0999839177
 31
0.0
  0
LINE
  5
1D3
330
1F
100
AcDbEntity
  8
0
  6
Continuous
 62
     7
370
    25
100
AcDbLine
 10
59.0069197315
 20
82.0999361017
 30
0.0
 11
59.0069197315
 21
82.89998387
 31
0.0
  0
LINE
  5
1D4
330
1F
100
AcDbEntity
  8
0
  6
Continuous
 62
     7
370
    25
100
AcDbLine
 10
59.0069197315
 20
82.89998387
 30
0.0
 11
59.1069197944
 21
82.89998387
 31
0.0
  0
ARC
  5
1D5
330
1F
100
AcDbEntity
  8
0
  6
Continuous
 62
     7
370
    25
100
AcDbCircle
 10
59.1069198395
 20
82.8999838938
 30
0.0
 40
0.1000000000000014
100
AcDbArc
 50
90.0
 51
180.0
  0
SPLINE
  5
1D6
330
1F
100
AcDbEntity
  8
0
  6
Continuous
 62
     7
370
    25
100
AcDbSpline
210
0.0
220
0.0
230
1.0
 70
     8
 71
     3
 72
    22
 73
    18
 74
     0
 42
0.000000001
 43
0.00000001
 40
0.0
 40
0.0
 40
0.0
 40
0.0
 40
0.0625
 40
0.0625
 40
0.125
 40
0.125
 40
0.1875
 40
0.1875
 40
0.25
 40
0.25
 40
0.3125
 40
0.3125
 40
0.375
 40
0.375
 40
0.4375
 40
0.4375
 40
0.5
 40
0.5
 40
0.5
 40
0.5
 10
68.50691983950466
 20
82.99998389383946
 30
0.0
 10
68.50691321704298
 20
82.99998389402639
 30
0.0
 10
68.49422646442932
 20
82.99851901609563
 30
0.0
 10
68.4434927388649
 20
82.99331407376314
 30
0.0
 10
68.40733843076698
 20
82.98977970277396
 30
0.0
 10
68.31360800643073
 20
82.9824245913782
 30
0.0
 10
68.25949030667722
 20
82.97889305588829
 30
0.0
 10
68.13703279166256
 20
82.97369672495684
 30
0.0
 10
68.07304696581541
 20
82.97222735051064
 30
0.0
 10
67.94079272591493
 20
82.972242014064
 30
0.0
 10
67.87665738474597
 20
82.97370160268805
 30
0.0
 10
67.75449889840851
 20
82.97888817715383
 30
0.0
 10
67.70022231361582
 20
82.98242385493386
 30
0.0
 10
67.606510625283
 20
82.98978043781572
 30
0.0
 10
67.57033469633434
 20
82.99331385798295
 30
0.0
 10
67.51962546812497
 20
82.99851923087841
 30
0.0
 10
67.50691984501708
 20
82.99998389383946
 30
0.0
 10
67.5069198395215
 20
82.99998389383946
 30
0.0
  0
SPLINE
  5
1D7
330
1F
100
AcDbEntity
  8
0
  6
Continuous
 62
     7
370
    25
100
AcDbSpline
210
0.0
220
0.0
230
1.0
 70
    24
 71
     3
 72
    14
 73
    10
 74
     0
 42
0.000000001
 43
0.00000001
 40
0.0
 40
0.0
 40
0.0
 40
0.0
 40
0.25
 40
0.25
 40
0.5
 40
0.5
 40
0.75
 40
0.75
 40
1.0
 40
1.0
 40
1.0
 40
1.0
 10
67.1069198395215
 20
82.99998389383946
 30
0.0
 10
67.1069198395215
 20
82.99998389383946
 30
0.0
 10
67.1069198395215
 20
82.99594076491681
 30
0.0
 10
67.1069198395215
 20
82.97974463221152
 30
0.0
 10
67.1069198395215
 20
82.96759157537515
 30
0.0
 10
67.1069198395215
 20
82.93510542354632
 30
0.0
 10
67.1069198395215
 20
82.91477222042839
 30
0.0
 10
67.1069198395215
 20
82.86581147428453
 30
0.0
 10
67.1069198395215
 20
82.83718376405359
 30
0.0
 10
67.1069198395215
 20
82.80433171992641
 30
0.0
  0
SPLINE
  5
1D8
330
1F
100
AcDbEntity
  8
0
  6
Continuous
 62
     7
370
    25
100
AcDbSpline
210
0.0
220
0.0
230
1.0
 70
    24
 71
     3
 72
    14
 73
    10
 74
     0
 42
0.000000001
 43
0.00000001
 40
0.0
 40
0.0
 40
0.0
 40
0.0
 40
0.25
 40
0.25
 40
0.5
 40
0.5
 40
0.75
 40
0.75
 40
1.0
 40
1.0
 40
1.0
 40
1.0
 10
67.1069198395215
 20
73.99998389383947
 30
0.0
 10
67.1069198395215
 20
73.99998389383947
 30
0.0
 10
67.1069198395215
 20
74.00402702276213
 30
0.0
 10
67.1069198395215
 20
74.0202231554674
 30
0.0
 10
67.1069198395215
 20
74.03237621230377
 30
0.0
 10
67.1069198395215
 20
74.06486236413261
 30
0.0
 10
67.1069198395215
 20
74.08519556725054
 30
0.0
 10
67.1069198395215
 20
74.1341563133944
 30
0.0
 10
67.1069198395215
 20
74.16278402362533
 30
0.0
 10
67.1069198395215
 20
74.19563606775252
 30
0.0
  0
LINE
  5
1D9
330
1F
100
AcDbEntity
  8
0
  6
Continuous
 62
     7
370
    25
100
AcDbLine
 10
67.1069199416
 20
75.4689533637
 30
0.0
 11
67.1069199416
 21
74.1956358684
 31
0.0
  0
SPLINE
  5
1DA
330
1F
100
AcDbEntity
  8
0
  6
Continuous
 62
     7
370
    25
100
AcDbSpline
210
0.0
220
0.0
230
1.0
 70
     8
 71
     3
 72
    12
 73
     8
 74
     0
 42
0.000000001
 43
0.00000001
 40
0.0
 40
0.0
 40
0.0
 40
0.0
 40
0.4999999999999991
 40
0.4999999999999991
 40
0.7499999999999996
 40
0.7499999999999996
 40
1.0
 40
1.0
 40
1.0
 40
1.0
 10
67.1069198395215
 20
75.46895344898148
 30
0.0
 10
67.1069198395215
 20
75.51809338071315
 30
0.0
 10
67.09219342055577
 20
75.56803781147836
 30
0.0
 10
67.04466980871337
 20
75.63466458367681
 30
0.0
 10
67.02445245485674
 20
75.65544242481704
 30
0.0
 10
66.97218177424874
 20
75.68795429633347
 30
0.0
 10
66.94051146602771
 20
75.69867107711148
 30
0.0
 10
66.90691983952149
 20
75.69867107711148
 30
0.0
  0
SPLINE
  5
1DB
330
1F
100
AcDbEntity
  8
0
  6
Continuous
 62
     7
370
    25
100
AcDbSpline
210
0.0
220
0.0
230
1.0
 70
     8
 71
     3
 72
    12
 73
     8
 74
     0
 42
0.000000001
 43
0.00000001
 40
0.0
 40
0.0
 40
0.0
 40
0.0
 40
0.2500000000000013
 40
0.2500000000000013
 40
0.5000000000000027
 40
0.5000000000000027
 40
1.0
 40
1.0
 40
1.0
 40
1.0
 10
66.9069198395215
 20
81.30129671056743
 30
0.0
 10
66.94050877752939
 20
81.30129671056743
 30
0.0
 10
66.97256708884267
 20
81.31221337837707
 30
0.0
 10
67.0244344136653
 20
81.34455419902314
 30
0.0
 10
67.04483095220019
 20
81.36548841897803
 30
0.0
 10
67.09223829514796
 20
81.43207477091134
 30
0.0
 10
67.1069198395215
 20
81.48183896913105
 30
0.0
 10
67.1069198395215
 20
81.53101433869745
 30
0.0
  0
LINE
  5
1DC
330
1F
100
AcDbEntity
  8
0
  6
Continuous
 62
     7
370
    25
100
AcDbLine
 10
67.1069199416
 20
82.8043319193
 30
0.0
 11
67.1069199416
 21
81.5310144239
 31
0.0
  0
LINE
  5
1DD
330
1F
100
AcDbEntity
  8
0
  6
Continuous
 62
     7
370
    25
100
AcDbLine
 10
59.0069197315
 20
74.0999839177
 30
0.0
 11
59.0069197315
 21
74.900031686
 31
0.0
  0
LINE
  5
1DE
330
1F
100
AcDbEntity
  8
0
  6
Continuous
 62
     7
370
    25
100
AcDbLine
 10
59.0069197315
 20
74.0999839177
 30
0.0
 11
59.1069197944
 21
74.0999839177
 31
0.0
  0
LINE
  5
1DF
330
1F
100
AcDbEntity
  8
0
  6
Continuous
 62
     7
370
    25
100
AcDbLine
 10
66.0069199476
 20
74.900031686
 30
0.0
 11
66.0069199476
 21
74.0999839177
 31
0.0
  0
LINE
  5
1E0
330
1F
100
AcDbEntity
  8
0
  6
Continuous
 62
     7
370
    25
100
AcDbLine
 10
66.0069199476
 20
74.0999839177
 30
0.0
 11
65.9069198846
 21
74.0999839177
 31
0.0
  0
ARC
  5
1E1
330
1F
100
AcDbEntity
  8
0
  6
Continuous
 62
     7
370
    25
100
AcDbCircle
 10
59.1069198395
 20
74.0999838938
 30
0.0
 40
0.1000000000000014
100
AcDbArc
 50
180.0
 51
270.0
  0
ARC
  5
1E2
330
1F
100
AcDbEntity
  8
0
  6
Continuous
 62
     7
370
    25
100
AcDbCircle
 10
65.9069198395
 20
74.0999838938
 30
0.0
 40
0.0999999999999943
100
AcDbArc
 50
270.0
 51
0.0
  0
LINE
  5
1E3
330
1F
100
AcDbEntity
  8
0
  6
Continuous
 62
     7
370
    25
100
AcDbLine
 10
66.5069200295
 20
82.89998387
 30
0.0
 11
66.0069199476
 21
82.89998387
 31
0.0
  0
LINE
  5
1E4
330
1F
100
AcDbEntity
  8
0
  6
Continuous
 62
     7
370
    25
100
AcDbLine
 10
66.5069200295
 20
82.9999837001
 30
0.0
 11
66.5069200295
 21
82.89998387
 31
0.0
  0
LINE
  5
1E5
330
1F
100
AcDbEntity
  8
0
  6
Continuous
 62
     7
370
    25
100
AcDbLine
 10
65.9069198846
 20
82.9999837001
 30
0.0
 11
66.5069200295
 21
82.9999837001
 31
0.0
  0
LINE
  5
1E6
330
1F
100
AcDbEntity
  8
0
  6
Continuous
 62
     7
370
    25
100
AcDbLine
 10
66.0069199476
 20
74.0999839177
 30
0.0
 11
66.5069200295
 21
74.0999839177
 31
0.0
  0
LINE
  5
1E7
330
1F
100
AcDbEntity
  8
0
  6
Continuous
 62
     7
370
    25
100
AcDbLine
 10
66.5069200295
 20
74.0999839177
 30
0.0
 11
66.5069200295
 21
73.9999840876
 31
0.0
  0
LINE
  5
1E8
330
1F
100
AcDbEntity
  8
0
  6
Continuous
 62
     7
370
    25
100
AcDbLine
 10
66.5069200295
 20
73.9999840876
 30
0.0
 11
65.9069198846
 21
73.9999840876
 31
0.0
  0
SPLINE
  5
1E9
330
1F
100
AcDbEntity
  8
0
  6
Continuous
 62
     7
370
    25
100
AcDbSpline
210
0.0
220
0.0
230
1.0
 70
     8
 71
     3
 72
    12
 73
     8
 74
     0
 42
0.000000001
 43
0.00000001
 40
0.0
 40
0.0
 40
0.0
 40
0.0
 40
0.4999999999999971
 40
0.4999999999999971
 40
0.7499999999999986
 40
0.7499999999999986
 40
1.0
 40
1.0
 40
1.0
 40
1.0
 10
67.0069198395215
 20
81.59837057080539
 30
0.0
 10
67.0069198395215
 20
81.55407481940614
 30
0.0
 10
67.00140105855237
 20
81.50963133443355
 30
0.0
 10
66.98206767411837
 20
81.44496288555364
 30
0.0
 10
66.97377733171726
 20
81.42356923488968
 30
0.0
 10
66.94956300218062
 20
81.38464702507494
 30
0.0
 10
66.93177340948098
 20
81.36354810649473
 30
0.0
 10
66.9069198395215
 20
81.36354810649473
 30
0.0
  0
ARC
  5
1EA
330
1F
100
AcDbEntity
  8
0
  6
Continuous
 62
     7
370
    25
100
AcDbCircle
 10
67.0932621375
 20
81.6186481854
 30
0.0
 40
0.0886916668068544
100
AcDbArc
 50
193.2165225104
 51
278.858338227
  0
LINE
  5
1EB
330
1F
100
AcDbEntity
  8
0
  6
Continuous
 62
     7
370
    25
100
AcDbLine
 10
66.9069198157
 20
81.3635481895
 30
0.0
 11
66.9069198157
 21
81.301296726
 31
0.0
  0
ARC
  5
1EC
330
1F
100
AcDbEntity
  8
0
  6
Continuous
 62
     7
370
    25
100
AcDbCircle
 10
67.0932621375
 20
75.3813196023
 30
0.0
 40
0.0886916668068441
100
AcDbArc
 50
81.141661773
 51
166.7834774897
  0
SPLINE
  5
1ED
330
1F
100
AcDbEntity
  8
0
  6
Continuous
 62
     7
370
    25
100
AcDbSpline
210
0.0
220
0.0
230
1.0
 70
     8
 71
     3
 72
    14
 73
    10
 74
     0
 42
0.000000001
 43
0.00000001
 40
0.0
 40
0.0
 40
0.0
 40
0.0
 40
0.1250000000000015
 40
0.1250000000000015
 40
0.250000000000003
 40
0.250000000000003
 40
0.5000000000000039
 40
0.5000000000000039
 40
1.0
 40
1.0
 40
1.0
 40
1.0
 10
66.9069198395215
 20
75.63641968118421
 30
0.0
 10
66.91931143756062
 20
75.63641968118421
 30
0.0
 10
66.93072706362017
 20
75.63032489473106
 30
0.0
 10
66.9484927735822
 20
75.61499441160885
 30
0.0
 10
66.95561823675222
 20
75.6055879397034
 30
0.0
 10
66.97377874850807
 20
75.57639550472459
 30
0.0
 10
66.98206282290454
 20
75.55501076241107
 30
0.0
 10
67.00136919087947
 20
75.49046374791884
 30
0.0
 10
67.0069198395215
 20
75.44587457693345
 30
0.0
 10
67.0069198395215
 20
75.40159721687354
 30
0.0
  0
LINE
  5
1EE
330
1F
100
AcDbEntity
  8
0
  6
Continuous
 62
     7
370
    25
100
AcDbLine
 10
66.9069198157
 20
75.6986710617
 30
0.0
 11
66.9069198157
 21
75.6364195981
 31
0.0
  0
ARC
  5
1EF
330
1F
100
AcDbEntity
  8
0
  6
Continuous
 62
     7
370
    25
100
AcDbCircle
 10
66.9069198395
 20
82.8999838938
 30
0.0
 40
0.0999999999999943
100
AcDbArc
 50
0.0
 51
90.0
  0
LINE
  5
1F0
330
1F
100
AcDbEntity
  8
0
  6
Continuous
 62
     7
370
    25
100
AcDbLine
 10
66.9069198157
 20
82.89998387
 30
0.0
 11
67.0069196458
 21
82.89998387
 31
0.0
  0
LINE
  5
1F1
330
1F
100
AcDbEntity
  8
0
  6
Continuous
 62
     7
370
    25
100
AcDbLine
 10
66.9069198157
 20
82.9999837001
 30
0.0
 11
66.9069198157
 21
82.89998387
 31
0.0
  0
LINE
  5
1F2
330
1F
100
AcDbEntity
  8
0
  6
Continuous
 62
     7
370
    25
100
AcDbLine
 10
66.9069198157
 20
82.89998387
 30
0.0
 11
66.5069200295
 21
82.89998387
 31
0.0
  0
LINE
  5
1F3
330
1F
100
AcDbEntity
  8
0
  6
Continuous
 62
     7
370
    25
100
AcDbLine
 10
66.5069200295
 20
82.9999837001
 30
0.0
 11
66.9069198157
 21
82.9999837001
 31
0.0
  0
LINE
  5
1F4
330
1F
100
AcDbEntity
  8
0
  6
Continuous
 62
     7
370
    25
100
AcDbLine
 10
67.0069196458
 20
82.89998387
 30
0.0
 11
67.0069196458
 21
81.5983704665
 31
0.0
  0
LINE
  5
1F5
330
1F
100
AcDbEntity
  8
0
  6
Continuous
 62
     7
370
    25
100
AcDbLine
 10
66.9069198157
 20
81.3635481895
 30
0.0
 11
66.9069198157
 21
82.89998387
 31
0.0
  0
LINE
  5
1F6
330
1F
100
AcDbEntity
  8
0
  6
Continuous
 62
     7
370
    25
100
AcDbLine
 10
66.5069200295
 20
74.0999839177
 30
0.0
 11
66.9069198157
 21
74.0999839177
 31
0.0
  0
LINE
  5
1F7
330
1F
100
AcDbEntity
  8
0
  6
Continuous
 62
     7
370
    25
100
AcDbLine
 10
66.9069198157
 20
74.0999839177
 30
0.0
 11
66.9069198157
 21
75.6364195981
 31
0.0
  0
LINE
  5
1F8
330
1F
100
AcDbEntity
  8
0
  6
Continuous
 62
     7
370
    25
100
AcDbLine
 10
67.0069196458
 20
75.4015973212
 30
0.0
 11
67.0069196458
 21
74.0999839177
 31
0.0
  0
LINE
  5
1F9
330
1F
100
AcDbEntity
  8
0
  6
Continuous
 62
     7
370
    25
100
AcDbLine
 10
67.0069196458
 20
74.0999839177
 30
0.0
 11
66.9069198157
 21
74.0999839177
 31
0.0
  0
ARC
  5
1FA
330
1F
100
AcDbEntity
  8
0
  6
Continuous
 62
     7
370
    25
100
AcDbCircle
 10
66.9069198395
 20
74.0999838938
 30
0.0
 40
0.0999999999999943
100
AcDbArc
 50
270.0
 51
0.0
  0
LINE
  5
1FB
330
1F
100
AcDbEntity
  8
0
  6
Continuous
 62
     7
370
    25
100
AcDbLine
 10
66.9069198157
 20
74.0999839177
 30
0.0
 11
66.9069198157
 21
73.9999840876
 31
0.0
  0
LINE
  5
1FC
330
1F
100
AcDbEntity
  8
0
  6
Continuous
 62
     7
370
    25
100
AcDbLine
 10
66.9069198157
 20
73.9999840876
 30
0.0
 11
66.5069200295
 21
73.9999840876
 31
0.0
  0
SPLINE
  5
1FD
330
1F
100
AcDbEntity
  8
0
  6
Continuous
 62
     7
370
    25
100
AcDbSpline
210
0.0
220
0.0
230
1.0
 70
     8
 71
     3
 72
    12
 73
     8
 74
     0
 42
0.000000001
 43
0.00000001
 40
0.0
 40
0.0
 40
0.0
 40
0.0
 40
0.25
 40
0.25
 40
0.5
 40
0.5
 40
1.0
 40
1.0
 40
1.0
 40
1.0
 10
67.0362081542358
 20
82.83359250961776
 30
0.0
 10
67.03043810130295
 20
82.83927317925385
 30
0.0
 10
67.02527558766748
 20
82.84597129398202
 30
0.0
 10
67.01674228300939
 20
82.85998657795614
 30
0.0
 10
67.01337149198677
 20
82.86730374720212
 30
0.0
 10
67.00681166886528
 20
82.88806008321714
 30
0.0
 10
67.0069198395215
 20
82.89998389383946
 30
0.0
 10
67.0069198395215
 20
82.89998389383946
 30
0.0
  0
SPLINE
  5
1FE
330
1F
100
AcDbEntity
  8
0
  6
Continuous
 62
     7
370
    25
100
AcDbSpline
210
0.0
220
0.0
230
1.0
 70
     8
 71
     3
 72
    10
 73
     6
 74
     0
 42
0.000000001
 43
0.00000001
 40
0.0
 40
0.0
 40
0.0
 40
0.0
 40
0.5
 40
0.5
 40
1.0
 40
1.0
 40
1.0
 40
1.0
 10
67.0362081542358
 20
82.83359250961776
 30
0.0
 10
67.04774826010147
 20
82.82223117034556
 30
0.0
 10
67.06103753586282
 20
82.81491597292273
 30
0.0
 10
67.08623468001275
 20
82.80596624771314
 30
0.0
 10
67.09814254840134
 20
82.80433171992641
 30
0.0
 10
67.1069198395215
 20
82.80433171992641
 30
0.0
  0
SPLINE
  5
1FF
330
1F
100
AcDbEntity
  8
0
  6
Continuous
 62
     7
370
    25
100
AcDbSpline
210
0.0
220
0.0
230
1.0
 70
     8
 71
     3
 72
    10
 73
     6
 74
     0
 42
0.000000001
 43
0.00000001
 40
0.0
 40
0.0
 40
0.0
 40
0.0
 40
0.5
 40
0.5
 40
1.0
 40
1.0
 40
1.0
 40
1.0
 10
67.0362081542358
 20
74.16637527806117
 30
0.0
 10
67.04774826010147
 20
74.17773661733337
 30
0.0
 10
67.06103753586282
 20
74.18505181475619
 30
0.0
 10
67.08623468001275
 20
74.19400153996578
 30
0.0
 10
67.09814254840134
 20
74.19563606775252
 30
0.0
 10
67.1069198395215
 20
74.19563606775252
 30
0.0
  0
SPLINE
  5
200
330
1F
100
AcDbEntity
  8
0
  6
Continuous
 62
     7
370
    25
100
AcDbSpline
210
0.0
220
0.0
230
1.0
 70
     8
 71
     3
 72
    12
 73
     8
 74
     0
 42
0.000000001
 43
0.00000001
 40
0.0
 40
0.0
 40
0.0
 40
0.0
 40
0.25
 40
0.25
 40
0.5
 40
0.5
 40
1.0
 40
1.0
 40
1.0
 40
1.0
 10
67.0362081542358
 20
74.16637527806117
 30
0.0
 10
67.03043810130295
 20
74.16069460842508
 30
0.0
 10
67.02527558766748
 20
74.15399649369692
 30
0.0
 10
67.01674228300939
 20
74.13998120972279
 30
0.0
 10
67.01337149198677
 20
74.13266404047681
 30
0.0
 10
67.00681166886528
 20
74.11190770446179
 30
0.0
 10
67.0069198395215
 20
74.09998389383946
 30
0.0
 10
67.0069198395215
 20
74.09998389383946
 30
0.0
  0
SPLINE
  5
201
330
1F
100
AcDbEntity
  8
0
  6
Continuous
 62
     7
370
    25
100
AcDbSpline
210
0.0
220
0.0
230
1.0
 70
     8
 71
     3
 72
    16
 73
    12
 74
     0
 42
0.000000001
 43
0.00000001
 40
0.0
 40
0.0
 40
0.0
 40
0.0
 40
0.2500000000000001
 40
0.2500000000000001
 40
0.3750000000000001
 40
0.3750000000000001
 40
0.5000000000000001
 40
0.5000000000000001
 40
0.7500000000000002
 40
0.7500000000000002
 40
1.0
 40
1.0
 40
1.0
 40
1.0
 10
61.5069198395215
 20
76.7679330862706
 30
0.0
 10
61.66461391938004
 20
76.80703225482767
 30
0.0
 10
61.8227363705406
 20
76.84978060664606
 30
0.0
 10
62.06760573480259
 20
76.90705133272799
 30
0.0
 10
62.15059250870246
 20
76.92483828827302
 30
0.0
 10
62.32264821238986
 20
76.95163411242926
 30
0.0
 10
62.41327330579442
 20
76.9602278345711
 30
0.0
 10
62.6807328769119
 20
76.96100314040523
 30
0.0
 10
62.85722212190576
 20
76.92770628937821
 30
0.0
 10
63.18785388838974
 20
76.85069881454413
 30
0.0
 10
63.34760785449342
 20
76.80743340334885
 30
0.0
 10
63.50691983952159
 20
76.76793308627057
 30
0.0
  0
LINE
  5
202
330
1F
100
AcDbEntity
  8
0
  6
Continuous
 62
     7
370
    25
100
AcDbLine
 10
61.506919792
 20
76.7679331034
 30
0.0
 11
61.506919792
 21
80.2320346843
 31
0.0
  0
SPLINE
  5
203
330
1F
100
AcDbEntity
  8
0
  6
Continuous
 62
     7
370
    25
100
AcDbSpline
210
0.0
220
0.0
230
1.0
 70
     8
 71
     3
 72
    16
 73
    12
 74
     0
 42
0.000000001
 43
0.00000001
 40
0.0
 40
0.0
 40
0.0
 40
0.0
 40
0.2499999999999999
 40
0.2499999999999999
 40
0.3749999999999998
 40
0.3749999999999998
 40
0.4999999999999998
 40
0.4999999999999998
 40
0.7499999999999999
 40
0.7499999999999999
 40
1.0
 40
1.0
 40
1.0
 40
1.0
 10
63.5069198395215
 20
80.23203470140832
 30
0.0
 10
63.34922575966296
 20
80.19293553285125
 30
0.0
 10
63.19110330850242
 20
80.15018718103286
 30
0.0
 10
62.94623394424044
 20
80.09291645495095
 30
0.0
 10
62.86324717034057
 20
80.07512949940592
 30
0.0
 10
62.69119146665318
 20
80.04833367524967
 30
0.0
 10
62.60056637324863
 20
80.03973995310783
 30
0.0
 10
62.33310680213116
 20
80.03896464727369
 30
0.0
 10
62.15661755713731
 20
80.07226149830072
 30
0.0
 10
61.82598579065334
 20
80.14926897313477
 30
0.0
 10
61.66623182454966
 20
80.19253438433006
 30
0.0
 10
61.5069198395215
 20
80.23203470140832
 30
0.0
  0
SPLINE
  5
204
330
1F
100
AcDbEntity
  8
0
  6
Continuous
 62
     7
370
    25
100
AcDbSpline
210
0.0
220
0.0
230
1.0
 70
    11
 71
     3
 72
    26
 73
    22
 74
     0
 42
0.000000001
 43
0.00000001
 40
0.0
 40
0.0
 40
0.0
 40
0.0
 40
0.1250000000000001
 40
0.1250000000000001
 40
0.2500000000000001
 40
0.2500000000000001
 40
0.3750000000000002
 40
0.3750000000000002
 40
0.4375000000000001
 40
0.4375000000000001
 40
0.5000000000000001
 40
0.5000000000000001
 40
0.625
 40
0.625
 40
0.75
 40
0.75
 40
0.8749999999999999
 40
0.8749999999999999
 40
0.9375
 40
0.9375
 40
1.0
 40
1.0
 40
1.0
 40
1.0
 10
62.39608375015433
 20
78.11916973277943
 30
0.0
 10
62.30650029363165
 20
78.15844799838665
 30
0.0
 10
62.24072900538099
 20
78.23808073792844
 30
0.0
 10
62.16840695863448
 20
78.41674290883704
 30
0.0
 10
62.16166597708232
 20
78.5191185554824
 30
0.0
 10
62.20837594253854
 20
78.70584218804981
 30
0.0
 10
62.26201651213108
 20
78.79370001880942
 30
0.0
 10
62.37991247146981
 20
78.87709759743565
 30
0.0
 10
62.42595940153899
 20
78.89657226058786
 30
0.0
 10
62.52314355614798
 20
78.90846798290124
 30
0.0
 10
62.57254999407892
 20
78.9004651939082
 30
0.0
 10
62.7058130392901
 20
78.84249219439697
 30
0.0
 10
62.77297454652231
 20
78.76215544252189
 30
0.0
 10
62.84548045961223
 20
78.58317475418427
 30
0.0
 10
62.85222683204453
 20
78.48079834270746
 30
0.0
 10
62.80526279727054
 20
78.29358645131734
 30
0.0
 10
62.7516908371561
 20
78.20597729235881
 30
0.0
 10
62.63330757168848
 20
78.12253116300047
 30
0.0
 10
62.58709777391319
 20
78.10325414121516
 30
0.0
 10
62.49097934205616
 20
78.09158031379211
 30
0.0
 10
62.44087547841566
 20
78.0995305999758
 30
0.0
 10
62.39608375015432
 20
78.11916973277941
 30
0.0
  0
SPLINE
  5
205
330
1F
100
AcDbEntity
  8
0
  6
Continuous
 62
     7
370
    25
100
AcDbSpline
210
0.0
220
0.0
230
1.0
 70
     8
 71
     3
 72
    12
 73
     8
 74
     0
 42
0.000000001
 43
0.00000001
 40
0.0
 40
0.0
 40
0.0
 40
0.0
 40
0.25
 40
0.25
 40
0.5
 40
0.5
 40
1.0
 40
1.0
 40
1.0
 40
1.0
 10
67.00734741155203
 20
82.99970712837951
 30
0.0
 10
67.00326897284975
 20
82.99970504352066
 30
0.0
 10
67.0002889384859
 20
82.9962105825851
 30
0.0
 10
66.99463313913013
 20
82.98751817295881
 30
0.0
 10
66.99195737413822
 20
82.98232022426805
 30
0.0
 10
66.98154767426301
 20
82.97209304316029
 30
0.0
 10
66.97766180501675
 20
82.97066328458152
 30
0.0
 10
66.97763051763808
 20
82.97069457196018
 30
0.0
  0
SPLINE
  5
206
330
1F
100
AcDbEntity
  8
0
  6
Continuous
 62
     7
370
    25
100
AcDbSpline
210
0.0
220
0.0
230
1.0
 70
     8
 71
     3
 72
     9
 73
     5
 74
     0
 42
0.000000001
 43
0.00000001
 40
0.0
 40
0.0
 40
0.0
 40
0.0
 40
0.4116823612663844
 40
0.9999999999999999
 40
0.9999999999999999
 40
0.9999999999999999
 40
0.9999999999999999
 10
66.93019496380315
 20
83.00017508691346
 30
0.0
 10
66.94078322237401
 20
83.0003148929331
 30
0.0
 10
66.96650270799465
 20
83.00065448975052
 30
0.0
 10
66.99221852172028
 20
83.00005801433042
 30
0.0
 10
67.00734758852944
 20
82.99970709731971
 30
0.0
  0
SPLINE
  5
207
330
1F
100
AcDbEntity
  8
0
  6
Continuous
 62
     7
370
    25
100
AcDbSpline
210
0.0
220
0.0
230
1.0
 70
     8
 71
     3
 72
    14
 73
    10
 74
     0
 42
0.000000001
 43
0.00000001
 40
0.0
 40
0.0
 40
0.0
 40
0.0
 40
0.25
 40
0.25
 40
0.5
 40
0.5
 40
0.75
 40
0.75
 40
1.0
 40
1.0
 40
1.0
 40
1.0
 10
67.00734741155203
 20
82.99970712837951
 30
0.0
 10
67.01142585025433
 20
82.99970921323835
 30
0.0
 10
67.01731621118168
 20
82.99621928676399
 30
0.0
 10
67.03012558705399
 20
82.98144592829239
 30
0.0
 10
67.03704460199893
 20
82.97016249629513
 30
0.0
 10
67.04931609547388
 20
82.93899264392125
 30
0.0
 10
67.05169858338039
 20
82.92091328642314
 30
0.0
 10
67.049270149293
 20
82.8803801268959
 30
0.0
 10
67.0444592272991
 20
82.85792632486675
 30
0.0
 10
67.0362081542358
 20
82.83359250961776
 30
0.0
  0
SPLINE
  5
208
330
1F
100
AcDbEntity
  8
0
  6
Continuous
 62
     7
370
    25
100
AcDbSpline
210
0.0
220
0.0
230
1.0
 70
     8
 71
     3
 72
    12
 73
     8
 74
     0
 42
0.000000001
 43
0.00000001
 40
0.0
 40
0.0
 40
0.0
 40
0.0
 40
0.25
 40
0.25
 40
0.5
 40
0.5
 40
1.0
 40
1.0
 40
1.0
 40
1.0
 10
67.00734741155203
 20
74.00026065929941
 30
0.0
 10
67.00326897284975
 20
74.00026274415826
 30
0.0
 10
67.00028893848591
 20
74.0037572050938
 30
0.0
 10
66.99463313913013
 20
74.01244961472011
 30
0.0
 10
66.99195737413822
 20
74.01764756341088
 30
0.0
 10
66.981547674263
 20
74.02787474451864
 30
0.0
 10
66.97766180501675
 20
74.0293045030974
 30
0.0
 10
66.97763051763808
 20
74.02927321571875
 30
0.0
  0
SPLINE
  5
209
330
1F
100
AcDbEntity
  8
0
  6
Continuous
 62
     7
370
    25
100
AcDbSpline
210
0.0
220
0.0
230
1.0
 70
     8
 71
     3
 72
    12
 73
     8
 74
     0
 42
0.000000001
 43
0.00000001
 40
0.0
 40
0.0
 40
0.0
 40
0.0
 40
0.25
 40
0.25
 40
0.5
 40
0.5
 40
1.0
 40
1.0
 40
1.0
 40
1.0
 10
67.00734741155203
 20
74.00026065929941
 30
0.0
 10
67.01142585025433
 20
74.00025857444058
 30
0.0
 10
67.0173162111817
 20
74.00374850091494
 30
0.0
 10
67.03012558705399
 20
74.01852185938654
 30
0.0
 10
67.03704460199894
 20
74.02980529138378
 30
0.0
 10
67.05545184221137
 20
74.0765600699446
 30
0.0
 10
67.05271030036242
 20
74.11770764756317
 30
0.0
 10
67.0362081542358
 20
74.16637527806117
 30
0.0
  0
SPLINE
  5
20A
330
1F
100
AcDbEntity
  8
0
  6
Continuous
 62
     7
370
    25
100
AcDbSpline
210
0.0
220
0.0
230
1.0
 70
     8
 71
     3
 72
     9
 73
     5
 74
     0
 42
0.000000001
 43
0.00000001
 40
0.0
 40
0.0
 40
0.0
 40
0.0
 40
0.4116823612663844
 40
0.9999999999999999
 40
0.9999999999999999
 40
0.9999999999999999
 40
0.9999999999999999
 10
66.93019496380315
 20
73.99979270076547
 30
0.0
 10
66.94078322237401
 20
73.99965289474582
 30
0.0
 10
66.96650270799465
 20
73.99931329792841
 30
0.0
 10
66.99221852172028
 20
73.9999097733485
 30
0.0
 10
67.00734758852944
 20
74.00026069035923
 30
0.0
  0
SPLINE
  5
20B
330
1F
100
AcDbEntity
  8
0
  6
Continuous
 62
     7
370
    25
100
AcDbSpline
210
0.0
220
0.0
230
1.0
 70
     8
 71
     3
 72
    10
 73
     6
 74
     0
 42
0.000000001
 43
0.00000001
 40
0.0
 40
0.0
 40
0.0
 40
0.0
 40
0.5
 40
0.5
 40
1.0
 40
1.0
 40
1.0
 40
1.0
 10
67.00734741155203
 20
82.99970712837951
 30
0.0
 10
67.0236611663612
 20
82.99971546781485
 30
0.0
 10
67.0410210102242
 20
82.99981048653484
 30
0.0
 10
67.07667208989012
 20
82.9981790770411
 30
0.0
 10
67.08989515350653
 20
82.99998389383946
 30
0.0
 10
67.1069198395215
 20
82.99998389383946
 30
0.0
  0
SPLINE
  5
20C
330
1F
100
AcDbEntity
  8
0
  6
Continuous
 62
     7
370
    25
100
AcDbSpline
210
0.0
220
0.0
230
1.0
 70
     8
 71
     3
 72
    10
 73
     6
 74
     0
 42
0.000000001
 43
0.00000001
 40
0.0
 40
0.0
 40
0.0
 40
0.0
 40
0.5
 40
0.5
 40
1.0
 40
1.0
 40
1.0
 40
1.0
 10
67.00734741155203
 20
74.00026065929941
 30
0.0
 10
67.0236611663612
 20
74.00025231986407
 30
0.0
 10
67.0410210102242
 20
74.00015730114407
 30
0.0
 10
67.07667208989012
 20
74.00178871063783
 30
0.0
 10
67.08989515350653
 20
73.99998389383947
 30
0.0
 10
67.1069198395215
 20
73.99998389383947
 30
0.0
  0
SPLINE
  5
20D
330
1F
100
AcDbEntity
  8
0
  6
Continuous
 62
     7
370
    25
100
AcDbSpline
210
0.0
220
0.0
230
1.0
 70
     8
 71
     3
 72
    18
 73
    14
 74
     0
 42
0.000000001
 43
0.00000001
 40
0.0
 40
0.0
 40
0.0
 40
0.0
 40
0.2499999999999999
 40
0.2499999999999999
 40
0.3749999999999999
 40
0.3749999999999999
 40
0.5
 40
0.5
 40
0.6250000000000001
 40
0.6250000000000001
 40
0.75
 40
0.75
 40
1.0
 40
1.0
 40
1.0
 40
1.0
 10
61.5069198395215
 20
80.23203470140832
 30
0.0
 10
61.40024418609793
 20
79.96544214308145
 30
0.0
 10
61.30768749685031
 20
79.69154087083447
 30
0.0
 10
61.20672745711358
 20
79.26108288560133
 30
0.0
 10
61.17948879848717
 20
79.11427631271442
 30
0.0
 10
61.14180821566745
 20
78.81196829915615
 30
0.0
 10
61.13178027123184
 20
78.65714144153704
 30
0.0
 10
61.13139330829511
 20
78.35212379083566
 30
0.0
 10
61.14078090058555
 20
78.2002966396308
 30
0.0
 10
61.17749867713553
 20
77.89791891658606
 30
0.0
 10
61.20495940434523
 20
77.74742048524908
 30
0.0
 10
61.30651450113557
 20
77.31150124024299
 30
0.0
 10
61.39977598501491
 20
77.03569572343486
 30
0.0
 10
61.5069198395215
 20
76.76793308627059
 30
0.0
  0
LINE
  5
20E
330
1F
100
AcDbEntity
  8
0
  6
Continuous
 62
     8
370
    25
100
AcDbLine
 10
70.2069197978
 20
73.9999840876
 30
0.0
 11
70.2069197978
 21
82.9999837001
 31
0.0
  0
LINE
  5
20F
330
1F
100
AcDbEntity
  8
0
  6
Continuous
 62
     8
370
    25
100
AcDbLine
 10
60.0883137631
 20
82.89998387
 30
0.0
 11
59.1069197944
 21
82.89998387
 31
0.0
  0
LINE
  5
210
330
1F
100
AcDbEntity
  8
0
  6
Continuous
 62
     8
370
    25
100
AcDbLine
 10
59.1069197944
 20
82.89998387
 30
0.0
 11
59.1069197944
 21
82.1945279745
 31
0.0
  0
LINE
  5
211
330
1F
100
AcDbEntity
  8
0
  6
Continuous
 62
     8
370
    25
100
AcDbLine
 10
66.0069199476
 20
82.89998387
 30
0.0
 11
64.9255259159
 21
82.89998387
 31
0.0
  0
LINE
  5
212
330
1F
100
AcDbEntity
  8
0
  6
Continuous
 62
     8
370
    25
100
AcDbLine
 10
65.9069198846
 20
74.0999839177
 30
0.0
 11
65.9069198846
 21
74.8054398132
 31
0.0
  0
LINE
  5
213
330
1F
100
AcDbEntity
  8
0
  6
Continuous
 62
     8
370
    25
100
AcDbLine
 10
64.9255259159
 20
74.0999839177
 30
0.0
 11
65.9069198846
 21
74.0999839177
 31
0.0
  0
LINE
  5
214
330
1F
100
AcDbEntity
  8
0
  6
Continuous
 62
     8
370
    25
100
AcDbLine
 10
59.1069197944
 20
74.0999839177
 30
0.0
 11
60.0883137631
 21
74.0999839177
 31
0.0
  0
LINE
  5
215
330
1F
100
AcDbEntity
  8
0
  6
Continuous
 62
     8
370
    25
100
AcDbLine
 10
59.1069197944
 20
74.8054398132
 30
0.0
 11
59.1069197944
 21
74.0999839177
 31
0.0
  0
LINE
  5
216
330
1F
100
AcDbEntity
  8
0
  6
Continuous
 62
     8
370
    25
100
AcDbLine
 10
66.6737292159
 20
75.6986710617
 30
0.0
 11
66.9069198157
 21
75.6986710617
 31
0.0
  0
LINE
  5
217
330
1F
100
AcDbEntity
  8
0
  6
Continuous
 62
     8
370
    25
100
AcDbLine
 10
66.9069198157
 20
81.301296726
 30
0.0
 11
66.6737292159
 21
81.301296726
 31
0.0
  0
LINE
  5
218
330
1F
100
AcDbEntity
  8
0
  6
Continuous
 62
     8
370
    25
100
AcDbLine
 10
66.5069200295
 20
81.5347252787
 30
0.0
 11
66.5069200295
 21
82.89998387
 31
0.0
  0
LINE
  5
219
330
1F
100
AcDbEntity
  8
0
  6
Continuous
 62
     8
370
    25
100
AcDbLine
 10
66.5069200295
 20
74.0999839177
 30
0.0
 11
66.5069200295
 21
75.4652425089
 31
0.0
  0
LINE
  5
21A
330
1F
100
AcDbEntity
  8
0
  6
Continuous
 62
     8
370
    25
100
AcDbLine
 10
66.6311961795
 20
81.3635481895
 30
0.0
 11
66.9069198157
 21
81.3635481895
 31
0.0
  0
LINE
  5
21B
330
1F
100
AcDbEntity
  8
0
  6
Continuous
 62
     8
370
    25
100
AcDbLine
 10
66.9069198157
 20
75.6364195981
 30
0.0
 11
66.6311961795
 21
75.6364195981
 31
0.0
  0
SPLINE
  5
21C
330
1F
100
AcDbEntity
  8
0
  6
Continuous
 62
     8
370
    25
100
AcDbSpline
210
0.0
220
0.0
230
1.0
 70
     8
 71
     3
 72
    14
 73
    10
 74
     0
 42
0.000000001
 43
0.00000001
 40
0.0
 40
0.0
 40
0.0
 40
0.0
 40
0.25
 40
0.25
 40
0.5
 40
0.5
 40
0.75
 40
0.75
 40
1.0
 40
1.0
 40
1.0
 40
1.0
 10
67.75691983952149
 20
83.29998389383947
 30
0.0
 10
67.75691984533815
 20
83.29998389411728
 30
0.0
 10
67.78117570544181
 20
83.29832715659151
 30
0.0
 10
67.87275514828592
 20
83.2943489579115
 30
0.0
 10
67.93938878248296
 20
83.29242704037868
 30
0.0
 10
68.07485659083565
 20
83.29241743020214
 30
0.0
 10
68.14172338762327
 20
83.2943755012448
 30
0.0
 10
68.23245651323667
 20
83.29831912495513
 30
0.0
 10
68.25691052508316
 20
83.29998407735236
 30
0.0
 10
68.25691983920777
 20
83.29998389382224
 30
0.0
  0
LWPOLYLINE
  5
21D
330
1F
100
AcDbEntity
  8
0
  6
Continuous
 62
     8
370
    25
100
AcDbPolyline
 90
       13
 70
   128
 43
0.0
 10
68.5069161664
 20
83.0499831495
 10
68.5069198917
 20
83.0499840808
 10
68.4778942923
 20
83.0460511056
 10
68.3934144872
 20
83.035944393
 10
68.2641101266
 20
83.0243256783
 10
68.1059478047
 20
83.0164560025
 10
67.937585638
 20
83.0157626328
 10
67.7794265757
 20
83.0223186781
 10
67.6466143887
 20
83.0332272594
 10
67.5533722351
 20
83.0438182597
 10
67.5095339502
 20
83.0496152771
 10
67.5069197278
 20
83.0499840808
 10
67.5069197278
 20
83.0499840808
  0
INSERT
  5
229
330
1F
100
AcDbEntity
  8
0
  6
Continuous
 62
     7
370
    18
100
AcDbBlockReference
  2
SW_CENTERMARKSYMBOL_1
 10
62.5069198395
 20
78.4999838938
 30
0.0
  0
LINE
  5
22A
330
1F
100
AcDbEntity
  8
0
  6
Continuous
 62
     7
370
    18
100
AcDbLine
 10
78.9886999888
 20
74.2007895235
 30
0.0
 11
70.5155135206
 21
73.9360024464
 31
0.0
  0
LINE
  5
22B
330
1F
100
AcDbEntity
  8
0
  6
Continuous
 62
     7
370
    18
100
AcDbLine
 10
78.9886999888
 20
82.7991782642
 30
0.0
 11
70.5155135206
 21
83.0639653413
 31
0.0
  0
LINE
  5
22C
330
1F
100
AcDbEntity
  8
0
  6
Continuous
 62
     7
370
    18
100
AcDbLine
 10
70.5155135206
 20
83.5209028413
 30
0.0
 11
70.5155135206
 21
73.4790649464
 31
0.0
  0
ARC
  5
22D
330
1F
100
AcDbEntity
  8
0
  6
Continuous
 62
     7
370
    18
100
AcDbCircle
 10
62.5069198395
 20
78.4999838938
 30
0.0
 40
4.283000000000007
100
AcDbArc
 50
75.0
 51
345.0
  0
ENDSEC
  0
SECTION
  2
OBJECTS
  0
DICTIONARY
  5
C
330
0
100
AcDbDictionary
281
     1
  3
ACAD_GROUP
350
D
  3
ACAD_LAYOUT
350
1A
  3
ACAD_MLINESTYLE
350
17
  3
ACAD_PLOTSETTINGS
350
19
  3
ACAD_PLOTSTYLENAME
350
E
  3
ACAD_SCALELIST
350
47
  0
DICTIONARY
  5
D
102
{ACAD_REACTORS
330
C
102
}
330
C
100
AcDbDictionary
281
     1
  0
DICTIONARY
  5
1A
102
{ACAD_REACTORS
330
C
102
}
330
C
100
AcDbDictionary
281
     1
  3
Layout1
350
1E
  3
Layout2
350
26
  3
Model
350
22
  0
DICTIONARY
  5
17
102
{ACAD_REACTORS
330
C
102
}
330
C
100
AcDbDictionary
281
     1
  3
Standard
350
18
  0
DICTIONARY
  5
19
102
{ACAD_REACTORS
330
C
102
}
330
C
100
AcDbDictionary
281
     1
  0
ACDBDICTIONARYWDFLT
  5
E
102
{ACAD_REACTORS
330
C
102
}
330
C
100
AcDbDictionary
281
     1
  3
Normal
350
F
100
AcDbDictionaryWithDefault
340
F
  0
DICTIONARY
  5
47
102
{ACAD_REACTORS
330
C
102
}
330
C
100
AcDbDictionary
281
     1
  3
A0
350
48
  3
A1
350
49
  3
A2
350
4A
  3
A3
350
4B
  3
A4
350
4C
  3
A5
350
4D
  3
A6
350
4E
  3
A7
350
4F
  3
A8
350
50
  3
A9
350
51
  3
B0
350
52
  3
B1
350
53
  3
B2
350
54
  3
B3
350
55
  3
B4
350
56
  3
B5
350
57
  3
B6
350
58
  3
B7
350
59
  3
B8
350
5A
  3
B9
350
5B
  3
C0
350
5C
  3
C1
350
5D
  3
C2
350
5E
  3
C3
350
5F
  3
C4
350
60
  3
C5
350
61
  3
C6
350
62
  3
C7
350
63
  3
C8
350
64
  3
C9
350
65
  3
D0
350
66
  3
D1
350
67
  3
D2
350
68
  0
LAYOUT
  5
1E
102
{ACAD_REACTORS
330
1A
102
}
330
1A
100
AcDbPlotSettings
  1

  2
none_device
  4

  6

 40
0.0
 41
0.0
 42
0.0
 43
0.0
 44
0.0
 45
0.0
 46
0.0
 47
0.0
 48
0.0
 49
0.0
140
0.0
141
0.0
142
1.0
143
1.0
 70
   688
 72
     1
 73
     0
 74
     5
  7

 75
    16
147
1.0
148
0.0
149
0.0
100
AcDbLayout
  1
Layout1
 70
     1
 71
     1
 10
0.0
 20
0.0
 11
420.0
 21
297.0
 12
0.0
 22
0.0
 32
0.0
 14
1.0000000000E+20
 24
1.0000000000E+20
 34
1.0000000000E+20
 15
-1.0000000000E+20
 25
-1.0000000000E+20
 35
-1.0000000000E+20
146
0.0
 13
0.0
 23
0.0
 33
0.0
 16
1.0
 26
0.0
 36
0.0
 17
0.0
 27
1.0
 37
0.0
 76
     0
330
1B
  0
LAYOUT
  5
26
102
{ACAD_REACTORS
330
1A
102
}
330
1A
100
AcDbPlotSettings
  1

  2
none_device
  4

  6

 40
0.0
 41
0.0
 42
0.0
 43
0.0
 44
0.0
 45
0.0
 46
0.0
 47
0.0
 48
0.0
 49
0.0
140
0.0
141
0.0
142
1.0
143
1.0
 70
   688
 72
     1
 73
     0
 74
     5
  7

 75
    16
147
1.0
148
0.0
149
0.0
100
AcDbLayout
  1
Layout2
 70
     1
 71
     2
 10
0.0
 20
0.0
 11
0.0
 21
0.0
 12
0.0
 22
0.0
 32
0.0
 14
0.0
 24
0.0
 34
0.0
 15
0.0
 25
0.0
 35
0.0
146
0.0
 13
0.0
 23
0.0
 33
0.0
 16
1.0
 26
0.0
 36
0.0
 17
0.0
 27
1.0
 37
0.0
 76
     0
330
23
  0
LAYOUT
  5
22
102
{ACAD_REACTORS
330
1A
102
}
330
1A
100
AcDbPlotSettings
  1

  2
none_device
  4
Letter_(8.50_x_11.00_Inches)
  6

 40
6.35
 41
6.35
 42
6.35000508
 43
6.35000508
 44
215.9
 45
279.4
 46
0.0
 47
0.0
 48
0.0
 49
0.0
140
0.0
141
0.0
142
1.0
143
1.0
 70
  1712
 72
     1
 73
     0
 74
     0
  7

 75
     0
147
1.0
148
0.0
149
0.0
100
AcDbLayout
  1
Model
 70
     1
 71
     0
 10
0.0
 20
0.0
 11
215.9
 21
139.7
 12
0.0
 22
0.0
 32
0.0
 14
0.0
 24
0.0
 34
0.0
 15
215.9
 25
139.7
 35
0.0
146
0.0
 13
0.0
 23
0.0
 33
0.0
 16
1.0
 26
0.0
 36
0.0
 17
0.0
 27
1.0
 37
0.0
 76
     0
330
1F
331
29
  0
MLINESTYLE
  5
18
102
{ACAD_REACTORS
330
17
102
}
330
17
100
AcDbMlineStyle
  2
Standard
 70
     0
  3

 62
   256
 51
90.0
 52
90.0
 71
     2
 49
0.5
 62
   256
  6
BYLAYER
 49
-0.5
 62
   256
  6
BYLAYER
  0
ACDBPLACEHOLDER
  5
F
102
{ACAD_REACTORS
330
E
102
}
330
E
  0
SCALE
  5
48
102
{ACAD_REACTORS
330
47
102
}
330
47
100
AcDbScale
 70
     0
300
1:1
140
1.0
141
1.0
290
     1
  0
SCALE
  5
49
102
{ACAD_REACTORS
330
47
102
}
330
47
100
AcDbScale
 70
     0
300
1:2
140
1.0
141
2.0
290
     0
  0
SCALE
  5
4A
102
{ACAD_REACTORS
330
47
102
}
330
47
100
AcDbScale
 70
     0
300
1:4
140
1.0
141
4.0
290
     0
  0
SCALE
  5
4B
102
{ACAD_REACTORS
330
47
102
}
330
47
100
AcDbScale
 70
     0
300
1:5
140
1.0
141
5.0
290
     0
  0
SCALE
  5
4C
102
{ACAD_REACTORS
330
47
102
}
330
47
100
AcDbScale
 70
     0
300
1:8
140
1.0
141
8.0
290
     0
  0
SCALE
  5
4D
102
{ACAD_REACTORS
330
47
102
}
330
47
100
AcDbScale
 70
     0
300
1:10
140
1.0
141
10.0
290
     0
  0
SCALE
  5
4E
102
{ACAD_REACTORS
330
47
102
}
330
47
100
AcDbScale
 70
     0
300
1:16
140
1.0
141
16.0
290
     0
  0
SCALE
  5
4F
102
{ACAD_REACTORS
330
47
102
}
330
47
100
AcDbScale
 70
     0
300
1:20
140
1.0
141
20.0
290
     0
  0
SCALE
  5
50
102
{ACAD_REACTORS
330
47
102
}
330
47
100
AcDbScale
 70
     0
300
1:30
140
1.0
141
30.0
290
     0
  0
SCALE
  5
51
102
{ACAD_REACTORS
330
47
102
}
330
47
100
AcDbScale
 70
     0
300
1:40
140
1.0
141
40.0
290
     0
  0
SCALE
  5
52
102
{ACAD_REACTORS
330
47
102
}
330
47
100
AcDbScale
 70
     0
300
1:50
140
1.0
141
50.0
290
     0
  0
SCALE
  5
53
102
{ACAD_REACTORS
330
47
102
}
330
47
100
AcDbScale
 70
     0
300
1:100
140
1.0
141
100.0
290
     0
  0
SCALE
  5
54
102
{ACAD_REACTORS
330
47
102
}
330
47
100
AcDbScale
 70
     0
300
2:1
140
2.0
141
1.0
290
     0
  0
SCALE
  5
55
102
{ACAD_REACTORS
330
47
102
}
330
47
100
AcDbScale
 70
     0
300
4:1
140
4.0
141
1.0
290
     0
  0
SCALE
  5
56
102
{ACAD_REACTORS
330
47
102
}
330
47
100
AcDbScale
 70
     0
300
8:1
140
8.0
141
1.0
290
     0
  0
SCALE
  5
57
102
{ACAD_REACTORS
330
47
102
}
330
47
100
AcDbScale
 70
     0
300
10:1
140
10.0
141
1.0
290
     0
  0
SCALE
  5
58
102
{ACAD_REACTORS
330
47
102
}
330
47
100
AcDbScale
 70
     0
300
100:1
140
100.0
141
1.0
290
     0
  0
SCALE
  5
59
102
{ACAD_REACTORS
330
47
102
}
330
47
100
AcDbScale
 70
     0
300
1/128" = 1'-0"
140
0.0078125
141
12.0
290
     0
  0
SCALE
  5
5A
102
{ACAD_REACTORS
330
47
102
}
330
47
100
AcDbScale
 70
     0
300
1/64" = 1'-0"
140
0.015625
141
12.0
290
     0
  0
SCALE
  5
5B
102
{ACAD_REACTORS
330
47
102
}
330
47
100
AcDbScale
 70
     0
300
1/32" = 1'-0"
140
0.03125
141
12.0
290
     0
  0
SCALE
  5
5C
102
{ACAD_REACTORS
330
47
102
}
330
47
100
AcDbScale
 70
     0
300
1/16" = 1'-0"
140
0.0625
141
12.0
290
     0
  0
SCALE
  5
5D
102
{ACAD_REACTORS
330
47
102
}
330
47
100
AcDbScale
 70
     0
300
3/32" = 1'-0"
140
0.09375
141
12.0
290
     0
  0
SCALE
  5
5E
102
{ACAD_REACTORS
330
47
102
}
330
47
100
AcDbScale
 70
     0
300
1/8" = 1'-0"
140
0.125
141
12.0
290
     0
  0
SCALE
  5
5F
102
{ACAD_REACTORS
330
47
102
}
330
47
100
AcDbScale
 70
     0
300
3/16" = 1'-0"
140
0.1875
141
12.0
290
     0
  0
SCALE
  5
60
102
{ACAD_REACTORS
330
47
102
}
330
47
100
AcDbScale
 70
     0
300
1/4" = 1'-0"
140
0.25
141
12.0
290
     0
  0
SCALE
  5
61
102
{ACAD_REACTORS
330
47
102
}
330
47
100
AcDbScale
 70
     0
300
3/8" = 1'-0"
140
0.375
141
12.0
290
     0
  0
SCALE
  5
62
102
{ACAD_REACTORS
330
47
102
}
330
47
100
AcDbScale
 70
     0
300
1/2" = 1'-0"
140
0.5
141
12.0
290
     0
  0
SCALE
  5
63
102
{ACAD_REACTORS
330
47
102
}
330
47
100
AcDbScale
 70
     0
300
3/4" = 1'-0"
140
0.75
141
12.0
290
     0
  0
SCALE
  5
64
102
{ACAD_REACTORS
330
47
102
}
330
47
100
AcDbScale
 70
     0
300
1" = 1'-0"
140
1.0
141
12.0
290
     0
  0
SCALE
  5
65
102
{ACAD_REACTORS
330
47
102
}
330
47
100
AcDbScale
 70
     0
300
1-1/2" = 1'-0"
140
1.5
141
12.0
290
     0
  0
SCALE
  5
66
102
{ACAD_REACTORS
330
47
102
}
330
47
100
AcDbScale
 70
     0
300
3" = 1'-0"
140
3.0
141
12.0
290
     0
  0
SCALE
  5
67
102
{ACAD_REACTORS
330
47
102
}
330
47
100
AcDbScale
 70
     0
300
6" = 1'-0"
140
6.0
141
12.0
290
     0
  0
SCALE
  5
68
102
{ACAD_REACTORS
330
47
102
}
330
47
100
AcDbScale
 70
     0
300
1'-0" = 1'-0"
140
12.0
141
12.0
290
     0
  0
ENDSEC
  0
EOF
