  0
SECTION
  2
HEADER
  9
$ACADVER
  1
AC1015
  9
$ACADMAINTVER
 70
     6
  9
$DWGCODEPAGE
  3
DOS932
  9
$INSBASE
 10
0.0
 20
0.0
 30
0.0
  9
$EXTMIN
 10
0.0
 20
0.0
 30
0.0
  9
$EXTMAX
 10
431.8
 20
279.4
 30
0.0
  9
$LIMMIN
 10
0.0
 20
0.0
  9
$LIMMAX
 10
431.8
 20
279.4
  9
$ORTHOMODE
 70
     0
  9
$REGENMODE
 70
     1
  9
$FILLMODE
 70
     1
  9
$QTEXTMODE
 70
     0
  9
$MIRRTEXT
 70
     1
  9
$LTSCALE
 40
1.0
  9
$ATTMODE
 70
     1
  9
$TEXTSIZE
 40
3.5
  9
$TRACEWID
 40
1.0
  9
$TEXTSTYLE
  7
Standard
  9
$CLAYER
  8
0
  9
$CELTYPE
  6
ByLayer
  9
$CECOLOR
 62
   256
  9
$CELTSCALE
 40
1.0
  9
$DISPSILH
 70
     0
  9
$DIMSCALE
 40
1.0
  9
$DIMASZ
 40
3.302
  9
$DIMEXO
 40
1.0
  9
$DIMDLI
 40
3.75
  9
$DIMRND
 40
0.0
  9
$DIMDLE
 40
0.0
  9
$DIMEXE
 40
1.0
  9
$DIMTP
 40
0.0
  9
$DIMTM
 40
0.0
  9
$DIMTXT
 40
3.5
  9
$DIMCEN
 40
2.5
  9
$DIMTSZ
 40
0.0
  9
$DIMTOL
 70
     0
  9
$DIMLIM
 70
     0
  9
$DIMTIH
 70
     1
  9
$DIMTOH
 70
     1
  9
$DIMSE1
 70
     0
  9
$DIMSE2
 70
     0
  9
$DIMTAD
 70
     1
  9
$DIMZIN
 70
     1
  9
$DIMBLK
  1

  9
$DIMASO
 70
     1
  9
$DIMSHO
 70
     1
  9
$DIMPOST
  1

  9
$DIMAPOST
  1

  9
$DIMALT
 70
     0
  9
$DIMALTD
 70
     3
  9
$DIMALTF
 40
0.0393700787
  9
$DIMLFAC
 40
1.0
  9
$DIMTOFL
 70
     1
  9
$DIMTVP
 40
0.0
  9
$DIMTIX
 70
     0
  9
$DIMSOXD
 70
     0
  9
$DIMSAH
 70
     0
  9
$DIMBLK1
  1

  9
$DIMBLK2
  1

  9
$DIMSTYLE
  2
ISO-25
  9
$DIMCLRD
 70
     0
  9
$DIMCLRE
 70
     0
  9
$DIMCLRT
 70
     0
  9
$DIMTFAC
 40
1.0
  9
$DIMGAP
 40
1.524
  9
$DIMJUST
 70
     0
  9
$DIMSD1
 70
     0
  9
$DIMSD2
 70
     0
  9
$DIMTOLJ
 70
     0
  9
$DIMTZIN
 70
     1
  9
$DIMALTZ
 70
     0
  9
$DIMALTTZ
 70
     0
  9
$DIMUPT
 70
     0
  9
$DIMDEC
 70
     2
  9
$DIMTDEC
 70
     2
  9
$DIMALTU
 70
     2
  9
$DIMALTTD
 70
     3
  9
$DIMTXSTY
  7
Standard
  9
$DIMAUNIT
 70
     0
  9
$DIMADEC
 70
     2
  9
$DIMALTRND
 40
0.0
  9
$DIMAZIN
 70
     0
  9
$DIMDSEP
 70
    44
  9
$DIMATFIT
 70
     3
  9
$DIMFRAC
 70
     0
  9
$DIMLDRBLK
  1

  9
$DIMLUNIT
 70
     2
  9
$DIMLWD
 70
    -2
  9
$DIMLWE
 70
    -2
  9
$DIMTMOVE
 70
     0
  9
$LUNITS
 70
     2
  9
$LUPREC
 70
     2
  9
$SKETCHINC
 40
1.0
  9
$FILLETRAD
 40
10.0
  9
$AUNITS
 70
     0
  9
$AUPREC
 70
     2
  9
$MENU
  1
.
  9
$ELEVATION
 40
0.0
  9
$PELEVATION
 40
0.0
  9
$THICKNESS
 40
0.0
  9
$LIMCHECK
 70
     0
  9
$CHAMFERA
 40
0.0
  9
$CHAMFERB
 40
0.0
  9
$CHAMFERC
 40
0.0
  9
$CHAMFERD
 40
0.0
  9
$SKPOLY
 70
     0
  9
$TDCREATE
 40
2459230.775159607
  9
$TDUCREATE
 40
2459230.400159607
  9
$TDUPDATE
 40
2459230.775160035
  9
$TDUUPDATE
 40
2459230.400160035
  9
$TDINDWG
 40
0.0000000116
  9
$TDUSRTIMER
 40
0.0000000116
  9
$USRTIMER
 70
     1
  9
$ANGBASE
 50
0.0
  9
$ANGDIR
 70
     0
  9
$PDMODE
 70
     0
  9
$PDSIZE
 40
-1.0
  9
$PLINEWID
 40
0.0
  9
$SPLFRAME
 70
     0
  9
$SPLINETYPE
 70
     6
  9
$SPLINESEGS
 70
     8
  9
$HANDSEED
  5
17B
  9
$SURFTAB1
 70
     6
  9
$SURFTAB2
 70
     6
  9
$SURFTYPE
 70
     6
  9
$SURFU
 70
     6
  9
$SURFV
 70
     6
  9
$UCSBASE
  2

  9
$UCSNAME
  2

  9
$UCSORG
 10
0.0
 20
0.0
 30
0.0
  9
$UCSXDIR
 10
1.0
 20
0.0
 30
0.0
  9
$UCSYDIR
 10
0.0
 20
1.0
 30
0.0
  9
$UCSORTHOREF
  2

  9
$UCSORTHOVIEW
 70
     0
  9
$UCSORGTOP
 10
0.0
 20
0.0
 30
0.0
  9
$UCSORGBOTTOM
 10
0.0
 20
0.0
 30
0.0
  9
$UCSORGLEFT
 10
0.0
 20
0.0
 30
0.0
  9
$UCSORGRIGHT
 10
0.0
 20
0.0
 30
0.0
  9
$UCSORGFRONT
 10
0.0
 20
0.0
 30
0.0
  9
$UCSORGBACK
 10
0.0
 20
0.0
 30
0.0
  9
$PUCSBASE
  2

  9
$PUCSNAME
  2

  9
$PUCSORG
 10
0.0
 20
0.0
 30
0.0
  9
$PUCSXDIR
 10
1.0
 20
0.0
 30
0.0
  9
$PUCSYDIR
 10
0.0
 20
1.0
 30
0.0
  9
$PUCSORTHOREF
  2

  9
$PUCSORTHOVIEW
 70
     0
  9
$PUCSORGTOP
 10
0.0
 20
0.0
 30
0.0
  9
$PUCSORGBOTTOM
 10
0.0
 20
0.0
 30
0.0
  9
$PUCSORGLEFT
 10
0.0
 20
0.0
 30
0.0
  9
$PUCSORGRIGHT
 10
0.0
 20
0.0
 30
0.0
  9
$PUCSORGFRONT
 10
0.0
 20
0.0
 30
0.0
  9
$PUCSORGBACK
 10
0.0
 20
0.0
 30
0.0
  9
$USERI1
 70
     0
  9
$USERI2
 70
     0
  9
$USERI3
 70
     0
  9
$USERI4
 70
     0
  9
$USERI5
 70
     0
  9
$USERR1
 40
0.0
  9
$USERR2
 40
0.0
  9
$USERR3
 40
0.0
  9
$USERR4
 40
0.0
  9
$USERR5
 40
0.0
  9
$WORLDVIEW
 70
     1
  9
$SHADEDGE
 70
     3
  9
$SHADEDIF
 70
    70
  9
$TILEMODE
 70
     1
  9
$MAXACTVP
 70
    64
  9
$PINSBASE
 10
0.0
 20
0.0
 30
0.0
  9
$PLIMCHECK
 70
     0
  9
$PEXTMIN
 10
1.0000000000E+20
 20
1.0000000000E+20
 30
1.0000000000E+20
  9
$PEXTMAX
 10
-1.0000000000E+20
 20
-1.0000000000E+20
 30
-1.0000000000E+20
  9
$PLIMMIN
 10
0.0
 20
0.0
  9
$PLIMMAX
 10
420.0
 20
297.0
  9
$UNITMODE
 70
     0
  9
$VISRETAIN
 70
     1
  9
$PLINEGEN
 70
     0
  9
$PSLTSCALE
 70
     1
  9
$TREEDEPTH
 70
  3020
  9
$CMLSTYLE
  2
Standard
  9
$CMLJUST
 70
     0
  9
$CMLSCALE
 40
20.0
  9
$PROXYGRAPHICS
 70
     1
  9
$MEASUREMENT
 70
     1
  9
$CELWEIGHT
370
    -1
  9
$ENDCAPS
280
     0
  9
$JOINSTYLE
280
     0
  9
$LWDISPLAY
290
     1
  9
$INSUNITS
 70
     4
  9
$HYPERLINKBASE
  1

  9
$STYLESHEET
  1

  9
$XEDIT
290
     1
  9
$CEPSNTYPE
380
     0
  9
$PSTYLEMODE
290
     1
  9
$FINGERPRINTGUID
  2
{FBE319FD-B3B5-4479-BA45-52CAA00420FC}
  9
$VERSIONGUID
  2
{FAEB1C32-E019-11D5-929B-00C0DF256EC4}
  9
$EXTNAMES
290
     1
  9
$PSVPSCALE
 40
0.0
  9
$OLESTARTUP
290
     0
  0
ENDSEC
  0
SECTION
  2
CLASSES
  0
CLASS
  1
ACDBDICTIONARYWDFLT
  2
AcDbDictionaryWithDefault
  3
ObjectDBX Classes
 90
        0
280
     0
281
     0
  0
CLASS
  1
VISUALSTYLE
  2
AcDbVisualStyle
  3
ObjectDBX Classes
 90
     4095
280
     0
281
     0
  0
CLASS
  1
MATERIAL
  2
AcDbMaterial
  3
ObjectDBX Classes
 90
     1153
280
     0
281
     0
  0
CLASS
  1
SCALE
  2
AcDbScale
  3
ObjectDBX Classes
 90
     1153
280
     0
281
     0
  0
CLASS
  1
TABLESTYLE
  2
AcDbTableStyle
  3
ObjectDBX Classes
 90
     4095
280
     0
281
     0
  0
CLASS
  1
MLEADERSTYLE
  2
AcDbMLeaderStyle
  3
ACDB_MLEADERSTYLE_CLASS
 90
     4095
280
     0
281
     0
  0
CLASS
  1
SUN
  2
AcDbSun
  3
SCENEOE
 90
     1153
280
     0
281
     0
  0
CLASS
  1
ACDBPLACEHOLDER
  2
AcDbPlaceHolder
  3
ObjectDBX Classes
 90
        0
280
     0
281
     0
  0
CLASS
  1
LAYOUT
  2
AcDbLayout
  3
ObjectDBX Classes
 90
        0
280
     0
281
     0
  0
ENDSEC
  0
SECTION
  2
TABLES
  0
TABLE
  2
VPORT
  5
8
330
0
100
AcDbSymbolTable
 70
     1
  0
VPORT
  5
29
330
8
100
AcDbSymbolTableRecord
100
AcDbViewportTableRecord
  2
*Active
 70
     0
 10
0.0
 20
0.0
 11
1.0
 21
1.0
 12
215.9
 22
139.7
 13
0.0
 23
0.0
 14
10.0
 24
10.0
 15
10.0
 25
10.0
 16
0.0
 26
0.0
 36
1.0
 17
0.0
 27
0.0
 37
0.0
 40
279.4
 41
1.5454545455
 42
50.0
 43
0.0
 44
0.0
 50
0.0
 51
0.0
 71
     0
 72
  2000
 73
     1
 74
     3
 75
     0
 76
     0
 77
     0
 78
     0
281
     0
 65
     1
110
0.0
120
0.0
130
0.0
111
1.0
121
0.0
131
0.0
112
0.0
122
1.0
132
0.0
 79
     0
146
0.0
  0
ENDTAB
  0
TABLE
  2
LTYPE
  5
5
330
0
100
AcDbSymbolTable
 70
     6
  0
LTYPE
  5
14
330
5
100
AcDbSymbolTableRecord
100
AcDbLinetypeTableRecord
  2
ByBlock
 70
     0
  3

 72
    65
 73
     0
 40
0.0
  0
LTYPE
  5
15
330
5
100
AcDbSymbolTableRecord
100
AcDbLinetypeTableRecord
  2
ByLayer
 70
     0
  3

 72
    65
 73
     0
 40
0.0
  0
LTYPE
  5
16
330
5
100
AcDbSymbolTableRecord
100
AcDbLinetypeTableRecord
  2
Continuous
 70
     0
  3
Solid line
 72
    65
 73
     0
 40
0.0
  0
LTYPE
  5
6E
330
5
100
AcDbSymbolTableRecord
100
AcDbLinetypeTableRecord
  2
HIDDEN
 70
     0
  3
Hidden __ __ __ __ __ __ __ __ __ __ __ __ __ __
 72
    65
 73
     2
 40
1.905
 49
1.27
 74
     0
 49
-0.635
 74
     0
  0
LTYPE
  5
6F
330
5
100
AcDbSymbolTableRecord
100
AcDbLinetypeTableRecord
  2
PHANTOM
 70
     0
  3
Phantom ______  __  __  ______  __  __  ______
 72
    65
 73
     6
 40
12.7
 49
6.35
 74
     0
 49
-1.27
 74
     0
 49
1.27
 74
     0
 49
-1.27
 74
     0
 49
1.27
 74
     0
 49
-1.27
 74
     0
  0
LTYPE
  5
70
330
5
100
AcDbSymbolTableRecord
100
AcDbLinetypeTableRecord
  2
CENTER
 70
     0
  3
Center ____ _ ____ _ ____ _ ____ _ ____ _ ____
 72
    65
 73
     4
 40
10.16
 49
6.35
 74
     0
 49
-1.27
 74
     0
 49
1.27
 74
     0
 49
-1.27
 74
     0
  0
LTYPE
  5
71
330
5
100
AcDbSymbolTableRecord
100
AcDbLinetypeTableRecord
  2
CENTERX2
 70
     0
  3
Center (2x) ________  __  ________  __  _____
 72
    65
 73
     4
 40
20.32
 49
12.7
 74
     0
 49
-2.54
 74
     0
 49
2.54
 74
     0
 49
-2.54
 74
     0
  0
LTYPE
  5
72
330
5
100
AcDbSymbolTableRecord
100
AcDbLinetypeTableRecord
  2
DOT2
 70
     0
  3
Dot (.5x) ........................................
 72
    65
 73
     2
 40
0.635
 49
0.0
 74
     0
 49
-0.635
 74
     0
  0
ENDTAB
  0
TABLE
  2
LAYER
  5
2
330
0
100
AcDbSymbolTable
 70
     1
  0
LAYER
  5
10
330
2
100
AcDbSymbolTableRecord
100
AcDbLayerTableRecord
  2
0
 70
     0
 62
     7
  6
Continuous
370
    -3
390
F
  0
ENDTAB
  0
TABLE
  2
STYLE
  5
3
330
0
100
AcDbSymbolTable
 70
     2
  0
STYLE
  5
11
330
3
100
AcDbSymbolTableRecord
100
AcDbTextStyleTableRecord
  2
Standard
 70
     0
 40
0.0
 41
1.0
 50
0.0
 71
     0
 42
3.5
  3
txt
  4
bigfont
  0
STYLE
  5
73
330
3
100
AcDbSymbolTableRecord
100
AcDbTextStyleTableRecord
  2
SLDTEXTSTYLE0
 70
     0
 40
0.0
 41
0.7
 50
0.0
 71
     0
 42
3.5
  3
TXT
  4
bigfont
  0
ENDTAB
  0
TABLE
  2
VIEW
  5
6
330
0
100
AcDbSymbolTable
 70
     0
  0
ENDTAB
  0
TABLE
  2
UCS
  5
7
330
0
100
AcDbSymbolTable
 70
     0
  0
ENDTAB
  0
TABLE
  2
APPID
  5
9
330
0
100
AcDbSymbolTable
 70
     1
  0
APPID
  5
12
330
9
100
AcDbSymbolTableRecord
100
AcDbRegAppTableRecord
  2
ACAD
 70
     0
  0
ENDTAB
  0
TABLE
  2
DIMSTYLE
  5
A
330
0
100
AcDbSymbolTable
 70
     1
100
AcDbDimStyleTable
  0
DIMSTYLE
105
27
330
A
100
AcDbSymbolTableRecord
100
AcDbDimStyleTableRecord
  2
ISO-25
 70
     0
 41
2.5
 42
0.625
 43
3.75
 44
1.25
 73
     0
 74
     0
 77
     1
 78
     8
140
2.5
141
2.5
143
0.0393700787
147
0.625
171
     3
172
     1
178
     0
271
     2
272
     2
274
     3
278
    44
283
     0
284
     8
340
11
  0
ENDTAB
  0
TABLE
  2
BLOCK_RECORD
  5
1
330
0
100
AcDbSymbolTable
 70
     3
  0
BLOCK_RECORD
  5
1F
330
1
100
AcDbSymbolTableRecord
100
AcDbBlockTableRecord
  2
*Model_Space
340
22
  0
BLOCK_RECORD
  5
1B
330
1
100
AcDbSymbolTableRecord
100
AcDbBlockTableRecord
  2
*Paper_Space
340
1E
  0
BLOCK_RECORD
  5
23
330
1
100
AcDbSymbolTableRecord
100
AcDbBlockTableRecord
  2
*Paper_Space0
340
26
  0
BLOCK_RECORD
  5
128
330
1
100
AcDbSymbolTableRecord
100
AcDbBlockTableRecord
  2
SW_CENTERMARKSYMBOL_0
340
0
102
{BLKREFS
331
133
102
}
  0
BLOCK_RECORD
  5
16B
330
1
100
AcDbSymbolTableRecord
100
AcDbBlockTableRecord
  2
SW_CENTERMARKSYMBOL_1
340
0
102
{BLKREFS
331
176
102
}
  0
ENDTAB
  0
ENDSEC
  0
SECTION
  2
BLOCKS
  0
BLOCK
  5
20
330
1F
100
AcDbEntity
  8
0
100
AcDbBlockBegin
  2
*Model_Space
 70
     0
 10
0.0
 20
0.0
 30
0.0
  3
*Model_Space
  1

  0
ENDBLK
  5
21
330
1F
100
AcDbEntity
  8
0
100
AcDbBlockEnd
  0
BLOCK
  5
1C
330
1B
100
AcDbEntity
 67
     1
  8
0
100
AcDbBlockBegin
  2
*Paper_Space
 70
     0
 10
0.0
 20
0.0
 30
0.0
  3
*Paper_Space
  1

  0
ENDBLK
  5
1D
330
1B
100
AcDbEntity
 67
     1
  8
0
100
AcDbBlockEnd
  0
BLOCK
  5
24
330
23
100
AcDbEntity
  8
0
100
AcDbBlockBegin
  2
*Paper_Space0
 70
     0
 10
0.0
 20
0.0
 30
0.0
  3
*Paper_Space0
  1

  0
ENDBLK
  5
25
330
23
100
AcDbEntity
  8
0
100
AcDbBlockEnd
  0
BLOCK
  5
129
330
128
100
AcDbEntity
  8
0
100
AcDbBlockBegin
  2
SW_CENTERMARKSYMBOL_0
 70
     0
 10
0.0
 20
0.0
 30
0.0
  3
SW_CENTERMARKSYMBOL_0
  1

  0
LINE
  5
12B
330
128
100
AcDbEntity
  8
0
  6
Continuous
 62
     0
370
    18
100
AcDbLine
 10
0.0
 20
0.0
 30
0.0
 11
0.0
 21
2.5
 31
0.0
  0
LINE
  5
12C
330
128
100
AcDbEntity
  8
0
  6
Continuous
 62
     0
370
    18
100
AcDbLine
 10
0.0
 20
0.0
 30
0.0
 11
-2.5
 21
0.0
 31
0.0
  0
LINE
  5
12D
330
128
100
AcDbEntity
  8
0
  6
Continuous
 62
     0
370
    18
100
AcDbLine
 10
0.0
 20
0.0
 30
0.0
 11
0.0
 21
-2.5
 31
0.0
  0
LINE
  5
12E
330
128
100
AcDbEntity
  8
0
  6
Continuous
 62
     0
370
    18
100
AcDbLine
 10
0.0
 20
0.0
 30
0.0
 11
2.5
 21
0.0
 31
0.0
  0
LINE
  5
12F
330
128
100
AcDbEntity
  8
0
  6
Continuous
 62
     0
370
    18
100
AcDbLine
 10
0.0
 20
5.0
 30
0.0
 11
0.0
 21
50.7894151334
 31
0.0
  0
LINE
  5
130
330
128
100
AcDbEntity
  8
0
  6
Continuous
 62
     0
370
    18
100
AcDbLine
 10
-5.0
 20
0.0
 30
0.0
 11
-15.7570645891
 21
0.0
 31
0.0
  0
LINE
  5
131
330
128
100
AcDbEntity
  8
0
  6
Continuous
 62
     0
370
    18
100
AcDbLine
 10
0.0
 20
-5.0
 30
0.0
 11
0.0
 21
-15.2828216095
 31
0.0
  0
LINE
  5
132
330
128
100
AcDbEntity
  8
0
  6
Continuous
 62
     0
370
    18
100
AcDbLine
 10
5.0
 20
0.0
 30
0.0
 11
15.5780070369
 21
0.0
 31
0.0
  0
ENDBLK
  5
12A
330
128
100
AcDbEntity
  8
0
100
AcDbBlockEnd
  0
BLOCK
  5
16C
330
16B
100
AcDbEntity
  8
0
100
AcDbBlockBegin
  2
SW_CENTERMARKSYMBOL_1
 70
     0
 10
0.0
 20
0.0
 30
0.0
  3
SW_CENTERMARKSYMBOL_1
  1

  0
LINE
  5
16E
330
16B
100
AcDbEntity
  8
0
  6
Continuous
 62
     0
370
    18
100
AcDbLine
 10
0.0
 20
0.0
 30
0.0
 11
0.0
 21
2.5
 31
0.0
  0
LINE
  5
16F
330
16B
100
AcDbEntity
  8
0
  6
Continuous
 62
     0
370
    18
100
AcDbLine
 10
0.0
 20
0.0
 30
0.0
 11
-2.5
 21
0.0
 31
0.0
  0
LINE
  5
170
330
16B
100
AcDbEntity
  8
0
  6
Continuous
 62
     0
370
    18
100
AcDbLine
 10
0.0
 20
0.0
 30
0.0
 11
0.0
 21
-2.5
 31
0.0
  0
LINE
  5
171
330
16B
100
AcDbEntity
  8
0
  6
Continuous
 62
     0
370
    18
100
AcDbLine
 10
0.0
 20
0.0
 30
0.0
 11
2.5
 21
0.0
 31
0.0
  0
LINE
  5
172
330
16B
100
AcDbEntity
  8
0
  6
Continuous
 62
     0
370
    18
100
AcDbLine
 10
0.0
 20
5.0
 30
0.0
 11
0.0
 21
20.5
 31
0.0
  0
LINE
  5
173
330
16B
100
AcDbEntity
  8
0
  6
Continuous
 62
     0
370
    18
100
AcDbLine
 10
-5.0
 20
0.0
 30
0.0
 11
-20.5
 21
0.0
 31
0.0
  0
LINE
  5
174
330
16B
100
AcDbEntity
  8
0
  6
Continuous
 62
     0
370
    18
100
AcDbLine
 10
0.0
 20
-5.0
 30
0.0
 11
0.0
 21
-20.5
 31
0.0
  0
LINE
  5
175
330
16B
100
AcDbEntity
  8
0
  6
Continuous
 62
     0
370
    18
100
AcDbLine
 10
5.0
 20
0.0
 30
0.0
 11
49.6266152928
 21
0.0
 31
0.0
  0
ENDBLK
  5
16D
330
16B
100
AcDbEntity
  8
0
100
AcDbBlockEnd
  0
ENDSEC
  0
SECTION
  2
ENTITIES
  0
MTEXT
  5
74
330
1F
100
AcDbEntity
  8
0
  6
Continuous
 62
     7
370
     0
100
AcDbMText
 10
162.0502465544
 20
140.3335693554
 30
0.0
 40
5.2916666667
 41
0.0
 71
     1
 72
     1
  1
5R-LK1066
  7
SLDTEXTSTYLE0
 73
     1
 44
1.0
  0
LINE
  5
75
330
1F
100
AcDbEntity
  8
0
  6
Continuous
 62
     7
370
    25
100
AcDbLine
 10
139.5045202312
 20
101.8518811597
 30
0.0
 11
139.5045202312
 21
121.8518811597
 31
0.0
  0
LINE
  5
76
330
1F
100
AcDbEntity
  8
0
  6
Continuous
 62
     7
370
    25
100
AcDbLine
 10
103.5045202312
 20
121.8518811597
 30
0.0
 11
103.5045202312
 21
101.8518811597
 31
0.0
  0
LINE
  5
77
330
1F
100
AcDbEntity
  8
0
  6
Continuous
 62
     7
370
    25
100
AcDbLine
 10
139.5045202312
 20
121.8518811597
 30
0.0
 11
138.5045202312
 21
122.8518811597
 31
0.0
  0
LINE
  5
78
330
1F
100
AcDbEntity
  8
0
  6
Continuous
 62
     7
370
    25
100
AcDbLine
 10
104.5045202312
 20
122.8518811597
 30
0.0
 11
103.5045202312
 21
121.8518811597
 31
0.0
  0
ARC
  5
79
330
1F
100
AcDbEntity
  8
0
  6
Continuous
 62
     7
370
    25
100
AcDbCircle
 10
105.5045202312
 20
101.8518811597
 30
0.0
 40
2.0
100
AcDbArc
 50
180.0
 51
270.0
  0
ARC
  5
7A
330
1F
100
AcDbEntity
  8
0
  6
Continuous
 62
     7
370
    25
100
AcDbCircle
 10
137.5045202312
 20
101.8518811597
 30
0.0
 40
2.000000000000028
100
AcDbArc
 50
270.0
 51
0.0
  0
ARC
  5
7B
330
1F
100
AcDbEntity
  8
0
  6
Continuous
 62
     7
370
    25
100
AcDbCircle
 10
106.0045202312
 20
97.8518811597
 30
0.0
 40
2.0
100
AcDbArc
 50
0.0
 51
90.0
  0
ARC
  5
7C
330
1F
100
AcDbEntity
  8
0
  6
Continuous
 62
     7
370
    25
100
AcDbCircle
 10
137.0045202312
 20
97.8518811597
 30
0.0
 40
2.0
100
AcDbArc
 50
90.0
 51
180.0
  0
LINE
  5
7D
330
1F
100
AcDbEntity
  8
0
  6
Continuous
 62
     7
370
    25
100
AcDbLine
 10
149.3745202312
 20
61.3324749097
 30
0.0
 11
165.9013467296
 21
61.8489382378
 31
0.0
  0
LINE
  5
7E
330
1F
100
AcDbEntity
  8
0
  6
Continuous
 62
     7
370
    25
100
AcDbLine
 10
165.9013467296
 20
87.8548240816
 30
0.0
 11
149.3745202312
 21
88.3712874097
 31
0.0
  0
LINE
  5
7F
330
1F
100
AcDbEntity
  8
0
  6
Continuous
 62
     7
370
    25
100
AcDbLine
 10
149.3745202312
 20
88.3692561597
 30
0.0
 11
144.7675755664
 21
88.3692561597
 31
0.0
  0
LINE
  5
80
330
1F
100
AcDbEntity
  8
0
  6
Continuous
 62
     7
370
    25
100
AcDbLine
 10
144.7675755664
 20
61.3345061597
 30
0.0
 11
149.3745202312
 21
61.3345061597
 31
0.0
  0
ARC
  5
81
330
1F
100
AcDbEntity
  8
0
  6
Continuous
 62
     7
370
    25
100
AcDbCircle
 10
144.5045202312
 20
90.3518811597
 30
0.0
 40
1.999999999999994
100
AcDbArc
 50
270.0
 51
277.5578793035
  0
ARC
  5
82
330
1F
100
AcDbEntity
  8
0
  6
Continuous
 62
     7
370
    25
100
AcDbCircle
 10
144.5045202312
 20
59.3518811597
 30
0.0
 40
2.000000000000007
100
AcDbArc
 50
82.4421206965
 51
90.0
  0
LINE
  5
83
330
1F
100
AcDbEntity
  8
0
  6
Continuous
 62
     7
370
    25
100
AcDbLine
 10
108.0045202312
 20
97.8518811597
 30
0.0
 11
108.0045202312
 21
66.3518811597
 31
0.0
  0
LINE
  5
84
330
1F
100
AcDbEntity
  8
0
  6
Continuous
 62
     7
370
    25
100
AcDbLine
 10
135.0045202312
 20
88.3518811597
 30
0.0
 11
135.0045202312
 21
97.8518811597
 31
0.0
  0
LINE
  5
85
330
1F
100
AcDbEntity
  8
0
  6
Continuous
 62
     7
370
    25
100
AcDbLine
 10
144.5045202312
 20
88.3518811597
 30
0.0
 11
135.0045202312
 21
88.3518811597
 31
0.0
  0
LINE
  5
86
330
1F
100
AcDbEntity
  8
0
  6
Continuous
 62
     7
370
    25
100
AcDbLine
 10
113.0045202312
 20
61.3518811597
 30
0.0
 11
144.5045202312
 21
61.3518811597
 31
0.0
  0
LINE
  5
87
330
1F
100
AcDbEntity
  8
0
  6
Continuous
 62
     7
370
    25
100
AcDbLine
 10
165.9013467296
 20
61.8489382378
 30
0.0
 11
168.5045202312
 21
63.3518811597
 31
0.0
  0
LINE
  5
88
330
1F
100
AcDbEntity
  8
0
  6
Continuous
 62
     7
370
    25
100
AcDbLine
 10
168.5045202312
 20
86.3518811597
 30
0.0
 11
165.9013467296
 21
87.8548240816
 31
0.0
  0
ARC
  5
89
330
1F
100
AcDbEntity
  8
0
  6
Continuous
 62
     7
370
    25
100
AcDbCircle
 10
113.0045202312
 20
66.3518811597
 30
0.0
 40
5.000000000000008
100
AcDbArc
 50
179.9050061043
 51
270.0920725374
  0
LINE
  5
8A
330
1F
100
AcDbEntity
  8
0
  6
Continuous
 62
     7
370
    25
100
AcDbLine
 10
121.5045202312
 20
121.8518811597
 30
0.0
 11
103.5045202312
 21
121.8518811597
 31
0.0
  0
LINE
  5
8B
330
1F
100
AcDbEntity
  8
0
  6
Continuous
 62
     7
370
    25
100
AcDbLine
 10
139.5045202312
 20
121.8518811597
 30
0.0
 11
121.5045202312
 21
121.8518811597
 31
0.0
  0
LINE
  5
8C
330
1F
100
AcDbEntity
  8
0
  6
Continuous
 62
     7
370
    25
100
AcDbLine
 10
121.5045202312
 20
122.8518811597
 30
0.0
 11
138.5045202312
 21
122.8518811597
 31
0.0
  0
LINE
  5
8D
330
1F
100
AcDbEntity
  8
0
  6
Continuous
 62
     7
370
    25
100
AcDbLine
 10
104.5045202312
 20
122.8518811597
 30
0.0
 11
121.5045202312
 21
122.8518811597
 31
0.0
  0
LINE
  5
8E
330
1F
100
AcDbEntity
  8
0
  6
Continuous
 62
     7
370
    25
100
AcDbLine
 10
121.5045202312
 20
99.8518811597
 30
0.0
 11
105.5045202312
 21
99.8518811597
 31
0.0
  0
LINE
  5
8F
330
1F
100
AcDbEntity
  8
0
  6
Continuous
 62
     7
370
    25
100
AcDbLine
 10
137.5045202312
 20
99.8518811597
 30
0.0
 11
121.5045202312
 21
99.8518811597
 31
0.0
  0
LINE
  5
90
330
1F
100
AcDbEntity
  8
0
  6
Continuous
 62
     7
370
    25
100
AcDbLine
 10
109.0045202312
 20
87.8518811597
 30
0.0
 11
109.0045202312
 21
87.3518811597
 31
0.0
  0
LINE
  5
91
330
1F
100
AcDbEntity
  8
0
  6
Continuous
 62
     7
370
    25
100
AcDbLine
 10
108.5045202312
 20
87.3518811597
 30
0.0
 11
109.0045202312
 21
87.3518811597
 31
0.0
  0
ARC
  5
92
330
1F
100
AcDbEntity
  8
0
  6
Continuous
 62
     7
370
    25
100
AcDbCircle
 10
109.0045202312
 20
87.3518811597
 30
0.0
 40
0.5
100
AcDbArc
 50
90.0
 51
180.0
  0
LINE
  5
93
330
1F
100
AcDbEntity
  8
0
  6
Continuous
 62
     7
370
    25
100
AcDbLine
 10
134.0045202312
 20
61.8518811597
 30
0.0
 11
134.0045202312
 21
62.3518811597
 31
0.0
  0
LINE
  5
94
330
1F
100
AcDbEntity
  8
0
  6
Continuous
 62
     7
370
    25
100
AcDbLine
 10
134.5045202312
 20
62.3518811597
 30
0.0
 11
134.0045202312
 21
62.3518811597
 31
0.0
  0
ARC
  5
95
330
1F
100
AcDbEntity
  8
0
  6
Continuous
 62
     7
370
    25
100
AcDbCircle
 10
134.0045202312
 20
62.3518811597
 30
0.0
 40
0.5
100
AcDbArc
 50
270.0
 51
0.0
  0
LINE
  5
96
330
1F
100
AcDbEntity
  8
0
  6
Continuous
 62
     7
370
    25
100
AcDbLine
 10
165.9013467296
 20
74.8518811597
 30
0.0
 11
165.9013467296
 21
87.8548240816
 31
0.0
  0
LINE
  5
97
330
1F
100
AcDbEntity
  8
0
  6
Continuous
 62
     7
370
    25
100
AcDbLine
 10
165.9013467296
 20
61.8489382378
 30
0.0
 11
165.9013467296
 21
74.8518811597
 31
0.0
  0
LINE
  5
98
330
1F
100
AcDbEntity
  8
0
  6
Continuous
 62
     7
370
    25
100
AcDbLine
 10
149.3745202312
 20
61.3324749097
 30
0.0
 11
149.3745202312
 21
88.3712874097
 31
0.0
  0
LINE
  5
99
330
1F
100
AcDbEntity
  8
0
  6
Continuous
 62
     7
370
    25
100
AcDbLine
 10
144.7675755664
 20
74.8518811597
 30
0.0
 11
144.7675755664
 21
61.3345061597
 31
0.0
  0
LINE
  5
9A
330
1F
100
AcDbEntity
  8
0
  6
Continuous
 62
     7
370
    25
100
AcDbLine
 10
144.7675755664
 20
88.3692561597
 30
0.0
 11
144.7675755664
 21
74.8518811597
 31
0.0
  0
LINE
  5
9B
330
1F
100
AcDbEntity
  8
0
  6
Continuous
 62
     7
370
    25
100
AcDbLine
 10
134.0045202312
 20
61.8518811597
 30
0.0
 11
113.5045202312
 21
61.8518811597
 31
0.0
  0
LINE
  5
9C
330
1F
100
AcDbEntity
  8
0
  6
Continuous
 62
     7
370
    25
100
AcDbLine
 10
113.5045202312
 20
61.8518811597
 30
0.0
 11
113.5045202312
 21
62.3518811597
 31
0.0
  0
LINE
  5
9D
330
1F
100
AcDbEntity
  8
0
  6
Continuous
 62
     7
370
    25
100
AcDbLine
 10
113.5045202312
 20
62.3518811597
 30
0.0
 11
134.0045202312
 21
62.3518811597
 31
0.0
  0
SPLINE
  5
9E
330
1F
100
AcDbEntity
  8
0
  6
Continuous
 62
     7
370
    25
100
AcDbSpline
210
0.0
220
0.0
230
1.0
 70
     8
 71
     3
 72
    10
 73
     6
 74
     0
 42
0.000000001
 43
0.00000001
 40
0.0
 40
0.0
 40
0.0
 40
0.0
 40
0.5
 40
0.5
 40
1.0
 40
1.0
 40
1.0
 40
1.0
 10
132.0550304884307
 20
87.35188115968208
 30
0.0
 10
132.1530648798863
 20
86.87161268706095
 30
0.0
 10
132.3901493633086
 20
86.43071812165458
 30
0.0
 10
133.0833571931863
 20
85.73751029177684
 30
0.0
 10
133.5242517585927
 20
85.50042580835452
 30
0.0
 10
134.0045202312138
 20
85.4023914168989
 30
0.0
  0
LINE
  5
9F
330
1F
100
AcDbEntity
  8
0
  6
Continuous
 62
     7
370
    25
100
AcDbLine
 10
134.0045202312
 20
78.4919361043
 30
0.0
 11
134.0045202312
 21
85.4023914169
 31
0.0
  0
SPLINE
  5
A0
330
1F
100
AcDbEntity
  8
0
  6
Continuous
 62
     7
370
    25
100
AcDbSpline
210
0.0
220
0.0
230
1.0
 70
     8
 71
     3
 72
    10
 73
     6
 74
     0
 42
0.000000001
 43
0.00000001
 40
-1.079173746903875
 40
-1.079173746903875
 40
-1.079173746903875
 40
-1.079173746903875
 40
-0.8954608565521778
 40
-0.8954608565521778
 40
-0.7117479662004804
 40
-0.7117479662004804
 40
-0.7117479662004804
 40
-0.7117479662004804
 10
134.0045202312138
 20
78.49193610432233
 30
0.0
 10
134.0045202312138
 20
77.87955980315002
 30
0.0
 10
134.0784075006806
 20
77.27098834160813
 30
0.0
 10
134.2675205492008
 20
76.0577169264942
 30
0.0
 10
134.3866683571047
 20
75.4528101654777
 30
0.0
 10
134.5045202312138
 20
74.85188115968208
 30
0.0
  0
SPLINE
  5
A1
330
1F
100
AcDbEntity
  8
0
  6
Continuous
 62
     7
370
    25
100
AcDbSpline
210
0.0
220
0.0
230
1.0
 70
     8
 71
     3
 72
    10
 73
     6
 74
     0
 42
0.000000001
 43
0.00000001
 40
-0.3659325502503529
 40
-0.3659325502503529
 40
-0.3659325502503529
 40
-0.3659325502503529
 40
-0.1822195959587747
 40
-0.1822195959587747
 40
0.0014933583328035
 40
0.0014933583328035
 40
0.0014933583328035
 40
0.0014933583328035
 10
134.5045202312138
 20
74.85188115968208
 30
0.0
 10
134.3866683161251
 20
74.2509519447303
 30
0.0
 10
134.2675210844413
 20
73.64604841944467
 30
0.0
 10
134.0784076675174
 20
72.43277545388936
 30
0.0
 10
134.0045202314144
 20
71.8242027293247
 30
0.0
 10
134.0045202314653
 20
71.21182621504182
 30
0.0
  0
LINE
  5
A2
330
1F
100
AcDbEntity
  8
0
  6
Continuous
 62
     7
370
    25
100
AcDbLine
 10
134.0045202312
 20
62.3518811597
 30
0.0
 11
134.0045202312
 21
71.211826215
 31
0.0
  0
SPLINE
  5
A3
330
1F
100
AcDbEntity
  8
0
  6
Continuous
 62
     7
370
    25
100
AcDbSpline
210
0.0
220
0.0
230
1.0
 70
     8
 71
     3
 72
    27
 73
    23
 74
     0
 42
0.000000001
 43
0.00000001
 40
0.0
 40
0.0
 40
0.0
 40
0.0
 40
0.0302331995554758
 40
0.0602673965023467
 40
0.0901689624194273
 40
0.1200051540247818
 40
0.1498436701054647
 40
0.179752193663988
 40
0.2097979345963094
 40
0.2400471881748923
 40
0.3043220305589233
 40
0.3686713877774876
 40
0.434313882853048
 40
0.500032478372871
 40
0.5656749756234877
 40
0.6313935733202861
 40
0.6956684216992453
 40
0.7600177849198002
 40
0.8202694933846085
 40
0.8799904471618143
 40
0.9397206859761132
 40
1.0
 40
1.0
 40
1.0
 40
1.0
 10
109.0045202312138
 20
66.85188115968208
 30
0.0
 10
109.0054628620893
 20
66.7806600902243
 30
0.0
 10
109.0073419192041
 20
66.63868674650139
 30
0.0
 10
109.0226910450284
 20
66.42673071084084
 30
0.0
 10
109.0472397706098
 20
66.2166394139102
 30
0.0
 10
109.0818698944703
 20
66.0084157389439
 30
0.0
 10
109.1263476759994
 20
65.80206304697089
 30
0.0
 10
109.1807290954929
 20
65.59758431793188
 30
0.0
 10
109.2450180490119
 20
65.3949828696442
 30
0.0
 10
109.3466836559093
 20
65.1196461710067
 30
0.0
 10
109.5019261795334
 20
64.7783689412025
 30
0.0
 10
109.7332090947012
 20
64.38264522779902
 30
0.0
 10
110.0053526468047
 20
64.00952617177138
 30
0.0
 10
110.3168066551339
 20
63.66442163737865
 30
0.0
 10
110.6620250064112
 20
63.35282518387197
 30
0.0
 10
111.0349854997562
 20
63.08077245535252
 30
0.0
 10
111.4308583653106
 20
62.84933823072943
 30
0.0
 10
111.8365370432578
 20
62.66489113640464
 30
0.0
 10
112.2477194239183
 20
62.52340662803726
 30
0.0
 10
112.6598634065814
 20
62.42469527660079
 30
0.0
 10
113.0796841119628
 20
62.36310258344455
 30
0.0
 10
113.3624769077034
 20
62.35563302599832
 30
0.0
 10
113.5045202312138
 20
62.35188115968208
 30
0.0
  0
LINE
  5
A4
330
1F
100
AcDbEntity
  8
0
  6
Continuous
 62
     7
370
    25
100
AcDbLine
 10
109.0045202312
 20
87.3518811597
 30
0.0
 11
109.0045202312
 21
66.8518811597
 31
0.0
  0
LINE
  5
A5
330
1F
100
AcDbEntity
  8
0
  6
Continuous
 62
     7
370
    25
100
AcDbLine
 10
117.8644652866
 20
87.3518811597
 30
0.0
 11
109.0045202312
 21
87.3518811597
 31
0.0
  0
SPLINE
  5
A6
330
1F
100
AcDbEntity
  8
0
  6
Continuous
 62
     7
370
    25
100
AcDbSpline
210
0.0
220
0.0
230
1.0
 70
     8
 71
     3
 72
    10
 73
     6
 74
     0
 42
0.000000001
 43
0.00000001
 40
-1.079110524186288
 40
-1.079110524186288
 40
-1.079110524186288
 40
-1.079110524186288
 40
-0.8953975698652297
 40
-0.8953975698652297
 40
-0.7116846155441712
 40
-0.7116846155441712
 40
-0.7116846155441712
 40
-0.7116846155441712
 10
117.8644652865736
 20
87.35188115968208
 30
0.0
 10
118.4768418009771
 20
87.35188115968208
 30
0.0
 10
119.0854145256377
 20
87.4257685958508
 30
0.0
 10
120.2986874913802
 20
87.61488201290277
 30
0.0
 10
120.903591016173
 20
87.73402924453664
 30
0.0
 10
121.5045202312138
 20
87.85188115968208
 30
0.0
  0
SPLINE
  5
A7
330
1F
100
AcDbEntity
  8
0
  6
Continuous
 62
     7
370
    25
100
AcDbSpline
210
0.0
220
0.0
230
1.0
 70
     8
 71
     3
 72
    10
 73
     6
 74
     0
 42
0.000000001
 43
0.00000001
 40
-0.3660006408174011
 40
-0.3660006408174011
 40
-0.3660006408174011
 40
-0.3660006408174011
 40
-0.1822877504730238
 40
-0.1822877504730238
 40
0.0014251398713536
 40
0.0014251398713536
 40
0.0014251398713536
 40
0.0014251398713536
 10
121.5045202312138
 20
87.85188115968208
 30
0.0
 10
122.1054492369855
 20
87.7340292855777
 30
0.0
 10
122.7103559981225
 20
87.61488147765199
 30
0.0
 10
123.9236274131884
 20
87.42576842914333
 30
0.0
 10
124.5321988747062
 20
87.35188115968208
 30
0.0
 10
125.1445751758541
 20
87.35188115968208
 30
0.0
  0
LINE
  5
A8
330
1F
100
AcDbEntity
  8
0
  6
Continuous
 62
     7
370
    25
100
AcDbLine
 10
125.1445751759
 20
87.3518811597
 30
0.0
 11
132.0550304884
 21
87.3518811597
 31
0.0
  0
LINE
  5
A9
330
1F
100
AcDbEntity
  8
0
  6
Continuous
 62
     7
370
    25
100
AcDbLine
 10
132.675985163
 20
64.6587953028
 30
0.0
 11
133.504495286
 21
66.5020628686
 31
0.0
  0
LINE
  5
AA
330
1F
100
AcDbEntity
  8
0
  6
Continuous
 62
     7
370
    25
100
AcDbLine
 10
133.504495286
 20
66.5020628686
 30
0.0
 11
133.4611585168
 21
66.4731604438
 31
0.0
  0
ELLIPSE
  5
AB
330
1F
100
AcDbEntity
  8
0
  6
Continuous
 62
     7
370
    25
100
AcDbEllipse
 10
133.0981904379
 20
67.1466204603
 30
0.0
 11
6.252776074688882E-13
 21
-0.7852227813998809
 31
0.0
210
0.0
220
0.0
230
1.0
 40
0.898958066
 41
5.040942150935157
 42
6.823265507331349
  0
LINE
  5
AC
330
1F
100
AcDbEntity
  8
0
  6
Continuous
 62
     7
370
    25
100
AcDbLine
 10
132.4300655992
 20
66.8932495413
 30
0.0
 11
131.1194066832
 21
71.1699779363
 31
0.0
  0
ELLIPSE
  5
AD
330
1F
100
AcDbEntity
  8
0
  6
Continuous
 62
     7
370
    25
100
AcDbEllipse
 10
130.504495286
 20
70.8514609312
 30
0.0
 11
-2.842170943040401E-13
 21
0.7545500165016819
 31
0.0
210
0.0
220
0.0
230
1.0
 40
0.898958066
 41
5.148180879139796
 42
7.418189735218788
  0
LINE
  5
AE
330
1F
100
AcDbEntity
  8
0
  6
Continuous
 62
     7
370
    25
100
AcDbLine
 10
129.8895838888
 20
71.1699779363
 30
0.0
 11
128.5792304044
 21
66.8942461756
 31
0.0
  0
ELLIPSE
  5
AF
330
1F
100
AcDbEntity
  8
0
  6
Continuous
 62
     7
370
    25
100
AcDbEllipse
 10
127.9111055657
 20
67.1476170947
 30
0.0
 11
-1.847411112976260E-13
 21
-0.7852227814000514
 31
0.0
210
0.0
220
0.0
230
1.0
 40
0.898958066
 41
5.759586531581546
 42
7.525428463423253
  0
LINE
  5
B0
330
1F
100
AcDbEntity
  8
0
  6
Continuous
 62
     7
370
    25
100
AcDbLine
 10
127.5581643892
 20
66.4675942184
 30
0.0
 11
127.504495286
 21
66.5020628686
 31
0.0
  0
LINE
  5
B1
330
1F
100
AcDbEntity
  8
0
  6
Continuous
 62
     7
370
    25
100
AcDbLine
 10
127.504495286
 20
66.5020628686
 30
0.0
 11
128.3330054091
 21
64.6587953028
 31
0.0
  0
SPLINE
  5
B2
330
1F
100
AcDbEntity
  8
0
  6
Continuous
 62
     7
370
    25
100
AcDbSpline
210
0.0
220
0.0
230
1.0
 70
     8
 71
     3
 72
     8
 73
     4
 74
     0
 42
0.000000001
 43
0.00000001
 40
0.0
 40
0.0
 40
0.0
 40
0.0
 40
1.0
 40
1.0
 40
1.0
 40
1.0
 10
128.333005409068
 20
64.65879530277742
 30
0.0
 10
128.3579425114204
 20
64.60331529031475
 30
0.0
 10
128.4301878553861
 20
64.58748832674108
 30
0.0
 10
128.4720567723063
 20
64.63085948580319
 30
0.0
  0
ELLIPSE
  5
B3
330
1F
100
AcDbEntity
  8
0
  6
Continuous
 62
     7
370
    25
100
AcDbEllipse
 10
130.504495286
 20
62.2029681405
 30
0.0
 11
1.989519660128281E-13
 21
-3.317566251415407
 31
0.0
210
0.0
220
0.0
230
1.0
 40
0.898958066
 41
2.39179832375929
 42
3.891386983420188
  0
SPLINE
  5
B4
330
1F
100
AcDbEntity
  8
0
  6
Continuous
 62
     7
370
    25
100
AcDbSpline
210
0.0
220
0.0
230
1.0
 70
     8
 71
     3
 72
     8
 73
     4
 74
     0
 42
0.000000001
 43
0.00000001
 40
0.0
 40
0.0
 40
0.0
 40
0.0
 40
1.0
 40
1.0
 40
1.0
 40
1.0
 10
132.5369337997205
 20
64.63085948580314
 30
0.0
 10
132.5788027166407
 20
64.58748832674092
 30
0.0
 10
132.6510480606063
 20
64.60331529031464
 30
0.0
 10
132.6759851629587
 20
64.65879530277743
 30
0.0
  0
LINE
  5
B5
330
1F
100
AcDbEntity
  8
0
  6
Continuous
 62
     7
370
    25
100
AcDbLine
 10
108.5045202312
 20
66.8518811597
 30
0.0
 11
108.5045202312
 21
87.3518811597
 31
0.0
  0
LINE
  5
B6
330
1F
100
AcDbEntity
  8
0
  6
Continuous
 62
     7
370
    25
100
AcDbLine
 10
108.5045202312
 20
66.8518811597
 30
0.0
 11
109.0045202312
 21
66.8518811597
 31
0.0
  0
LINE
  5
B7
330
1F
100
AcDbEntity
  8
0
  6
Continuous
 62
     7
370
    25
100
AcDbLine
 10
134.5045202312
 20
85.8518811597
 30
0.0
 11
134.5045202312
 21
78.4919361043
 31
0.0
  0
SPLINE
  5
B8
330
1F
100
AcDbEntity
  8
0
  6
Continuous
 62
     7
370
    25
100
AcDbSpline
210
0.0
220
0.0
230
1.0
 70
    24
 71
     3
 72
    10
 73
     6
 74
     0
 42
0.000000001
 43
0.00000001
 40
0.0
 40
0.0
 40
0.0
 40
0.0
 40
0.5
 40
0.5
 40
1.0
 40
1.0
 40
1.0
 40
1.0
 10
134.0045202312138
 20
78.49193610432233
 30
0.0
 10
134.1354199251134
 20
78.49193610432233
 30
0.0
 10
134.2655135605955
 20
78.49193610432233
 30
0.0
 10
134.4506336830188
 20
78.49193610432233
 30
0.0
 10
134.5045202312138
 20
78.49193610432233
 30
0.0
 10
134.5045202312138
 20
78.49193610432233
 30
0.0
  0
SPLINE
  5
B9
330
1F
100
AcDbEntity
  8
0
  6
Continuous
 62
     7
370
    25
100
AcDbSpline
210
0.0
220
0.0
230
1.0
 70
     8
 71
     3
 72
    16
 73
    12
 74
     0
 42
0.000000001
 43
0.00000001
 40
0.0
 40
0.0
 40
0.0
 40
0.0
 40
0.0669306373819129
 40
0.150966073771265
 40
0.2515815167958828
 40
0.4013645975872995
 40
0.502824546495992
 40
0.6391659116578751
 40
0.752815115995224
 40
0.8815464302339463
 40
1.0
 40
1.0
 40
1.0
 40
1.0
 10
134.0045202312138
 20
85.4023914168989
 30
0.0
 10
134.0204386168126
 20
85.41540169226619
 30
0.0
 10
134.0563434918986
 20
85.44474715000742
 30
0.0
 10
134.1151977576995
 20
85.4941323646448
 30
0.0
 10
134.1913482694283
 20
85.55960093557545
 30
0.0
 10
134.2672825457678
 20
85.62731012045282
 30
0.0
 10
134.3444752883499
 20
85.69729075302745
 30
0.0
 10
134.4063614981771
 20
85.75604970086047
 30
0.0
 10
134.4604243669861
 20
85.80796718650421
 30
0.0
 10
134.4969960450906
 20
85.84456178964282
 30
0.0
 10
134.502082668379
 20
85.84950994981439
 30
0.0
 10
134.5045202312138
 20
85.85188115968208
 30
0.0
  0
SPLINE
  5
BA
330
1F
100
AcDbEntity
  8
0
  6
Continuous
 62
     7
370
    25
100
AcDbSpline
210
0.0
220
0.0
230
1.0
 70
    24
 71
     3
 72
    10
 73
     6
 74
     0
 42
0.000000001
 43
0.00000001
 40
0.0
 40
0.0
 40
0.0
 40
0.0
 40
0.3333333333333334
 40
0.6666666666666667
 40
1.0
 40
1.0
 40
1.0
 40
1.0
 10
125.1445751758541
 20
87.35188115968208
 30
0.0
 10
125.1445751758541
 20
87.4391476222818
 30
0.0
 10
125.1445751758541
 20
87.61355003612637
 30
0.0
 10
125.1445751758541
 20
87.80514039822751
 30
0.0
 10
125.1445751758541
 20
87.85188115968208
 30
0.0
 10
125.1445751758541
 20
87.85188115968208
 30
0.0
  0
LINE
  5
BB
330
1F
100
AcDbEntity
  8
0
  6
Continuous
 62
     7
370
    25
100
AcDbLine
 10
125.1445751759
 20
87.8518811597
 30
0.0
 11
132.5045202312
 21
87.8518811597
 31
0.0
  0
SPLINE
  5
BC
330
1F
100
AcDbEntity
  8
0
  6
Continuous
 62
     7
370
    25
100
AcDbSpline
210
0.0
220
0.0
230
1.0
 70
     8
 71
     3
 72
    17
 73
    13
 74
     0
 42
0.000000001
 43
0.00000001
 40
0.0
 40
0.0
 40
0.0
 40
0.0
 40
0.0583888241114367
 40
0.1187078578459309
 40
0.1816090076397282
 40
0.2477147080698048
 40
0.3612536927924895
 40
0.4975686195272959
 40
0.5989381675124872
 40
0.7486742038602497
 40
0.8932502484107853
 40
0.9999999999999999
 40
0.9999999999999999
 40
0.9999999999999999
 40
0.9999999999999999
 10
132.5045202312139
 20
87.85188115968207
 30
0.0
 10
132.5039569831184
 20
87.85129481799895
 30
0.0
 10
132.5028118671504
 20
87.85010275143092
 30
0.0
 10
132.4934949359863
 20
87.84067620333884
 30
0.0
 10
132.4784132575668
 20
87.82554740900065
 30
0.0
 10
132.4522623054252
 20
87.79910341456163
 30
0.0
 10
132.4086030294731
 20
87.75363268824977
 30
0.0
 10
132.3499663235399
 20
87.6918715870308
 30
0.0
 10
132.279939347847
 20
87.61464487092465
 30
0.0
 10
132.2038271993195
 20
87.52921161932409
 30
0.0
 10
132.1248157332712
 20
87.43701256943648
 30
0.0
 10
132.0758349181064
 20
87.3772605995834
 30
0.0
 10
132.0550304884307
 20
87.35188115968208
 30
0.0
  0
SPLINE
  5
BD
330
1F
100
AcDbEntity
  8
0
  6
Continuous
 62
     7
370
    25
100
AcDbSpline
210
0.0
220
0.0
230
1.0
 70
    24
 71
     3
 72
    10
 73
     6
 74
     0
 42
0.000000001
 43
0.00000001
 40
0.0
 40
0.0
 40
0.0
 40
0.0
 40
0.3333333333333334
 40
0.6666666666666667
 40
1.0
 40
1.0
 40
1.0
 40
1.0
 10
134.0045202312138
 20
71.21182621504182
 30
0.0
 10
134.0917866938136
 20
71.21182621504182
 30
0.0
 10
134.2661891076581
 20
71.21182621504182
 30
0.0
 10
134.4577794697593
 20
71.21182621504182
 30
0.0
 10
134.5045202312138
 20
71.21182621504182
 30
0.0
 10
134.5045202312138
 20
71.21182621504182
 30
0.0
  0
LINE
  5
BE
330
1F
100
AcDbEntity
  8
0
  6
Continuous
 62
     7
370
    25
100
AcDbLine
 10
134.5045202312
 20
71.211826215
 30
0.0
 11
134.5045202312
 21
62.3518811597
 31
0.0
  0
LINE
  5
BF
330
1F
100
AcDbEntity
  8
0
  6
Continuous
 62
     7
370
    25
100
AcDbLine
 10
133.0903066575
 20
86.437667586
 30
0.0
 11
135.0045202312
 21
88.3518811597
 31
0.0
  0
SPLINE
  5
C0
330
1F
100
AcDbEntity
  8
0
  6
Continuous
 62
     7
370
    25
100
AcDbSpline
210
0.0
220
0.0
230
1.0
 70
    24
 71
     3
 72
     8
 73
     4
 74
     0
 42
0.000000001
 43
0.00000001
 40
0.0
 40
0.0
 40
0.0
 40
0.0
 40
1.0
 40
1.0
 40
1.0
 40
1.0
 10
121.5045202312138
 20
87.85188115968207
 30
0.0
 10
122.7330770316746
 20
87.85188115968207
 30
0.0
 10
123.9615204791141
 20
87.85188115968207
 30
0.0
 10
125.1445751758541
 20
87.85188115968207
 30
0.0
  0
SPLINE
  5
C1
330
1F
100
AcDbEntity
  8
0
  6
Continuous
 62
     7
370
    25
100
AcDbSpline
210
0.0
220
0.0
230
1.0
 70
    24
 71
     3
 72
     8
 73
     4
 74
     0
 42
0.000000001
 43
0.00000001
 40
0.0
 40
0.0
 40
0.0
 40
0.0
 40
1.0
 40
1.0
 40
1.0
 40
1.0
 10
117.8644652865736
 20
87.85188115968208
 30
0.0
 10
119.0475199833136
 20
87.85188115968208
 30
0.0
 10
120.2759634307531
 20
87.85188115968208
 30
0.0
 10
121.5045202312138
 20
87.85188115968208
 30
0.0
  0
LINE
  5
C2
330
1F
100
AcDbEntity
  8
0
  6
Continuous
 62
     7
370
    25
100
AcDbLine
 10
109.0045202312
 20
87.8518811597
 30
0.0
 11
117.8644652866
 21
87.8518811597
 31
0.0
  0
SPLINE
  5
C3
330
1F
100
AcDbEntity
  8
0
  6
Continuous
 62
     7
370
    25
100
AcDbSpline
210
0.0
220
0.0
230
1.0
 70
    24
 71
     3
 72
    10
 73
     6
 74
     0
 42
0.000000001
 43
0.00000001
 40
0.0
 40
0.0
 40
0.0
 40
0.0
 40
0.5
 40
0.5
 40
1.0
 40
1.0
 40
1.0
 40
1.0
 10
117.8644652865736
 20
87.35188115968208
 30
0.0
 10
117.8644652865736
 20
87.48278085358164
 30
0.0
 10
117.8644652865736
 20
87.61287448906371
 30
0.0
 10
117.8644652865736
 20
87.79799461148697
 30
0.0
 10
117.8644652865736
 20
87.85188115968208
 30
0.0
 10
117.8644652865736
 20
87.85188115968208
 30
0.0
  0
SPLINE
  5
C4
330
1F
100
AcDbEntity
  8
0
  6
Continuous
 62
     7
370
    25
100
AcDbSpline
210
0.0
220
0.0
230
1.0
 70
    24
 71
     3
 72
     8
 73
     4
 74
     0
 42
0.000000001
 43
0.00000001
 40
0.0
 40
0.0
 40
0.0
 40
0.0
 40
1.0
 40
1.0
 40
1.0
 40
1.0
 10
134.5045202312138
 20
74.85188115968208
 30
0.0
 10
134.5045202312138
 20
73.62332435922134
 30
0.0
 10
134.5045202312138
 20
72.39488091178181
 30
0.0
 10
134.5045202312138
 20
71.21182621504184
 30
0.0
  0
SPLINE
  5
C5
330
1F
100
AcDbEntity
  8
0
  6
Continuous
 62
     7
370
    25
100
AcDbSpline
210
0.0
220
0.0
230
1.0
 70
    24
 71
     3
 72
     8
 73
     4
 74
     0
 42
0.000000001
 43
0.00000001
 40
0.0
 40
0.0
 40
0.0
 40
0.0
 40
1.0
 40
1.0
 40
1.0
 40
1.0
 10
134.5045202312138
 20
78.49193610432233
 30
0.0
 10
134.5045202312138
 20
77.30888140758236
 30
0.0
 10
134.5045202312138
 20
76.08043796014283
 30
0.0
 10
134.5045202312138
 20
74.85188115968208
 30
0.0
  0
ARC
  5
C6
330
1F
100
AcDbEntity
  8
0
  6
Continuous
 62
     7
370
    25
100
AcDbCircle
 10
113.5045202312
 20
66.8518811597
 30
0.0
 40
5.0
100
AcDbArc
 50
180.0
 51
270.0
  0
ARC
  5
C7
330
1F
100
AcDbEntity
  8
0
  6
Continuous
 62
     7
370
    25
100
AcDbCircle
 10
134.5045202312
 20
87.8518811597
 30
0.0
 40
2.0
100
AcDbArc
 50
180.0
 51
270.0
  0
SPLINE
  5
C8
330
1F
100
AcDbEntity
  8
0
  6
Continuous
 62
     7
370
    25
100
AcDbSpline
210
0.0
220
0.0
230
1.0
 70
     8
 71
     3
 72
     8
 73
     4
 74
     0
 42
0.000000001
 43
0.00000001
 40
0.0
 40
0.0
 40
0.0
 40
0.0
 40
1.0
 40
1.0
 40
1.0
 40
1.0
 10
130.5875901626696
 20
68.0099971056691
 30
0.0
 10
130.5635195485061
 20
68.08497025759618
 30
0.0
 10
130.4454710277281
 20
68.08497025759613
 30
0.0
 10
130.4214004135646
 20
68.0099971056691
 30
0.0
  0
SPLINE
  5
C9
330
1F
100
AcDbEntity
  8
0
  6
Continuous
 62
     7
370
    25
100
AcDbSpline
210
0.0
220
0.0
230
1.0
 70
     8
 71
     3
 72
     8
 73
     4
 74
     0
 42
0.000000001
 43
0.00000001
 40
0.0
 40
0.0
 40
0.0
 40
0.0
 40
1.0
 40
1.0
 40
1.0
 40
1.0
 10
130.1054302568095
 20
67.025839482322
 30
0.0
 10
130.0862632788225
 20
66.96613976987773
 30
0.0
 10
130.1374236699958
 20
66.89467425933324
 30
0.0
 10
130.1885251313069
 20
66.89467425933316
 30
0.0
  0
SPLINE
  5
CA
330
1F
100
AcDbEntity
  8
0
  6
Continuous
 62
     7
370
    25
100
AcDbSpline
210
0.0
220
0.0
230
1.0
 70
     8
 71
     3
 72
     8
 73
     4
 74
     0
 42
0.000000001
 43
0.00000001
 40
0.0
 40
0.0
 40
0.0
 40
0.0
 40
1.0
 40
1.0
 40
1.0
 40
1.0
 10
130.8204654412146
 20
66.89467425933316
 30
0.0
 10
130.8715669024258
 20
66.89467425933319
 30
0.0
 10
130.9227272935538
 20
66.96613976961841
 30
0.0
 10
130.9035603158223
 20
67.0258394819783
 30
0.0
  0
LINE
  5
CB
330
1F
100
AcDbEntity
  8
0
  6
Continuous
 62
     7
370
    25
100
AcDbLine
 10
130.4214004136
 20
68.0099971057
 30
0.0
 11
130.1054302568
 21
67.0258394823
 31
0.0
  0
LINE
  5
CC
330
1F
100
AcDbEntity
  8
0
  6
Continuous
 62
     7
370
    25
100
AcDbLine
 10
130.9035603158
 20
67.025839482
 30
0.0
 11
130.5875901627
 21
68.0099971057
 31
0.0
  0
LINE
  5
CD
330
1F
100
AcDbEntity
  8
0
  6
Continuous
 62
     7
370
    25
100
AcDbLine
 10
130.1885251313
 20
66.8946742593
 30
0.0
 11
130.8204654412
 21
66.8946742593
 31
0.0
  0
LINE
  5
CE
330
1F
100
AcDbEntity
  8
0
  6
Continuous
 62
     7
370
    25
100
AcDbLine
 10
168.5045202312
 20
86.3518811597
 30
0.0
 11
168.5045202312
 21
63.3518811597
 31
0.0
  0
LINE
  5
CF
330
1F
100
AcDbEntity
  8
0
  6
Continuous
 62
     8
370
    25
100
AcDbLine
 10
121.5045202312
 20
101.8518811597
 30
0.0
 11
139.5045202312
 21
101.8518811597
 31
0.0
  0
LINE
  5
D0
330
1F
100
AcDbEntity
  8
0
  6
Continuous
 62
     8
370
    25
100
AcDbLine
 10
103.5045202312
 20
101.8518811597
 30
0.0
 11
121.5045202312
 21
101.8518811597
 31
0.0
  0
LINE
  5
D1
330
1F
100
AcDbEntity
  8
0
  6
Continuous
 62
     8
370
    25
100
AcDbLine
 10
121.5045202312
 20
97.8518811597
 30
0.0
 11
108.0045202312
 21
97.8518811597
 31
0.0
  0
LINE
  5
D2
330
1F
100
AcDbEntity
  8
0
  6
Continuous
 62
     8
370
    25
100
AcDbLine
 10
135.0045202312
 20
97.8518811597
 30
0.0
 11
121.5045202312
 21
97.8518811597
 31
0.0
  0
LINE
  5
D3
330
1F
100
AcDbEntity
  8
0
  6
Continuous
 62
     8
370
    25
100
AcDbLine
 10
144.5045202312
 20
61.3518811597
 30
0.0
 11
144.5045202312
 21
88.3518811597
 31
0.0
  0
LINE
  5
D4
330
1F
100
AcDbEntity
  8
0
  6
Continuous
 62
     8
370
    25
100
AcDbLine
 10
108.0045202312
 20
66.3518811597
 30
0.0
 11
108.5078729716
 21
66.6688069592
 31
0.0
  0
LINE
  5
D5
330
1F
100
AcDbEntity
  8
0
  6
Continuous
 62
     8
370
    25
100
AcDbLine
 10
113.3214460307
 20
61.8552339001
 30
0.0
 11
113.0045202312
 21
61.3518811597
 31
0.0
  0
LINE
  5
D6
330
1F
100
AcDbEntity
  8
0
  6
Continuous
 62
     7
370
    18
100
AcDbLine
 10
167.4818142713
 20
62.7614215984
 30
0.0
 11
151.5045202312
 21
62.2621311597
 31
0.0
  0
LINE
  5
D7
330
1F
100
AcDbEntity
  8
0
  6
Continuous
 62
     7
370
    18
100
AcDbLine
 10
167.4818142713
 20
86.9423407209
 30
0.0
 11
151.5045202312
 21
87.4416311597
 31
0.0
  0
LINE
  5
D8
330
1F
100
AcDbEntity
  8
0
  6
Continuous
 62
     7
370
    18
100
AcDbLine
 10
151.5045202312
 20
88.3047249097
 30
0.0
 11
151.5045202312
 21
61.3990374097
 31
0.0
  0
LINE
  5
D9
330
1F
100
AcDbEntity
  8
0
  6
CENTERX2
 62
     7
370
    18
100
AcDbLine
 10
121.5045202312
 20
123.8518811597
 30
0.0
 11
121.5045202312
 21
99.8518811597
 31
0.0
  0
LINE
  5
DA
330
1F
100
AcDbEntity
  8
0
  6
CENTERX2
 62
     7
370
    18
100
AcDbLine
 10
121.5045202312
 20
59.664392238
 30
0.0
 11
121.5045202312
 21
99.8518811597
 31
0.0
  0
LINE
  5
DB
330
1F
100
AcDbEntity
  8
0
  6
CENTERX2
 62
     7
370
    18
100
AcDbLine
 10
102.8197012046
 20
74.8518811597
 30
0.0
 11
165.9013467296
 21
74.8518811597
 31
0.0
  0
LINE
  5
DC
330
1F
100
AcDbEntity
  8
0
  6
CENTERX2
 62
     7
370
    18
100
AcDbLine
 10
165.9013467296
 20
74.8518811597
 30
0.0
 11
170.5045202312
 21
74.8518811597
 31
0.0
  0
ARC
  5
DD
330
1F
100
AcDbEntity
  8
0
  6
Continuous
 62
     7
370
    25
100
AcDbCircle
 10
195.4190847575
 20
101.8518811597
 30
0.0
 40
2.000000000000028
100
AcDbArc
 50
180.0
 51
270.0
  0
ARC
  5
DE
330
1F
100
AcDbEntity
  8
0
  6
Continuous
 62
     7
370
    25
100
AcDbCircle
 10
227.4190847575
 20
101.8518811597
 30
0.0
 40
2.0
100
AcDbArc
 50
270.0
 51
0.0
  0
LINE
  5
DF
330
1F
100
AcDbEntity
  8
0
  6
Continuous
 62
     7
370
    25
100
AcDbLine
 10
229.4190847575
 20
121.8518811597
 30
0.0
 11
228.4190847575
 21
122.8518811597
 31
0.0
  0
LINE
  5
E0
330
1F
100
AcDbEntity
  8
0
  6
Continuous
 62
     7
370
    25
100
AcDbLine
 10
194.4190847575
 20
122.8518811597
 30
0.0
 11
193.4190847575
 21
121.8518811597
 31
0.0
  0
LINE
  5
E1
330
1F
100
AcDbEntity
  8
0
  6
Continuous
 62
     7
370
    25
100
AcDbLine
 10
229.4190847575
 20
101.8518811597
 30
0.0
 11
229.4190847575
 21
121.8518811597
 31
0.0
  0
LINE
  5
E2
330
1F
100
AcDbEntity
  8
0
  6
Continuous
 62
     7
370
    25
100
AcDbLine
 10
193.4190847575
 20
121.8518811597
 30
0.0
 11
193.4190847575
 21
101.8518811597
 31
0.0
  0
ARC
  5
E3
330
1F
100
AcDbEntity
  8
0
  6
Continuous
 62
     7
370
    25
100
AcDbCircle
 10
195.9190847575
 20
97.8518811597
 30
0.0
 40
2.0
100
AcDbArc
 50
0.0
 51
90.0
  0
ARC
  5
E4
330
1F
100
AcDbEntity
  8
0
  6
Continuous
 62
     7
370
    25
100
AcDbCircle
 10
226.9190847575
 20
97.8518811597
 30
0.0
 40
2.000000000000028
100
AcDbArc
 50
90.0
 51
180.0
  0
LINE
  5
E5
330
1F
100
AcDbEntity
  8
0
  6
Continuous
 62
     7
370
    25
100
AcDbLine
 10
197.9190847575
 20
97.8518811597
 30
0.0
 11
197.9190847575
 21
87.8518811597
 31
0.0
  0
LINE
  5
E6
330
1F
100
AcDbEntity
  8
0
  6
Continuous
 62
     7
370
    25
100
AcDbLine
 10
224.9190847575
 20
87.8518811597
 30
0.0
 11
224.9190847575
 21
97.8518811597
 31
0.0
  0
SPLINE
  5
E7
330
1F
100
AcDbEntity
  8
0
  6
Continuous
 62
     7
370
    25
100
AcDbSpline
210
0.0
220
0.0
230
1.0
 70
     8
 71
     3
 72
    10
 73
     6
 74
     0
 42
0.000000001
 43
0.00000001
 40
0.0
 40
0.0
 40
0.0
 40
0.0
 40
0.3730725405375177
 40
0.7443533512068699
 40
1.0
 40
1.0
 40
1.0
 40
1.0
 10
224.9190847574768
 20
71.21182621504182
 30
0.0
 10
224.9081359068265
 20
71.61115148440116
 30
0.0
 10
224.8862907888191
 20
72.40788421107395
 30
0.0
 10
224.8874984302193
 20
73.48956289450241
 30
0.0
 10
224.9040192173652
 20
74.17547177372144
 30
0.0
 10
224.9107560157069
 20
74.4551696936373
 30
0.0
  0
CIRCLE
  5
E8
330
1F
100
AcDbEntity
  8
0
  6
Continuous
 62
     7
370
    25
100
AcDbCircle
 10
211.4190847575
 20
74.8518811597
 30
0.0
 40
11.49999999999997
  0
CIRCLE
  5
E9
330
1F
100
AcDbEntity
  8
0
  6
Continuous
 62
     7
370
    25
100
AcDbCircle
 10
211.4190847575
 20
74.8518811597
 30
0.0
 40
13.00294292192666
  0
CIRCLE
  5
EA
330
1F
100
AcDbEntity
  8
0
  6
Continuous
 62
     7
370
    25
100
AcDbCircle
 10
211.4190847575
 20
74.8518811597
 30
0.0
 40
10.0
  0
CIRCLE
  5
EB
330
1F
100
AcDbEntity
  8
0
  6
Continuous
 62
     7
370
    25
100
AcDbCircle
 10
211.4190847575
 20
74.8518811597
 30
0.0
 40
9.499999999999972
  0
CIRCLE
  5
EC
330
1F
100
AcDbEntity
  8
0
  6
Continuous
 62
     7
370
    25
100
AcDbCircle
 10
211.4190847575
 20
74.8518811597
 30
0.0
 40
13.51940625
  0
LINE
  5
ED
330
1F
100
AcDbEntity
  8
0
  6
Continuous
 62
     7
370
    25
100
AcDbLine
 10
227.4190847575
 20
99.8518811597
 30
0.0
 11
195.4190847575
 21
99.8518811597
 31
0.0
  0
LINE
  5
EE
330
1F
100
AcDbEntity
  8
0
  6
Continuous
 62
     7
370
    25
100
AcDbLine
 10
229.4190847575
 20
121.8518811597
 30
0.0
 11
193.4190847575
 21
121.8518811597
 31
0.0
  0
LINE
  5
EF
330
1F
100
AcDbEntity
  8
0
  6
Continuous
 62
     7
370
    25
100
AcDbLine
 10
194.4190847575
 20
122.8518811597
 30
0.0
 11
228.4190847575
 21
122.8518811597
 31
0.0
  0
SPLINE
  5
F0
330
1F
100
AcDbEntity
  8
0
  6
Continuous
 62
     7
370
    25
100
AcDbSpline
210
0.0
220
0.0
230
1.0
 70
    24
 71
     3
 72
     9
 73
     5
 74
     0
 42
0.000000001
 43
0.00000001
 40
0.0
 40
0.0
 40
0.0
 40
0.0
 40
0.4368932790438769
 40
0.9999999999999999
 40
0.9999999999999999
 40
0.9999999999999999
 40
0.9999999999999999
 10
224.5030054683185
 20
87.85188115968208
 30
0.0
 10
224.6138948991092
 20
87.85188115968208
 30
0.0
 10
224.8677084414769
 20
87.85188115968208
 30
0.0
 10
224.9005765209951
 20
87.85188115968208
 30
0.0
 10
224.9190847574768
 20
87.85188115968208
 30
0.0
  0
SPLINE
  5
F1
330
1F
100
AcDbEntity
  8
0
  6
Continuous
 62
     7
370
    25
100
AcDbSpline
210
0.0
220
0.0
230
1.0
 70
     8
 71
     3
 72
    12
 73
     8
 74
     0
 42
0.000000001
 43
0.00000001
 40
0.0
 40
0.0
 40
0.0
 40
0.0
 40
0.4999999999999984
 40
0.4999999999999984
 40
0.7499999999999992
 40
0.7499999999999992
 40
1.0
 40
1.0
 40
1.0
 40
1.0
 10
219.8414795067368
 20
87.85188115968207
 30
0.0
 10
219.715832400623
 20
87.85188115968207
 30
0.0
 10
219.5907109623547
 20
87.8240962697141
 30
0.0
 10
219.4122960034682
 20
87.73219835652539
 30
0.0
 10
219.3549402474675
 20
87.69299758290191
 30
0.0
 10
219.2543114500084
 20
87.59147474638557
 30
0.0
 10
219.210423200741
 20
87.52844149885483
 30
0.0
 10
219.1882151239965
 20
87.45188116014539
 30
0.0
  0
SPLINE
  5
F2
330
1F
100
AcDbEntity
  8
0
  6
Continuous
 62
     7
370
    25
100
AcDbSpline
210
0.0
220
0.0
230
1.0
 70
     8
 71
     3
 72
    12
 73
     8
 74
     0
 42
0.000000001
 43
0.00000001
 40
0.0
 40
0.0
 40
0.0
 40
0.0
 40
0.2500000000000006
 40
0.2500000000000006
 40
0.5000000000000011
 40
0.5000000000000011
 40
1.0
 40
1.0
 40
1.0
 40
1.0
 10
219.1882151237178
 20
87.45188115997392
 30
0.0
 10
219.1544781947796
 20
87.33557614392836
 30
0.0
 10
219.1080754319295
 20
87.2286297464635
 30
0.0
 10
218.995218570896
 20
87.02911583355068
 30
0.0
 10
218.9277657782301
 20
86.93577599204245
 30
0.0
 10
218.7075224015268
 20
86.68406102482594
 30
0.0
 10
218.535500915265
 20
86.54939637634334
 30
0.0
 10
218.3486990135021
 20
86.43766764545447
 30
0.0
  0
SPLINE
  5
F3
330
1F
100
AcDbEntity
  8
0
  6
Continuous
 62
     7
370
    25
100
AcDbSpline
210
0.0
220
0.0
230
1.0
 70
     8
 71
     3
 72
    12
 73
     8
 74
     0
 42
0.000000001
 43
0.00000001
 40
0.0
 40
0.0
 40
0.0
 40
0.0
 40
0.2500000000000003
 40
0.2500000000000003
 40
0.5000000000000006
 40
0.5000000000000006
 40
1.0
 40
1.0
 40
1.0
 40
1.0
 10
203.5928468362276
 20
87.85188115968207
 30
0.0
 10
203.5928468362276
 20
87.69430218956184
 30
0.0
 10
203.6184541345326
 20
87.54304893358456
 30
0.0
 10
203.7153975381161
 20
87.25167543746944
 30
0.0
 10
203.7837493102417
 20
87.12045896256474
 30
0.0
 10
204.0350015211587
 20
86.76012754027798
 30
0.0
 10
204.2507403995374
 20
86.58045532472237
 30
0.0
 10
204.4894705473818
 20
86.43766761798305
 30
0.0
  0
SPLINE
  5
F4
330
1F
100
AcDbEntity
  8
0
  6
Continuous
 62
     7
370
    25
100
AcDbSpline
210
0.0
220
0.0
230
1.0
 70
    24
 71
     3
 72
     9
 73
     5
 74
     0
 42
0.000000001
 43
0.00000001
 40
0.0
 40
0.0
 40
0.0
 40
0.0
 40
0.5631067209561573
 40
1.0
 40
1.0
 40
1.0
 40
1.0
 10
197.9190847574768
 20
87.85188115968207
 30
0.0
 10
197.9375929939585
 20
87.85188115968208
 30
0.0
 10
197.9704610734767
 20
87.85188115968207
 30
0.0
 10
198.2242746158444
 20
87.85188115968207
 30
0.0
 10
198.3351640466351
 20
87.85188115968207
 30
0.0
  0
ARC
  5
F5
330
1F
100
AcDbEntity
  8
0
  6
Continuous
 62
     7
370
    25
100
AcDbCircle
 10
198.4190847575
 20
62.3518811597
 30
0.0
 40
0.5
100
AcDbArc
 50
180.0
 51
270.0
  0
LINE
  5
F6
330
1F
100
AcDbEntity
  8
0
  6
Continuous
 62
     7
370
    25
100
AcDbLine
 10
198.4190847575
 20
62.3518811597
 30
0.0
 11
197.9190847575
 21
62.3518811597
 31
0.0
  0
LINE
  5
F7
330
1F
100
AcDbEntity
  8
0
  6
Continuous
 62
     7
370
    25
100
AcDbLine
 10
198.4190847575
 20
62.3518811597
 30
0.0
 11
198.4190847575
 21
61.8518811597
 31
0.0
  0
LINE
  5
F8
330
1F
100
AcDbEntity
  8
0
  6
Continuous
 62
     7
370
    25
100
AcDbLine
 10
224.4190847575
 20
62.3518811597
 30
0.0
 11
224.9190847575
 21
62.3518811597
 31
0.0
  0
ARC
  5
F9
330
1F
100
AcDbEntity
  8
0
  6
Continuous
 62
     7
370
    25
100
AcDbCircle
 10
224.4190847575
 20
62.3518811597
 30
0.0
 40
0.5
100
AcDbArc
 50
270.0
 51
0.0
  0
LINE
  5
FA
330
1F
100
AcDbEntity
  8
0
  6
Continuous
 62
     7
370
    25
100
AcDbLine
 10
224.4190847575
 20
61.8518811597
 30
0.0
 11
224.4190847575
 21
62.3518811597
 31
0.0
  0
ARC
  5
FB
330
1F
100
AcDbEntity
  8
0
  6
Continuous
 62
     7
370
    25
100
AcDbCircle
 10
224.4240847575
 20
85.3972883132
 30
0.0
 40
0.495026303997331
100
AcDbArc
 50
0.5906584722
 51
90.5787243376
  0
LINE
  5
FC
330
1F
100
AcDbEntity
  8
0
  6
Continuous
 62
     7
370
    25
100
AcDbLine
 10
224.9190847575
 20
85.4023914169
 30
0.0
 11
224.4190847575
 21
85.4023914169
 31
0.0
  0
LINE
  5
FD
330
1F
100
AcDbEntity
  8
0
  6
Continuous
 62
     7
370
    25
100
AcDbLine
 10
224.4190847575
 20
85.4023914169
 30
0.0
 11
224.4190847575
 21
85.8922893654
 31
0.0
  0
SPLINE
  5
FE
330
1F
100
AcDbEntity
  8
0
  6
Continuous
 62
     7
370
    25
100
AcDbSpline
210
0.0
220
0.0
230
1.0
 70
     8
 71
     3
 72
    16
 73
    12
 74
     0
 42
0.000000001
 43
0.00000001
 40
0.0
 40
0.0
 40
0.0
 40
0.0
 40
0.0669306373819129
 40
0.150966073771265
 40
0.2515815167958828
 40
0.4013645975872995
 40
0.502824546495992
 40
0.6391659116578751
 40
0.752815115995224
 40
0.8815464302339463
 40
1.0
 40
1.0
 40
1.0
 40
1.0
 10
197.9190847574768
 20
85.4023914168989
 30
0.0
 10
197.9195297624473
 20
85.41540169226619
 30
0.0
 10
197.9205334978938
 20
85.44474715000742
 30
0.0
 10
197.9300745625894
 20
85.4941323646448
 30
0.0
 10
197.9523352363673
 20
85.55960093557545
 30
0.0
 10
197.9905909162904
 20
85.62731012045282
 30
0.0
 10
198.0486114236618
 20
85.69729075302745
 30
0.0
 10
198.1161747956604
 20
85.75604970086047
 30
0.0
 10
198.2056126732925
 20
85.80796718650421
 30
0.0
 10
198.3064489888412
 20
85.84456178964282
 30
0.0
 10
198.3825948622247
 20
85.84950994981439
 30
0.0
 10
198.4190847574768
 20
85.85188115968208
 30
0.0
  0
SPLINE
  5
FF
330
1F
100
AcDbEntity
  8
0
  6
Continuous
 62
     7
370
    25
100
AcDbSpline
210
0.0
220
0.0
230
1.0
 70
    24
 71
     3
 72
    10
 73
     6
 74
     0
 42
0.000000001
 43
0.00000001
 40
0.0
 40
0.0
 40
0.0
 40
0.0
 40
0.5
 40
0.5
 40
1.0
 40
1.0
 40
1.0
 40
1.0
 10
197.9190847574768
 20
87.35188115968208
 30
0.0
 10
197.9190847574768
 20
86.87161268706095
 30
0.0
 10
197.9190847574768
 20
86.43071812165458
 30
0.0
 10
197.9190847574768
 20
85.73751029177684
 30
0.0
 10
197.9190847574768
 20
85.50042580835452
 30
0.0
 10
197.9190847574768
 20
85.4023914168989
 30
0.0
  0
SPLINE
  5
100
330
1F
100
AcDbEntity
  8
0
  6
Continuous
 62
     7
370
    25
100
AcDbSpline
210
0.0
220
0.0
230
1.0
 70
     8
 71
     3
 72
    17
 73
    13
 74
     0
 42
0.000000001
 43
0.00000001
 40
0.0
 40
0.0
 40
0.0
 40
0.0
 40
0.0583888241114367
 40
0.1187078578459309
 40
0.1816090076397282
 40
0.2477147080698048
 40
0.3612536927924895
 40
0.4975686195272959
 40
0.5989381675124872
 40
0.7486742038602497
 40
0.8932502484107853
 40
0.9999999999999999
 40
0.9999999999999999
 40
0.9999999999999999
 40
0.9999999999999999
 10
198.4190847574768
 20
87.85188115968207
 30
0.0
 10
198.4011271360722
 20
87.85129481799895
 30
0.0
 10
198.3646182527132
 20
87.85010275143092
 30
0.0
 10
198.3100785874507
 20
87.84067620333884
 30
0.0
 10
198.2558023833546
 20
87.82554740900065
 30
0.0
 10
198.1909177732273
 20
87.79910341456163
 30
0.0
 10
198.1161516537575
 20
87.75363268824977
 30
0.0
 10
198.0486471635991
 20
87.6918715870308
 30
0.0
 10
197.9905425953355
 20
87.61464487092465
 30
0.0
 10
197.9478385142137
 20
87.52921161932409
 30
0.0
 10
197.9229036397746
 20
87.43701256943648
 30
0.0
 10
197.9202232455395
 20
87.3772605995834
 30
0.0
 10
197.9190847574768
 20
87.35188115968208
 30
0.0
  0
LINE
  5
101
330
1F
100
AcDbEntity
  8
0
  6
Continuous
 62
     7
370
    25
100
AcDbLine
 10
198.4190847575
 20
87.8518811597
 30
0.0
 11
198.4190847575
 21
85.8518811597
 31
0.0
  0
LINE
  5
102
330
1F
100
AcDbEntity
  8
0
  6
Continuous
 62
     7
370
    25
100
AcDbLine
 10
198.4190847575
 20
85.8518811597
 30
0.0
 11
203.5594190297
 21
85.8518811597
 31
0.0
  0
LINE
  5
103
330
1F
100
AcDbEntity
  8
0
  6
Continuous
 62
     7
370
    25
100
AcDbLine
 10
203.5928468362
 20
87.8518811597
 30
0.0
 11
198.4190847575
 21
87.8518811597
 31
0.0
  0
SPLINE
  5
104
330
1F
100
AcDbEntity
  8
0
  6
Continuous
 62
     7
370
    25
100
AcDbSpline
210
0.0
220
0.0
230
1.0
 70
    24
 71
     3
 72
    10
 73
     6
 74
     0
 42
0.000000001
 43
0.00000001
 40
0.0
 40
0.0
 40
0.0
 40
0.0
 40
0.5
 40
0.5
 40
1.0
 40
1.0
 40
1.0
 40
1.0
 10
197.9190847574768
 20
78.49193610432233
 30
0.0
 10
197.9190847574768
 20
78.49193610432233
 30
0.0
 10
197.9729713056719
 20
78.49193610432233
 30
0.0
 10
198.1580914280952
 20
78.49193610432233
 30
0.0
 10
198.2881850635772
 20
78.49193610432233
 30
0.0
 10
198.4190847574768
 20
78.49193610432233
 30
0.0
  0
LINE
  5
105
330
1F
100
AcDbEntity
  8
0
  6
Continuous
 62
     7
370
    25
100
AcDbLine
 10
197.9190847575
 20
78.4919361043
 30
0.0
 11
197.9190847575
 21
85.4023914169
 31
0.0
  0
SPLINE
  5
106
330
1F
100
AcDbEntity
  8
0
  6
Continuous
 62
     7
370
    25
100
AcDbSpline
210
0.0
220
0.0
230
1.0
 70
    24
 71
     3
 72
    10
 73
     6
 74
     0
 42
0.000000001
 43
0.00000001
 40
0.0
 40
0.0
 40
0.0
 40
0.0
 40
0.3333333333333333
 40
0.6666666666666666
 40
1.0
 40
1.0
 40
1.0
 40
1.0
 10
224.4190847574768
 20
71.21182621504182
 30
0.0
 10
224.5063512200765
 20
71.21182621504182
 30
0.0
 10
224.6807536339211
 20
71.21182621504182
 30
0.0
 10
224.8723439960222
 20
71.21182621504182
 30
0.0
 10
224.9190847574768
 20
71.21182621504182
 30
0.0
 10
224.9190847574768
 20
71.21182621504182
 30
0.0
  0
LINE
  5
107
330
1F
100
AcDbEntity
  8
0
  6
Continuous
 62
     7
370
    25
100
AcDbLine
 10
224.9190847575
 20
62.3518811597
 30
0.0
 11
224.9190847575
 21
71.211826215
 31
0.0
  0
LINE
  5
108
330
1F
100
AcDbEntity
  8
0
  6
Continuous
 62
     7
370
    25
100
AcDbLine
 10
197.9190847575
 20
62.3518811597
 30
0.0
 11
197.9190847575
 21
71.211826215
 31
0.0
  0
SPLINE
  5
109
330
1F
100
AcDbEntity
  8
0
  6
Continuous
 62
     7
370
    25
100
AcDbSpline
210
0.0
220
0.0
230
1.0
 70
    24
 71
     3
 72
    10
 73
     6
 74
     0
 42
0.000000001
 43
0.00000001
 40
0.0
 40
0.0
 40
0.0
 40
0.0
 40
0.3333333333333334
 40
0.6666666666666667
 40
1.0
 40
1.0
 40
1.0
 40
1.0
 10
197.9190847574768
 20
71.21182621504182
 30
0.0
 10
197.9190847574768
 20
71.21182621504182
 30
0.0
 10
197.9658255189314
 20
71.21182621504182
 30
0.0
 10
198.1574158810325
 20
71.21182621504182
 30
0.0
 10
198.3318182948771
 20
71.21182621504182
 30
0.0
 10
198.4190847574768
 20
71.21182621504182
 30
0.0
  0
SPLINE
  5
10A
330
1F
100
AcDbEntity
  8
0
  6
Continuous
 62
     7
370
    25
100
AcDbSpline
210
0.0
220
0.0
230
1.0
 70
    24
 71
     3
 72
    10
 73
     6
 74
     0
 42
0.000000001
 43
0.00000001
 40
0.0
 40
0.0
 40
0.0
 40
0.0
 40
0.3333333333333334
 40
0.6666666666666667
 40
1.0
 40
1.0
 40
1.0
 40
1.0
 10
224.9190847574768
 20
78.49193610432233
 30
0.0
 10
224.9190847574768
 20
78.49193610432233
 30
0.0
 10
224.8723439960222
 20
78.49193610432233
 30
0.0
 10
224.6807536339211
 20
78.49193610432233
 30
0.0
 10
224.5063512200765
 20
78.49193610432233
 30
0.0
 10
224.4190847574768
 20
78.49193610432233
 30
0.0
  0
LINE
  5
10B
330
1F
100
AcDbEntity
  8
0
  6
Continuous
 62
     7
370
    25
100
AcDbLine
 10
224.9190847575
 20
78.4919361043
 30
0.0
 11
224.9190847575
 21
85.4023914169
 31
0.0
  0
SPLINE
  5
10C
330
1F
100
AcDbEntity
  8
0
  6
Continuous
 62
     7
370
    25
100
AcDbSpline
210
0.0
220
0.0
230
1.0
 70
    24
 71
     3
 72
    10
 73
     6
 74
     0
 42
0.000000001
 43
0.00000001
 40
-0.3659325502503529
 40
-0.3659325502503529
 40
-0.3659325502503529
 40
-0.3659325502503529
 40
-0.1822195959587747
 40
-0.1822195959587747
 40
0.0014933583328035
 40
0.0014933583328035
 40
0.0014933583328035
 40
0.0014933583328035
 10
197.9190847574768
 20
74.85188115968208
 30
0.0
 10
197.9190847574768
 20
74.2509519447303
 30
0.0
 10
197.9190847574768
 20
73.64604841944467
 30
0.0
 10
197.9190847574768
 20
72.43277545388936
 30
0.0
 10
197.9190847574768
 20
71.8242027293247
 30
0.0
 10
197.9190847574768
 20
71.21182621504182
 30
0.0
  0
SPLINE
  5
10D
330
1F
100
AcDbEntity
  8
0
  6
Continuous
 62
     7
370
    25
100
AcDbSpline
210
0.0
220
0.0
230
1.0
 70
    24
 71
     3
 72
    10
 73
     6
 74
     0
 42
0.000000001
 43
0.00000001
 40
-0.3660006408174005
 40
-0.3660006408174005
 40
-0.3660006408174005
 40
-0.3660006408174005
 40
-0.1822877504907715
 40
-0.1822877504907715
 40
0.0014251398358575
 40
0.0014251398358575
 40
0.0014251398358575
 40
0.0014251398358575
 10
224.9190847574768
 20
74.85188115968208
 30
0.0
 10
224.9190847574768
 20
75.45281016539751
 30
0.0
 10
224.9190847574768
 20
76.05771692682849
 30
0.0
 10
224.9190847574768
 20
77.27098834177947
 30
0.0
 10
224.9190847574768
 20
77.8795598032391
 30
0.0
 10
224.9190847574768
 20
78.49193610432233
 30
0.0
  0
SPLINE
  5
10E
330
1F
100
AcDbEntity
  8
0
  6
Continuous
 62
     7
370
    25
100
AcDbSpline
210
0.0
220
0.0
230
1.0
 70
    24
 71
     3
 72
    10
 73
     6
 74
     0
 42
0.000000001
 43
0.00000001
 40
-1.079173746903875
 40
-1.079173746903875
 40
-1.079173746903875
 40
-1.079173746903875
 40
-0.8954608565521778
 40
-0.8954608565521778
 40
-0.7117479662004804
 40
-0.7117479662004804
 40
-0.7117479662004804
 40
-0.7117479662004804
 10
197.9190847574768
 20
78.49193610432233
 30
0.0
 10
197.9190847574768
 20
77.87955980315002
 30
0.0
 10
197.9190847574768
 20
77.27098834160813
 30
0.0
 10
197.9190847574768
 20
76.0577169264942
 30
0.0
 10
197.9190847574768
 20
75.4528101654777
 30
0.0
 10
197.9190847574768
 20
74.85188115968208
 30
0.0
  0
LINE
  5
10F
330
1F
100
AcDbEntity
  8
0
  6
Continuous
 62
     7
370
    25
100
AcDbLine
 10
215.1304652759
 20
61.8518811597
 30
0.0
 11
224.4190847575
 21
61.8518811597
 31
0.0
  0
LINE
  5
110
330
1F
100
AcDbEntity
  8
0
  6
Continuous
 62
     7
370
    25
100
AcDbLine
 10
207.7077042391
 20
61.8518811597
 30
0.0
 11
198.4190847575
 21
61.8518811597
 31
0.0
  0
LINE
  5
111
330
1F
100
AcDbEntity
  8
0
  6
Continuous
 62
     7
370
    25
100
AcDbLine
 10
224.4190847575
 20
87.4518811599
 30
0.0
 11
224.4190847575
 21
85.8922893654
 31
0.0
  0
ARC
  5
112
330
1F
100
AcDbEntity
  8
0
  6
Continuous
 62
     7
370
    25
100
AcDbCircle
 10
224.5390847569
 20
86.7518811581
 30
0.0
 40
0.7102112378047778
100
AcDbArc
 50
57.6525565299
 51
99.7275784831
  0
SPLINE
  5
113
330
1F
100
AcDbEntity
  8
0
  6
Continuous
 62
     7
370
    25
100
AcDbSpline
210
0.0
220
0.0
230
1.0
 70
    24
 71
     3
 72
    10
 73
     6
 74
     0
 42
0.000000001
 43
0.00000001
 40
0.0
 40
0.0
 40
0.0
 40
0.0
 40
0.4999999999999996
 40
0.4999999999999996
 40
0.9999999999999999
 40
0.9999999999999999
 40
0.9999999999999999
 40
0.9999999999999999
 10
224.9190847574768
 20
85.4023914168989
 30
0.0
 10
224.9190847574768
 20
85.50042580835452
 30
0.0
 10
224.9190847574768
 20
85.73751029177683
 30
0.0
 10
224.9190847574768
 20
86.43071812165456
 30
0.0
 10
224.9190847574768
 20
86.87161268706095
 30
0.0
 10
224.9190847574768
 20
87.35188115968207
 30
0.0
  0
LINE
  5
114
330
1F
100
AcDbEntity
  8
0
  6
Continuous
 62
     7
370
    25
100
AcDbLine
 10
219.188215124
 20
87.45188116
 30
0.0
 11
224.4190847575
 21
87.4518811599
 31
0.0
  0
ARC
  5
115
330
1F
100
AcDbEntity
  8
0
  6
Continuous
 62
     7
370
    25
100
AcDbCircle
 10
224.4190847575
 20
87.3518811597
 30
0.0
 40
0.5
100
AcDbArc
 50
0.0
 51
90.0
  0
LINE
  5
116
330
1F
100
AcDbEntity
  8
0
  6
Continuous
 62
     7
370
    25
100
AcDbLine
 10
224.4190847575
 20
87.4518811599
 30
0.0
 11
224.4190847575
 21
87.8518811597
 31
0.0
  0
LINE
  5
117
330
1F
100
AcDbEntity
  8
0
  6
Continuous
 62
     7
370
    25
100
AcDbLine
 10
219.8414795067
 20
87.8518811597
 30
0.0
 11
224.4190847575
 21
87.8518811597
 31
0.0
  0
SPLINE
  5
118
330
1F
100
AcDbEntity
  8
0
  6
Continuous
 62
     7
370
    25
100
AcDbSpline
210
0.0
220
0.0
230
1.0
 70
     8
 71
     3
 72
     8
 73
     4
 74
     0
 42
0.000000001
 43
0.00000001
 40
0.0
 40
0.0
 40
0.0
 40
0.0
 40
1.0
 40
1.0
 40
1.0
 40
1.0
 10
220.8663065713224
 20
75.85188115968211
 30
0.0
 10
220.8615730782409
 20
75.189572967273
 30
0.0
 10
220.8615103658263
 20
74.52296404452605
 30
0.0
 10
220.8663065713224
 20
73.85188115968207
 30
0.0
  0
LINE
  5
119
330
1F
100
AcDbEntity
  8
0
  6
Continuous
 62
     7
370
    25
100
AcDbLine
 10
220.8663065713
 20
73.8518811597
 30
0.0
 11
201.9718629436
 21
73.8518811597
 31
0.0
  0
SPLINE
  5
11A
330
1F
100
AcDbEntity
  8
0
  6
Continuous
 62
     7
370
    25
100
AcDbSpline
210
0.0
220
0.0
230
1.0
 70
    24
 71
     3
 72
     8
 73
     4
 74
     0
 42
0.000000001
 43
0.00000001
 40
0.0
 40
0.0
 40
0.0
 40
0.0
 40
0.5000000000000052
 40
0.5000000000000052
 40
0.5000000000000052
 40
0.5000000000000052
 10
197.9190847574768
 20
68.0099971056691
 30
0.0
 10
197.9190847574768
 20
68.04748368163266
 30
0.0
 10
197.9190847574768
 20
68.06622696961439
 30
0.0
 10
197.9190847574768
 20
68.06622696961439
 30
0.0
  0
SPLINE
  5
11B
330
1F
100
AcDbEntity
  8
0
  6
Continuous
 62
     7
370
    25
100
AcDbSpline
210
0.0
220
0.0
230
1.0
 70
    24
 71
     3
 72
    10
 73
     6
 74
     0
 42
0.000000001
 43
0.00000001
 40
-1.079173746889234
 40
-1.079173746889234
 40
-1.079173746889234
 40
-1.079173746889234
 40
-0.8954608565448569
 40
-0.8954608565448569
 40
-0.7117479662004795
 40
-0.7117479662004795
 40
-0.7117479662004795
 40
-0.7117479662004795
 10
224.9190847574768
 20
87.35188115968208
 30
0.0
 10
224.9190847574768
 20
87.35188115968208
 30
0.0
 10
224.9190847574768
 20
87.42576842914333
 30
0.0
 10
224.9190847574768
 20
87.61488147765199
 30
0.0
 10
224.9190847574768
 20
87.7340292855777
 30
0.0
 10
224.9190847574768
 20
87.85188115968208
 30
0.0
  0
SPLINE
  5
11C
330
1F
100
AcDbEntity
  8
0
  6
Continuous
 62
     7
370
    25
100
AcDbSpline
210
0.0
220
0.0
230
1.0
 70
    24
 71
     3
 72
    10
 73
     6
 74
     0
 42
0.000000001
 43
0.00000001
 40
-0.3660006408174011
 40
-0.3660006408174011
 40
-0.3660006408174011
 40
-0.3660006408174011
 40
-0.1822877504730238
 40
-0.1822877504730238
 40
0.0014251398713536
 40
0.0014251398713536
 40
0.0014251398713536
 40
0.0014251398713536
 10
197.9190847574768
 20
87.85188115968208
 30
0.0
 10
197.9190847574768
 20
87.7340292855777
 30
0.0
 10
197.9190847574768
 20
87.61488147765199
 30
0.0
 10
197.9190847574768
 20
87.42576842914333
 30
0.0
 10
197.9190847574768
 20
87.35188115968208
 30
0.0
 10
197.9190847574768
 20
87.35188115968208
 30
0.0
  0
SPLINE
  5
11D
330
1F
100
AcDbEntity
  8
0
  6
Continuous
 62
     7
370
    25
100
AcDbSpline
210
0.0
220
0.0
230
1.0
 70
     8
 71
     3
 72
    30
 73
    26
 74
     0
 42
0.000000001
 43
0.00000001
 40
0.0
 40
0.0
 40
0.0
 40
0.0
 40
0.1250000000000001
 40
0.1250000000000001
 40
0.2500000000000001
 40
0.2500000000000001
 40
0.3750000000000001
 40
0.3750000000000001
 40
0.4375000000000001
 40
0.4375000000000001
 40
0.5000000000000001
 40
0.5000000000000001
 40
0.5312500000000001
 40
0.5312500000000001
 40
0.5625000000000001
 40
0.5625000000000001
 40
0.6250000000000001
 40
0.6250000000000001
 40
0.6875000000000001
 40
0.6875000000000001
 40
0.7500000000000002
 40
0.7500000000000002
 40
0.8750000000000001
 40
0.8750000000000001
 40
1.0
 40
1.0
 40
1.0
 40
1.0
 10
220.8663065713224
 20
73.85188115968208
 30
0.0
 10
220.1689183695268
 20
73.45996418794867
 30
0.0
 10
219.4599349373084
 20
73.08002504220218
 30
0.0
 10
218.0028874807393
 20
72.36051684383882
 30
0.0
 10
217.2552925779395
 20
72.02046319056296
 30
0.0
 10
215.6894821634293
 20
71.41330668652027
 30
0.0
 10
214.8820054438377
 20
71.15037132123827
 30
0.0
 10
213.6117140188029
 20
70.86619889881625
 30
0.0
 10
213.1742368115264
 20
70.78973569008359
 30
0.0
 10
212.2948120018015
 20
70.68736678624987
 30
0.0
 10
211.8535308982669
 20
70.661191247512
 30
0.0
 10
211.1891147063592
 20
70.66169698524223
 30
0.0
 10
210.9672286002395
 20
70.66846641420857
 30
0.0
 10
210.5226270131401
 20
70.69522754626595
 30
0.0
 10
210.299054734585
 20
70.71536012144551
 30
0.0
 10
209.6384618360127
 20
70.7936693367452
 30
0.0
 10
209.2086457253148
 20
70.86967299484922
 30
0.0
 10
208.365727885843
 20
71.05927884768312
 30
0.0
 10
207.9526160434159
 20
71.17285829203179
 30
0.0
 10
207.139297585749
 20
71.42904712986399
 30
0.0
 10
206.7395652563185
 20
71.57161473932837
 30
0.0
 10
205.571722631552
 20
72.02547378286381
 30
0.0
 10
204.8271167796831
 20
72.3643895362054
 30
0.0
 10
203.3749099745231
 20
73.08182745127661
 30
0.0
 10
202.6677415490011
 20
73.46081254824239
 30
0.0
 10
201.9718629436312
 20
73.85188115968208
 30
0.0
  0
LINE
  5
11E
330
1F
100
AcDbEntity
  8
0
  6
Continuous
 62
     8
370
    25
100
AcDbLine
 10
193.4190847575
 20
101.8518811597
 30
0.0
 11
229.4190847575
 21
101.8518811597
 31
0.0
  0
LINE
  5
11F
330
1F
100
AcDbEntity
  8
0
  6
Continuous
 62
     8
370
    25
100
AcDbLine
 10
224.9190847575
 20
97.8518811597
 30
0.0
 11
197.9190847575
 21
97.8518811597
 31
0.0
  0
LINE
  5
120
330
1F
100
AcDbEntity
  8
0
  6
Continuous
 62
     8
370
    25
100
AcDbLine
 10
198.4190847575
 20
85.8518811597
 30
0.0
 11
198.4190847575
 21
78.5632616781
 31
0.0
  0
LINE
  5
121
330
1F
100
AcDbEntity
  8
0
  6
Continuous
 62
     8
370
    25
100
AcDbLine
 10
224.4190847575
 20
62.3518811597
 30
0.0
 11
224.4190847575
 21
71.1405006413
 31
0.0
  0
LINE
  5
122
330
1F
100
AcDbEntity
  8
0
  6
Continuous
 62
     8
370
    25
100
AcDbLine
 10
216.5692639148
 20
62.3518811597
 30
0.0
 11
224.4190847575
 21
62.3518811597
 31
0.0
  0
LINE
  5
123
330
1F
100
AcDbEntity
  8
0
  6
Continuous
 62
     8
370
    25
100
AcDbLine
 10
206.2689056002
 20
62.3518811597
 30
0.0
 11
198.4190847575
 21
62.3518811597
 31
0.0
  0
LINE
  5
124
330
1F
100
AcDbEntity
  8
0
  6
Continuous
 62
     8
370
    25
100
AcDbLine
 10
198.4190847575
 20
71.1405006413
 30
0.0
 11
198.4190847575
 21
62.3518811597
 31
0.0
  0
LINE
  5
125
330
1F
100
AcDbEntity
  8
0
  6
Continuous
 62
     8
370
    25
100
AcDbLine
 10
224.4190847575
 20
78.5632616781
 30
0.0
 11
224.4190847575
 21
85.4023914169
 31
0.0
  0
LINE
  5
126
330
1F
100
AcDbEntity
  8
0
  6
Continuous
 62
     8
370
    25
100
AcDbLine
 10
224.4190847575
 20
85.4023914169
 30
0.0
 11
219.87255024
 21
85.4023914169
 31
0.0
  0
LINE
  5
127
330
1F
100
AcDbEntity
  8
0
  6
Continuous
 62
     8
370
    25
100
AcDbLine
 10
219.2218875875
 20
85.8922893654
 30
0.0
 11
224.4190847575
 21
85.8922893654
 31
0.0
  0
INSERT
  5
133
330
1F
100
AcDbEntity
  8
0
  6
Continuous
 62
     7
370
    18
100
AcDbBlockReference
  2
SW_CENTERMARKSYMBOL_0
 10
211.4190847575
 20
74.8518811597
 30
0.0
  0
ARC
  5
134
330
1F
100
AcDbEntity
  8
0
  6
Continuous
 62
     7
370
    18
100
AcDbCircle
 10
211.4190847575
 20
74.8518811597
 30
0.0
 40
12.0585
100
AcDbArc
 50
75.0
 51
345.0
  0
LINE
  5
135
330
1F
100
AcDbEntity
  8
0
  6
Continuous
 62
     7
370
    25
100
AcDbLine
 10
149.3745202312
 20
150.7983213072
 30
0.0
 11
165.9013467296
 21
151.3147846352
 31
0.0
  0
LINE
  5
136
330
1F
100
AcDbEntity
  8
0
  6
Continuous
 62
     7
370
    25
100
AcDbLine
 10
165.9013467296
 20
177.3206704791
 30
0.0
 11
149.3745202312
 21
177.8371338072
 31
0.0
  0
LINE
  5
137
330
1F
100
AcDbEntity
  8
0
  6
Continuous
 62
     7
370
    25
100
AcDbLine
 10
149.3745202312
 20
177.8351025572
 30
0.0
 11
144.7675755664
 21
177.8351025572
 31
0.0
  0
LINE
  5
138
330
1F
100
AcDbEntity
  8
0
  6
Continuous
 62
     7
370
    25
100
AcDbLine
 10
144.7675755664
 20
150.8003525572
 30
0.0
 11
149.3745202312
 21
150.8003525572
 31
0.0
  0
ARC
  5
139
330
1F
100
AcDbEntity
  8
0
  6
Continuous
 62
     7
370
    25
100
AcDbCircle
 10
144.5045202312
 20
179.8177275572
 30
0.0
 40
2.000000000000008
100
AcDbArc
 50
270.0
 51
277.5578793035
  0
ARC
  5
13A
330
1F
100
AcDbEntity
  8
0
  6
Continuous
 62
     7
370
    25
100
AcDbCircle
 10
144.5045202312
 20
148.8177275572
 30
0.0
 40
2.0
100
AcDbArc
 50
82.4421206965
 51
90.0
  0
LINE
  5
13B
330
1F
100
AcDbEntity
  8
0
  6
Continuous
 62
     7
370
    25
100
AcDbLine
 10
144.5045202312
 20
177.8177275572
 30
0.0
 11
134.5045202312
 21
177.8177275572
 31
0.0
  0
LINE
  5
13C
330
1F
100
AcDbEntity
  8
0
  6
Continuous
 62
     7
370
    25
100
AcDbLine
 10
134.5045202312
 20
150.8177275572
 30
0.0
 11
144.5045202312
 21
150.8177275572
 31
0.0
  0
LINE
  5
13D
330
1F
100
AcDbEntity
  8
0
  6
Continuous
 62
     7
370
    25
100
AcDbLine
 10
165.9013467296
 20
151.3147846352
 30
0.0
 11
168.5045202312
 21
152.8177275572
 31
0.0
  0
LINE
  5
13E
330
1F
100
AcDbEntity
  8
0
  6
Continuous
 62
     7
370
    25
100
AcDbLine
 10
168.5045202312
 20
175.8177275572
 30
0.0
 11
165.9013467296
 21
177.3206704791
 31
0.0
  0
CIRCLE
  5
13F
330
1F
100
AcDbEntity
  8
0
  6
Continuous
 62
     7
370
    25
100
AcDbCircle
 10
121.5045202312
 20
164.3177275572
 30
0.0
 40
18.0
  0
CIRCLE
  5
140
330
1F
100
AcDbEntity
  8
0
  6
Continuous
 62
     7
370
    25
100
AcDbCircle
 10
121.5045202312
 20
164.3177275572
 30
0.0
 40
17.0
  0
CIRCLE
  5
141
330
1F
100
AcDbEntity
  8
0
  6
Continuous
 62
     7
370
    25
100
AcDbCircle
 10
121.5045202312
 20
164.3177275572
 30
0.0
 40
13.5
  0
CIRCLE
  5
142
330
1F
100
AcDbEntity
  8
0
  6
Continuous
 62
     7
370
    25
100
AcDbCircle
 10
121.5045202312
 20
164.3177275572
 30
0.0
 40
12.69591723068936
  0
CIRCLE
  5
143
330
1F
100
AcDbEntity
  8
0
  6
Continuous
 62
     7
370
    25
100
AcDbCircle
 10
121.5045202312
 20
164.3177275572
 30
0.0
 40
12.1306688892264
  0
CIRCLE
  5
144
330
1F
100
AcDbEntity
  8
0
  6
Continuous
 62
     7
370
    25
100
AcDbCircle
 10
121.5045202312
 20
164.3177275572
 30
0.0
 40
12.05850000000001
  0
CIRCLE
  5
145
330
1F
100
AcDbEntity
  8
0
  6
Continuous
 62
     7
370
    25
100
AcDbCircle
 10
121.5045202312
 20
164.3177275572
 30
0.0
 40
9.499999999999972
  0
LINE
  5
146
330
1F
100
AcDbEntity
  8
0
  6
Continuous
 62
     7
370
    25
100
AcDbLine
 10
165.9013467296
 20
151.3147846352
 30
0.0
 11
165.9013467296
 21
177.3206704791
 31
0.0
  0
LINE
  5
147
330
1F
100
AcDbEntity
  8
0
  6
Continuous
 62
     7
370
    25
100
AcDbLine
 10
149.3745202312
 20
150.7983213072
 30
0.0
 11
149.3745202312
 21
177.8371338072
 31
0.0
  0
LINE
  5
148
330
1F
100
AcDbEntity
  8
0
  6
Continuous
 62
     7
370
    25
100
AcDbLine
 10
144.7675755664
 20
177.8351025572
 30
0.0
 11
144.7675755664
 21
150.8003525572
 31
0.0
  0
SPLINE
  5
149
330
1F
100
AcDbEntity
  8
0
  6
Continuous
 62
     7
370
    25
100
AcDbSpline
210
0.0
220
0.0
230
1.0
 70
    24
 71
     3
 72
     9
 73
     5
 74
     0
 42
0.000000001
 43
0.00000001
 40
0.0
 40
0.0
 40
0.0
 40
0.0
 40
0.4368932790408965
 40
1.0
 40
1.0
 40
1.0
 40
1.0
 10
134.5045202312138
 20
151.2338068463301
 30
0.0
 10
134.5045202312138
 20
151.1229174155408
 30
0.0
 10
134.5045202312138
 20
150.8691038731747
 30
0.0
 10
134.5045202312138
 20
150.8362357936568
 30
0.0
 10
134.5045202312138
 20
150.8177275571753
 30
0.0
  0
SPLINE
  5
14A
330
1F
100
AcDbEntity
  8
0
  6
Continuous
 62
     7
370
    25
100
AcDbSpline
210
0.0
220
0.0
230
1.0
 70
    24
 71
     3
 72
     9
 73
     5
 74
     0
 42
0.000000001
 43
0.00000001
 40
0.0
 40
0.0
 40
0.0
 40
0.0
 40
0.563106720949192
 40
0.9999999999999999
 40
0.9999999999999999
 40
0.9999999999999999
 40
0.9999999999999999
 10
134.5045202312138
 20
177.8177275571753
 30
0.0
 10
134.5045202312138
 20
177.7992193206933
 30
0.0
 10
134.5045202312138
 20
177.7663512411741
 30
0.0
 10
134.5045202312138
 20
177.5125376988028
 30
0.0
 10
134.5045202312138
 20
177.4016482680088
 30
0.0
  0
ARC
  5
14B
330
1F
100
AcDbEntity
  8
0
  6
Continuous
 62
     7
370
    25
100
AcDbCircle
 10
109.0045202312
 20
177.3177275572
 30
0.0
 40
0.5
100
AcDbArc
 50
90.0
 51
180.0
  0
LINE
  5
14C
330
1F
100
AcDbEntity
  8
0
  6
Continuous
 62
     7
370
    25
100
AcDbLine
 10
109.0045202312
 20
177.3177275572
 30
0.0
 11
109.0045202312
 21
177.8177275572
 31
0.0
  0
LINE
  5
14D
330
1F
100
AcDbEntity
  8
0
  6
Continuous
 62
     7
370
    25
100
AcDbLine
 10
109.0045202312
 20
177.3177275572
 30
0.0
 11
108.5045202312
 21
177.3177275572
 31
0.0
  0
SPLINE
  5
14E
330
1F
100
AcDbEntity
  8
0
  6
Continuous
 62
     7
370
    25
100
AcDbSpline
210
0.0
220
0.0
230
1.0
 70
     8
 71
     3
 72
    16
 73
    12
 74
     0
 42
0.000000001
 43
0.00000001
 40
0.0
 40
0.0
 40
0.0
 40
0.0
 40
0.0669306373819129
 40
0.150966073771265
 40
0.2515815167958828
 40
0.4013645975872995
 40
0.502824546495992
 40
0.6391659116578751
 40
0.752815115995224
 40
0.8815464302339463
 40
1.0
 40
1.0
 40
1.0
 40
1.0
 10
134.0045202312138
 20
150.8177275571753
 30
0.0
 10
134.0204386168126
 20
150.8181725621457
 30
0.0
 10
134.0563434918986
 20
150.8191762975923
 30
0.0
 10
134.1151977576995
 20
150.8287173622878
 30
0.0
 10
134.1913482694283
 20
150.8509780360658
 30
0.0
 10
134.2672825457678
 20
150.8892337159888
 30
0.0
 10
134.3444752883499
 20
150.9472542233603
 30
0.0
 10
134.4063614981771
 20
151.0148175953588
 30
0.0
 10
134.4604243669861
 20
151.104255472991
 30
0.0
 10
134.4969960450906
 20
151.2050917885396
 30
0.0
 10
134.502082668379
 20
151.2812376619232
 30
0.0
 10
134.5045202312138
 20
151.3177275571753
 30
0.0
  0
LINE
  5
14F
330
1F
100
AcDbEntity
  8
0
  6
Continuous
 62
     7
370
    25
100
AcDbLine
 10
133.4037941405
 20
150.8177275572
 30
0.0
 11
134.0045202312
 21
150.8177275572
 31
0.0
  0
LINE
  5
150
330
1F
100
AcDbEntity
  8
0
  6
Continuous
 62
     7
370
    25
100
AcDbLine
 10
109.0045202312
 20
151.3177275572
 30
0.0
 11
109.0045202312
 21
150.8177275572
 31
0.0
  0
ARC
  5
151
330
1F
100
AcDbEntity
  8
0
  6
Continuous
 62
     7
370
    25
100
AcDbCircle
 10
109.0045202312
 20
151.3177275572
 30
0.0
 40
0.5
100
AcDbArc
 50
180.0
 51
270.0
  0
LINE
  5
152
330
1F
100
AcDbEntity
  8
0
  6
Continuous
 62
     7
370
    25
100
AcDbLine
 10
108.5045202312
 20
151.3177275572
 30
0.0
 11
109.0045202312
 21
151.3177275572
 31
0.0
  0
LINE
  5
153
330
1F
100
AcDbEntity
  8
0
  6
Continuous
 62
     7
370
    25
100
AcDbLine
 10
168.5045202312
 20
175.8177275572
 30
0.0
 11
168.5045202312
 21
152.8177275572
 31
0.0
  0
LINE
  5
154
330
1F
100
AcDbEntity
  8
0
  6
Continuous
 62
     7
370
    25
100
AcDbLine
 10
109.5986393314
 20
150.8177275572
 30
0.0
 11
109.0045202312
 21
150.8177275572
 31
0.0
  0
LINE
  5
155
330
1F
100
AcDbEntity
  8
0
  6
Continuous
 62
     7
370
    25
100
AcDbLine
 10
109.5986393314
 20
177.8177275572
 30
0.0
 11
109.0045202312
 21
177.8177275572
 31
0.0
  0
LINE
  5
156
330
1F
100
AcDbEntity
  8
0
  6
Continuous
 62
     7
370
    25
100
AcDbLine
 10
134.5045202312
 20
151.3177275572
 30
0.0
 11
134.5045202312
 21
151.8678279592
 31
0.0
  0
LINE
  5
157
330
1F
100
AcDbEntity
  8
0
  6
Continuous
 62
     7
370
    25
100
AcDbLine
 10
108.5045202312
 20
176.7676271552
 30
0.0
 11
108.5045202312
 21
177.3177275572
 31
0.0
  0
LINE
  5
158
330
1F
100
AcDbEntity
  8
0
  6
Continuous
 62
     7
370
    25
100
AcDbLine
 10
108.5045202312
 20
151.8678279592
 30
0.0
 11
108.5045202312
 21
151.3177275572
 31
0.0
  0
ARC
  5
159
330
1F
100
AcDbEntity
  8
0
  6
Continuous
 62
     7
370
    25
100
AcDbCircle
 10
133.4045202324
 20
177.4377275572
 30
0.0
 40
0.7102112352197909
100
AcDbArc
 50
350.2724214367
 51
32.3474435503
  0
LINE
  5
15A
330
1F
100
AcDbEntity
  8
0
  6
Continuous
 62
     7
370
    25
100
AcDbLine
 10
134.0045202312
 20
177.8177275572
 30
0.0
 11
133.3989987101
 21
177.8177275572
 31
0.0
  0
ARC
  5
15B
330
1F
100
AcDbEntity
  8
0
  6
Continuous
 62
     7
370
    25
100
AcDbCircle
 10
134.0045202312
 20
177.3177275572
 30
0.0
 40
0.5
100
AcDbArc
 50
0.0
 51
90.0
  0
LINE
  5
15C
330
1F
100
AcDbEntity
  8
0
  6
Continuous
 62
     7
370
    25
100
AcDbLine
 10
134.5045202312
 20
177.3177275572
 30
0.0
 11
134.1045202314
 21
177.3177275572
 31
0.0
  0
LINE
  5
15D
330
1F
100
AcDbEntity
  8
0
  6
Continuous
 62
     7
370
    25
100
AcDbLine
 10
134.5045202312
 20
177.3177275572
 30
0.0
 11
134.5045202312
 21
176.7676271552
 31
0.0
  0
LINE
  5
15E
330
1F
100
AcDbEntity
  8
0
  6
Continuous
 62
     7
370
    25
100
AcDbLine
 10
120.5045202312
 20
154.8705057433
 30
0.0
 11
120.5045202312
 21
173.764949371
 31
0.0
  0
SPLINE
  5
15F
330
1F
100
AcDbEntity
  8
0
  6
Continuous
 62
     7
370
    25
100
AcDbSpline
210
0.0
220
0.0
230
1.0
 70
     8
 71
     3
 72
     8
 73
     4
 74
     0
 42
0.000000001
 43
0.00000001
 40
0.0
 40
0.0
 40
0.0
 40
0.0
 40
1.0
 40
1.0
 40
1.0
 40
1.0
 10
122.5045202312138
 20
173.7649493710208
 30
0.0
 10
121.8422120388047
 20
173.7602158779393
 30
0.0
 10
121.1756031160578
 20
173.7601531655248
 30
0.0
 10
120.5045202312138
 20
173.7649493710208
 30
0.0
  0
SPLINE
  5
160
330
1F
100
AcDbEntity
  8
0
  6
Continuous
 62
     7
370
    25
100
AcDbSpline
210
0.0
220
0.0
230
1.0
 70
    24
 71
     3
 72
    10
 73
     6
 74
     0
 42
0.000000001
 43
0.00000001
 40
-0.3660006408174005
 40
-0.3660006408174005
 40
-0.3660006408174005
 40
-0.3660006408174005
 40
-0.1822877504907715
 40
-0.1822877504907715
 40
0.0014251398358575
 40
0.0014251398358575
 40
0.0014251398358575
 40
0.0014251398358575
 10
134.5045202312138
 20
177.8177275571753
 30
0.0
 10
134.3866683571302
 20
177.8177275571753
 30
0.0
 10
134.267520549161
 20
177.8177275571753
 30
0.0
 10
134.0784075007005
 20
177.8177275571753
 30
0.0
 10
134.0045202312634
 20
177.8177275571753
 30
0.0
 10
134.004520231276
 20
177.8177275571753
 30
0.0
  0
SPLINE
  5
161
330
1F
100
AcDbEntity
  8
0
  6
Continuous
 62
     7
370
    25
100
AcDbSpline
210
0.0
220
0.0
230
1.0
 70
    24
 71
     3
 72
    10
 73
     6
 74
     0
 42
0.000000001
 43
0.00000001
 40
-1.079173746903875
 40
-1.079173746903875
 40
-1.079173746903875
 40
-1.079173746903875
 40
-0.8954608565521778
 40
-0.8954608565521778
 40
-0.7117479662004804
 40
-0.7117479662004804
 40
-0.7117479662004804
 40
-0.7117479662004804
 10
134.0045202312138
 20
150.8177275571753
 30
0.0
 10
134.0045202312138
 20
150.8177275571753
 30
0.0
 10
134.0784075006806
 20
150.8177275571753
 30
0.0
 10
134.2675205492008
 20
150.8177275571753
 30
0.0
 10
134.3866683571047
 20
150.8177275571753
 30
0.0
 10
134.5045202312138
 20
150.8177275571753
 30
0.0
  0
SPLINE
  5
162
330
1F
100
AcDbEntity
  8
0
  6
Continuous
 62
     7
370
    25
100
AcDbSpline
210
0.0
220
0.0
230
1.0
 70
     8
 71
     3
 72
    30
 73
    26
 74
     0
 42
0.000000001
 43
0.00000001
 40
0.0
 40
0.0
 40
0.0
 40
0.0
 40
0.1250000000000001
 40
0.1250000000000001
 40
0.2500000000000001
 40
0.2500000000000001
 40
0.3750000000000001
 40
0.3750000000000001
 40
0.4375000000000001
 40
0.4375000000000001
 40
0.5000000000000001
 40
0.5000000000000001
 40
0.5312500000000001
 40
0.5312500000000001
 40
0.5625000000000001
 40
0.5625000000000001
 40
0.6250000000000001
 40
0.6250000000000001
 40
0.6875000000000001
 40
0.6875000000000001
 40
0.7500000000000002
 40
0.7500000000000002
 40
0.8750000000000001
 40
0.8750000000000001
 40
1.0
 40
1.0
 40
1.0
 40
1.0
 10
120.5045202312138
 20
173.7649493710208
 30
0.0
 10
120.1126032594804
 20
173.0675611692253
 30
0.0
 10
119.7326641137339
 20
172.3585777370069
 30
0.0
 10
119.0131559153706
 20
170.9015302804378
 30
0.0
 10
118.6731022620947
 20
170.1539353776379
 30
0.0
 10
118.065945758052
 20
168.5881249631278
 30
0.0
 10
117.80301039277
 20
167.7806482435361
 30
0.0
 10
117.518837970348
 20
166.5103568185014
 30
0.0
 10
117.4423747616154
 20
166.0728796112248
 30
0.0
 10
117.3400058577816
 20
165.1934548014999
 30
0.0
 10
117.3138303190437
 20
164.7521736979654
 30
0.0
 10
117.314336056774
 20
164.0877575060577
 30
0.0
 10
117.3211054857403
 20
163.8658713999379
 30
0.0
 10
117.3478666177977
 20
163.4212698128385
 30
0.0
 10
117.3679991929773
 20
163.1976975342835
 30
0.0
 10
117.4463084082769
 20
162.5371046357111
 30
0.0
 10
117.522312066381
 20
162.1072885250132
 30
0.0
 10
117.7119179192149
 20
161.2643706855414
 30
0.0
 10
117.8254973635636
 20
160.8512588431143
 30
0.0
 10
118.0816862013958
 20
160.0379403854475
 30
0.0
 10
118.2242538108601
 20
159.638208056017
 30
0.0
 10
118.6781128543956
 20
158.4703654312505
 30
0.0
 10
119.0170286077372
 20
157.7257595793815
 30
0.0
 10
119.7344665228084
 20
156.2735527742215
 30
0.0
 10
120.1134516197741
 20
155.5663843486996
 30
0.0
 10
120.5045202312138
 20
154.8705057433297
 30
0.0
  0
LINE
  5
163
330
1F
100
AcDbEntity
  8
0
  6
Continuous
 62
     8
370
    25
100
AcDbLine
 10
144.5045202312
 20
150.8177275572
 30
0.0
 11
144.5045202312
 21
177.8177275572
 31
0.0
  0
LINE
  5
164
330
1F
100
AcDbEntity
  8
0
  6
Continuous
 62
     8
370
    25
100
AcDbLine
 10
133.9544198292
 20
151.3177275572
 30
0.0
 11
134.5045202312
 21
151.3177275572
 31
0.0
  0
LINE
  5
165
330
1F
100
AcDbEntity
  8
0
  6
Continuous
 62
     8
370
    25
100
AcDbLine
 10
109.0045202312
 20
151.3658937102
 30
0.0
 11
109.0045202312
 21
151.3177275572
 31
0.0
  0
LINE
  5
166
330
1F
100
AcDbEntity
  8
0
  6
Continuous
 62
     8
370
    25
100
AcDbLine
 10
109.0045202312
 20
151.3177275572
 30
0.0
 11
109.0546206332
 21
151.3177275572
 31
0.0
  0
LINE
  5
167
330
1F
100
AcDbEntity
  8
0
  6
Continuous
 62
     8
370
    25
100
AcDbLine
 10
109.0546206332
 20
177.3177275572
 30
0.0
 11
109.0045202312
 21
177.3177275572
 31
0.0
  0
LINE
  5
168
330
1F
100
AcDbEntity
  8
0
  6
Continuous
 62
     8
370
    25
100
AcDbLine
 10
109.0045202312
 20
177.2695614042
 30
0.0
 11
109.0045202312
 21
177.3177275572
 31
0.0
  0
LINE
  5
169
330
1F
100
AcDbEntity
  8
0
  6
Continuous
 62
     8
370
    25
100
AcDbLine
 10
133.9544198292
 20
177.3177275572
 30
0.0
 11
134.1045202314
 21
177.3177275572
 31
0.0
  0
LINE
  5
16A
330
1F
100
AcDbEntity
  8
0
  6
Continuous
 62
     8
370
    25
100
AcDbLine
 10
134.1045202316
 20
177.1722987282
 30
0.0
 11
134.1045202314
 21
177.3177275572
 31
0.0
  0
INSERT
  5
176
330
1F
100
AcDbEntity
  8
0
  6
Continuous
 62
     7
370
    18
100
AcDbBlockReference
  2
SW_CENTERMARKSYMBOL_1
 10
121.5045202312
 20
164.3177275572
 30
0.0
  0
LINE
  5
177
330
1F
100
AcDbEntity
  8
0
  6
Continuous
 62
     7
370
    18
100
AcDbLine
 10
167.4818142713
 20
152.2272679959
 30
0.0
 11
151.5045202312
 21
151.7279775572
 31
0.0
  0
LINE
  5
178
330
1F
100
AcDbEntity
  8
0
  6
Continuous
 62
     7
370
    18
100
AcDbLine
 10
167.4818142713
 20
176.4081871184
 30
0.0
 11
151.5045202312
 21
176.9074775572
 31
0.0
  0
LINE
  5
179
330
1F
100
AcDbEntity
  8
0
  6
Continuous
 62
     7
370
    18
100
AcDbLine
 10
151.5045202312
 20
177.7705713072
 30
0.0
 11
151.5045202312
 21
150.8648838072
 31
0.0
  0
ARC
  5
17A
330
1F
100
AcDbEntity
  8
0
  6
Continuous
 62
     7
370
    18
100
AcDbCircle
 10
121.5045202312
 20
164.3177275572
 30
0.0
 40
13.320393
100
AcDbArc
 50
75.0
 51
345.0
  0
ENDSEC
  0
SECTION
  2
OBJECTS
  0
DICTIONARY
  5
C
330
0
100
AcDbDictionary
281
     1
  3
ACAD_GROUP
350
D
  3
ACAD_LAYOUT
350
1A
  3
ACAD_MLINESTYLE
350
17
  3
ACAD_PLOTSETTINGS
350
19
  3
ACAD_PLOTSTYLENAME
350
E
  3
ACAD_SCALELIST
350
47
  0
DICTIONARY
  5
D
102
{ACAD_REACTORS
330
C
102
}
330
C
100
AcDbDictionary
281
     1
  0
DICTIONARY
  5
1A
102
{ACAD_REACTORS
330
C
102
}
330
C
100
AcDbDictionary
281
     1
  3
Layout1
350
1E
  3
Layout2
350
26
  3
Model
350
22
  0
DICTIONARY
  5
17
102
{ACAD_REACTORS
330
C
102
}
330
C
100
AcDbDictionary
281
     1
  3
Standard
350
18
  0
DICTIONARY
  5
19
102
{ACAD_REACTORS
330
C
102
}
330
C
100
AcDbDictionary
281
     1
  0
ACDBDICTIONARYWDFLT
  5
E
102
{ACAD_REACTORS
330
C
102
}
330
C
100
AcDbDictionary
281
     1
  3
Normal
350
F
100
AcDbDictionaryWithDefault
340
F
  0
DICTIONARY
  5
47
102
{ACAD_REACTORS
330
C
102
}
330
C
100
AcDbDictionary
281
     1
  3
A0
350
48
  3
A1
350
49
  3
A2
350
4A
  3
A3
350
4B
  3
A4
350
4C
  3
A5
350
4D
  3
A6
350
4E
  3
A7
350
4F
  3
A8
350
50
  3
A9
350
51
  3
B0
350
52
  3
B1
350
53
  3
B2
350
54
  3
B3
350
55
  3
B4
350
56
  3
B5
350
57
  3
B6
350
58
  3
B7
350
59
  3
B8
350
5A
  3
B9
350
5B
  3
C0
350
5C
  3
C1
350
5D
  3
C2
350
5E
  3
C3
350
5F
  3
C4
350
60
  3
C5
350
61
  3
C6
350
62
  3
C7
350
63
  3
C8
350
64
  3
C9
350
65
  3
D0
350
66
  3
D1
350
67
  3
D2
350
68
  0
LAYOUT
  5
1E
102
{ACAD_REACTORS
330
1A
102
}
330
1A
100
AcDbPlotSettings
  1

  2
none_device
  4

  6

 40
0.0
 41
0.0
 42
0.0
 43
0.0
 44
0.0
 45
0.0
 46
0.0
 47
0.0
 48
0.0
 49
0.0
140
0.0
141
0.0
142
1.0
143
1.0
 70
   688
 72
     1
 73
     0
 74
     5
  7

 75
    16
147
1.0
148
0.0
149
0.0
100
AcDbLayout
  1
Layout1
 70
     1
 71
     1
 10
0.0
 20
0.0
 11
420.0
 21
297.0
 12
0.0
 22
0.0
 32
0.0
 14
1.0000000000E+20
 24
1.0000000000E+20
 34
1.0000000000E+20
 15
-1.0000000000E+20
 25
-1.0000000000E+20
 35
-1.0000000000E+20
146
0.0
 13
0.0
 23
0.0
 33
0.0
 16
1.0
 26
0.0
 36
0.0
 17
0.0
 27
1.0
 37
0.0
 76
     0
330
1B
  0
LAYOUT
  5
26
102
{ACAD_REACTORS
330
1A
102
}
330
1A
100
AcDbPlotSettings
  1

  2
none_device
  4

  6

 40
0.0
 41
0.0
 42
0.0
 43
0.0
 44
0.0
 45
0.0
 46
0.0
 47
0.0
 48
0.0
 49
0.0
140
0.0
141
0.0
142
1.0
143
1.0
 70
   688
 72
     1
 73
     0
 74
     5
  7

 75
    16
147
1.0
148
0.0
149
0.0
100
AcDbLayout
  1
Layout2
 70
     1
 71
     2
 10
0.0
 20
0.0
 11
0.0
 21
0.0
 12
0.0
 22
0.0
 32
0.0
 14
0.0
 24
0.0
 34
0.0
 15
0.0
 25
0.0
 35
0.0
146
0.0
 13
0.0
 23
0.0
 33
0.0
 16
1.0
 26
0.0
 36
0.0
 17
0.0
 27
1.0
 37
0.0
 76
     0
330
23
  0
LAYOUT
  5
22
102
{ACAD_REACTORS
330
1A
102
}
330
1A
100
AcDbPlotSettings
  1

  2
none_device
  4
Letter_(8.50_x_11.00_Inches)
  6

 40
6.35
 41
6.35
 42
6.35000508
 43
6.35000508
 44
215.9
 45
279.4
 46
0.0
 47
0.0
 48
0.0
 49
0.0
140
0.0
141
0.0
142
1.0
143
1.0
 70
  1712
 72
     1
 73
     0
 74
     0
  7

 75
     0
147
1.0
148
0.0
149
0.0
100
AcDbLayout
  1
Model
 70
     1
 71
     0
 10
0.0
 20
0.0
 11
431.8
 21
279.4
 12
0.0
 22
0.0
 32
0.0
 14
0.0
 24
0.0
 34
0.0
 15
431.8
 25
279.4
 35
0.0
146
0.0
 13
0.0
 23
0.0
 33
0.0
 16
1.0
 26
0.0
 36
0.0
 17
0.0
 27
1.0
 37
0.0
 76
     0
330
1F
331
29
  0
MLINESTYLE
  5
18
102
{ACAD_REACTORS
330
17
102
}
330
17
100
AcDbMlineStyle
  2
Standard
 70
     0
  3

 62
   256
 51
90.0
 52
90.0
 71
     2
 49
0.5
 62
   256
  6
BYLAYER
 49
-0.5
 62
   256
  6
BYLAYER
  0
ACDBPLACEHOLDER
  5
F
102
{ACAD_REACTORS
330
E
102
}
330
E
  0
SCALE
  5
48
102
{ACAD_REACTORS
330
47
102
}
330
47
100
AcDbScale
 70
     0
300
1:1
140
1.0
141
1.0
290
     1
  0
SCALE
  5
49
102
{ACAD_REACTORS
330
47
102
}
330
47
100
AcDbScale
 70
     0
300
1:2
140
1.0
141
2.0
290
     0
  0
SCALE
  5
4A
102
{ACAD_REACTORS
330
47
102
}
330
47
100
AcDbScale
 70
     0
300
1:4
140
1.0
141
4.0
290
     0
  0
SCALE
  5
4B
102
{ACAD_REACTORS
330
47
102
}
330
47
100
AcDbScale
 70
     0
300
1:5
140
1.0
141
5.0
290
     0
  0
SCALE
  5
4C
102
{ACAD_REACTORS
330
47
102
}
330
47
100
AcDbScale
 70
     0
300
1:8
140
1.0
141
8.0
290
     0
  0
SCALE
  5
4D
102
{ACAD_REACTORS
330
47
102
}
330
47
100
AcDbScale
 70
     0
300
1:10
140
1.0
141
10.0
290
     0
  0
SCALE
  5
4E
102
{ACAD_REACTORS
330
47
102
}
330
47
100
AcDbScale
 70
     0
300
1:16
140
1.0
141
16.0
290
     0
  0
SCALE
  5
4F
102
{ACAD_REACTORS
330
47
102
}
330
47
100
AcDbScale
 70
     0
300
1:20
140
1.0
141
20.0
290
     0
  0
SCALE
  5
50
102
{ACAD_REACTORS
330
47
102
}
330
47
100
AcDbScale
 70
     0
300
1:30
140
1.0
141
30.0
290
     0
  0
SCALE
  5
51
102
{ACAD_REACTORS
330
47
102
}
330
47
100
AcDbScale
 70
     0
300
1:40
140
1.0
141
40.0
290
     0
  0
SCALE
  5
52
102
{ACAD_REACTORS
330
47
102
}
330
47
100
AcDbScale
 70
     0
300
1:50
140
1.0
141
50.0
290
     0
  0
SCALE
  5
53
102
{ACAD_REACTORS
330
47
102
}
330
47
100
AcDbScale
 70
     0
300
1:100
140
1.0
141
100.0
290
     0
  0
SCALE
  5
54
102
{ACAD_REACTORS
330
47
102
}
330
47
100
AcDbScale
 70
     0
300
2:1
140
2.0
141
1.0
290
     0
  0
SCALE
  5
55
102
{ACAD_REACTORS
330
47
102
}
330
47
100
AcDbScale
 70
     0
300
4:1
140
4.0
141
1.0
290
     0
  0
SCALE
  5
56
102
{ACAD_REACTORS
330
47
102
}
330
47
100
AcDbScale
 70
     0
300
8:1
140
8.0
141
1.0
290
     0
  0
SCALE
  5
57
102
{ACAD_REACTORS
330
47
102
}
330
47
100
AcDbScale
 70
     0
300
10:1
140
10.0
141
1.0
290
     0
  0
SCALE
  5
58
102
{ACAD_REACTORS
330
47
102
}
330
47
100
AcDbScale
 70
     0
300
100:1
140
100.0
141
1.0
290
     0
  0
SCALE
  5
59
102
{ACAD_REACTORS
330
47
102
}
330
47
100
AcDbScale
 70
     0
300
1/128" = 1'-0"
140
0.0078125
141
12.0
290
     0
  0
SCALE
  5
5A
102
{ACAD_REACTORS
330
47
102
}
330
47
100
AcDbScale
 70
     0
300
1/64" = 1'-0"
140
0.015625
141
12.0
290
     0
  0
SCALE
  5
5B
102
{ACAD_REACTORS
330
47
102
}
330
47
100
AcDbScale
 70
     0
300
1/32" = 1'-0"
140
0.03125
141
12.0
290
     0
  0
SCALE
  5
5C
102
{ACAD_REACTORS
330
47
102
}
330
47
100
AcDbScale
 70
     0
300
1/16" = 1'-0"
140
0.0625
141
12.0
290
     0
  0
SCALE
  5
5D
102
{ACAD_REACTORS
330
47
102
}
330
47
100
AcDbScale
 70
     0
300
3/32" = 1'-0"
140
0.09375
141
12.0
290
     0
  0
SCALE
  5
5E
102
{ACAD_REACTORS
330
47
102
}
330
47
100
AcDbScale
 70
     0
300
1/8" = 1'-0"
140
0.125
141
12.0
290
     0
  0
SCALE
  5
5F
102
{ACAD_REACTORS
330
47
102
}
330
47
100
AcDbScale
 70
     0
300
3/16" = 1'-0"
140
0.1875
141
12.0
290
     0
  0
SCALE
  5
60
102
{ACAD_REACTORS
330
47
102
}
330
47
100
AcDbScale
 70
     0
300
1/4" = 1'-0"
140
0.25
141
12.0
290
     0
  0
SCALE
  5
61
102
{ACAD_REACTORS
330
47
102
}
330
47
100
AcDbScale
 70
     0
300
3/8" = 1'-0"
140
0.375
141
12.0
290
     0
  0
SCALE
  5
62
102
{ACAD_REACTORS
330
47
102
}
330
47
100
AcDbScale
 70
     0
300
1/2" = 1'-0"
140
0.5
141
12.0
290
     0
  0
SCALE
  5
63
102
{ACAD_REACTORS
330
47
102
}
330
47
100
AcDbScale
 70
     0
300
3/4" = 1'-0"
140
0.75
141
12.0
290
     0
  0
SCALE
  5
64
102
{ACAD_REACTORS
330
47
102
}
330
47
100
AcDbScale
 70
     0
300
1" = 1'-0"
140
1.0
141
12.0
290
     0
  0
SCALE
  5
65
102
{ACAD_REACTORS
330
47
102
}
330
47
100
AcDbScale
 70
     0
300
1-1/2" = 1'-0"
140
1.5
141
12.0
290
     0
  0
SCALE
  5
66
102
{ACAD_REACTORS
330
47
102
}
330
47
100
AcDbScale
 70
     0
300
3" = 1'-0"
140
3.0
141
12.0
290
     0
  0
SCALE
  5
67
102
{ACAD_REACTORS
330
47
102
}
330
47
100
AcDbScale
 70
     0
300
6" = 1'-0"
140
6.0
141
12.0
290
     0
  0
SCALE
  5
68
102
{ACAD_REACTORS
330
47
102
}
330
47
100
AcDbScale
 70
     0
300
1'-0" = 1'-0"
140
12.0
141
12.0
290
     0
  0
ENDSEC
  0
EOF
