  0
SECTION
  2
HEADER
  9
$ACADVER
  1
AC1015
  9
$ACADMAINTVER
 70
     6
  9
$DWGCODEPAGE
  3
DOS932
  9
$INSBASE
 10
0.0
 20
0.0
 30
0.0
  9
$EXTMIN
 10
0.0
 20
0.0
 30
0.0
  9
$EXTMAX
 10
215.9
 20
139.7
 30
0.0
  9
$LIMMIN
 10
0.0
 20
0.0
  9
$LIMMAX
 10
215.9
 20
139.7
  9
$ORTHOMODE
 70
     0
  9
$REGENMODE
 70
     1
  9
$FILLMODE
 70
     1
  9
$QTEXTMODE
 70
     0
  9
$MIRRTEXT
 70
     1
  9
$LTSCALE
 40
0.5
  9
$ATTMODE
 70
     1
  9
$TEXTSIZE
 40
1.75
  9
$TRACEWID
 40
1.0
  9
$TEXTSTYLE
  7
Standard
  9
$CLAYER
  8
0
  9
$CELTYPE
  6
ByLayer
  9
$CECOLOR
 62
   256
  9
$CELTSCALE
 40
1.0
  9
$DISPSILH
 70
     0
  9
$DIMSCALE
 40
1.0
  9
$DIMASZ
 40
1.651
  9
$DIMEXO
 40
0.5
  9
$DIMDLI
 40
3.75
  9
$DIMRND
 40
0.0
  9
$DIMDLE
 40
0.0
  9
$DIMEXE
 40
0.5
  9
$DIMTP
 40
0.0
  9
$DIMTM
 40
0.0
  9
$DIMTXT
 40
1.75
  9
$DIMCEN
 40
2.5
  9
$DIMTSZ
 40
0.0
  9
$DIMTOL
 70
     0
  9
$DIMLIM
 70
     0
  9
$DIMTIH
 70
     1
  9
$DIMTOH
 70
     1
  9
$DIMSE1
 70
     0
  9
$DIMSE2
 70
     0
  9
$DIMTAD
 70
     1
  9
$DIMZIN
 70
     1
  9
$DIMBLK
  1

  9
$DIMASO
 70
     1
  9
$DIMSHO
 70
     1
  9
$DIMPOST
  1

  9
$DIMAPOST
  1

  9
$DIMALT
 70
     0
  9
$DIMALTD
 70
     3
  9
$DIMALTF
 40
0.0393700787
  9
$DIMLFAC
 40
1.0
  9
$DIMTOFL
 70
     1
  9
$DIMTVP
 40
0.0
  9
$DIMTIX
 70
     0
  9
$DIMSOXD
 70
     0
  9
$DIMSAH
 70
     0
  9
$DIMBLK1
  1

  9
$DIMBLK2
  1

  9
$DIMSTYLE
  2
ISO-25
  9
$DIMCLRD
 70
     0
  9
$DIMCLRE
 70
     0
  9
$DIMCLRT
 70
     0
  9
$DIMTFAC
 40
1.0
  9
$DIMGAP
 40
0.762
  9
$DIMJUST
 70
     0
  9
$DIMSD1
 70
     0
  9
$DIMSD2
 70
     0
  9
$DIMTOLJ
 70
     0
  9
$DIMTZIN
 70
     1
  9
$DIMALTZ
 70
     0
  9
$DIMALTTZ
 70
     0
  9
$DIMUPT
 70
     0
  9
$DIMDEC
 70
     2
  9
$DIMTDEC
 70
     2
  9
$DIMALTU
 70
     2
  9
$DIMALTTD
 70
     3
  9
$DIMTXSTY
  7
Standard
  9
$DIMAUNIT
 70
     0
  9
$DIMADEC
 70
     2
  9
$DIMALTRND
 40
0.0
  9
$DIMAZIN
 70
     0
  9
$DIMDSEP
 70
    44
  9
$DIMATFIT
 70
     3
  9
$DIMFRAC
 70
     0
  9
$DIMLDRBLK
  1

  9
$DIMLUNIT
 70
     2
  9
$DIMLWD
 70
    -2
  9
$DIMLWE
 70
    -2
  9
$DIMTMOVE
 70
     0
  9
$LUNITS
 70
     2
  9
$LUPREC
 70
     2
  9
$SKETCHINC
 40
1.0
  9
$FILLETRAD
 40
10.0
  9
$AUNITS
 70
     0
  9
$AUPREC
 70
     2
  9
$MENU
  1
.
  9
$ELEVATION
 40
0.0
  9
$PELEVATION
 40
0.0
  9
$THICKNESS
 40
0.0
  9
$LIMCHECK
 70
     0
  9
$CHAMFERA
 40
0.0
  9
$CHAMFERB
 40
0.0
  9
$CHAMFERC
 40
0.0
  9
$CHAMFERD
 40
0.0
  9
$SKPOLY
 70
     0
  9
$TDCREATE
 40
2459235.59065721
  9
$TDUCREATE
 40
2459235.21565721
  9
$TDUPDATE
 40
2459235.59065765
  9
$TDUUPDATE
 40
2459235.21565765
  9
$TDINDWG
 40
0.0000000116
  9
$TDUSRTIMER
 40
0.0000000116
  9
$USRTIMER
 70
     1
  9
$ANGBASE
 50
0.0
  9
$ANGDIR
 70
     0
  9
$PDMODE
 70
     0
  9
$PDSIZE
 40
-1.0
  9
$PLINEWID
 40
0.0
  9
$SPLFRAME
 70
     0
  9
$SPLINETYPE
 70
     6
  9
$SPLINESEGS
 70
     8
  9
$HANDSEED
  5
197
  9
$SURFTAB1
 70
     6
  9
$SURFTAB2
 70
     6
  9
$SURFTYPE
 70
     6
  9
$SURFU
 70
     6
  9
$SURFV
 70
     6
  9
$UCSBASE
  2

  9
$UCSNAME
  2

  9
$UCSORG
 10
0.0
 20
0.0
 30
0.0
  9
$UCSXDIR
 10
1.0
 20
0.0
 30
0.0
  9
$UCSYDIR
 10
0.0
 20
1.0
 30
0.0
  9
$UCSORTHOREF
  2

  9
$UCSORTHOVIEW
 70
     0
  9
$UCSORGTOP
 10
0.0
 20
0.0
 30
0.0
  9
$UCSORGBOTTOM
 10
0.0
 20
0.0
 30
0.0
  9
$UCSORGLEFT
 10
0.0
 20
0.0
 30
0.0
  9
$UCSORGRIGHT
 10
0.0
 20
0.0
 30
0.0
  9
$UCSORGFRONT
 10
0.0
 20
0.0
 30
0.0
  9
$UCSORGBACK
 10
0.0
 20
0.0
 30
0.0
  9
$PUCSBASE
  2

  9
$PUCSNAME
  2

  9
$PUCSORG
 10
0.0
 20
0.0
 30
0.0
  9
$PUCSXDIR
 10
1.0
 20
0.0
 30
0.0
  9
$PUCSYDIR
 10
0.0
 20
1.0
 30
0.0
  9
$PUCSORTHOREF
  2

  9
$PUCSORTHOVIEW
 70
     0
  9
$PUCSORGTOP
 10
0.0
 20
0.0
 30
0.0
  9
$PUCSORGBOTTOM
 10
0.0
 20
0.0
 30
0.0
  9
$PUCSORGLEFT
 10
0.0
 20
0.0
 30
0.0
  9
$PUCSORGRIGHT
 10
0.0
 20
0.0
 30
0.0
  9
$PUCSORGFRONT
 10
0.0
 20
0.0
 30
0.0
  9
$PUCSORGBACK
 10
0.0
 20
0.0
 30
0.0
  9
$USERI1
 70
     0
  9
$USERI2
 70
     0
  9
$USERI3
 70
     0
  9
$USERI4
 70
     0
  9
$USERI5
 70
     0
  9
$USERR1
 40
0.0
  9
$USERR2
 40
0.0
  9
$USERR3
 40
0.0
  9
$USERR4
 40
0.0
  9
$USERR5
 40
0.0
  9
$WORLDVIEW
 70
     1
  9
$SHADEDGE
 70
     3
  9
$SHADEDIF
 70
    70
  9
$TILEMODE
 70
     1
  9
$MAXACTVP
 70
    64
  9
$PINSBASE
 10
0.0
 20
0.0
 30
0.0
  9
$PLIMCHECK
 70
     0
  9
$PEXTMIN
 10
1.0000000000E+20
 20
1.0000000000E+20
 30
1.0000000000E+20
  9
$PEXTMAX
 10
-1.0000000000E+20
 20
-1.0000000000E+20
 30
-1.0000000000E+20
  9
$PLIMMIN
 10
0.0
 20
0.0
  9
$PLIMMAX
 10
420.0
 20
297.0
  9
$UNITMODE
 70
     0
  9
$VISRETAIN
 70
     1
  9
$PLINEGEN
 70
     0
  9
$PSLTSCALE
 70
     1
  9
$TREEDEPTH
 70
  3020
  9
$CMLSTYLE
  2
Standard
  9
$CMLJUST
 70
     0
  9
$CMLSCALE
 40
20.0
  9
$PROXYGRAPHICS
 70
     1
  9
$MEASUREMENT
 70
     1
  9
$CELWEIGHT
370
    -1
  9
$ENDCAPS
280
     0
  9
$JOINSTYLE
280
     0
  9
$LWDISPLAY
290
     1
  9
$INSUNITS
 70
     4
  9
$HYPERLINKBASE
  1

  9
$STYLESHEET
  1

  9
$XEDIT
290
     1
  9
$CEPSNTYPE
380
     0
  9
$PSTYLEMODE
290
     1
  9
$FINGERPRINTGUID
  2
{A30AC23B-C972-40E1-8008-50B8D31B92AF}
  9
$VERSIONGUID
  2
{FAEB1C32-E019-11D5-929B-00C0DF256EC4}
  9
$EXTNAMES
290
     1
  9
$PSVPSCALE
 40
0.0
  9
$OLESTARTUP
290
     0
  0
ENDSEC
  0
SECTION
  2
CLASSES
  0
CLASS
  1
ACDBDICTIONARYWDFLT
  2
AcDbDictionaryWithDefault
  3
ObjectDBX Classes
 90
        0
280
     0
281
     0
  0
CLASS
  1
VISUALSTYLE
  2
AcDbVisualStyle
  3
ObjectDBX Classes
 90
     4095
280
     0
281
     0
  0
CLASS
  1
MATERIAL
  2
AcDbMaterial
  3
ObjectDBX Classes
 90
     1153
280
     0
281
     0
  0
CLASS
  1
SCALE
  2
AcDbScale
  3
ObjectDBX Classes
 90
     1153
280
     0
281
     0
  0
CLASS
  1
TABLESTYLE
  2
AcDbTableStyle
  3
ObjectDBX Classes
 90
     4095
280
     0
281
     0
  0
CLASS
  1
MLEADERSTYLE
  2
AcDbMLeaderStyle
  3
ACDB_MLEADERSTYLE_CLASS
 90
     4095
280
     0
281
     0
  0
CLASS
  1
SUN
  2
AcDbSun
  3
SCENEOE
 90
     1153
280
     0
281
     0
  0
CLASS
  1
ACDBPLACEHOLDER
  2
AcDbPlaceHolder
  3
ObjectDBX Classes
 90
        0
280
     0
281
     0
  0
CLASS
  1
LAYOUT
  2
AcDbLayout
  3
ObjectDBX Classes
 90
        0
280
     0
281
     0
  0
ENDSEC
  0
SECTION
  2
TABLES
  0
TABLE
  2
VPORT
  5
8
330
0
100
AcDbSymbolTable
 70
     1
  0
VPORT
  5
29
330
8
100
AcDbSymbolTableRecord
100
AcDbViewportTableRecord
  2
*Active
 70
     0
 10
0.0
 20
0.0
 11
1.0
 21
1.0
 12
107.95
 22
69.85
 13
0.0
 23
0.0
 14
10.0
 24
10.0
 15
10.0
 25
10.0
 16
0.0
 26
0.0
 36
1.0
 17
0.0
 27
0.0
 37
0.0
 40
139.7
 41
1.5454545455
 42
50.0
 43
0.0
 44
0.0
 50
0.0
 51
0.0
 71
     0
 72
  2000
 73
     1
 74
     3
 75
     0
 76
     0
 77
     0
 78
     0
281
     0
 65
     1
110
0.0
120
0.0
130
0.0
111
1.0
121
0.0
131
0.0
112
0.0
122
1.0
132
0.0
 79
     0
146
0.0
  0
ENDTAB
  0
TABLE
  2
LTYPE
  5
5
330
0
100
AcDbSymbolTable
 70
     6
  0
LTYPE
  5
14
330
5
100
AcDbSymbolTableRecord
100
AcDbLinetypeTableRecord
  2
ByBlock
 70
     0
  3

 72
    65
 73
     0
 40
0.0
  0
LTYPE
  5
15
330
5
100
AcDbSymbolTableRecord
100
AcDbLinetypeTableRecord
  2
ByLayer
 70
     0
  3

 72
    65
 73
     0
 40
0.0
  0
LTYPE
  5
16
330
5
100
AcDbSymbolTableRecord
100
AcDbLinetypeTableRecord
  2
Continuous
 70
     0
  3
Solid line
 72
    65
 73
     0
 40
0.0
  0
LTYPE
  5
6E
330
5
100
AcDbSymbolTableRecord
100
AcDbLinetypeTableRecord
  2
HIDDEN
 70
     0
  3
Hidden __ __ __ __ __ __ __ __ __ __ __ __ __ __
 72
    65
 73
     2
 40
1.905
 49
1.27
 74
     0
 49
-0.635
 74
     0
  0
LTYPE
  5
6F
330
5
100
AcDbSymbolTableRecord
100
AcDbLinetypeTableRecord
  2
PHANTOM
 70
     0
  3
Phantom ______  __  __  ______  __  __  ______
 72
    65
 73
     6
 40
12.7
 49
6.35
 74
     0
 49
-1.27
 74
     0
 49
1.27
 74
     0
 49
-1.27
 74
     0
 49
1.27
 74
     0
 49
-1.27
 74
     0
  0
LTYPE
  5
70
330
5
100
AcDbSymbolTableRecord
100
AcDbLinetypeTableRecord
  2
CENTER
 70
     0
  3
Center ____ _ ____ _ ____ _ ____ _ ____ _ ____
 72
    65
 73
     4
 40
10.16
 49
6.35
 74
     0
 49
-1.27
 74
     0
 49
1.27
 74
     0
 49
-1.27
 74
     0
  0
LTYPE
  5
71
330
5
100
AcDbSymbolTableRecord
100
AcDbLinetypeTableRecord
  2
CENTERX2
 70
     0
  3
Center (2x) ________  __  ________  __  _____
 72
    65
 73
     4
 40
20.32
 49
12.7
 74
     0
 49
-2.54
 74
     0
 49
2.54
 74
     0
 49
-2.54
 74
     0
  0
LTYPE
  5
72
330
5
100
AcDbSymbolTableRecord
100
AcDbLinetypeTableRecord
  2
DOT2
 70
     0
  3
Dot (.5x) ........................................
 72
    65
 73
     2
 40
0.635
 49
0.0
 74
     0
 49
-0.635
 74
     0
  0
ENDTAB
  0
TABLE
  2
LAYER
  5
2
330
0
100
AcDbSymbolTable
 70
     1
  0
LAYER
  5
10
330
2
100
AcDbSymbolTableRecord
100
AcDbLayerTableRecord
  2
0
 70
     0
 62
     7
  6
Continuous
370
    -3
390
F
  0
ENDTAB
  0
TABLE
  2
STYLE
  5
3
330
0
100
AcDbSymbolTable
 70
     2
  0
STYLE
  5
11
330
3
100
AcDbSymbolTableRecord
100
AcDbTextStyleTableRecord
  2
Standard
 70
     0
 40
0.0
 41
1.0
 50
0.0
 71
     0
 42
1.75
  3
txt
  4
bigfont
  0
STYLE
  5
73
330
3
100
AcDbSymbolTableRecord
100
AcDbTextStyleTableRecord
  2
SLDTEXTSTYLE0
 70
     0
 40
0.0
 41
0.7
 50
0.0
 71
     0
 42
1.75
  3
TXT
  4
bigfont
  0
ENDTAB
  0
TABLE
  2
VIEW
  5
6
330
0
100
AcDbSymbolTable
 70
     0
  0
ENDTAB
  0
TABLE
  2
UCS
  5
7
330
0
100
AcDbSymbolTable
 70
     0
  0
ENDTAB
  0
TABLE
  2
APPID
  5
9
330
0
100
AcDbSymbolTable
 70
     1
  0
APPID
  5
12
330
9
100
AcDbSymbolTableRecord
100
AcDbRegAppTableRecord
  2
ACAD
 70
     0
  0
ENDTAB
  0
TABLE
  2
DIMSTYLE
  5
A
330
0
100
AcDbSymbolTable
 70
     1
100
AcDbDimStyleTable
  0
DIMSTYLE
105
27
330
A
100
AcDbSymbolTableRecord
100
AcDbDimStyleTableRecord
  2
ISO-25
 70
     0
 41
2.5
 42
0.625
 43
3.75
 44
1.25
 73
     0
 74
     0
 77
     1
 78
     8
140
2.5
141
2.5
143
0.0393700787
147
0.625
171
     3
172
     1
178
     0
271
     2
272
     2
274
     3
278
    44
283
     0
284
     8
340
11
  0
ENDTAB
  0
TABLE
  2
BLOCK_RECORD
  5
1
330
0
100
AcDbSymbolTable
 70
     3
  0
BLOCK_RECORD
  5
1F
330
1
100
AcDbSymbolTableRecord
100
AcDbBlockTableRecord
  2
*Model_Space
340
22
  0
BLOCK_RECORD
  5
1B
330
1
100
AcDbSymbolTableRecord
100
AcDbBlockTableRecord
  2
*Paper_Space
340
1E
  0
BLOCK_RECORD
  5
23
330
1
100
AcDbSymbolTableRecord
100
AcDbBlockTableRecord
  2
*Paper_Space0
340
26
  0
BLOCK_RECORD
  5
146
330
1
100
AcDbSymbolTableRecord
100
AcDbBlockTableRecord
  2
SW_CENTERMARKSYMBOL_0
340
0
102
{BLKREFS
331
151
102
}
  0
BLOCK_RECORD
  5
187
330
1
100
AcDbSymbolTableRecord
100
AcDbBlockTableRecord
  2
SW_CENTERMARKSYMBOL_1
340
0
102
{BLKREFS
331
192
102
}
  0
ENDTAB
  0
ENDSEC
  0
SECTION
  2
BLOCKS
  0
BLOCK
  5
20
330
1F
100
AcDbEntity
  8
0
100
AcDbBlockBegin
  2
*Model_Space
 70
     0
 10
0.0
 20
0.0
 30
0.0
  3
*Model_Space
  1

  0
ENDBLK
  5
21
330
1F
100
AcDbEntity
  8
0
100
AcDbBlockEnd
  0
BLOCK
  5
1C
330
1B
100
AcDbEntity
 67
     1
  8
0
100
AcDbBlockBegin
  2
*Paper_Space
 70
     0
 10
0.0
 20
0.0
 30
0.0
  3
*Paper_Space
  1

  0
ENDBLK
  5
1D
330
1B
100
AcDbEntity
 67
     1
  8
0
100
AcDbBlockEnd
  0
BLOCK
  5
24
330
23
100
AcDbEntity
  8
0
100
AcDbBlockBegin
  2
*Paper_Space0
 70
     0
 10
0.0
 20
0.0
 30
0.0
  3
*Paper_Space0
  1

  0
ENDBLK
  5
25
330
23
100
AcDbEntity
  8
0
100
AcDbBlockEnd
  0
BLOCK
  5
147
330
146
100
AcDbEntity
  8
0
100
AcDbBlockBegin
  2
SW_CENTERMARKSYMBOL_0
 70
     0
 10
0.0
 20
0.0
 30
0.0
  3
SW_CENTERMARKSYMBOL_0
  1

  0
LINE
  5
149
330
146
100
AcDbEntity
  8
0
  6
Continuous
 62
     0
370
    18
100
AcDbLine
 10
0.0
 20
0.0
 30
0.0
 11
0.0
 21
2.5
 31
0.0
  0
LINE
  5
14A
330
146
100
AcDbEntity
  8
0
  6
Continuous
 62
     0
370
    18
100
AcDbLine
 10
0.0
 20
0.0
 30
0.0
 11
-2.5
 21
0.0
 31
0.0
  0
LINE
  5
14B
330
146
100
AcDbEntity
  8
0
  6
Continuous
 62
     0
370
    18
100
AcDbLine
 10
0.0
 20
0.0
 30
0.0
 11
0.0
 21
-2.5
 31
0.0
  0
LINE
  5
14C
330
146
100
AcDbEntity
  8
0
  6
Continuous
 62
     0
370
    18
100
AcDbLine
 10
0.0
 20
0.0
 30
0.0
 11
2.5
 21
0.0
 31
0.0
  0
LINE
  5
14D
330
146
100
AcDbEntity
  8
0
  6
Continuous
 62
     0
370
    18
100
AcDbLine
 10
0.0
 20
5.0
 30
0.0
 11
0.0
 21
31.1190940116
 31
0.0
  0
LINE
  5
14E
330
146
100
AcDbEntity
  8
0
  6
Continuous
 62
     0
370
    18
100
AcDbLine
 10
-5.0
 20
0.0
 30
0.0
 11
-10.3734774601
 21
0.0
 31
0.0
  0
LINE
  5
14F
330
146
100
AcDbEntity
  8
0
  6
Continuous
 62
     0
370
    18
100
AcDbLine
 10
0.0
 20
-5.0
 30
0.0
 11
0.0
 21
-10.288164338
 31
0.0
  0
LINE
  5
150
330
146
100
AcDbEntity
  8
0
  6
Continuous
 62
     0
370
    18
100
AcDbLine
 10
5.0
 20
0.0
 30
0.0
 11
10.2483191883
 21
0.0
 31
0.0
  0
ENDBLK
  5
148
330
146
100
AcDbEntity
  8
0
100
AcDbBlockEnd
  0
BLOCK
  5
188
330
187
100
AcDbEntity
  8
0
100
AcDbBlockBegin
  2
SW_CENTERMARKSYMBOL_1
 70
     0
 10
0.0
 20
0.0
 30
0.0
  3
SW_CENTERMARKSYMBOL_1
  1

  0
LINE
  5
18A
330
187
100
AcDbEntity
  8
0
  6
Continuous
 62
     0
370
    18
100
AcDbLine
 10
0.0
 20
0.0
 30
0.0
 11
0.0
 21
2.5
 31
0.0
  0
LINE
  5
18B
330
187
100
AcDbEntity
  8
0
  6
Continuous
 62
     0
370
    18
100
AcDbLine
 10
0.0
 20
0.0
 30
0.0
 11
-2.5
 21
0.0
 31
0.0
  0
LINE
  5
18C
330
187
100
AcDbEntity
  8
0
  6
Continuous
 62
     0
370
    18
100
AcDbLine
 10
0.0
 20
0.0
 30
0.0
 11
0.0
 21
-2.5
 31
0.0
  0
LINE
  5
18D
330
187
100
AcDbEntity
  8
0
  6
Continuous
 62
     0
370
    18
100
AcDbLine
 10
0.0
 20
0.0
 30
0.0
 11
2.5
 21
0.0
 31
0.0
  0
LINE
  5
18E
330
187
100
AcDbEntity
  8
0
  6
Continuous
 62
     0
370
    18
100
AcDbLine
 10
0.0
 20
5.0
 30
0.0
 11
0.0
 21
13.75
 31
0.0
  0
LINE
  5
18F
330
187
100
AcDbEntity
  8
0
  6
Continuous
 62
     0
370
    18
100
AcDbLine
 10
-5.0
 20
0.0
 30
0.0
 11
-13.75
 21
0.0
 31
0.0
  0
LINE
  5
190
330
187
100
AcDbEntity
  8
0
  6
Continuous
 62
     0
370
    18
100
AcDbLine
 10
0.0
 20
-5.0
 30
0.0
 11
0.0
 21
-13.75
 31
0.0
  0
LINE
  5
191
330
187
100
AcDbEntity
  8
0
  6
Continuous
 62
     0
370
    18
100
AcDbLine
 10
5.0
 20
0.0
 30
0.0
 11
30.8820941084
 21
0.0
 31
0.0
  0
ENDBLK
  5
189
330
187
100
AcDbEntity
  8
0
100
AcDbBlockEnd
  0
ENDSEC
  0
SECTION
  2
ENTITIES
  0
MTEXT
  5
74
330
1F
100
AcDbEntity
  8
0
  6
Continuous
 62
     7
370
     0
100
AcDbMText
 10
88.196672126
 20
70.3470521086
 30
0.0
 40
2.6458333333
 41
0.0
 71
     1
 72
     1
  1
5R-LK1023
  7
SLDTEXTSTYLE0
 73
     1
 44
1.0
  0
ARC
  5
75
330
1F
100
AcDbEntity
  8
0
  6
Continuous
 62
     7
370
    25
100
AcDbCircle
 10
72.0494398135
 20
49.1634166972
 30
0.0
 40
2.5
100
AcDbArc
 50
296.7436839504
 51
0.0
  0
ARC
  5
76
330
1F
100
AcDbEntity
  8
0
  6
Continuous
 62
     7
370
    25
100
AcDbCircle
 10
54.5494398135
 20
49.1634166972
 30
0.0
 40
2.5
100
AcDbArc
 50
180.0
 51
243.2563160496
  0
LINE
  5
77
330
1F
100
AcDbEntity
  8
0
  6
Continuous
 62
     7
370
    25
100
AcDbLine
 10
74.5494398135
 20
49.1634166972
 30
0.0
 11
74.5494398135
 21
60.6982739224
 31
0.0
  0
LINE
  5
78
330
1F
100
AcDbEntity
  8
0
  6
Continuous
 62
     7
370
    25
100
AcDbLine
 10
52.0494398135
 20
60.6982739224
 30
0.0
 11
52.0494398135
 21
49.1634166972
 31
0.0
  0
LINE
  5
79
330
1F
100
AcDbEntity
  8
0
  6
Continuous
 62
     7
370
    25
100
AcDbLine
 10
74.5494398135
 20
60.6982739224
 30
0.0
 11
74.0494398135
 21
61.1982739224
 31
0.0
  0
LINE
  5
7A
330
1F
100
AcDbEntity
  8
0
  6
Continuous
 62
     7
370
    25
100
AcDbLine
 10
52.5494398135
 20
61.1982739224
 30
0.0
 11
52.0494398135
 21
60.6982739224
 31
0.0
  0
ARC
  5
7B
330
1F
100
AcDbEntity
  8
0
  6
Continuous
 62
     7
370
    25
100
AcDbCircle
 10
74.2994398135
 20
44.6982739224
 30
0.0
 40
2.5
100
AcDbArc
 50
116.7436839504
 51
180.0
  0
ARC
  5
7C
330
1F
100
AcDbEntity
  8
0
  6
Continuous
 62
     7
370
    25
100
AcDbCircle
 10
52.2994398135
 20
44.6982739224
 30
0.0
 40
2.5
100
AcDbArc
 50
0.0
 51
63.2563160496
  0
LINE
  5
7D
330
1F
100
AcDbEntity
  8
0
  6
Continuous
 62
     7
370
    25
100
AcDbLine
 10
76.5211794607
 20
23.5918260696
 30
0.0
 11
78.2994398135
 21
25.3700864224
 31
0.0
  0
LINE
  5
7E
330
1F
100
AcDbEntity
  8
0
  6
Continuous
 62
     7
370
    25
100
AcDbLine
 10
78.2994398135
 20
39.0264614224
 30
0.0
 11
76.5211794607
 21
40.8047217751
 31
0.0
  0
ARC
  5
7F
330
1F
100
AcDbEntity
  8
0
  6
Continuous
 62
     7
370
    25
100
AcDbCircle
 10
75.7994398135
 20
21.1982739224
 30
0.0
 40
2.5
100
AcDbArc
 50
73.2201049003
 51
90.0
  0
ARC
  5
80
330
1F
100
AcDbEntity
  8
0
  6
Continuous
 62
     7
370
    25
100
AcDbCircle
 10
75.7994398135
 20
43.1982739224
 30
0.0
 40
2.499999999999997
100
AcDbArc
 50
270.0
 51
286.7798950997
  0
LINE
  5
81
330
1F
100
AcDbEntity
  8
0
  6
Continuous
 62
     7
370
    25
100
AcDbLine
 10
54.7994398135
 20
44.6982739224
 30
0.0
 11
54.7994398135
 21
26.6938732539
 31
0.0
  0
LINE
  5
82
330
1F
100
AcDbEntity
  8
0
  6
Continuous
 62
     7
370
    25
100
AcDbLine
 10
71.7994398135
 20
41.1982739224
 30
0.0
 11
71.7994398135
 21
44.6982739224
 31
0.0
  0
LINE
  5
83
330
1F
100
AcDbEntity
  8
0
  6
Continuous
 62
     7
370
    25
100
AcDbLine
 10
75.7994398135
 20
40.6982739224
 30
0.0
 11
72.2994398135
 21
40.6982739224
 31
0.0
  0
LINE
  5
84
330
1F
100
AcDbEntity
  8
0
  6
Continuous
 62
     7
370
    25
100
AcDbLine
 10
57.795039145
 20
23.6982739224
 30
0.0
 11
75.7994398135
 21
23.6982739224
 31
0.0
  0
LINE
  5
85
330
1F
100
AcDbEntity
  8
0
  6
Continuous
 62
     7
370
    25
100
AcDbLine
 10
78.2994398135
 20
25.3700864224
 30
0.0
 11
90.2106521597
 21
25.7423118082
 31
0.0
  0
LINE
  5
86
330
1F
100
AcDbEntity
  8
0
  6
Continuous
 62
     7
370
    25
100
AcDbLine
 10
90.2106521597
 20
38.6542360365
 30
0.0
 11
78.2994398135
 21
39.0264614224
 31
0.0
  0
LINE
  5
87
330
1F
100
AcDbEntity
  8
0
  6
Continuous
 62
     7
370
    25
100
AcDbLine
 10
90.2106521597
 20
25.7423118082
 30
0.0
 11
92.2994398135
 21
26.9482739224
 31
0.0
  0
LINE
  5
88
330
1F
100
AcDbEntity
  8
0
  6
Continuous
 62
     7
370
    25
100
AcDbLine
 10
92.2994398135
 20
37.4482739224
 30
0.0
 11
90.2106521597
 21
38.6542360365
 31
0.0
  0
SPLINE
  5
89
330
1F
100
AcDbEntity
  8
0
  6
Continuous
 62
     7
370
    25
100
AcDbSpline
210
0.0
220
0.0
230
1.0
 70
     8
 71
     3
 72
    21
 73
    17
 74
     0
 42
0.000000001
 43
0.00000001
 40
0.0
 40
0.0
 40
0.0
 40
0.0
 40
0.082675667536071
 40
0.1577159023869824
 40
0.225107122878268
 40
0.2848508575649881
 40
0.3526127842311548
 40
0.4067896671894032
 40
0.4520101410146769
 40
0.5086861790580107
 40
0.5792250314326626
 40
0.6636251927364243
 40
0.7360318665421361
 40
0.8162246244150331
 40
0.9042198598363963
 40
1.0
 40
1.0
 40
1.0
 40
1.0
 10
54.79943981372951
 20
26.69823429938861
 30
0.0
 10
54.8043375373023
 20
26.56835719256145
 30
0.0
 10
54.81368065984299
 20
26.32059765564912
 30
0.0
 10
54.88272725640766
 20
25.97272850808037
 30
0.0
 10
54.97611536001182
 20
25.66895214058551
 30
0.0
 10
55.0957449638374
 20
25.38682906571176
 30
0.0
 10
55.23304053578625
 20
25.13621851463169
 30
0.0
 10
55.38059236375288
 20
24.91885174737644
 30
0.0
 10
55.53360296398234
 20
24.72725404819581
 30
0.0
 10
55.71916168274574
 20
24.52966987799483
 30
0.0
 10
55.97034542351696
 20
24.31123557777605
 30
0.0
 10
56.26685851907546
 20
24.11073780276701
 30
0.0
 10
56.59884167054199
 20
23.94091177230773
 30
0.0
 10
56.95443823657875
 20
23.81142311986887
 30
0.0
 10
57.36013948726158
 20
23.71749229059487
 30
0.0
 10
57.64890252776488
 20
23.70485843937835
 30
0.0
 10
57.7994001904982
 20
23.69827392261992
 30
0.0
  0
SPLINE
  5
8A
330
1F
100
AcDbEntity
  8
0
  6
Continuous
 62
     7
370
    25
100
AcDbSpline
210
0.0
220
0.0
230
1.0
 70
     8
 71
     3
 72
    11
 73
     7
 74
     0
 42
0.000000001
 43
0.00000001
 40
0.0
 40
0.0
 40
0.0
 40
0.0
 40
0.2500481156911711
 40
0.5000000000000012
 40
0.7499518843088333
 40
1.0
 40
1.0
 40
1.0
 40
1.0
 10
72.30427314464133
 20
40.69827392235488
 30
0.0
 10
72.23787201115451
 20
40.70536634661421
 30
0.0
 10
72.10509529875402
 20
40.71954846560303
 30
0.0
 10
71.937496990169
 20
40.8363310990594
 30
0.0
 10
71.82071435671264
 20
41.00392940764444
 30
0.0
 10
71.80653223772379
 20
41.13670612004491
 30
0.0
 10
71.79943981346447
 20
41.20310725353173
 30
0.0
  0
LINE
  5
8B
330
1F
100
AcDbEntity
  8
0
  6
Continuous
 62
     7
370
    25
100
AcDbLine
 10
63.2994398135
 20
60.6982739224
 30
0.0
 11
52.0494398135
 21
60.6982739224
 31
0.0
  0
LINE
  5
8C
330
1F
100
AcDbEntity
  8
0
  6
Continuous
 62
     7
370
    25
100
AcDbLine
 10
74.5494398135
 20
60.6982739224
 30
0.0
 11
63.2994398135
 21
60.6982739224
 31
0.0
  0
LINE
  5
8D
330
1F
100
AcDbEntity
  8
0
  6
Continuous
 62
     7
370
    25
100
AcDbLine
 10
63.2994398135
 20
61.1982739224
 30
0.0
 11
74.0494398135
 21
61.1982739224
 31
0.0
  0
LINE
  5
8E
330
1F
100
AcDbEntity
  8
0
  6
Continuous
 62
     7
370
    25
100
AcDbLine
 10
52.5494398135
 20
61.1982739224
 30
0.0
 11
63.2994398135
 21
61.1982739224
 31
0.0
  0
LINE
  5
8F
330
1F
100
AcDbEntity
  8
0
  6
Continuous
 62
     7
370
    25
100
AcDbLine
 10
76.5211794607
 20
40.8047217751
 30
0.0
 11
76.5211794607
 21
23.5918260696
 31
0.0
  0
LINE
  5
90
330
1F
100
AcDbEntity
  8
0
  6
Continuous
 62
     7
370
    25
100
AcDbLine
 10
78.2994398135
 20
39.0264614224
 30
0.0
 11
78.2994398135
 21
25.3700864224
 31
0.0
  0
SPLINE
  5
91
330
1F
100
AcDbEntity
  8
0
  6
Continuous
 62
     7
370
    25
100
AcDbSpline
210
0.0
220
0.0
230
1.0
 70
    24
 71
     3
 72
     8
 73
     4
 74
     0
 42
0.000000001
 43
0.00000001
 40
0.0
 40
0.0
 40
0.0
 40
0.0
 40
1.0
 40
1.0
 40
1.0
 40
1.0
 10
63.29943981346446
 20
40.69827392235488
 30
0.0
 10
64.2760931562273
 20
40.69827392235488
 30
0.0
 10
65.25251799060376
 20
40.69827392235488
 30
0.0
 10
66.17172113673348
 20
40.69827392235488
 30
0.0
  0
SPLINE
  5
92
330
1F
100
AcDbEntity
  8
0
  6
Continuous
 62
     7
370
    25
100
AcDbSpline
210
0.0
220
0.0
230
1.0
 70
    24
 71
     3
 72
     8
 73
     4
 74
     0
 42
0.000000001
 43
0.00000001
 40
0.0
 40
0.0
 40
0.0
 40
0.0
 40
1.0
 40
1.0
 40
1.0
 40
1.0
 10
60.42715849019545
 20
40.69827392235488
 30
0.0
 10
61.34636163632517
 20
40.69827392235488
 30
0.0
 10
62.32278647070164
 20
40.69827392235488
 30
0.0
 10
63.29943981346446
 20
40.69827392235488
 30
0.0
  0
SPLINE
  5
93
330
1F
100
AcDbEntity
  8
0
  6
Continuous
 62
     7
370
    25
100
AcDbSpline
210
0.0
220
0.0
230
1.0
 70
     8
 71
     3
 72
     8
 73
     4
 74
     0
 42
0.000000001
 43
0.00000001
 40
0.0
 40
0.0
 40
0.0
 40
0.0
 40
1.0
 40
1.0
 40
1.0
 40
1.0
 10
56.40741543741935
 20
40.50862354550019
 30
0.0
 10
56.33534919107692
 20
40.41759161522111
 30
0.0
 10
56.27485623351073
 20
40.30763638504683
 30
0.0
 10
56.21610648013113
 20
40.19827392235488
 30
0.0
  0
LINE
  5
94
330
1F
100
AcDbEntity
  8
0
  6
Continuous
 62
     7
370
    25
100
AcDbLine
 10
56.2161064801
 20
40.1982739224
 30
0.0
 11
56.2161064801
 21
28.1982739224
 31
0.0
  0
SPLINE
  5
95
330
1F
100
AcDbEntity
  8
0
  6
Continuous
 62
     7
370
    25
100
AcDbSpline
210
0.0
220
0.0
230
1.0
 70
     8
 71
     3
 72
    10
 73
     6
 74
     0
 42
0.000000001
 43
0.00000001
 40
0.0
 40
0.0
 40
0.0
 40
0.0
 40
0.0280934765544326
 40
0.0280934765544326
 40
0.0561869531088653
 40
0.0561869531088653
 40
0.0561869531088653
 40
0.0561869531088653
 10
56.21610648013113
 20
28.19827392235487
 30
0.0
 10
56.21610648013113
 20
28.10462900050677
 30
0.0
 10
56.21968397437571
 20
28.01057309530219
 30
0.0
 10
56.23384545243623
 20
27.82430238319617
 30
0.0
 10
56.24442472428252
 20
27.73211991391204
 30
0.0
 10
56.25810573007432
 20
27.6421165742789
 30
0.0
  0
ELLIPSE
  5
96
330
1F
100
AcDbEntity
  8
0
  6
Continuous
 62
     7
370
    25
100
AcDbEllipse
 10
68.2994398135
 20
30.6594230302
 30
0.0
 11
0.5653269642954655
 21
1.222133505507372E-12
 31
0.0
210
0.0
220
0.0
230
1.0
 40
0.9531667975
 41
0.4357918987532598
 42
2.705800754832174
  0
LINE
  5
97
330
1F
100
AcDbEntity
  8
0
  6
Continuous
 62
     7
370
    25
100
AcDbLine
 10
66.694854832
 20
27.8334358131
 30
0.0
 11
67.7869505439
 21
30.8868873051
 31
0.0
  0
ELLIPSE
  5
98
330
1F
100
AcDbEntity
  8
0
  6
Continuous
 62
     7
370
    25
100
AcDbEllipse
 10
66.1380155669
 20
28.0143769605
 30
0.0
 11
-0.588307735200658
 21
2.131628207280301E-14
 31
0.0
210
0.0
220
0.0
230
1.0
 40
0.9531667975
 41
1.047197551197052
 42
2.813039483038258
  0
LINE
  5
99
330
1F
100
AcDbEntity
  8
0
  6
Continuous
 62
     7
370
    25
100
AcDbLine
 10
65.7991319389
 20
27.5533638228
 30
0.0
 11
65.8438616993
 21
27.5287485388
 31
0.0
  0
LINE
  5
9A
330
1F
100
AcDbEntity
  8
0
  6
Continuous
 62
     7
370
    25
100
AcDbLine
 10
66.4896420671
 20
26.2370211675
 30
0.0
 11
65.7991319389
 21
27.5533638228
 31
0.0
  0
ELLIPSE
  5
9B
330
1F
100
AcDbEntity
  8
0
  6
Continuous
 62
     7
370
    25
100
AcDbEllipse
 10
66.5554168715
 20
26.2683683473
 30
0.0
 11
0.07353846690023147
 21
3.552713678800501E-15
 31
0.0
210
0.0
220
0.0
230
1.0
 40
0.9531667975
 41
3.605240262590629
 42
5.46218331021511
  0
ELLIPSE
  5
9C
330
1F
100
AcDbEntity
  8
0
  6
Continuous
 62
     7
370
    25
100
AcDbEllipse
 10
68.2994398135
 20
24.4832280082
 30
0.0
 11
2.48560018122744
 21
-1.705302565824240E-13
 31
0.0
210
0.0
220
0.0
230
1.0
 40
0.9531667975
 41
0.8210019969645069
 42
2.320590656625379
  0
ELLIPSE
  5
9D
330
1F
100
AcDbEntity
  8
0
  6
Continuous
 62
     7
370
    25
100
AcDbEllipse
 10
70.0434627554
 20
26.2683683473
 30
0.0
 11
0.07353846690018884
 21
2.842170943040401E-14
 31
0.0
210
0.0
220
0.0
230
1.0
 40
0.9531667975
 41
3.962594650553831
 42
5.81953769817848
  0
LINE
  5
9E
330
1F
100
AcDbEntity
  8
0
  6
Continuous
 62
     7
370
    25
100
AcDbLine
 10
70.7997476881
 20
27.5533638228
 30
0.0
 11
70.1092375598
 21
26.2370211675
 31
0.0
  0
LINE
  5
9F
330
1F
100
AcDbEntity
  8
0
  6
Continuous
 62
     7
370
    25
100
AcDbLine
 10
70.7636292663
 20
27.5327235775
 30
0.0
 11
70.7997476881
 21
27.5533638228
 31
0.0
  0
ELLIPSE
  5
A0
330
1F
100
AcDbEntity
  8
0
  6
Continuous
 62
     7
370
    25
100
AcDbEllipse
 10
70.4611186177
 20
28.0136652286
 30
0.0
 11
-0.588307735201596
 21
-1.527666881884215E-13
 31
0.0
210
0.0
220
0.0
230
1.0
 40
0.9531667975
 41
0.3285531705512143
 42
2.110876526947624
  0
LINE
  5
A1
330
1F
100
AcDbEntity
  8
0
  6
Continuous
 62
     7
370
    25
100
AcDbLine
 10
68.811929083
 20
30.8868873051
 30
0.0
 11
69.9042793525
 21
27.8327240811
 31
0.0
  0
SPLINE
  5
A2
330
1F
100
AcDbEntity
  8
0
  6
Continuous
 62
     7
370
    25
100
AcDbSpline
210
0.0
220
0.0
230
1.0
 70
     8
 71
     3
 72
    10
 73
     6
 74
     0
 42
0.000000001
 43
0.00000001
 40
-0.2904940295525288
 40
-0.2904940295525288
 40
-0.2904940295525288
 40
-0.2904940295525288
 40
-0.1303072746110114
 40
-0.1303072746110114
 40
0.001056361752625
 40
0.001056361752625
 40
0.001056361752625
 40
0.001056361752625
 10
71.79943981346447
 20
32.19827392235487
 30
0.0
 10
71.66993649769014
 20
31.68026065925778
 30
0.0
 10
71.53814551954052
 20
31.15633485561367
 30
0.0
 10
71.35972158009979
 20
30.1979323920185
 30
0.0
 10
71.29943981346447
 20
29.76387138696465
 30
0.0
 10
71.29943981346447
 20
29.32599259908586
 30
0.0
  0
LINE
  5
A3
330
1F
100
AcDbEntity
  8
0
  6
Continuous
 62
     7
370
    25
100
AcDbLine
 10
71.2994398135
 20
29.3259925991
 30
0.0
 11
71.2994398135
 21
25.6982739224
 31
0.0
  0
LINE
  5
A4
330
1F
100
AcDbEntity
  8
0
  6
Continuous
 62
     7
370
    25
100
AcDbLine
 10
71.2994398135
 20
25.6982739224
 30
0.0
 11
59.2994398135
 21
25.6982739224
 31
0.0
  0
ARC
  5
A5
330
1F
100
AcDbEntity
  8
0
  6
Continuous
 62
     7
370
    25
100
AcDbCircle
 10
59.2994398135
 20
28.1982739224
 30
0.0
 40
2.500000000000007
100
AcDbArc
 50
180.0
 51
270.0
  0
LINE
  5
A6
330
1F
100
AcDbEntity
  8
0
  6
Continuous
 62
     7
370
    25
100
AcDbLine
 10
56.7994398135
 20
28.1982739224
 30
0.0
 11
56.7994398135
 21
40.1982739224
 31
0.0
  0
LINE
  5
A7
330
1F
100
AcDbEntity
  8
0
  6
Continuous
 62
     7
370
    25
100
AcDbLine
 10
56.7994398135
 20
40.1982739224
 30
0.0
 11
60.4271584902
 21
40.1982739224
 31
0.0
  0
SPLINE
  5
A8
330
1F
100
AcDbEntity
  8
0
  6
Continuous
 62
     7
370
    25
100
AcDbSpline
210
0.0
220
0.0
230
1.0
 70
     8
 71
     3
 72
    10
 73
     6
 74
     0
 42
0.000000001
 43
0.00000001
 40
-0.8711658249657241
 40
-0.8711658249657241
 40
-0.8711658249657241
 40
-0.8711658249657241
 40
-0.7398021886020881
 40
-0.7398021886020881
 40
-0.5796154507864705
 40
-0.5796154507864705
 40
-0.5796154507864705
 40
-0.5796154507864705
 10
60.42715849019545
 20
40.19827392235487
 30
0.0
 10
60.86503727807424
 20
40.19827392235488
 30
0.0
 10
61.29909828312863
 20
40.25855568899028
 30
0.0
 10
62.25750069042622
 20
40.43697961795023
 30
0.0
 10
62.7814266057338
 20
40.56877062042213
 30
0.0
 10
63.29943981346447
 20
40.69827392235488
 30
0.0
  0
SPLINE
  5
A9
330
1F
100
AcDbEntity
  8
0
  6
Continuous
 62
     7
370
    25
100
AcDbSpline
210
0.0
220
0.0
230
1.0
 70
     8
 71
     3
 72
    10
 73
     6
 74
     0
 42
0.000000001
 43
0.00000001
 40
-0.2904940295525327
 40
-0.2904940295525327
 40
-0.2904940295525327
 40
-0.2904940295525327
 40
-0.130307291676468
 40
-0.130307291676468
 40
0.0010563446871674
 40
0.0010563446871674
 40
0.0010563446871674
 40
0.0010563446871674
 10
63.29943981346447
 20
40.69827392235488
 30
0.0
 10
63.81745302139063
 20
40.56877062037333
 30
0.0
 10
64.34137893630403
 20
40.43697961798721
 30
0.0
 10
65.2997813438003
 20
40.25855568899028
 30
0.0
 10
65.7338423488547
 20
40.19827392235488
 30
0.0
 10
66.1717211367335
 20
40.19827392235488
 30
0.0
  0
LINE
  5
AA
330
1F
100
AcDbEntity
  8
0
  6
Continuous
 62
     7
370
    25
100
AcDbLine
 10
66.1717211367
 20
40.1982739224
 30
0.0
 11
69.7994398135
 21
40.1982739224
 31
0.0
  0
ARC
  5
AB
330
1F
100
AcDbEntity
  8
0
  6
Continuous
 62
     7
370
    25
100
AcDbCircle
 10
71.2994398135
 20
40.1982739224
 30
0.0
 40
1.5
100
AcDbArc
 50
180.0
 51
270.0
  0
LINE
  5
AC
330
1F
100
AcDbEntity
  8
0
  6
Continuous
 62
     7
370
    25
100
AcDbLine
 10
71.2994398135
 20
38.6982739224
 30
0.0
 11
71.2994398135
 21
35.0705552456
 31
0.0
  0
SPLINE
  5
AD
330
1F
100
AcDbEntity
  8
0
  6
Continuous
 62
     7
370
    25
100
AcDbSpline
210
0.0
220
0.0
230
1.0
 70
     8
 71
     3
 72
    10
 73
     6
 74
     0
 42
0.000000001
 43
0.00000001
 40
-0.8711658421011628
 40
-0.8711658421011628
 40
-0.8711658421011628
 40
-0.8711658421011628
 40
-0.739802205737527
 40
-0.739802205737527
 40
-0.579615450786466
 40
-0.579615450786466
 40
-0.579615450786466
 40
-0.579615450786466
 10
71.29943981346447
 20
35.07055524562389
 30
0.0
 10
71.29943981346447
 20
34.63267645774511
 30
0.0
 10
71.35972158009979
 20
34.19861545269126
 30
0.0
 10
71.53814551954635
 20
33.24021298906472
 30
0.0
 10
71.66993649768241
 20
32.71628718548282
 30
0.0
 10
71.79943981346447
 20
32.19827392235487
 30
0.0
  0
SPLINE
  5
AE
330
1F
100
AcDbEntity
  8
0
  6
Continuous
 62
     7
370
    25
100
AcDbSpline
210
0.0
220
0.0
230
1.0
 70
    24
 71
     3
 72
     8
 73
     4
 74
     0
 42
0.000000001
 43
0.00000001
 40
0.0
 40
0.0
 40
0.0
 40
0.0
 40
1.0
 40
1.0
 40
1.0
 40
1.0
 10
71.79943981346447
 20
32.19827392235487
 30
0.0
 10
71.79943981346447
 20
31.22162057959205
 30
0.0
 10
71.79943981346447
 20
30.24519574521559
 30
0.0
 10
71.79943981346447
 20
29.32599259908586
 30
0.0
  0
SPLINE
  5
AF
330
1F
100
AcDbEntity
  8
0
  6
Continuous
 62
     7
370
    25
100
AcDbSpline
210
0.0
220
0.0
230
1.0
 70
    24
 71
     3
 72
     8
 73
     4
 74
     0
 42
0.000000001
 43
0.00000001
 40
0.0
 40
0.0
 40
0.0
 40
0.0
 40
1.0
 40
1.0
 40
1.0
 40
1.0
 10
71.79943981346447
 20
35.07055524562389
 30
0.0
 10
71.79943981346447
 20
34.15135209949417
 30
0.0
 10
71.79943981346447
 20
33.1749272651177
 30
0.0
 10
71.79943981346447
 20
32.19827392235487
 30
0.0
  0
SPLINE
  5
B0
330
1F
100
AcDbEntity
  8
0
  6
Continuous
 62
     7
370
    25
100
AcDbSpline
210
0.0
220
0.0
230
1.0
 70
     8
 71
     3
 72
    10
 73
     6
 74
     0
 42
0.000000001
 43
0.00000001
 40
0.0
 40
0.0
 40
0.0
 40
0.0
 40
0.0280934765544328
 40
0.0280934765544328
 40
0.0561869531088657
 40
0.0561869531088657
 40
0.0561869531088657
 40
0.0561869531088657
 10
58.74328246538848
 20
25.15693983896473
 30
0.0
 10
58.83328580502163
 20
25.14325883317293
 30
0.0
 10
58.92546827430576
 20
25.13267956132664
 30
0.0
 10
59.11173898641179
 20
25.11851808326611
 30
0.0
 10
59.20579489161636
 20
25.11494058902154
 30
0.0
 10
59.29943981346447
 20
25.11494058902154
 30
0.0
  0
LINE
  5
B1
330
1F
100
AcDbEntity
  8
0
  6
Continuous
 62
     7
370
    25
100
AcDbLine
 10
59.2994363804
 20
25.114940589
 30
0.0
 11
71.2994398135
 21
25.114940589
 31
0.0
  0
SPLINE
  5
B2
330
1F
100
AcDbEntity
  8
0
  6
Continuous
 62
     7
370
    25
100
AcDbSpline
210
0.0
220
0.0
230
1.0
 70
     8
 71
     3
 72
     8
 73
     4
 74
     0
 42
0.000000001
 43
0.00000001
 40
0.0
 40
0.0
 40
0.0
 40
0.0
 40
1.0
 40
1.0
 40
1.0
 40
1.0
 10
71.60978943660979
 20
25.30624954630976
 30
0.0
 10
71.51875750633072
 20
25.23418329996733
 30
0.0
 10
71.4088022761592
 20
25.17369034239957
 30
0.0
 10
71.29943981346447
 20
25.11494058902154
 30
0.0
  0
SPLINE
  5
B3
330
1F
100
AcDbEntity
  8
0
  6
Continuous
 62
     7
370
    25
100
AcDbSpline
210
0.0
220
0.0
230
1.0
 70
    24
 71
     3
 72
    10
 73
     6
 74
     0
 42
0.000000001
 43
0.00000001
 40
0.0
 40
0.0
 40
0.0
 40
0.0
 40
0.5
 40
0.5
 40
1.0
 40
1.0
 40
1.0
 40
1.0
 10
71.79943981346447
 20
29.32599259908586
 30
0.0
 10
71.79943981346447
 20
29.32599259908586
 30
0.0
 10
71.74555326526938
 20
29.32599259908586
 30
0.0
 10
71.56043314284611
 20
29.32599259908586
 30
0.0
 10
71.43033950736405
 20
29.32599259908586
 30
0.0
 10
71.29943981346447
 20
29.32599259908586
 30
0.0
  0
LINE
  5
B4
330
1F
100
AcDbEntity
  8
0
  6
Continuous
 62
     7
370
    25
100
AcDbLine
 10
71.7994398135
 20
25.6982739224
 30
0.0
 11
71.7994398135
 21
29.3259925991
 31
0.0
  0
LINE
  5
B5
330
1F
100
AcDbEntity
  8
0
  6
Continuous
 62
     7
370
    25
100
AcDbLine
 10
71.2994398135
 20
25.6982739224
 30
0.0
 11
71.7994398135
 21
25.6982739224
 31
0.0
  0
SPLINE
  5
B6
330
1F
100
AcDbEntity
  8
0
  6
Continuous
 62
     7
370
    25
100
AcDbSpline
210
0.0
220
0.0
230
1.0
 70
    24
 71
     3
 72
    10
 73
     6
 74
     0
 42
0.000000001
 43
0.00000001
 40
0.0
 40
0.0
 40
0.0
 40
0.0
 40
0.5
 40
0.5
 40
1.0
 40
1.0
 40
1.0
 40
1.0
 10
60.42715849019545
 20
40.19827392235488
 30
0.0
 10
60.42715849019545
 20
40.32917361625444
 30
0.0
 10
60.42715849019545
 20
40.45926725173651
 30
0.0
 10
60.42715849019545
 20
40.64438737415978
 30
0.0
 10
60.42715849019545
 20
40.69827392235488
 30
0.0
 10
60.42715849019545
 20
40.69827392235488
 30
0.0
  0
LINE
  5
B7
330
1F
100
AcDbEntity
  8
0
  6
Continuous
 62
     7
370
    25
100
AcDbLine
 10
56.7994398135
 20
40.6982739224
 30
0.0
 11
56.7994398135
 21
40.1982739224
 31
0.0
  0
LINE
  5
B8
330
1F
100
AcDbEntity
  8
0
  6
Continuous
 62
     7
370
    25
100
AcDbLine
 10
60.4271584902
 20
40.6982739224
 30
0.0
 11
56.7994398135
 21
40.6982739224
 31
0.0
  0
LINE
  5
B9
330
1F
100
AcDbEntity
  8
0
  6
Continuous
 62
     7
370
    25
100
AcDbLine
 10
71.7994398135
 20
35.0705552456
 30
0.0
 11
71.7994398135
 21
38.6982739224
 31
0.0
  0
SPLINE
  5
BA
330
1F
100
AcDbEntity
  8
0
  6
Continuous
 62
     7
370
    25
100
AcDbSpline
210
0.0
220
0.0
230
1.0
 70
    24
 71
     3
 72
    10
 73
     6
 74
     0
 42
0.000000001
 43
0.00000001
 40
0.0
 40
0.0
 40
0.0
 40
0.0
 40
0.5
 40
0.5
 40
1.0
 40
1.0
 40
1.0
 40
1.0
 10
71.29943981346447
 20
35.07055524562389
 30
0.0
 10
71.43033950736405
 20
35.07055524562389
 30
0.0
 10
71.56043314284611
 20
35.07055524562389
 30
0.0
 10
71.74555326526938
 20
35.07055524562389
 30
0.0
 10
71.79943981346447
 20
35.07055524562389
 30
0.0
 10
71.79943981346447
 20
35.07055524562389
 30
0.0
  0
LINE
  5
BB
330
1F
100
AcDbEntity
  8
0
  6
Continuous
 62
     7
370
    25
100
AcDbLine
 10
71.2994398135
 20
38.6982739224
 30
0.0
 11
71.7994398135
 21
38.6982739224
 31
0.0
  0
LINE
  5
BC
330
1F
100
AcDbEntity
  8
0
  6
Continuous
 62
     7
370
    25
100
AcDbLine
 10
70.2994398135
 20
40.6982739224
 30
0.0
 11
66.1717211367
 21
40.6982739224
 31
0.0
  0
LINE
  5
BD
330
1F
100
AcDbEntity
  8
0
  6
Continuous
 62
     7
370
    25
100
AcDbLine
 10
69.7994398135
 20
40.1982739224
 30
0.0
 11
70.2994398135
 21
40.6982739224
 31
0.0
  0
SPLINE
  5
BE
330
1F
100
AcDbEntity
  8
0
  6
Continuous
 62
     7
370
    25
100
AcDbSpline
210
0.0
220
0.0
230
1.0
 70
    24
 71
     3
 72
    10
 73
     6
 74
     0
 42
0.000000001
 43
0.00000001
 40
0.0
 40
0.0
 40
0.0
 40
0.0
 40
0.5
 40
0.5
 40
1.0
 40
1.0
 40
1.0
 40
1.0
 10
66.1717211367335
 20
40.69827392235488
 30
0.0
 10
66.1717211367335
 20
40.69827392235488
 30
0.0
 10
66.1717211367335
 20
40.64438737415978
 30
0.0
 10
66.1717211367335
 20
40.45926725173652
 30
0.0
 10
66.1717211367335
 20
40.32917361625445
 30
0.0
 10
66.1717211367335
 20
40.19827392235488
 30
0.0
  0
ELLIPSE
  5
BF
330
1F
100
AcDbEntity
  8
0
  6
Continuous
 62
     7
370
    25
100
AcDbEllipse
 10
68.0360989248
 20
27.9038359478
 30
0.0
 11
-0.07353846690023147
 21
0.0
 31
0.0
210
0.0
220
0.0
230
1.0
 40
0.9531667975
 41
5.940161364898009
 42
7.853981633974483
  0
LINE
  5
C0
330
1F
100
AcDbEntity
  8
0
  6
Continuous
 62
     7
370
    25
100
AcDbLine
 10
68.2301855588
 20
28.6302330709
 30
0.0
 11
67.9668446685
 21
27.9274112542
 31
0.0
  0
ELLIPSE
  5
C1
330
1F
100
AcDbEntity
  8
0
  6
Continuous
 62
     7
370
    25
100
AcDbEllipse
 10
68.2994398152
 20
28.6066577645
 30
0.0
 11
0.07353846690021726
 21
0.0
 31
0.0
210
0.0
220
0.0
230
1.0
 40
0.9531667975
 41
0.3430239394902662
 42
2.798568712238679
  0
LINE
  5
C2
330
1F
100
AcDbEntity
  8
0
  6
Continuous
 62
     7
370
    25
100
AcDbLine
 10
68.632034959
 20
27.927411254
 30
0.0
 11
68.3686940716
 21
28.6302330708
 31
0.0
  0
ELLIPSE
  5
C3
330
1F
100
AcDbEntity
  8
0
  6
Continuous
 62
     7
370
    25
100
AcDbEllipse
 10
68.5627807025
 20
27.9038359478
 30
0.0
 11
0.07353846690020305
 21
1.421085471520200E-14
 31
0.0
210
0.0
220
0.0
230
1.0
 40
0.9531667975
 41
4.712388980384518
 42
6.626209245739174
  0
LINE
  5
C4
330
1F
100
AcDbEntity
  8
0
  6
Continuous
 62
     7
370
    25
100
AcDbLine
 10
68.0360989248
 20
27.8337415228
 30
0.0
 11
68.5627807025
 21
27.8337415228
 31
0.0
  0
LINE
  5
C5
330
1F
100
AcDbEntity
  8
0
  6
Continuous
 62
     7
370
    25
100
AcDbLine
 10
59.2994398135
 20
25.6982739224
 30
0.0
 11
59.2994398135
 21
25.1982739224
 31
0.0
  0
ARC
  5
C6
330
1F
100
AcDbEntity
  8
0
  6
Continuous
 62
     7
370
    25
100
AcDbCircle
 10
59.2994398135
 20
28.1982739224
 30
0.0
 40
3.000000000000007
100
AcDbArc
 50
180.0
 51
270.0
  0
LINE
  5
C7
330
1F
100
AcDbEntity
  8
0
  6
Continuous
 62
     7
370
    25
100
AcDbLine
 10
56.7994398135
 20
28.1982739224
 30
0.0
 11
56.2994398135
 21
28.1982739224
 31
0.0
  0
ARC
  5
C8
330
1F
100
AcDbEntity
  8
0
  6
Continuous
 62
     7
370
    25
100
AcDbCircle
 10
56.7994398135
 20
40.1982739224
 30
0.0
 40
0.5
100
AcDbArc
 50
90.0
 51
180.0
  0
LINE
  5
C9
330
1F
100
AcDbEntity
  8
0
  6
Continuous
 62
     7
370
    25
100
AcDbLine
 10
56.7994398135
 20
40.1982739224
 30
0.0
 11
56.2994398135
 21
40.1982739224
 31
0.0
  0
ARC
  5
CA
330
1F
100
AcDbEntity
  8
0
  6
Continuous
 62
     7
370
    25
100
AcDbCircle
 10
71.2994398135
 20
25.6982739224
 30
0.0
 40
0.5
100
AcDbArc
 50
270.0
 51
0.0
  0
LINE
  5
CB
330
1F
100
AcDbEntity
  8
0
  6
Continuous
 62
     7
370
    25
100
AcDbLine
 10
71.2994398135
 20
25.1982739224
 30
0.0
 11
71.2994398135
 21
25.6982739224
 31
0.0
  0
LINE
  5
CC
330
1F
100
AcDbEntity
  8
0
  6
Continuous
 62
     7
370
    25
100
AcDbLine
 10
71.2994398135
 20
38.6982739224
 30
0.0
 11
71.2994398135
 21
39.1982739224
 31
0.0
  0
ARC
  5
CD
330
1F
100
AcDbEntity
  8
0
  6
Continuous
 62
     7
370
    25
100
AcDbCircle
 10
71.2994398135
 20
38.6982739224
 30
0.0
 40
0.5
100
AcDbArc
 50
0.0
 51
90.0
  0
LINE
  5
CE
330
1F
100
AcDbEntity
  8
0
  6
Continuous
 62
     7
370
    25
100
AcDbLine
 10
59.2994398135
 20
25.1982739224
 30
0.0
 11
71.2994398135
 21
25.1982739224
 31
0.0
  0
LINE
  5
CF
330
1F
100
AcDbEntity
  8
0
  6
Continuous
 62
     7
370
    25
100
AcDbLine
 10
56.2994398135
 20
40.1982739224
 30
0.0
 11
56.2994398135
 21
28.1982739224
 31
0.0
  0
LINE
  5
D0
330
1F
100
AcDbEntity
  8
0
  6
Continuous
 62
     7
370
    25
100
AcDbLine
 10
70.2994398135
 20
40.1982739224
 30
0.0
 11
70.2994398135
 21
40.6982739224
 31
0.0
  0
LINE
  5
D1
330
1F
100
AcDbEntity
  8
0
  6
Continuous
 62
     7
370
    25
100
AcDbLine
 10
69.7994398135
 20
40.1982739224
 30
0.0
 11
70.2994398135
 21
40.1982739224
 31
0.0
  0
ARC
  5
D2
330
1F
100
AcDbEntity
  8
0
  6
Continuous
 62
     7
370
    25
100
AcDbCircle
 10
71.2994398135
 20
40.1982739224
 30
0.0
 40
1.0
100
AcDbArc
 50
180.0
 51
270.0
  0
LINE
  5
D3
330
1F
100
AcDbEntity
  8
0
  6
Continuous
 62
     7
370
    25
100
AcDbLine
 10
90.2106521597
 20
25.7423118082
 30
0.0
 11
90.2106521597
 21
38.6542360365
 31
0.0
  0
LINE
  5
D4
330
1F
100
AcDbEntity
  8
0
  6
Continuous
 62
     7
370
    25
100
AcDbLine
 10
92.2994398135
 20
37.4482739224
 30
0.0
 11
92.2994398135
 21
26.9482739224
 31
0.0
  0
LWPOLYLINE
  5
D5
330
1F
100
AcDbEntity
  8
0
  6
Continuous
 62
     7
370
    25
100
AcDbPolyline
 90
        9
 70
   128
 43
0.0
 10
58.8227335151
 20
25.2363908887
 10
58.8138541224
 20
25.2363334954
 10
58.8045604406
 20
25.2333784969
 10
58.7949070282
 20
25.2275432402
 10
58.7849505552
 20
25.2188619811
 10
58.7747494708
 20
25.2073856828
 10
58.7643636602
 20
25.1931817164
 10
58.753854093
 20
25.1763334661
 10
58.7432824654
 20
25.156939839
  0
SPLINE
  5
D6
330
1F
100
AcDbEntity
  8
0
  6
Continuous
 62
     7
370
    25
100
AcDbSpline
210
0.0
220
0.0
230
1.0
 70
     8
 71
     3
 72
    14
 73
    10
 74
     0
 42
0.000000001
 43
0.00000001
 40
-0.4399100083495733
 40
-0.4399100083495733
 40
-0.4399100083495733
 40
-0.4399100083495733
 40
-0.2980125372576002
 40
-0.2980125372576002
 40
-0.1727985319285605
 40
-0.1727985319285605
 40
-0.0664609738186771
 40
-0.0664609738186771
 40
0.0
 40
0.0
 40
0.0
 40
0.0
 10
56.25810573007432
 20
27.6421165742789
 30
0.0
 10
56.3157305176501
 20
27.24737176218735
 30
0.0
 10
56.45514790497113
 20
26.85875091123698
 30
0.0
 10
56.85805226345232
 20
26.20862512483526
 30
0.0
 10
57.10442195593983
 20
25.93782339347347
 30
0.0
 10
57.63629018099725
 20
25.53600886221803
 30
0.0
 10
57.90661757953799
 20
25.39186903605981
 30
0.0
 10
58.3733911810202
 20
25.22886830763543
 30
0.0
 10
58.55839457119571
 20
25.18392974561288
 30
0.0
 10
58.74328246538848
 20
25.15693983896473
 30
0.0
  0
LWPOLYLINE
  5
D7
330
1F
100
AcDbEntity
  8
0
  6
Continuous
 62
     7
370
    25
100
AcDbPolyline
 90
        9
 70
   128
 43
0.0
 10
56.3375567798
 20
27.721567624
 10
56.3374993866
 20
27.7126882312
 10
56.334544388
 20
27.7033945495
 10
56.3287091313
 20
27.6937411371
 10
56.3200278722
 20
27.6837846641
 10
56.3085515739
 20
27.6735835797
 10
56.2943476075
 20
27.6631977691
 10
56.2774993572
 20
27.6526882019
 10
56.2581057301
 20
27.6421165743
  0
LINE
  5
D8
330
1F
100
AcDbEntity
  8
0
  6
Continuous
 62
     7
370
    25
100
AcDbLine
 10
56.2994398135
 20
28.1982739224
 30
0.0
 11
56.2161064801
 21
28.1982739224
 31
0.0
  0
LWPOLYLINE
  5
D9
330
1F
100
AcDbEntity
  8
0
  6
Continuous
 62
     7
370
    25
100
AcDbPolyline
 90
        9
 70
   128
 43
0.0
 10
59.2994398135
 20
25.1982739224
 10
59.2994398135
 20
25.1969345693
 10
59.2994398135
 20
25.1929236858
 10
59.2994398135
 20
25.1862627596
 10
59.2994398135
 20
25.1769874762
 10
59.2994398135
 20
25.1651475271
 10
59.2994398135
 20
25.1508063436
 10
59.2994398135
 20
25.1340407576
 10
59.2994363804
 20
25.114940589
  0
LINE
  5
DA
330
1F
100
AcDbEntity
  8
0
  6
Continuous
 62
     7
370
    25
100
AcDbLine
 10
56.2994398135
 20
40.1982739224
 30
0.0
 11
56.2161064801
 21
40.1982739224
 31
0.0
  0
LINE
  5
DB
330
1F
100
AcDbEntity
  8
0
  6
Continuous
 62
     7
370
    25
100
AcDbLine
 10
71.2994398135
 20
25.114940589
 30
0.0
 11
71.2994398135
 21
25.1982739224
 31
0.0
  0
LINE
  5
DC
330
1F
100
AcDbEntity
  8
0
  6
Continuous
 62
     7
370
    25
100
AcDbLine
 10
58.8227335151
 20
25.2363908887
 30
0.0
 11
59.0592263395
 21
25.2090401755
 31
0.0
  0
LINE
  5
DD
330
1F
100
AcDbEntity
  8
0
  6
Continuous
 62
     8
370
    25
100
AcDbLine
 10
74.5494398135
 20
49.1634166972
 30
0.0
 11
52.0494398135
 21
49.1634166972
 31
0.0
  0
LINE
  5
DE
330
1F
100
AcDbEntity
  8
0
  6
Continuous
 62
     8
370
    25
100
AcDbLine
 10
53.4244398135
 20
46.9308453098
 30
0.0
 11
73.1744398135
 21
46.9308453098
 31
0.0
  0
LINE
  5
DF
330
1F
100
AcDbEntity
  8
0
  6
Continuous
 62
     8
370
    25
100
AcDbLine
 10
54.7994398135
 20
44.6982739224
 30
0.0
 11
71.7994398135
 21
44.6982739224
 31
0.0
  0
LINE
  5
E0
330
1F
100
AcDbEntity
  8
0
  6
Continuous
 62
     8
370
    25
100
AcDbLine
 10
75.7994398135
 20
40.6982739224
 30
0.0
 11
75.7994398135
 21
23.6982739224
 31
0.0
  0
SPLINE
  5
E1
330
1F
100
AcDbEntity
  8
0
  6
Continuous
 62
     8
370
    25
100
AcDbSpline
210
0.0
220
0.0
230
1.0
 70
    24
 71
     3
 72
    12
 73
     8
 74
     0
 42
0.000000001
 43
0.00000001
 40
-0.5788447217180464
 40
-0.5788447217180464
 40
-0.5788447217180464
 40
-0.5788447217180464
 40
-0.3728576618289314
 40
-0.3728576618289314
 40
-0.0432783660063474
 40
-0.0432783660063474
 40
0.0
 40
0.0
 40
0.0
 40
0.0
 10
71.79943981346447
 20
41.19827392235488
 30
0.0
 10
71.79943981346464
 20
41.19827392235507
 30
0.0
 10
71.73911805727133
 20
41.13440382756214
 30
0.0
 10
71.42875122270998
 20
40.80578012037952
 30
0.0
 10
71.08581613846789
 20
40.44267238412321
 30
0.0
 10
70.54669012247092
 20
39.87183307306759
 30
0.0
 10
70.4818009543207
 20
39.80312689502618
 30
0.0
 10
70.41467770343357
 20
39.73205521761628
 30
0.0
  0
SPLINE
  5
E2
330
1F
100
AcDbEntity
  8
0
  6
Continuous
 62
     8
370
    25
100
AcDbSpline
210
0.0
220
0.0
230
1.0
 70
     8
 71
     3
 72
    12
 73
     8
 74
     0
 42
0.000000001
 43
0.00000001
 40
0.0
 40
0.0
 40
0.0
 40
0.0
 40
0.0430206627346149
 40
0.0430206627346149
 40
0.3824319177041577
 40
0.3824319177041577
 40
0.594563952060122
 40
0.594563952060122
 40
0.594563952060122
 40
0.594563952060122
 10
56.25815692215404
 20
27.64211656102347
 30
0.0
 10
56.1898521134942
 20
27.59791903001863
 30
0.0
 10
56.12372639530025
 20
27.55513150867224
 30
0.0
 10
55.55593777850243
 20
27.18773636875041
 30
0.0
 10
55.19245047670025
 20
26.9525370930308
 30
0.0
 10
54.86342843054
 20
26.7396389920558
 30
0.0
 10
54.79943981372951
 20
26.69823429938861
 30
0.0
 10
54.79943981372951
 20
26.69823429938861
 30
0.0
  0
SPLINE
  5
E3
330
1F
100
AcDbEntity
  8
0
  6
Continuous
 62
     8
370
    25
100
AcDbSpline
210
0.0
220
0.0
230
1.0
 70
    24
 71
     3
 72
    12
 73
     8
 74
     0
 42
0.000000001
 43
0.00000001
 40
-0.5788447217180465
 40
-0.5788447217180465
 40
-0.5788447217180465
 40
-0.5788447217180465
 40
-0.535566355711699
 40
-0.535566355711699
 40
-0.205987059889115
 40
-0.205987059889115
 40
0.0
 40
0.0
 40
0.0
 40
0.0
 10
70.83322110872588
 20
39.31351181232398
 30
0.0
 10
70.90429278613577
 20
39.38063506321111
 30
0.0
 10
70.9729989641772
 20
39.44552423136133
 30
0.0
 10
71.54383827523279
 20
39.9846502473583
 30
0.0
 10
71.90694601148911
 20
40.32758533160037
 30
0.0
 10
72.23556971867173
 20
40.63795216616173
 30
0.0
 10
72.29943981346466
 20
40.69827392235506
 30
0.0
 10
72.29943981346447
 20
40.69827392235488
 30
0.0
  0
SPLINE
  5
E4
330
1F
100
AcDbEntity
  8
0
  6
Continuous
 62
     8
370
    25
100
AcDbSpline
210
0.0
220
0.0
230
1.0
 70
     8
 71
     3
 72
    12
 73
     8
 74
     0
 42
0.000000001
 43
0.00000001
 40
0.0
 40
0.0
 40
0.0
 40
0.0
 40
0.2121320343559643
 40
0.2121320343559643
 40
0.5515432893255071
 40
0.5515432893255071
 40
0.5945639520601226
 40
0.5945639520601226
 40
0.5945639520601226
 40
0.5945639520601226
 10
57.7994001904982
 20
23.69827392261992
 30
0.0
 10
57.7994001904982
 20
23.69827392261992
 30
0.0
 10
57.8408048831654
 20
23.7622625394304
 30
0.0
 10
58.05370298414039
 20
24.09128458559066
 30
0.0
 10
58.28890225986
 20
24.45477188739283
 30
0.0
 10
58.65629739978183
 20
25.02256050419065
 30
0.0
 10
58.69908492112822
 20
25.08868622238461
 30
0.0
 10
58.74328245213307
 20
25.15699103104446
 30
0.0
  0
LINE
  5
E5
330
1F
100
AcDbEntity
  8
0
  6
Continuous
 62
     7
370
    18
100
AcDbLine
 10
91.4342140909
 20
26.4487356185
 30
0.0
 11
80.2994398135
 21
26.1007739224
 31
0.0
  0
LINE
  5
E6
330
1F
100
AcDbEntity
  8
0
  6
Continuous
 62
     7
370
    18
100
AcDbLine
 10
91.4342140909
 20
37.9478122262
 30
0.0
 11
80.2994398135
 21
38.2957739224
 31
0.0
  0
LINE
  5
E7
330
1F
100
AcDbEntity
  8
0
  6
Continuous
 62
     7
370
    18
100
AcDbLine
 10
80.2994398135
 20
38.9639614224
 30
0.0
 11
80.2994398135
 21
25.4325864224
 31
0.0
  0
LINE
  5
E8
330
1F
100
AcDbEntity
  8
0
  6
CENTERX2
 62
     7
370
    18
100
AcDbLine
 10
63.2994398135
 20
61.6982739224
 30
0.0
 11
63.2994398135
 21
21.828277058
 31
0.0
  0
LINE
  5
E9
330
1F
100
AcDbEntity
  8
0
  6
CENTERX2
 62
     7
370
    18
100
AcDbLine
 10
63.2994398135
 20
39.6982739224
 30
0.0
 11
63.2994398135
 21
45.6982739224
 31
0.0
  0
LINE
  5
EA
330
1F
100
AcDbEntity
  8
0
  6
CENTERX2
 62
     7
370
    18
100
AcDbLine
 10
71.2994398135
 20
29.9952093739
 30
0.0
 11
71.2994398135
 21
25.0334365324
 31
0.0
  0
LINE
  5
EB
330
1F
100
AcDbEntity
  8
0
  6
CENTERX2
 62
     7
370
    18
100
AcDbLine
 10
90.2106521597
 20
32.1982739224
 30
0.0
 11
53.2795622719
 21
32.1982739224
 31
0.0
  0
LINE
  5
EC
330
1F
100
AcDbEntity
  8
0
  6
CENTERX2
 62
     7
370
    18
100
AcDbLine
 10
90.2106521597
 20
32.1982739224
 30
0.0
 11
93.2994398135
 21
32.1982739224
 31
0.0
  0
ARC
  5
ED
330
1F
100
AcDbEntity
  8
0
  6
Continuous
 62
     7
370
    25
100
AcDbCircle
 10
120.6842302978
 20
49.1634166972
 30
0.0
 40
2.5
100
AcDbArc
 50
296.7436839504
 51
0.0
  0
ARC
  5
EE
330
1F
100
AcDbEntity
  8
0
  6
Continuous
 62
     7
370
    25
100
AcDbCircle
 10
103.1842302978
 20
49.1634166972
 30
0.0
 40
2.5
100
AcDbArc
 50
180.0
 51
243.2563160496
  0
LINE
  5
EF
330
1F
100
AcDbEntity
  8
0
  6
Continuous
 62
     7
370
    25
100
AcDbLine
 10
123.1842302978
 20
49.1634166972
 30
0.0
 11
123.1842302978
 21
60.6982739224
 31
0.0
  0
LINE
  5
F0
330
1F
100
AcDbEntity
  8
0
  6
Continuous
 62
     7
370
    25
100
AcDbLine
 10
100.6842302978
 20
60.6982739224
 30
0.0
 11
100.6842302978
 21
49.1634166972
 31
0.0
  0
LINE
  5
F1
330
1F
100
AcDbEntity
  8
0
  6
Continuous
 62
     7
370
    25
100
AcDbLine
 10
123.1842302978
 20
60.6982739224
 30
0.0
 11
122.6842302978
 21
61.1982739224
 31
0.0
  0
LINE
  5
F2
330
1F
100
AcDbEntity
  8
0
  6
Continuous
 62
     7
370
    25
100
AcDbLine
 10
101.1842302978
 20
61.1982739224
 30
0.0
 11
100.6842302978
 21
60.6982739224
 31
0.0
  0
ARC
  5
F3
330
1F
100
AcDbEntity
  8
0
  6
Continuous
 62
     7
370
    25
100
AcDbCircle
 10
122.9342302978
 20
44.6982739224
 30
0.0
 40
2.5
100
AcDbArc
 50
116.7436839504
 51
180.0
  0
ARC
  5
F4
330
1F
100
AcDbEntity
  8
0
  6
Continuous
 62
     7
370
    25
100
AcDbCircle
 10
100.9342302978
 20
44.6982739224
 30
0.0
 40
2.5
100
AcDbArc
 50
0.0
 51
63.2563160496
  0
LINE
  5
F5
330
1F
100
AcDbEntity
  8
0
  6
Continuous
 62
     7
370
    25
100
AcDbLine
 10
103.4342302978
 20
44.6982739224
 30
0.0
 11
103.4342302978
 21
40.6982739224
 31
0.0
  0
LINE
  5
F6
330
1F
100
AcDbEntity
  8
0
  6
Continuous
 62
     7
370
    25
100
AcDbLine
 10
120.4342302978
 20
40.6982739224
 30
0.0
 11
120.4342302978
 21
44.6982739224
 31
0.0
  0
ARC
  5
F7
330
1F
100
AcDbEntity
  8
0
  6
Continuous
 62
     7
370
    25
100
AcDbCircle
 10
120.2342302978
 20
31.9065314919
 30
0.0
 40
0.5000000000000073
100
AcDbArc
 50
303.6822094396
 51
0.0
  0
ARC
  5
F8
330
1F
100
AcDbEntity
  8
0
  6
Continuous
 62
     7
370
    25
100
AcDbCircle
 10
120.2342302978
 20
32.4900163529
 30
0.0
 40
0.5000000000000014
100
AcDbArc
 50
0.0
 51
56.3177905604
  0
CIRCLE
  5
F9
330
1F
100
AcDbEntity
  8
0
  6
Continuous
 62
     7
370
    25
100
AcDbCircle
 10
111.9342302978
 20
32.1982739224
 30
0.0
 40
5.25
  0
CIRCLE
  5
FA
330
1F
100
AcDbEntity
  8
0
  6
Continuous
 62
     7
370
    25
100
AcDbCircle
 10
111.9342302978
 20
32.1982739224
 30
0.0
 40
6.4559621141801
  0
CIRCLE
  5
FB
330
1F
100
AcDbEntity
  8
0
  6
Continuous
 62
     7
370
    25
100
AcDbCircle
 10
111.9342302978
 20
32.1982739224
 30
0.0
 40
4.0
  0
CIRCLE
  5
FC
330
1F
100
AcDbEntity
  8
0
  6
Continuous
 62
     7
370
    25
100
AcDbCircle
 10
111.9342302978
 20
32.1982739224
 30
0.0
 40
4.500000000000014
  0
CIRCLE
  5
FD
330
1F
100
AcDbEntity
  8
0
  6
Continuous
 62
     7
370
    25
100
AcDbCircle
 10
111.9342302978
 20
32.1982739224
 30
0.0
 40
6.828187499999999
  0
CIRCLE
  5
FE
330
1F
100
AcDbEntity
  8
0
  6
Continuous
 62
     7
370
    25
100
AcDbCircle
 10
111.9342302978
 20
32.1982739224
 30
0.0
 40
8.606447852752826
  0
LINE
  5
FF
330
1F
100
AcDbEntity
  8
0
  6
Continuous
 62
     7
370
    25
100
AcDbLine
 10
123.1842302978
 20
60.6982739224
 30
0.0
 11
100.6842302978
 21
60.6982739224
 31
0.0
  0
LINE
  5
100
330
1F
100
AcDbEntity
  8
0
  6
Continuous
 62
     7
370
    25
100
AcDbLine
 10
101.1842302978
 20
61.1982739224
 30
0.0
 11
122.6842302978
 21
61.1982739224
 31
0.0
  0
SPLINE
  5
101
330
1F
100
AcDbEntity
  8
0
  6
Continuous
 62
     7
370
    25
100
AcDbSpline
210
0.0
220
0.0
230
1.0
 70
     8
 71
     3
 72
     9
 73
     5
 74
     0
 42
0.000000001
 43
0.00000001
 40
0.0
 40
0.0
 40
0.0
 40
0.0
 40
0.4791039127053955
 40
1.0
 40
1.0
 40
1.0
 40
1.0
 10
107.3780180716869
 20
39.49317054355914
 30
0.0
 10
107.3744916146214
 20
39.53089508480005
 30
0.0
 10
107.3671310880802
 20
39.60963487431228
 30
0.0
 10
107.3126945988481
 20
39.69021550038978
 30
0.0
 10
107.2843388446011
 20
39.7321896332253
 30
0.0
  0
SPLINE
  5
102
330
1F
100
AcDbEntity
  8
0
  6
Continuous
 62
     7
370
    25
100
AcDbSpline
210
0.0
220
0.0
230
1.0
 70
     8
 71
     3
 72
    19
 73
    15
 74
     0
 42
0.000000001
 43
0.00000001
 40
-0.5788447217180464
 40
-0.5788447217180464
 40
-0.5788447217180464
 40
-0.5788447217180464
 40
-0.535566355711699
 40
-0.535566355711699
 40
-0.205987059889115
 40
-0.205987059889115
 40
0.0
 40
0.0
 40
0.0
 40
0.2059870598891149
 40
0.2059870598891149
 40
0.535566355711699
 40
0.535566355711699
 40
0.5788447217180464
 40
0.5788447217180464
 40
0.5788447217180464
 40
0.5788447217180464
 10
116.584154996481
 20
39.73205521761628
 30
0.0
 10
116.4815453120818
 20
39.80312689502618
 30
0.0
 10
116.3774722586604
 20
39.87183307306759
 30
0.0
 10
115.4689638260108
 20
40.44267238412321
 30
0.0
 10
114.5868315496857
 20
40.80578012037952
 30
0.0
 10
113.1014728267936
 20
41.13440382756175
 30
0.0
 10
112.5178603008397
 20
41.19827392235488
 30
0.0
 10
111.9342302978206
 20
41.19827392235488
 30
0.0
 10
111.3506002948014
 20
41.19827392235488
 30
0.0
 10
110.7669877688475
 20
41.13440382756175
 30
0.0
 10
109.2816290459554
 20
40.80578012037952
 30
0.0
 10
108.3994967696303
 20
40.44267238412321
 30
0.0
 10
107.4909883369807
 20
39.87183307306759
 30
0.0
 10
107.3869152835593
 20
39.80312689502618
 30
0.0
 10
107.2843055991601
 20
39.73205521761628
 30
0.0
  0
SPLINE
  5
103
330
1F
100
AcDbEntity
  8
0
  6
Continuous
 62
     7
370
    25
100
AcDbSpline
210
0.0
220
0.0
230
1.0
 70
     8
 71
     3
 72
    10
 73
     6
 74
     0
 42
0.000000001
 43
0.00000001
 40
0.0
 40
0.0
 40
0.0
 40
0.0
 40
0.4754079216045154
 40
0.9508215275237623
 40
1.0
 40
1.0
 40
1.0
 40
1.0
 10
116.58412175104
 20
39.7321896332253
 30
0.0
 10
116.5584257217287
 20
39.69285484992197
 30
0.0
 10
116.507033355866
 20
39.61418481300071
 30
0.0
 10
116.4821637182276
 20
39.52379761009162
 30
0.0
 10
116.4910403505337
 20
39.48669547900159
 30
0.0
 10
116.4918725003803
 20
39.4832172981297
 30
0.0
  0
SPLINE
  5
104
330
1F
100
AcDbEntity
  8
0
  6
Continuous
 62
     7
370
    25
100
AcDbSpline
210
0.0
220
0.0
230
1.0
 70
    24
 71
     3
 72
     8
 73
     4
 74
     0
 42
0.000000001
 43
0.00000001
 40
0.0
 40
0.0
 40
0.0
 40
0.0
 40
1.0
 40
1.0
 40
1.0
 40
1.0
 10
119.9342302978206
 20
40.69827392235488
 30
0.0
 10
120.2642565514354
 20
40.69827392235488
 30
0.0
 10
120.4342302978206
 20
40.69827392235488
 30
0.0
 10
120.4342302978206
 20
40.69827392235488
 30
0.0
  0
LINE
  5
105
330
1F
100
AcDbEntity
  8
0
  6
Continuous
 62
     7
370
    25
100
AcDbLine
 10
116.7560556783
 20
40.1982739224
 30
0.0
 11
116.7560556783
 21
40.6982739224
 31
0.0
  0
SPLINE
  5
106
330
1F
100
AcDbEntity
  8
0
  6
Continuous
 62
     7
370
    25
100
AcDbSpline
210
0.0
220
0.0
230
1.0
 70
     8
 71
     3
 72
    10
 73
     6
 74
     0
 42
0.000000001
 43
0.00000001
 40
0.0
 40
0.0
 40
0.0
 40
0.0
 40
0.5000000000000023
 40
0.5000000000000023
 40
1.0
 40
1.0
 40
1.0
 40
1.0
 10
116.5842350107762
 20
39.73211815971403
 30
0.0
 10
116.6351599478362
 20
39.79528034085311
 30
0.0
 10
116.6781228823041
 20
39.86638442633312
 30
0.0
 10
116.7390168574599
 20
40.02462523590151
 30
0.0
 10
116.7560556783171
 20
40.11017820693056
 30
0.0
 10
116.7560556783171
 20
40.19827392235487
 30
0.0
  0
SPLINE
  5
107
330
1F
100
AcDbEntity
  8
0
  6
Continuous
 62
     7
370
    25
100
AcDbSpline
210
0.0
220
0.0
230
1.0
 70
     8
 71
     3
 72
     8
 73
     4
 74
     0
 42
0.000000001
 43
0.00000001
 40
0.0
 40
0.0
 40
0.0
 40
0.0
 40
1.0
 40
1.0
 40
1.0
 40
1.0
 10
107.1124049173241
 20
40.19827392235488
 30
0.0
 10
107.1124049173241
 20
40.02201901465277
 30
0.0
 10
107.1822802462395
 20
39.85856092658351
 30
0.0
 10
107.2842255848648
 20
39.73211815971389
 30
0.0
  0
LINE
  5
108
330
1F
100
AcDbEntity
  8
0
  6
Continuous
 62
     7
370
    25
100
AcDbLine
 10
107.1124049173
 20
40.6982739224
 30
0.0
 11
107.1124049173
 21
40.1982739224
 31
0.0
  0
SPLINE
  5
109
330
1F
100
AcDbEntity
  8
0
  6
Continuous
 62
     7
370
    25
100
AcDbSpline
210
0.0
220
0.0
230
1.0
 70
    24
 71
     3
 72
     8
 73
     4
 74
     0
 42
0.000000001
 43
0.00000001
 40
0.0
 40
0.0
 40
0.0
 40
0.0
 40
1.0
 40
1.0
 40
1.0
 40
1.0
 10
103.4342302978206
 20
40.69827392235488
 30
0.0
 10
103.4342302978206
 20
40.69827392235488
 30
0.0
 10
103.6042040442057
 20
40.69827392235488
 30
0.0
 10
103.9342302978206
 20
40.69827392235488
 30
0.0
  0
LINE
  5
10A
330
1F
100
AcDbEntity
  8
0
  6
Continuous
 62
     7
370
    25
100
AcDbLine
 10
119.9342302978
 20
38.6982739224
 30
0.0
 11
120.4342302978
 21
38.6982739224
 31
0.0
  0
LINE
  5
10B
330
1F
100
AcDbEntity
  8
0
  6
Continuous
 62
     7
370
    25
100
AcDbLine
 10
120.4342302978
 20
35.0705552456
 30
0.0
 11
120.4342302978
 21
38.6982739224
 31
0.0
  0
LINE
  5
10C
330
1F
100
AcDbEntity
  8
0
  6
Continuous
 62
     7
370
    25
100
AcDbLine
 10
103.4342302978
 20
25.6982739224
 30
0.0
 11
103.9342302978
 21
25.6982739224
 31
0.0
  0
LINE
  5
10D
330
1F
100
AcDbEntity
  8
0
  6
Continuous
 62
     7
370
    25
100
AcDbLine
 10
103.4342302978
 20
29.3259925991
 30
0.0
 11
103.4342302978
 21
25.6982739224
 31
0.0
  0
LINE
  5
10E
330
1F
100
AcDbEntity
  8
0
  6
Continuous
 62
     7
370
    25
100
AcDbLine
 10
119.9342302978
 20
25.6982739224
 30
0.0
 11
120.4342302978
 21
25.6982739224
 31
0.0
  0
LINE
  5
10F
330
1F
100
AcDbEntity
  8
0
  6
Continuous
 62
     7
370
    25
100
AcDbLine
 10
120.4342302978
 20
25.6982739224
 30
0.0
 11
120.4342302978
 21
29.3259925991
 31
0.0
  0
LINE
  5
110
330
1F
100
AcDbEntity
  8
0
  6
Continuous
 62
     7
370
    25
100
AcDbLine
 10
103.4342302978
 20
38.6982739224
 30
0.0
 11
103.9342302978
 21
38.6982739224
 31
0.0
  0
LINE
  5
111
330
1F
100
AcDbEntity
  8
0
  6
Continuous
 62
     7
370
    25
100
AcDbLine
 10
103.4342302978
 20
38.6982739224
 30
0.0
 11
103.4342302978
 21
35.0705552456
 31
0.0
  0
SPLINE
  5
112
330
1F
100
AcDbEntity
  8
0
  6
Continuous
 62
     7
370
    25
100
AcDbSpline
210
0.0
220
0.0
230
1.0
 70
    24
 71
     3
 72
    10
 73
     6
 74
     0
 42
0.000000001
 43
0.00000001
 40
0.0
 40
0.0
 40
0.0
 40
0.0
 40
0.4882009735755247
 40
0.9786740635525459
 40
1.0
 40
1.0
 40
1.0
 40
1.0
 10
120.4342302978206
 20
29.32599259908586
 30
0.0
 10
120.4342302978206
 20
29.59730190321409
 30
0.0
 10
120.4342302978206
 20
30.14118320112739
 30
0.0
 10
120.4342302978206
 20
30.69022332889621
 30
0.0
 10
120.4342302978206
 20
30.96713846515208
 30
0.0
 10
120.4342302978206
 20
30.97867712445431
 30
0.0
  0
SPLINE
  5
113
330
1F
100
AcDbEntity
  8
0
  6
Continuous
 62
     7
370
    25
100
AcDbSpline
210
0.0
220
0.0
230
1.0
 70
    24
 71
     3
 72
    10
 73
     6
 74
     0
 42
0.000000001
 43
0.00000001
 40
0.0
 40
0.0
 40
0.0
 40
0.0
 40
0.2348716819561859
 40
0.6179737760815448
 40
1.0
 40
1.0
 40
1.0
 40
1.0
 10
120.4342302978206
 20
33.41222550009697
 30
0.0
 10
120.4342302978206
 20
33.54033093168785
 30
0.0
 10
120.4342302978205
 20
33.87739071104232
 30
0.0
 10
120.4342302978206
 20
34.42998127312902
 30
0.0
 10
120.4342302978206
 20
34.85723084433262
 30
0.0
 10
120.4342302978206
 20
35.07055524562389
 30
0.0
  0
SPLINE
  5
114
330
1F
100
AcDbEntity
  8
0
  6
Continuous
 62
     7
370
    25
100
AcDbSpline
210
0.0
220
0.0
230
1.0
 70
    24
 71
     3
 72
     9
 73
     5
 74
     0
 42
0.000000001
 43
0.00000001
 40
0.0
 40
0.0
 40
0.0
 40
0.0
 40
0.4991606411430365
 40
1.0
 40
1.0
 40
1.0
 40
1.0
 10
103.4342302978206
 20
35.07055524562389
 30
0.0
 10
103.4342302978206
 20
34.79893507073268
 30
0.0
 10
103.4342302978206
 20
34.25478124027595
 30
0.0
 10
103.4342302978206
 20
33.72091194652565
 30
0.0
 10
103.4342302978206
 20
33.45352919173033
 30
0.0
  0
SPLINE
  5
115
330
1F
100
AcDbEntity
  8
0
  6
Continuous
 62
     7
370
    25
100
AcDbSpline
210
0.0
220
0.0
230
1.0
 70
    24
 71
     3
 72
    10
 73
     6
 74
     0
 42
0.000000001
 43
0.00000001
 40
0.0
 40
0.0
 40
0.0
 40
0.0
 40
0.228202045130664
 40
0.6146436468585306
 40
1.0
 40
1.0
 40
1.0
 40
1.0
 10
103.4342302978206
 20
30.97015858013253
 30
0.0
 10
103.4342302978206
 20
30.8467620513264
 30
0.0
 10
103.4342302978206
 20
30.51440353792371
 30
0.0
 10
103.4342302978206
 20
29.96656004592688
 30
0.0
 10
103.4342302978206
 20
29.53931482719919
 30
0.0
 10
103.4342302978206
 20
29.32599259908586
 30
0.0
  0
LINE
  5
116
330
1F
100
AcDbEntity
  8
0
  6
Continuous
 62
     7
370
    25
100
AcDbLine
 10
119.9342302978
 20
25.1982739224
 30
0.0
 11
119.9342302978
 21
25.6982739224
 31
0.0
  0
LINE
  5
117
330
1F
100
AcDbEntity
  8
0
  6
Continuous
 62
     7
370
    25
100
AcDbLine
 10
119.9342302978
 20
25.1982739224
 30
0.0
 11
116.941319736
 21
25.1982739224
 31
0.0
  0
ARC
  5
118
330
1F
100
AcDbEntity
  8
0
  6
Continuous
 62
     7
370
    25
100
AcDbCircle
 10
119.9342302978
 20
38.6982739224
 30
0.0
 40
0.5
100
AcDbArc
 50
0.0
 51
90.0
  0
LINE
  5
119
330
1F
100
AcDbEntity
  8
0
  6
Continuous
 62
     7
370
    25
100
AcDbLine
 10
119.9342302978
 20
39.1982739224
 30
0.0
 11
119.9342302978
 21
38.6982739224
 31
0.0
  0
ARC
  5
11A
330
1F
100
AcDbEntity
  8
0
  6
Continuous
 62
     7
370
    25
100
AcDbCircle
 10
119.9342302978
 20
25.6982739224
 30
0.0
 40
0.5
100
AcDbArc
 50
270.0
 51
0.0
  0
LINE
  5
11B
330
1F
100
AcDbEntity
  8
0
  6
Continuous
 62
     7
370
    25
100
AcDbLine
 10
116.941319736
 20
39.1982739224
 30
0.0
 11
119.9342302978
 21
39.1982739224
 31
0.0
  0
LINE
  5
11C
330
1F
100
AcDbEntity
  8
0
  6
Continuous
 62
     7
370
    25
100
AcDbLine
 10
106.9271408596
 20
25.1982739224
 30
0.0
 11
103.9342302978
 21
25.1982739224
 31
0.0
  0
LINE
  5
11D
330
1F
100
AcDbEntity
  8
0
  6
Continuous
 62
     7
370
    25
100
AcDbLine
 10
103.9342302978
 20
25.6982739224
 30
0.0
 11
103.9342302978
 21
25.1982739224
 31
0.0
  0
LINE
  5
11E
330
1F
100
AcDbEntity
  8
0
  6
Continuous
 62
     7
370
    25
100
AcDbLine
 10
103.9342302978
 20
39.1982739224
 30
0.0
 11
103.9342302978
 21
38.6982739224
 31
0.0
  0
LINE
  5
11F
330
1F
100
AcDbEntity
  8
0
  6
Continuous
 62
     7
370
    25
100
AcDbLine
 10
103.9342302978
 20
39.1982739224
 30
0.0
 11
106.9271408596
 21
39.1982739224
 31
0.0
  0
ARC
  5
120
330
1F
100
AcDbEntity
  8
0
  6
Continuous
 62
     7
370
    25
100
AcDbCircle
 10
103.9342302978
 20
25.6982739224
 30
0.0
 40
0.5
100
AcDbArc
 50
180.0
 51
270.0
  0
ARC
  5
121
330
1F
100
AcDbEntity
  8
0
  6
Continuous
 62
     7
370
    25
100
AcDbCircle
 10
103.9342302978
 20
38.6982739224
 30
0.0
 40
0.5
100
AcDbArc
 50
90.0
 51
180.0
  0
LINE
  5
122
330
1F
100
AcDbEntity
  8
0
  6
Continuous
 62
     7
370
    25
100
AcDbLine
 10
119.9342302978
 20
40.1982739224
 30
0.0
 11
116.7560556783
 21
40.1982739224
 31
0.0
  0
LINE
  5
123
330
1F
100
AcDbEntity
  8
0
  6
Continuous
 62
     7
370
    25
100
AcDbLine
 10
119.9342302978
 20
40.1982739224
 30
0.0
 11
119.9342302978
 21
39.1982739224
 31
0.0
  0
LINE
  5
124
330
1F
100
AcDbEntity
  8
0
  6
Continuous
 62
     7
370
    25
100
AcDbLine
 10
107.1124049173
 20
40.1982739224
 30
0.0
 11
103.9342302978
 21
40.1982739224
 31
0.0
  0
LINE
  5
125
330
1F
100
AcDbEntity
  8
0
  6
Continuous
 62
     7
370
    25
100
AcDbLine
 10
103.9342302978
 20
39.1982739224
 30
0.0
 11
103.9342302978
 21
40.1982739224
 31
0.0
  0
LINE
  5
126
330
1F
100
AcDbEntity
  8
0
  6
Continuous
 62
     7
370
    25
100
AcDbLine
 10
120.4342302978
 20
40.1982739224
 30
0.0
 11
119.9342302978
 21
40.1982739224
 31
0.0
  0
LINE
  5
127
330
1F
100
AcDbEntity
  8
0
  6
Continuous
 62
     7
370
    25
100
AcDbLine
 10
120.4342302978
 20
38.6982739224
 30
0.0
 11
120.4342302978
 21
40.1982739224
 31
0.0
  0
LINE
  5
128
330
1F
100
AcDbEntity
  8
0
  6
Continuous
 62
     7
370
    25
100
AcDbLine
 10
103.4342302978
 20
40.1982739224
 30
0.0
 11
103.9342302978
 21
40.1982739224
 31
0.0
  0
LINE
  5
129
330
1F
100
AcDbEntity
  8
0
  6
Continuous
 62
     7
370
    25
100
AcDbLine
 10
103.4342302978
 20
40.1982739224
 30
0.0
 11
103.4342302978
 21
38.6982739224
 31
0.0
  0
LINE
  5
12A
330
1F
100
AcDbEntity
  8
0
  6
Continuous
 62
     7
370
    25
100
AcDbLine
 10
119.9342302978
 20
40.6982739224
 30
0.0
 11
119.9342302978
 21
40.1982739224
 31
0.0
  0
ARC
  5
12B
330
1F
100
AcDbEntity
  8
0
  6
Continuous
 62
     7
370
    25
100
AcDbCircle
 10
119.9342302978
 20
40.1982739224
 30
0.0
 40
0.5
100
AcDbArc
 50
0.0
 51
90.0
  0
LINE
  5
12C
330
1F
100
AcDbEntity
  8
0
  6
Continuous
 62
     7
370
    25
100
AcDbLine
 10
119.9342302978
 20
40.6982739224
 30
0.0
 11
116.7560556783
 21
40.6982739224
 31
0.0
  0
LINE
  5
12D
330
1F
100
AcDbEntity
  8
0
  6
Continuous
 62
     7
370
    25
100
AcDbLine
 10
103.9342302978
 20
40.1982739224
 30
0.0
 11
103.9342302978
 21
40.6982739224
 31
0.0
  0
LINE
  5
12E
330
1F
100
AcDbEntity
  8
0
  6
Continuous
 62
     7
370
    25
100
AcDbLine
 10
107.1124049173
 20
40.6982739224
 30
0.0
 11
103.9342302978
 21
40.6982739224
 31
0.0
  0
ARC
  5
12F
330
1F
100
AcDbEntity
  8
0
  6
Continuous
 62
     7
370
    25
100
AcDbCircle
 10
103.9342302978
 20
40.1982739224
 30
0.0
 40
0.5
100
AcDbArc
 50
90.0
 51
180.0
  0
LINE
  5
130
330
1F
100
AcDbEntity
  8
0
  6
Continuous
 62
     7
370
    25
100
AcDbLine
 10
115.807213644
 20
31.1982739224
 30
0.0
 11
108.0612469516
 21
31.1982739224
 31
0.0
  0
SPLINE
  5
131
330
1F
100
AcDbEntity
  8
0
  6
Continuous
 62
     7
370
    25
100
AcDbSpline
210
0.0
220
0.0
230
1.0
 70
     8
 71
     3
 72
    20
 73
    16
 74
     0
 42
0.000000001
 43
0.00000001
 40
0.0
 40
0.0
 40
0.0
 40
0.0
 40
0.2499999999999998
 40
0.2499999999999998
 40
0.3749999999999998
 40
0.3749999999999998
 40
0.4999999999999999
 40
0.4999999999999999
 40
0.5624999999999999
 40
0.5624999999999999
 40
0.6249999999999998
 40
0.6249999999999998
 40
0.7499999999999998
 40
0.7499999999999998
 40
1.0
 40
1.0
 40
1.0
 40
1.0
 10
108.3449405337691
 20
30.43277144722913
 30
0.0
 10
108.8914322885828
 20
30.1519593865665
 30
0.0
 10
109.4526679894849
 20
29.88540584342077
 30
0.0
 10
110.3365817648021
 20
29.52038034881842
 30
0.0
 10
110.6379698834166
 20
29.40322208813111
 30
0.0
 10
111.265403246811
 20
29.20830909527737
 30
0.0
 10
111.5862497234859
 20
29.13450613110852
 30
0.0
 10
112.080651165692
 20
29.1307069106181
 30
0.0
 10
112.2463007231183
 20
29.14741041822965
 30
0.0
 10
112.5687662536896
 20
29.20634633097287
 30
0.0
 10
112.7275102252028
 20
29.24798616683899
 30
0.0
 10
113.1999025415899
 20
29.39196629565825
 30
0.0
 10
113.5060342250039
 20
29.51021632390663
 30
0.0
 10
114.4008194748483
 20
29.87825939362174
 30
0.0
 10
114.9731051294431
 20
30.14994348132957
 30
0.0
 10
115.523520061872
 20
30.43277144722913
 30
0.0
  0
SPLINE
  5
132
330
1F
100
AcDbEntity
  8
0
  6
Continuous
 62
     7
370
    25
100
AcDbSpline
210
0.0
220
0.0
230
1.0
 70
    24
 71
     3
 72
    10
 73
     6
 74
     0
 42
0.000000001
 43
0.00000001
 40
-0.2904940295525327
 40
-0.2904940295525327
 40
-0.2904940295525327
 40
-0.2904940295525327
 40
-0.130307291676468
 40
-0.130307291676468
 40
0.0010563446871674
 40
0.0010563446871674
 40
0.0010563446871674
 40
0.0010563446871674
 10
103.4342302978206
 20
40.69827392235488
 30
0.0
 10
103.4342302978206
 20
40.56877062037333
 30
0.0
 10
103.4342302978206
 20
40.43697961798721
 30
0.0
 10
103.4342302978206
 20
40.25855568899028
 30
0.0
 10
103.4342302978206
 20
40.19827392235488
 30
0.0
 10
103.4342302978206
 20
40.19827392235488
 30
0.0
  0
SPLINE
  5
133
330
1F
100
AcDbEntity
  8
0
  6
Continuous
 62
     7
370
    25
100
AcDbSpline
210
0.0
220
0.0
230
1.0
 70
    24
 71
     3
 72
    10
 73
     6
 74
     0
 42
0.000000001
 43
0.00000001
 40
-0.8711658249912583
 40
-0.8711658249912583
 40
-0.8711658249912583
 40
-0.8711658249912583
 40
-0.7398021886276228
 40
-0.7398021886276228
 40
-0.5796154507864709
 40
-0.5796154507864709
 40
-0.5796154507864709
 40
-0.5796154507864709
 10
120.4342302978206
 20
40.19827392235488
 30
0.0
 10
120.4342302978206
 20
40.19827392235488
 30
0.0
 10
120.4342302978206
 20
40.25855568899028
 30
0.0
 10
120.4342302978206
 20
40.43697961796585
 30
0.0
 10
120.4342302978206
 20
40.56877062040155
 30
0.0
 10
120.4342302978206
 20
40.69827392235488
 30
0.0
  0
LINE
  5
134
330
1F
100
AcDbEntity
  8
0
  6
Continuous
 62
     7
370
    25
100
AcDbLine
 10
120.7342302978
 20
32.4900163529
 30
0.0
 11
120.7342302978
 21
31.9065314919
 31
0.0
  0
LINE
  5
135
330
1F
100
AcDbEntity
  8
0
  6
Continuous
 62
     8
370
    25
100
AcDbLine
 10
123.1842302978
 20
49.1634166972
 30
0.0
 11
100.6842302978
 21
49.1634166972
 31
0.0
  0
LINE
  5
136
330
1F
100
AcDbEntity
  8
0
  6
Continuous
 62
     8
370
    25
100
AcDbLine
 10
111.9342302978
 20
46.9308453098
 30
0.0
 11
121.8092302978
 21
46.9308453098
 31
0.0
  0
LINE
  5
137
330
1F
100
AcDbEntity
  8
0
  6
Continuous
 62
     8
370
    25
100
AcDbLine
 10
102.0592302978
 20
46.9308453098
 30
0.0
 11
111.9342302978
 21
46.9308453098
 31
0.0
  0
LINE
  5
138
330
1F
100
AcDbEntity
  8
0
  6
Continuous
 62
     8
370
    25
100
AcDbLine
 10
111.9342302978
 20
44.6982739224
 30
0.0
 11
120.4342302978
 21
44.6982739224
 31
0.0
  0
LINE
  5
139
330
1F
100
AcDbEntity
  8
0
  6
Continuous
 62
     8
370
    25
100
AcDbLine
 10
103.4342302978
 20
44.6982739224
 30
0.0
 11
111.9342302978
 21
44.6982739224
 31
0.0
  0
SPLINE
  5
13A
330
1F
100
AcDbEntity
  8
0
  6
Continuous
 62
     8
370
    25
100
AcDbSpline
210
0.0
220
0.0
230
1.0
 70
    24
 71
     3
 72
    11
 73
     7
 74
     0
 42
0.000000001
 43
0.00000001
 40
0.0
 40
0.0
 40
0.0
 40
0.0
 40
0.1295413688117105
 40
0.4196942458744738
 40
0.7098471229372371
 40
1.0
 40
1.0
 40
1.0
 40
1.0
 10
120.04014577913
 20
35.07055524562389
 30
0.0
 10
120.0691136393636
 20
35.07055524562389
 30
0.0
 10
120.1629650813151
 20
35.07055524562389
 30
0.0
 10
120.2954722334458
 20
35.07055524562389
 30
0.0
 10
120.4118294632977
 20
35.07055524562389
 30
0.0
 10
120.4267633529796
 20
35.07055524562389
 30
0.0
 10
120.4342302978206
 20
35.07055524562389
 30
0.0
  0
LINE
  5
13B
330
1F
100
AcDbEntity
  8
0
  6
Continuous
 62
     8
370
    25
100
AcDbLine
 10
119.9342302978
 20
38.6982739224
 30
0.0
 11
119.9342302978
 21
35.3717490904
 31
0.0
  0
LINE
  5
13C
330
1F
100
AcDbEntity
  8
0
  6
Continuous
 62
     8
370
    25
100
AcDbLine
 10
117.5752359389
 20
38.6982739224
 30
0.0
 11
119.9342302978
 21
38.6982739224
 31
0.0
  0
LINE
  5
13D
330
1F
100
AcDbEntity
  8
0
  6
Continuous
 62
     8
370
    25
100
AcDbLine
 10
103.9342302978
 20
25.6982739224
 30
0.0
 11
106.2932246568
 21
25.6982739224
 31
0.0
  0
LINE
  5
13E
330
1F
100
AcDbEntity
  8
0
  6
Continuous
 62
     8
370
    25
100
AcDbLine
 10
103.9342302978
 20
25.6982739224
 30
0.0
 11
103.9342302978
 21
29.0247987543
 31
0.0
  0
SPLINE
  5
13F
330
1F
100
AcDbEntity
  8
0
  6
Continuous
 62
     8
370
    25
100
AcDbSpline
210
0.0
220
0.0
230
1.0
 70
    24
 71
     3
 72
    11
 73
     7
 74
     0
 42
0.000000001
 43
0.00000001
 40
0.0
 40
0.0
 40
0.0
 40
0.0
 40
0.1399256456646928
 40
0.4266170971097953
 40
0.7133085485548978
 40
1.0
 40
1.0
 40
1.0
 40
1.0
 10
103.8362768324717
 20
29.32599259908586
 30
0.0
 10
103.8045769700893
 20
29.32599259908586
 30
0.0
 10
103.7079277589735
 20
29.32599259908586
 30
0.0
 10
103.572927654181
 20
29.32599259908586
 30
0.0
 10
103.456646309347
 20
29.32599259908586
 30
0.0
 10
103.4417023016627
 20
29.32599259908586
 30
0.0
 10
103.4342302978206
 20
29.32599259908586
 30
0.0
  0
SPLINE
  5
140
330
1F
100
AcDbEntity
  8
0
  6
Continuous
 62
     8
370
    25
100
AcDbSpline
210
0.0
220
0.0
230
1.0
 70
    24
 71
     3
 72
    11
 73
     7
 74
     0
 42
0.000000001
 43
0.00000001
 40
0.0
 40
0.0
 40
0.0
 40
0.0
 40
0.2916167335771408
 40
0.5832334671542819
 40
0.8748502007314231
 40
1.0
 40
1.0
 40
1.0
 40
1.0
 10
120.4342302978206
 20
29.32599259908586
 30
0.0
 10
120.4267655519493
 20
29.32599259908586
 30
0.0
 10
120.4118360602066
 20
29.32599259908586
 30
0.0
 10
120.2954458458101
 20
29.32599259908586
 30
0.0
 10
120.1639772301967
 20
29.32599259908586
 30
0.0
 10
120.0712891628173
 20
29.32599259908586
 30
0.0
 10
120.0434560905504
 20
29.32599259908586
 30
0.0
  0
LINE
  5
141
330
1F
100
AcDbEntity
  8
0
  6
Continuous
 62
     8
370
    25
100
AcDbLine
 10
119.9342302978
 20
29.0247987543
 30
0.0
 11
119.9342302978
 21
25.6982739224
 31
0.0
  0
LINE
  5
142
330
1F
100
AcDbEntity
  8
0
  6
Continuous
 62
     8
370
    25
100
AcDbLine
 10
117.5752359389
 20
25.6982739224
 30
0.0
 11
119.9342302978
 21
25.6982739224
 31
0.0
  0
LINE
  5
143
330
1F
100
AcDbEntity
  8
0
  6
Continuous
 62
     8
370
    25
100
AcDbLine
 10
103.9342302978
 20
35.3717490904
 30
0.0
 11
103.9342302978
 21
38.6982739224
 31
0.0
  0
LINE
  5
144
330
1F
100
AcDbEntity
  8
0
  6
Continuous
 62
     8
370
    25
100
AcDbLine
 10
103.9342302978
 20
38.6982739224
 30
0.0
 11
106.2932246568
 21
38.6982739224
 31
0.0
  0
SPLINE
  5
145
330
1F
100
AcDbEntity
  8
0
  6
Continuous
 62
     8
370
    25
100
AcDbSpline
210
0.0
220
0.0
230
1.0
 70
    24
 71
     3
 72
    11
 73
     7
 74
     0
 42
0.000000001
 43
0.00000001
 40
0.0
 40
0.0
 40
0.0
 40
0.0
 40
0.2875557090656566
 40
0.5751114181313136
 40
0.8626671271969706
 40
1.0
 40
1.0
 40
1.0
 40
1.0
 10
103.4342302978206
 20
35.07055524562389
 30
0.0
 10
103.4417010566237
 20
35.07055524562389
 30
0.0
 10
103.4566425742301
 20
35.07055524562389
 30
0.0
 10
103.5729425946486
 20
35.07055524562389
 30
0.0
 10
103.7073152663016
 20
35.07055524562389
 30
0.0
 10
103.8032596651428
 20
35.07055524562389
 30
0.0
 10
103.8342709007573
 20
35.07055524562389
 30
0.0
  0
INSERT
  5
151
330
1F
100
AcDbEntity
  8
0
  6
Continuous
 62
     7
370
    18
100
AcDbBlockReference
  2
SW_CENTERMARKSYMBOL_0
 10
111.9342302978
 20
32.1982739224
 30
0.0
  0
ARC
  5
152
330
1F
100
AcDbEntity
  8
0
  6
Continuous
 62
     7
370
    18
100
AcDbCircle
 10
111.9342302978
 20
32.1982739224
 30
0.0
 40
5.722499999999997
100
AcDbArc
 50
75.0
 51
345.0
  0
LINE
  5
153
330
1F
100
AcDbEntity
  8
0
  6
Continuous
 62
     7
370
    25
100
AcDbLine
 10
76.5211794607
 20
77.6705915604
 30
0.0
 11
78.2994398135
 21
79.4488519132
 31
0.0
  0
LINE
  5
154
330
1F
100
AcDbEntity
  8
0
  6
Continuous
 62
     7
370
    25
100
AcDbLine
 10
78.2994398135
 20
93.1052269132
 30
0.0
 11
76.5211794607
 21
94.8834872659
 31
0.0
  0
ARC
  5
155
330
1F
100
AcDbEntity
  8
0
  6
Continuous
 62
     7
370
    25
100
AcDbCircle
 10
75.7994398135
 20
75.2770394132
 30
0.0
 40
2.5
100
AcDbArc
 50
73.2201049003
 51
90.0
  0
ARC
  5
156
330
1F
100
AcDbEntity
  8
0
  6
Continuous
 62
     7
370
    25
100
AcDbCircle
 10
75.7994398135
 20
97.2770394132
 30
0.0
 40
2.5
100
AcDbArc
 50
270.0
 51
286.7798950997
  0
LINE
  5
157
330
1F
100
AcDbEntity
  8
0
  6
Continuous
 62
     7
370
    25
100
AcDbLine
 10
75.7994398135
 20
94.7770394132
 30
0.0
 11
73.5494398135
 21
94.7770394132
 31
0.0
  0
LINE
  5
158
330
1F
100
AcDbEntity
  8
0
  6
Continuous
 62
     7
370
    25
100
AcDbLine
 10
72.0494398135
 20
94.7770394132
 30
0.0
 11
71.7994398135
 21
94.7770394132
 31
0.0
  0
LINE
  5
159
330
1F
100
AcDbEntity
  8
0
  6
Continuous
 62
     7
370
    25
100
AcDbLine
 10
71.7994398135
 20
77.7770394132
 30
0.0
 11
75.7994398135
 21
77.7770394132
 31
0.0
  0
LINE
  5
15A
330
1F
100
AcDbEntity
  8
0
  6
Continuous
 62
     7
370
    25
100
AcDbLine
 10
78.2994398135
 20
79.4488519132
 30
0.0
 11
90.2106521597
 21
79.821077299
 31
0.0
  0
LINE
  5
15B
330
1F
100
AcDbEntity
  8
0
  6
Continuous
 62
     7
370
    25
100
AcDbLine
 10
90.2106521597
 20
92.7330015274
 30
0.0
 11
78.2994398135
 21
93.1052269132
 31
0.0
  0
LINE
  5
15C
330
1F
100
AcDbEntity
  8
0
  6
Continuous
 62
     7
370
    25
100
AcDbLine
 10
90.2106521597
 20
79.821077299
 30
0.0
 11
92.2994398135
 21
81.0270394132
 31
0.0
  0
LINE
  5
15D
330
1F
100
AcDbEntity
  8
0
  6
Continuous
 62
     7
370
    25
100
AcDbLine
 10
92.2994398135
 20
91.5270394132
 30
0.0
 11
90.2106521597
 21
92.7330015274
 31
0.0
  0
ARC
  5
15E
330
1F
100
AcDbEntity
  8
0
  6
Continuous
 62
     7
370
    25
100
AcDbCircle
 10
73.091182244
 20
94.5770394132
 30
0.0
 40
0.5000000000000163
100
AcDbArc
 50
23.5781784782
 51
90.0
  0
ARC
  5
15F
330
1F
100
AcDbEntity
  8
0
  6
Continuous
 62
     7
370
    25
100
AcDbCircle
 10
72.507697383
 20
94.5770394132
 30
0.0
 40
0.5
100
AcDbArc
 50
90.0
 51
156.4218215218
  0
CIRCLE
  5
160
330
1F
100
AcDbEntity
  8
0
  6
Continuous
 62
     7
370
    25
100
AcDbCircle
 10
63.2994398135
 20
86.2770394132
 30
0.0
 40
8.500000000000014
  0
CIRCLE
  5
161
330
1F
100
AcDbEntity
  8
0
  6
Continuous
 62
     7
370
    25
100
AcDbCircle
 10
63.2994398135
 20
86.2770394132
 30
0.0
 40
10.75
  0
CIRCLE
  5
162
330
1F
100
AcDbEntity
  8
0
  6
Continuous
 62
     7
370
    25
100
AcDbCircle
 10
63.2994398135
 20
86.2770394132
 30
0.0
 40
11.25000000000001
  0
CIRCLE
  5
163
330
1F
100
AcDbEntity
  8
0
  6
Continuous
 62
     7
370
    25
100
AcDbCircle
 10
63.2994398135
 20
86.2770394132
 30
0.0
 40
7.872175816270385
  0
CIRCLE
  5
164
330
1F
100
AcDbEntity
  8
0
  6
Continuous
 62
     7
370
    25
100
AcDbCircle
 10
63.2994398135
 20
86.2770394132
 30
0.0
 40
7.547130357748898
  0
CIRCLE
  5
165
330
1F
100
AcDbEntity
  8
0
  6
Continuous
 62
     7
370
    25
100
AcDbCircle
 10
63.2994398135
 20
86.2770394132
 30
0.0
 40
7.475000000000009
  0
CIRCLE
  5
166
330
1F
100
AcDbEntity
  8
0
  6
Continuous
 62
     7
370
    25
100
AcDbCircle
 10
63.2994398135
 20
86.2770394132
 30
0.0
 40
4.999999999999986
  0
LINE
  5
167
330
1F
100
AcDbEntity
  8
0
  6
Continuous
 62
     7
370
    25
100
AcDbLine
 10
76.5211794607
 20
94.8834872659
 30
0.0
 11
76.5211794607
 21
77.6705915604
 31
0.0
  0
LINE
  5
168
330
1F
100
AcDbEntity
  8
0
  6
Continuous
 62
     7
370
    25
100
AcDbLine
 10
78.2994398135
 20
86.2770394132
 30
0.0
 11
78.2994398135
 21
79.4488519132
 31
0.0
  0
LINE
  5
169
330
1F
100
AcDbEntity
  8
0
  6
Continuous
 62
     7
370
    25
100
AcDbLine
 10
78.2994398135
 20
93.1052269132
 30
0.0
 11
78.2994398135
 21
86.2770394132
 31
0.0
  0
SPLINE
  5
16A
330
1F
100
AcDbEntity
  8
0
  6
Continuous
 62
     7
370
    25
100
AcDbSpline
210
0.0
220
0.0
230
1.0
 70
    24
 71
     3
 72
     8
 73
     4
 74
     0
 42
0.000000001
 43
0.00000001
 40
0.0
 40
0.0
 40
0.0
 40
0.0
 40
1.0
 40
1.0
 40
1.0
 40
1.0
 10
71.79943981346447
 20
78.27703941317104
 30
0.0
 10
71.79943981346447
 20
77.94701315955623
 30
0.0
 10
71.79943981346447
 20
77.77703941317104
 30
0.0
 10
71.79943981346447
 20
77.77703941317104
 30
0.0
  0
SPLINE
  5
16B
330
1F
100
AcDbEntity
  8
0
  6
Continuous
 62
     7
370
    25
100
AcDbSpline
210
0.0
220
0.0
230
1.0
 70
    24
 71
     3
 72
     8
 73
     4
 74
     0
 42
0.000000001
 43
0.00000001
 40
0.0
 40
0.0
 40
0.0
 40
0.0
 40
1.0
 40
1.0
 40
1.0
 40
1.0
 10
71.79943981346447
 20
94.77703941317105
 30
0.0
 10
71.79943981346447
 20
94.77703941317105
 30
0.0
 10
71.79943981346447
 20
94.60706566678587
 30
0.0
 10
71.79943981346447
 20
94.27703941317104
 30
0.0
  0
LINE
  5
16C
330
1F
100
AcDbEntity
  8
0
  6
Continuous
 62
     7
370
    25
100
AcDbLine
 10
71.2994398135
 20
94.7770394132
 30
0.0
 11
71.2994398135
 21
94.2770394132
 31
0.0
  0
LINE
  5
16D
330
1F
100
AcDbEntity
  8
0
  6
Continuous
 62
     7
370
    25
100
AcDbLine
 10
71.2994398135
 20
94.7770394132
 30
0.0
 11
70.6691413
 21
94.7770394132
 31
0.0
  0
LINE
  5
16E
330
1F
100
AcDbEntity
  8
0
  6
Continuous
 62
     7
370
    25
100
AcDbLine
 10
71.2994398135
 20
77.7770394132
 30
0.0
 11
71.2994398135
 21
78.2770394132
 31
0.0
  0
LINE
  5
16F
330
1F
100
AcDbEntity
  8
0
  6
Continuous
 62
     7
370
    25
100
AcDbLine
 10
70.6691413
 20
77.7770394132
 30
0.0
 11
71.2994398135
 21
77.7770394132
 31
0.0
  0
ARC
  5
170
330
1F
100
AcDbEntity
  8
0
  6
Continuous
 62
     7
370
    25
100
AcDbCircle
 10
71.2994398135
 20
94.2770394132
 30
0.0
 40
0.5000000000000142
100
AcDbArc
 50
0.0
 51
90.0
  0
LINE
  5
171
330
1F
100
AcDbEntity
  8
0
  6
Continuous
 62
     7
370
    25
100
AcDbLine
 10
71.2994398135
 20
94.2770394132
 30
0.0
 11
71.7994398135
 21
94.2770394132
 31
0.0
  0
LINE
  5
172
330
1F
100
AcDbEntity
  8
0
  6
Continuous
 62
     7
370
    25
100
AcDbLine
 10
71.7994398135
 20
93.6467408997
 30
0.0
 11
71.7994398135
 21
94.2770394132
 31
0.0
  0
LINE
  5
173
330
1F
100
AcDbEntity
  8
0
  6
Continuous
 62
     7
370
    25
100
AcDbLine
 10
71.7994398135
 20
78.2770394132
 30
0.0
 11
71.7994398135
 21
78.9073379267
 31
0.0
  0
LINE
  5
174
330
1F
100
AcDbEntity
  8
0
  6
Continuous
 62
     7
370
    25
100
AcDbLine
 10
71.2994398135
 20
78.2770394132
 30
0.0
 11
71.7994398135
 21
78.2770394132
 31
0.0
  0
ARC
  5
175
330
1F
100
AcDbEntity
  8
0
  6
Continuous
 62
     7
370
    25
100
AcDbCircle
 10
71.2994398135
 20
78.2770394132
 30
0.0
 40
0.5
100
AcDbArc
 50
270.0
 51
0.0
  0
LINE
  5
176
330
1F
100
AcDbEntity
  8
0
  6
Continuous
 62
     7
370
    25
100
AcDbLine
 10
90.2106521597
 20
79.821077299
 30
0.0
 11
90.2106521597
 21
92.7330015274
 31
0.0
  0
LINE
  5
177
330
1F
100
AcDbEntity
  8
0
  6
Continuous
 62
     7
370
    25
100
AcDbLine
 10
92.2994398135
 20
91.5270394132
 30
0.0
 11
92.2994398135
 21
81.0270394132
 31
0.0
  0
SPLINE
  5
178
330
1F
100
AcDbEntity
  8
0
  6
Continuous
 62
     7
370
    25
100
AcDbSpline
210
0.0
220
0.0
230
1.0
 70
     8
 71
     3
 72
    16
 73
    12
 74
     0
 42
0.000000001
 43
0.00000001
 40
0.0
 40
0.0
 40
0.0
 40
0.0
 40
0.2499999999999999
 40
0.2499999999999999
 40
0.4999999999999998
 40
0.4999999999999998
 40
0.7499999999999999
 40
0.7499999999999999
 40
0.8749999999999999
 40
0.8749999999999999
 40
1.0
 40
1.0
 40
1.0
 40
1.0
 10
66.46171747363285
 20
82.40405606696363
 30
0.0
 10
66.1312213524361
 20
82.44091364179407
 30
0.0
 10
65.79939875013211
 20
82.48497908999384
 30
0.0
 10
65.12722573416696
 20
82.57921328345058
 30
0.0
 10
64.78516671480705
 20
82.63009173825397
 30
0.0
 10
64.08924963949288
 20
82.7135648985823
 30
0.0
 10
63.7355718004649
 20
82.7447781423791
 30
0.0
 10
63.1890643300006
 20
82.75002639976177
 30
0.0
 10
63.00687547781343
 20
82.74486203901235
 30
0.0
 10
62.64991436188618
 20
82.72332521862629
 30
0.0
 10
62.47383663927337
 20
82.707089243885
 30
0.0
 10
62.29943981346447
 20
82.68774964911955
 30
0.0
  0
LINE
  5
179
330
1F
100
AcDbEntity
  8
0
  6
Continuous
 62
     7
370
    25
100
AcDbLine
 10
62.2994398135
 20
82.6877496491
 30
0.0
 11
62.2994398135
 21
89.8663291772
 31
0.0
  0
SPLINE
  5
17A
330
1F
100
AcDbEntity
  8
0
  6
Continuous
 62
     7
370
    25
100
AcDbSpline
210
0.0
220
0.0
230
1.0
 70
     8
 71
     3
 72
    16
 73
    12
 74
     0
 42
0.000000001
 43
0.00000001
 40
0.0
 40
0.0
 40
0.0
 40
0.0
 40
0.125
 40
0.125
 40
0.2499999999999999
 40
0.2499999999999999
 40
0.4999999999999999
 40
0.4999999999999999
 40
0.7499999999999999
 40
0.7499999999999999
 40
1.0
 40
1.0
 40
1.0
 40
1.0
 10
62.29943981346447
 20
89.86632917722254
 30
0.0
 10
62.47422638029408
 20
89.84694636244222
 30
0.0
 10
62.65077156027617
 20
89.83067173996223
 30
0.0
 10
63.00890890295833
 20
89.80912449708124
 30
0.0
 10
63.19230779182981
 20
89.80401994112975
 30
0.0
 10
63.73702023343262
 20
89.80944326098627
 30
0.0
 10
64.09021732117084
 20
89.84061300070813
 30
0.0
 10
64.7858473466584
 20
89.924085765723
 30
0.0
 10
65.12781535170693
 20
89.97494992002733
 30
0.0
 10
65.79967504530465
 20
90.06913675221156
 30
0.0
 10
66.13135647002166
 20
90.11318025312585
 30
0.0
 10
66.46171747363285
 20
90.15002275937846
 30
0.0
  0
SPLINE
  5
17B
330
1F
100
AcDbEntity
  8
0
  6
Continuous
 62
     7
370
    25
100
AcDbSpline
210
0.0
220
0.0
230
1.0
 70
    11
 71
     3
 72
    62
 73
    58
 74
     0
 42
0.000000001
 43
0.00000001
 40
0.0
 40
0.0
 40
0.0
 40
0.0
 40
0.0000024117322271
 40
0.0000024117322271
 40
0.0000024117322271
 40
0.0000048234923211
 40
0.0000048234923211
 40
0.0000048234923211
 40
0.0000072342775328
 40
0.0000072342775328
 40
0.0000072342775328
 40
0.0000096421574951
 40
0.0000096421574951
 40
0.0000096421574951
 40
0.0000120464714337
 40
0.0000120464714337
 40
0.0000120464714337
 40
0.0000144481274383
 40
0.0000144481274383
 40
0.0000144481274383
 40
0.0000168492048896
 40
0.0000168492048896
 40
0.0000168492048896
 40
0.0000192520334942
 40
0.0000192520334942
 40
0.0000192520334942
 40
0.0000216581677061
 40
0.0000216581677061
 40
0.0000216581677061
 40
0.0000240677129609
 40
0.0000240677129609
 40
0.0000240677129609
 40
0.0000264792873847
 40
0.0000264792873847
 40
0.0000264792873847
 40
0.0000288906235092
 40
0.0000288906235092
 40
0.0000288906235092
 40
0.0000312995522201
 40
0.0000312995522201
 40
0.0000312995522201
 40
0.0000337049530256
 40
0.0000337049530256
 40
0.0000337049530256
 40
0.0000361072548855
 40
0.0000361072548855
 40
0.0000361072548855
 40
0.0000385082527189
 40
0.0000385082527189
 40
0.0000385082527189
 40
0.0000409103129747
 40
0.0000409103129747
 40
0.0000409103129747
 40
0.0000433153287424
 40
0.0000433153287424
 40
0.0000433153287424
 40
0.0000448079906495
 40
0.0000448079906495
 40
0.0000448079906495
 40
0.0000448079906495
 10
63.29239801748921
 20
86.27834538674654
 30
0.0
 10
63.29225184610576
 20
86.27755487656837
 30
0.0
 10
63.2922401130918
 20
86.27672822816892
 30
0.0
 10
63.29236384598882
 20
86.27593389662371
 30
0.0
 10
63.292487579512
 20
86.27513956105882
 30
0.0
 10
63.29275017114954
 20
86.27435561505438
 30
0.0
 10
63.29312996740316
 20
86.27364707185369
 30
0.0
 10
63.2935096056587
 20
86.27293882341226
 30
0.0
 10
63.2940168550553
 20
86.27228635484289
 30
0.0
 10
63.29460975673788
 20
86.27174394494273
 30
0.0
 10
63.29520194758606
 20
86.27120218534198
 30
0.0
 10
63.29589596227443
 20
86.27075525891107
 30
0.0
 10
63.29663425677906
 20
86.27044043366627
 30
0.0
 10
63.29737147383663
 20
86.27012606786893
 30
0.0
 10
63.29817320681
 20
86.26993474073507
 30
0.0
 10
63.29897294250655
 20
86.26988241559427
 30
0.0
 10
63.29977181612669
 20
86.26983014685746
 30
0.0
 10
63.30059073509987
 20
86.2699151335397
 30
0.0
 10
63.30136186176893
 20
86.27013029536869
 30
0.0
 10
63.30213281905901
 20
86.2703454099371
 30
0.0
 10
63.30287724936906
 20
86.27069655526212
 30
0.0
 10
63.30353366332101
 20
86.27115456162491
 30
0.0
 10
63.30419055968667
 20
86.27161290458713
 30
0.0
 10
63.30477740305449
 20
86.27219086892781
 30
0.0
 10
63.30524586597545
 20
86.27284058701088
 30
0.0
 10
63.3057149675745
 20
86.27349119088595
 30
0.0
 10
63.30607828939132
 20
86.27423164711908
 30
0.0
 10
63.30630596538711
 20
86.27500074117458
 30
0.0
 10
63.30653395849758
 20
86.27577090644976
 30
0.0
 10
63.30663221158949
 20
86.27659100819663
 30
0.0
 10
63.30659264667266
 20
86.27739323645338
 30
0.0
 10
63.30655304948357
 20
86.27819611907037
 30
0.0
 10
63.30637430831599
 20
86.27900324869984
 30
0.0
 10
63.30607114891048
 20
86.27974775025109
 30
0.0
 10
63.30576802450874
 20
86.28049216583979
 30
0.0
 10
63.30533212295688
 20
86.28119452378056
 30
0.0
 10
63.30479946685897
 20
86.28179645084803
 30
0.0
 10
63.30426734229515
 20
86.28239777725632
 30
0.0
 10
63.30362393723799
 20
86.28291548139455
 30
0.0
 10
63.30292256832518
 20
86.28330641845486
 30
0.0
 10
63.3022222142669
 20
86.2836967898439
 30
0.0
 10
63.30144470946247
 20
86.28397153774836
 30
0.0
 10
63.30065456037753
 20
86.28410773748422
 30
0.0
 10
63.29986540794844
 20
86.28424376542435
 30
0.0
 10
63.29904186370697
 20
86.28424535021189
 30
0.0
 10
63.29825219371808
 20
86.28411235973103
 30
0.0
 10
63.29746293307073
 20
86.28397943818847
 30
0.0
 10
63.29668575646443
 20
86.28370842918551
 30
0.0
 10
63.29598492102852
 20
86.28332186756774
 30
0.0
 10
63.29528376768867
 20
86.28293513060285
 30
0.0
 10
63.29463971181742
 20
86.28242210312948
 30
0.0
 10
63.29410583826954
 20
86.28182531139032
 30
0.0
 10
63.29357131158106
 20
86.28122778953649
 30
0.0
 10
63.29313251295786
 20
86.28052986094684
 30
0.0
 10
63.29282552632587
 20
86.27978924592797
 30
0.0
 10
63.29263332798515
 20
86.2793255613147
 30
0.0
 10
63.29248928291786
 20
86.27883895976032
 30
0.0
 10
63.29239801748921
 20
86.27834538674654
 30
0.0
  0
SPLINE
  5
17C
330
1F
100
AcDbEntity
  8
0
  6
Continuous
 62
     7
370
    25
100
AcDbSpline
210
0.0
220
0.0
230
1.0
 70
    24
 71
     3
 72
    10
 73
     6
 74
     0
 42
0.000000001
 43
0.00000001
 40
-0.2904940295525288
 40
-0.2904940295525288
 40
-0.2904940295525288
 40
-0.2904940295525288
 40
-0.1303072746364131
 40
-0.1303072746364131
 40
0.0010563617272233
 40
0.0010563617272233
 40
0.0010563617272233
 40
0.0010563617272233
 10
71.79943981346447
 20
94.77703941317105
 30
0.0
 10
71.66993649771081
 20
94.77703941317105
 30
0.0
 10
71.53814551952496
 20
94.77703941317105
 30
0.0
 10
71.35972158009979
 20
94.77703941317105
 30
0.0
 10
71.29943981346447
 20
94.77703941317105
 30
0.0
 10
71.29943981346447
 20
94.77703941317105
 30
0.0
  0
SPLINE
  5
17D
330
1F
100
AcDbEntity
  8
0
  6
Continuous
 62
     7
370
    25
100
AcDbSpline
210
0.0
220
0.0
230
1.0
 70
    24
 71
     3
 72
    10
 73
     6
 74
     0
 42
0.000000001
 43
0.00000001
 40
-0.8711658421011628
 40
-0.8711658421011628
 40
-0.8711658421011628
 40
-0.8711658421011628
 40
-0.739802205737527
 40
-0.739802205737527
 40
-0.579615450786466
 40
-0.579615450786466
 40
-0.579615450786466
 40
-0.579615450786466
 10
71.29943981346447
 20
77.77703941317104
 30
0.0
 10
71.29943981346447
 20
77.77703941317104
 30
0.0
 10
71.35972158009979
 20
77.77703941317104
 30
0.0
 10
71.53814551954635
 20
77.77703941317104
 30
0.0
 10
71.66993649768241
 20
77.77703941317104
 30
0.0
 10
71.79943981346447
 20
77.77703941317104
 30
0.0
  0
SPLINE
  5
17E
330
1F
100
AcDbEntity
  8
0
  6
Continuous
 62
     7
370
    25
100
AcDbSpline
210
0.0
220
0.0
230
1.0
 70
     8
 71
     3
 72
    20
 73
    16
 74
     0
 42
0.000000001
 43
0.00000001
 40
0.0
 40
0.0
 40
0.0
 40
0.0
 40
0.2499999999999998
 40
0.2499999999999998
 40
0.3749999999999998
 40
0.3749999999999998
 40
0.4999999999999999
 40
0.4999999999999999
 40
0.5624999999999999
 40
0.5624999999999999
 40
0.6249999999999998
 40
0.6249999999999998
 40
0.7499999999999998
 40
0.7499999999999998
 40
1.0
 40
1.0
 40
1.0
 40
1.0
 10
62.29943981346447
 20
82.68774964911955
 30
0.0
 10
62.07926302088089
 20
83.23424140393328
 30
0.0
 10
61.90012427501584
 20
83.79547710483541
 30
0.0
 10
61.76040753381339
 20
84.67939088015255
 30
0.0
 10
61.73670756399203
 20
84.98077899876712
 30
0.0
 10
61.7263432264221
 20
85.60821236216147
 30
0.0
 10
61.73811494320768
 20
85.92905883883643
 30
0.0
 10
61.73861710036289
 20
86.42346028104248
 30
0.0
 10
61.73607439332071
 20
86.58910983846877
 30
0.0
 10
61.73107520102488
 20
86.91157536904014
 30
0.0
 10
61.72900675645869
 20
87.07031934055334
 30
0.0
 10
61.73515523618512
 20
87.54271165694041
 30
0.0
 10
61.75750889736752
 20
87.84884334035435
 30
0.0
 10
61.89551231588598
 20
88.74362859019874
 30
0.0
 10
62.07768240661464
 20
89.31591424479365
 30
0.0
 10
62.29943981346447
 20
89.86632917722254
 30
0.0
  0
LINE
  5
17F
330
1F
100
AcDbEntity
  8
0
  6
Continuous
 62
     7
370
    25
100
AcDbLine
 10
72.507697383
 20
95.0770394132
 30
0.0
 11
73.091182244
 21
95.0770394132
 31
0.0
  0
LINE
  5
180
330
1F
100
AcDbEntity
  8
0
  6
Continuous
 62
     7
370
    25
100
AcDbLine
 10
72.0494398135
 20
94.7770394132
 30
0.0
 11
73.5494398135
 21
94.7770394132
 31
0.0
  0
LINE
  5
181
330
1F
100
AcDbEntity
  8
0
  6
Continuous
 62
     8
370
    25
100
AcDbLine
 10
75.7994398135
 20
86.2770394132
 30
0.0
 11
75.7994398135
 21
77.7770394132
 31
0.0
  0
LINE
  5
182
330
1F
100
AcDbEntity
  8
0
  6
Continuous
 62
     8
370
    25
100
AcDbLine
 10
75.7994398135
 20
94.7770394132
 30
0.0
 11
75.7994398135
 21
86.2770394132
 31
0.0
  0
LINE
  5
183
330
1F
100
AcDbEntity
  8
0
  6
Continuous
 62
     8
370
    25
100
AcDbLine
 10
71.2994398135
 20
94.1866854229
 30
0.0
 11
71.2994398135
 21
94.2770394132
 31
0.0
  0
LINE
  5
184
330
1F
100
AcDbEntity
  8
0
  6
Continuous
 62
     8
370
    25
100
AcDbLine
 10
71.2090858232
 20
94.2770394132
 30
0.0
 11
71.2994398135
 21
94.2770394132
 31
0.0
  0
LINE
  5
185
330
1F
100
AcDbEntity
  8
0
  6
Continuous
 62
     8
370
    25
100
AcDbLine
 10
71.2994398135
 20
78.2770394132
 30
0.0
 11
71.2994398135
 21
78.3673934034
 31
0.0
  0
LINE
  5
186
330
1F
100
AcDbEntity
  8
0
  6
Continuous
 62
     8
370
    25
100
AcDbLine
 10
71.2994398135
 20
78.2770394132
 30
0.0
 11
71.2090858232
 21
78.2770394132
 31
0.0
  0
INSERT
  5
192
330
1F
100
AcDbEntity
  8
0
  6
Continuous
 62
     7
370
    18
100
AcDbBlockReference
  2
SW_CENTERMARKSYMBOL_1
 10
63.2994398135
 20
86.2770394132
 30
0.0
  0
LINE
  5
193
330
1F
100
AcDbEntity
  8
0
  6
Continuous
 62
     7
370
    18
100
AcDbLine
 10
91.4342140909
 20
80.5275011093
 30
0.0
 11
80.2994398135
 21
80.1795394132
 31
0.0
  0
LINE
  5
194
330
1F
100
AcDbEntity
  8
0
  6
Continuous
 62
     7
370
    18
100
AcDbLine
 10
91.4342140909
 20
92.026577717
 30
0.0
 11
80.2994398135
 21
92.3745394132
 31
0.0
  0
LINE
  5
195
330
1F
100
AcDbEntity
  8
0
  6
Continuous
 62
     7
370
    18
100
AcDbLine
 10
80.2994398135
 20
93.0427269132
 30
0.0
 11
80.2994398135
 21
79.5113519132
 31
0.0
  0
ARC
  5
196
330
1F
100
AcDbEntity
  8
0
  6
Continuous
 62
     7
370
    18
100
AcDbCircle
 10
63.2994398135
 20
86.2770394132
 30
0.0
 40
8.334121500000013
100
AcDbArc
 50
75.0
 51
345.0
  0
ENDSEC
  0
SECTION
  2
OBJECTS
  0
DICTIONARY
  5
C
330
0
100
AcDbDictionary
281
     1
  3
ACAD_GROUP
350
D
  3
ACAD_LAYOUT
350
1A
  3
ACAD_MLINESTYLE
350
17
  3
ACAD_PLOTSETTINGS
350
19
  3
ACAD_PLOTSTYLENAME
350
E
  3
ACAD_SCALELIST
350
47
  0
DICTIONARY
  5
D
102
{ACAD_REACTORS
330
C
102
}
330
C
100
AcDbDictionary
281
     1
  0
DICTIONARY
  5
1A
102
{ACAD_REACTORS
330
C
102
}
330
C
100
AcDbDictionary
281
     1
  3
Layout1
350
1E
  3
Layout2
350
26
  3
Model
350
22
  0
DICTIONARY
  5
17
102
{ACAD_REACTORS
330
C
102
}
330
C
100
AcDbDictionary
281
     1
  3
Standard
350
18
  0
DICTIONARY
  5
19
102
{ACAD_REACTORS
330
C
102
}
330
C
100
AcDbDictionary
281
     1
  0
ACDBDICTIONARYWDFLT
  5
E
102
{ACAD_REACTORS
330
C
102
}
330
C
100
AcDbDictionary
281
     1
  3
Normal
350
F
100
AcDbDictionaryWithDefault
340
F
  0
DICTIONARY
  5
47
102
{ACAD_REACTORS
330
C
102
}
330
C
100
AcDbDictionary
281
     1
  3
A0
350
48
  3
A1
350
49
  3
A2
350
4A
  3
A3
350
4B
  3
A4
350
4C
  3
A5
350
4D
  3
A6
350
4E
  3
A7
350
4F
  3
A8
350
50
  3
A9
350
51
  3
B0
350
52
  3
B1
350
53
  3
B2
350
54
  3
B3
350
55
  3
B4
350
56
  3
B5
350
57
  3
B6
350
58
  3
B7
350
59
  3
B8
350
5A
  3
B9
350
5B
  3
C0
350
5C
  3
C1
350
5D
  3
C2
350
5E
  3
C3
350
5F
  3
C4
350
60
  3
C5
350
61
  3
C6
350
62
  3
C7
350
63
  3
C8
350
64
  3
C9
350
65
  3
D0
350
66
  3
D1
350
67
  3
D2
350
68
  0
LAYOUT
  5
1E
102
{ACAD_REACTORS
330
1A
102
}
330
1A
100
AcDbPlotSettings
  1

  2
none_device
  4

  6

 40
0.0
 41
0.0
 42
0.0
 43
0.0
 44
0.0
 45
0.0
 46
0.0
 47
0.0
 48
0.0
 49
0.0
140
0.0
141
0.0
142
1.0
143
1.0
 70
   688
 72
     1
 73
     0
 74
     5
  7

 75
    16
147
1.0
148
0.0
149
0.0
100
AcDbLayout
  1
Layout1
 70
     1
 71
     1
 10
0.0
 20
0.0
 11
420.0
 21
297.0
 12
0.0
 22
0.0
 32
0.0
 14
1.0000000000E+20
 24
1.0000000000E+20
 34
1.0000000000E+20
 15
-1.0000000000E+20
 25
-1.0000000000E+20
 35
-1.0000000000E+20
146
0.0
 13
0.0
 23
0.0
 33
0.0
 16
1.0
 26
0.0
 36
0.0
 17
0.0
 27
1.0
 37
0.0
 76
     0
330
1B
  0
LAYOUT
  5
26
102
{ACAD_REACTORS
330
1A
102
}
330
1A
100
AcDbPlotSettings
  1

  2
none_device
  4

  6

 40
0.0
 41
0.0
 42
0.0
 43
0.0
 44
0.0
 45
0.0
 46
0.0
 47
0.0
 48
0.0
 49
0.0
140
0.0
141
0.0
142
1.0
143
1.0
 70
   688
 72
     1
 73
     0
 74
     5
  7

 75
    16
147
1.0
148
0.0
149
0.0
100
AcDbLayout
  1
Layout2
 70
     1
 71
     2
 10
0.0
 20
0.0
 11
0.0
 21
0.0
 12
0.0
 22
0.0
 32
0.0
 14
0.0
 24
0.0
 34
0.0
 15
0.0
 25
0.0
 35
0.0
146
0.0
 13
0.0
 23
0.0
 33
0.0
 16
1.0
 26
0.0
 36
0.0
 17
0.0
 27
1.0
 37
0.0
 76
     0
330
23
  0
LAYOUT
  5
22
102
{ACAD_REACTORS
330
1A
102
}
330
1A
100
AcDbPlotSettings
  1

  2
none_device
  4
Letter_(8.50_x_11.00_Inches)
  6

 40
6.35
 41
6.35
 42
6.35000508
 43
6.35000508
 44
215.9
 45
279.4
 46
0.0
 47
0.0
 48
0.0
 49
0.0
140
0.0
141
0.0
142
1.0
143
1.0
 70
  1712
 72
     1
 73
     0
 74
     0
  7

 75
     0
147
1.0
148
0.0
149
0.0
100
AcDbLayout
  1
Model
 70
     1
 71
     0
 10
0.0
 20
0.0
 11
215.9
 21
139.7
 12
0.0
 22
0.0
 32
0.0
 14
0.0
 24
0.0
 34
0.0
 15
215.9
 25
139.7
 35
0.0
146
0.0
 13
0.0
 23
0.0
 33
0.0
 16
1.0
 26
0.0
 36
0.0
 17
0.0
 27
1.0
 37
0.0
 76
     0
330
1F
331
29
  0
MLINESTYLE
  5
18
102
{ACAD_REACTORS
330
17
102
}
330
17
100
AcDbMlineStyle
  2
Standard
 70
     0
  3

 62
   256
 51
90.0
 52
90.0
 71
     2
 49
0.5
 62
   256
  6
BYLAYER
 49
-0.5
 62
   256
  6
BYLAYER
  0
ACDBPLACEHOLDER
  5
F
102
{ACAD_REACTORS
330
E
102
}
330
E
  0
SCALE
  5
48
102
{ACAD_REACTORS
330
47
102
}
330
47
100
AcDbScale
 70
     0
300
1:1
140
1.0
141
1.0
290
     1
  0
SCALE
  5
49
102
{ACAD_REACTORS
330
47
102
}
330
47
100
AcDbScale
 70
     0
300
1:2
140
1.0
141
2.0
290
     0
  0
SCALE
  5
4A
102
{ACAD_REACTORS
330
47
102
}
330
47
100
AcDbScale
 70
     0
300
1:4
140
1.0
141
4.0
290
     0
  0
SCALE
  5
4B
102
{ACAD_REACTORS
330
47
102
}
330
47
100
AcDbScale
 70
     0
300
1:5
140
1.0
141
5.0
290
     0
  0
SCALE
  5
4C
102
{ACAD_REACTORS
330
47
102
}
330
47
100
AcDbScale
 70
     0
300
1:8
140
1.0
141
8.0
290
     0
  0
SCALE
  5
4D
102
{ACAD_REACTORS
330
47
102
}
330
47
100
AcDbScale
 70
     0
300
1:10
140
1.0
141
10.0
290
     0
  0
SCALE
  5
4E
102
{ACAD_REACTORS
330
47
102
}
330
47
100
AcDbScale
 70
     0
300
1:16
140
1.0
141
16.0
290
     0
  0
SCALE
  5
4F
102
{ACAD_REACTORS
330
47
102
}
330
47
100
AcDbScale
 70
     0
300
1:20
140
1.0
141
20.0
290
     0
  0
SCALE
  5
50
102
{ACAD_REACTORS
330
47
102
}
330
47
100
AcDbScale
 70
     0
300
1:30
140
1.0
141
30.0
290
     0
  0
SCALE
  5
51
102
{ACAD_REACTORS
330
47
102
}
330
47
100
AcDbScale
 70
     0
300
1:40
140
1.0
141
40.0
290
     0
  0
SCALE
  5
52
102
{ACAD_REACTORS
330
47
102
}
330
47
100
AcDbScale
 70
     0
300
1:50
140
1.0
141
50.0
290
     0
  0
SCALE
  5
53
102
{ACAD_REACTORS
330
47
102
}
330
47
100
AcDbScale
 70
     0
300
1:100
140
1.0
141
100.0
290
     0
  0
SCALE
  5
54
102
{ACAD_REACTORS
330
47
102
}
330
47
100
AcDbScale
 70
     0
300
2:1
140
2.0
141
1.0
290
     0
  0
SCALE
  5
55
102
{ACAD_REACTORS
330
47
102
}
330
47
100
AcDbScale
 70
     0
300
4:1
140
4.0
141
1.0
290
     0
  0
SCALE
  5
56
102
{ACAD_REACTORS
330
47
102
}
330
47
100
AcDbScale
 70
     0
300
8:1
140
8.0
141
1.0
290
     0
  0
SCALE
  5
57
102
{ACAD_REACTORS
330
47
102
}
330
47
100
AcDbScale
 70
     0
300
10:1
140
10.0
141
1.0
290
     0
  0
SCALE
  5
58
102
{ACAD_REACTORS
330
47
102
}
330
47
100
AcDbScale
 70
     0
300
100:1
140
100.0
141
1.0
290
     0
  0
SCALE
  5
59
102
{ACAD_REACTORS
330
47
102
}
330
47
100
AcDbScale
 70
     0
300
1/128" = 1'-0"
140
0.0078125
141
12.0
290
     0
  0
SCALE
  5
5A
102
{ACAD_REACTORS
330
47
102
}
330
47
100
AcDbScale
 70
     0
300
1/64" = 1'-0"
140
0.015625
141
12.0
290
     0
  0
SCALE
  5
5B
102
{ACAD_REACTORS
330
47
102
}
330
47
100
AcDbScale
 70
     0
300
1/32" = 1'-0"
140
0.03125
141
12.0
290
     0
  0
SCALE
  5
5C
102
{ACAD_REACTORS
330
47
102
}
330
47
100
AcDbScale
 70
     0
300
1/16" = 1'-0"
140
0.0625
141
12.0
290
     0
  0
SCALE
  5
5D
102
{ACAD_REACTORS
330
47
102
}
330
47
100
AcDbScale
 70
     0
300
3/32" = 1'-0"
140
0.09375
141
12.0
290
     0
  0
SCALE
  5
5E
102
{ACAD_REACTORS
330
47
102
}
330
47
100
AcDbScale
 70
     0
300
1/8" = 1'-0"
140
0.125
141
12.0
290
     0
  0
SCALE
  5
5F
102
{ACAD_REACTORS
330
47
102
}
330
47
100
AcDbScale
 70
     0
300
3/16" = 1'-0"
140
0.1875
141
12.0
290
     0
  0
SCALE
  5
60
102
{ACAD_REACTORS
330
47
102
}
330
47
100
AcDbScale
 70
     0
300
1/4" = 1'-0"
140
0.25
141
12.0
290
     0
  0
SCALE
  5
61
102
{ACAD_REACTORS
330
47
102
}
330
47
100
AcDbScale
 70
     0
300
3/8" = 1'-0"
140
0.375
141
12.0
290
     0
  0
SCALE
  5
62
102
{ACAD_REACTORS
330
47
102
}
330
47
100
AcDbScale
 70
     0
300
1/2" = 1'-0"
140
0.5
141
12.0
290
     0
  0
SCALE
  5
63
102
{ACAD_REACTORS
330
47
102
}
330
47
100
AcDbScale
 70
     0
300
3/4" = 1'-0"
140
0.75
141
12.0
290
     0
  0
SCALE
  5
64
102
{ACAD_REACTORS
330
47
102
}
330
47
100
AcDbScale
 70
     0
300
1" = 1'-0"
140
1.0
141
12.0
290
     0
  0
SCALE
  5
65
102
{ACAD_REACTORS
330
47
102
}
330
47
100
AcDbScale
 70
     0
300
1-1/2" = 1'-0"
140
1.5
141
12.0
290
     0
  0
SCALE
  5
66
102
{ACAD_REACTORS
330
47
102
}
330
47
100
AcDbScale
 70
     0
300
3" = 1'-0"
140
3.0
141
12.0
290
     0
  0
SCALE
  5
67
102
{ACAD_REACTORS
330
47
102
}
330
47
100
AcDbScale
 70
     0
300
6" = 1'-0"
140
6.0
141
12.0
290
     0
  0
SCALE
  5
68
102
{ACAD_REACTORS
330
47
102
}
330
47
100
AcDbScale
 70
     0
300
1'-0" = 1'-0"
140
12.0
141
12.0
290
     0
  0
ENDSEC
  0
EOF
