  0
SECTION
  2
HEADER
  9
$ACADVER
  1
AC1015
  9
$ACADMAINTVER
 70
     6
  9
$DWGCODEPAGE
  3
DOS932
  9
$INSBASE
 10
0.0
 20
0.0
 30
0.0
  9
$EXTMIN
 10
0.0
 20
0.0
 30
0.0
  9
$EXTMAX
 10
215.9
 20
139.7
 30
0.0
  9
$LIMMIN
 10
0.0
 20
0.0
  9
$LIMMAX
 10
215.9
 20
139.7
  9
$ORTHOMODE
 70
     0
  9
$REGENMODE
 70
     1
  9
$FILLMODE
 70
     1
  9
$QTEXTMODE
 70
     0
  9
$MIRRTEXT
 70
     1
  9
$LTSCALE
 40
0.5
  9
$ATTMODE
 70
     1
  9
$TEXTSIZE
 40
1.75
  9
$TRACEWID
 40
1.0
  9
$TEXTSTYLE
  7
Standard
  9
$CLAYER
  8
0
  9
$CELTYPE
  6
ByLayer
  9
$CECOLOR
 62
   256
  9
$CELTSCALE
 40
1.0
  9
$DISPSILH
 70
     0
  9
$DIMSCALE
 40
1.0
  9
$DIMASZ
 40
1.651
  9
$DIMEXO
 40
0.5
  9
$DIMDLI
 40
3.75
  9
$DIMRND
 40
0.0
  9
$DIMDLE
 40
0.0
  9
$DIMEXE
 40
0.5
  9
$DIMTP
 40
0.0
  9
$DIMTM
 40
0.0
  9
$DIMTXT
 40
1.75
  9
$DIMCEN
 40
2.5
  9
$DIMTSZ
 40
0.0
  9
$DIMTOL
 70
     0
  9
$DIMLIM
 70
     0
  9
$DIMTIH
 70
     1
  9
$DIMTOH
 70
     1
  9
$DIMSE1
 70
     0
  9
$DIMSE2
 70
     0
  9
$DIMTAD
 70
     1
  9
$DIMZIN
 70
     1
  9
$DIMBLK
  1

  9
$DIMASO
 70
     1
  9
$DIMSHO
 70
     1
  9
$DIMPOST
  1

  9
$DIMAPOST
  1

  9
$DIMALT
 70
     0
  9
$DIMALTD
 70
     3
  9
$DIMALTF
 40
0.0393700787
  9
$DIMLFAC
 40
1.0
  9
$DIMTOFL
 70
     1
  9
$DIMTVP
 40
0.0
  9
$DIMTIX
 70
     0
  9
$DIMSOXD
 70
     0
  9
$DIMSAH
 70
     0
  9
$DIMBLK1
  1

  9
$DIMBLK2
  1

  9
$DIMSTYLE
  2
ISO-25
  9
$DIMCLRD
 70
     0
  9
$DIMCLRE
 70
     0
  9
$DIMCLRT
 70
     0
  9
$DIMTFAC
 40
1.0
  9
$DIMGAP
 40
0.762
  9
$DIMJUST
 70
     0
  9
$DIMSD1
 70
     0
  9
$DIMSD2
 70
     0
  9
$DIMTOLJ
 70
     0
  9
$DIMTZIN
 70
     1
  9
$DIMALTZ
 70
     0
  9
$DIMALTTZ
 70
     0
  9
$DIMUPT
 70
     0
  9
$DIMDEC
 70
     2
  9
$DIMTDEC
 70
     2
  9
$DIMALTU
 70
     2
  9
$DIMALTTD
 70
     3
  9
$DIMTXSTY
  7
Standard
  9
$DIMAUNIT
 70
     0
  9
$DIMADEC
 70
     2
  9
$DIMALTRND
 40
0.0
  9
$DIMAZIN
 70
     0
  9
$DIMDSEP
 70
    44
  9
$DIMATFIT
 70
     3
  9
$DIMFRAC
 70
     0
  9
$DIMLDRBLK
  1

  9
$DIMLUNIT
 70
     2
  9
$DIMLWD
 70
    -2
  9
$DIMLWE
 70
    -2
  9
$DIMTMOVE
 70
     0
  9
$LUNITS
 70
     2
  9
$LUPREC
 70
     2
  9
$SKETCHINC
 40
1.0
  9
$FILLETRAD
 40
10.0
  9
$AUNITS
 70
     0
  9
$AUPREC
 70
     2
  9
$MENU
  1
.
  9
$ELEVATION
 40
0.0
  9
$PELEVATION
 40
0.0
  9
$THICKNESS
 40
0.0
  9
$LIMCHECK
 70
     0
  9
$CHAMFERA
 40
0.0
  9
$CHAMFERB
 40
0.0
  9
$CHAMFERC
 40
0.0
  9
$CHAMFERD
 40
0.0
  9
$SKPOLY
 70
     0
  9
$TDCREATE
 40
2459230.771437894
  9
$TDUCREATE
 40
2459230.396437894
  9
$TDUPDATE
 40
2459230.771438519
  9
$TDUUPDATE
 40
2459230.396438519
  9
$TDINDWG
 40
0.0000000116
  9
$TDUSRTIMER
 40
0.0000000116
  9
$USRTIMER
 70
     1
  9
$ANGBASE
 50
0.0
  9
$ANGDIR
 70
     0
  9
$PDMODE
 70
     0
  9
$PDSIZE
 40
-1.0
  9
$PLINEWID
 40
0.0
  9
$SPLFRAME
 70
     0
  9
$SPLINETYPE
 70
     6
  9
$SPLINESEGS
 70
     8
  9
$HANDSEED
  5
254
  9
$SURFTAB1
 70
     6
  9
$SURFTAB2
 70
     6
  9
$SURFTYPE
 70
     6
  9
$SURFU
 70
     6
  9
$SURFV
 70
     6
  9
$UCSBASE
  2

  9
$UCSNAME
  2

  9
$UCSORG
 10
0.0
 20
0.0
 30
0.0
  9
$UCSXDIR
 10
1.0
 20
0.0
 30
0.0
  9
$UCSYDIR
 10
0.0
 20
1.0
 30
0.0
  9
$UCSORTHOREF
  2

  9
$UCSORTHOVIEW
 70
     0
  9
$UCSORGTOP
 10
0.0
 20
0.0
 30
0.0
  9
$UCSORGBOTTOM
 10
0.0
 20
0.0
 30
0.0
  9
$UCSORGLEFT
 10
0.0
 20
0.0
 30
0.0
  9
$UCSORGRIGHT
 10
0.0
 20
0.0
 30
0.0
  9
$UCSORGFRONT
 10
0.0
 20
0.0
 30
0.0
  9
$UCSORGBACK
 10
0.0
 20
0.0
 30
0.0
  9
$PUCSBASE
  2

  9
$PUCSNAME
  2

  9
$PUCSORG
 10
0.0
 20
0.0
 30
0.0
  9
$PUCSXDIR
 10
1.0
 20
0.0
 30
0.0
  9
$PUCSYDIR
 10
0.0
 20
1.0
 30
0.0
  9
$PUCSORTHOREF
  2

  9
$PUCSORTHOVIEW
 70
     0
  9
$PUCSORGTOP
 10
0.0
 20
0.0
 30
0.0
  9
$PUCSORGBOTTOM
 10
0.0
 20
0.0
 30
0.0
  9
$PUCSORGLEFT
 10
0.0
 20
0.0
 30
0.0
  9
$PUCSORGRIGHT
 10
0.0
 20
0.0
 30
0.0
  9
$PUCSORGFRONT
 10
0.0
 20
0.0
 30
0.0
  9
$PUCSORGBACK
 10
0.0
 20
0.0
 30
0.0
  9
$USERI1
 70
     0
  9
$USERI2
 70
     0
  9
$USERI3
 70
     0
  9
$USERI4
 70
     0
  9
$USERI5
 70
     0
  9
$USERR1
 40
0.0
  9
$USERR2
 40
0.0
  9
$USERR3
 40
0.0
  9
$USERR4
 40
0.0
  9
$USERR5
 40
0.0
  9
$WORLDVIEW
 70
     1
  9
$SHADEDGE
 70
     3
  9
$SHADEDIF
 70
    70
  9
$TILEMODE
 70
     1
  9
$MAXACTVP
 70
    64
  9
$PINSBASE
 10
0.0
 20
0.0
 30
0.0
  9
$PLIMCHECK
 70
     0
  9
$PEXTMIN
 10
1.0000000000E+20
 20
1.0000000000E+20
 30
1.0000000000E+20
  9
$PEXTMAX
 10
-1.0000000000E+20
 20
-1.0000000000E+20
 30
-1.0000000000E+20
  9
$PLIMMIN
 10
0.0
 20
0.0
  9
$PLIMMAX
 10
420.0
 20
297.0
  9
$UNITMODE
 70
     0
  9
$VISRETAIN
 70
     1
  9
$PLINEGEN
 70
     0
  9
$PSLTSCALE
 70
     1
  9
$TREEDEPTH
 70
  3020
  9
$CMLSTYLE
  2
Standard
  9
$CMLJUST
 70
     0
  9
$CMLSCALE
 40
20.0
  9
$PROXYGRAPHICS
 70
     1
  9
$MEASUREMENT
 70
     1
  9
$CELWEIGHT
370
    -1
  9
$ENDCAPS
280
     0
  9
$JOINSTYLE
280
     0
  9
$LWDISPLAY
290
     1
  9
$INSUNITS
 70
     4
  9
$HYPERLINKBASE
  1

  9
$STYLESHEET
  1

  9
$XEDIT
290
     1
  9
$CEPSNTYPE
380
     0
  9
$PSTYLEMODE
290
     1
  9
$FINGERPRINTGUID
  2
{F3560C81-7CD1-4021-9F95-131842901EE8}
  9
$VERSIONGUID
  2
{FAEB1C32-E019-11D5-929B-00C0DF256EC4}
  9
$EXTNAMES
290
     1
  9
$PSVPSCALE
 40
0.0
  9
$OLESTARTUP
290
     0
  0
ENDSEC
  0
SECTION
  2
CLASSES
  0
CLASS
  1
ACDBDICTIONARYWDFLT
  2
AcDbDictionaryWithDefault
  3
ObjectDBX Classes
 90
        0
280
     0
281
     0
  0
CLASS
  1
VISUALSTYLE
  2
AcDbVisualStyle
  3
ObjectDBX Classes
 90
     4095
280
     0
281
     0
  0
CLASS
  1
MATERIAL
  2
AcDbMaterial
  3
ObjectDBX Classes
 90
     1153
280
     0
281
     0
  0
CLASS
  1
SCALE
  2
AcDbScale
  3
ObjectDBX Classes
 90
     1153
280
     0
281
     0
  0
CLASS
  1
TABLESTYLE
  2
AcDbTableStyle
  3
ObjectDBX Classes
 90
     4095
280
     0
281
     0
  0
CLASS
  1
MLEADERSTYLE
  2
AcDbMLeaderStyle
  3
ACDB_MLEADERSTYLE_CLASS
 90
     4095
280
     0
281
     0
  0
CLASS
  1
SUN
  2
AcDbSun
  3
SCENEOE
 90
     1153
280
     0
281
     0
  0
CLASS
  1
ACDBPLACEHOLDER
  2
AcDbPlaceHolder
  3
ObjectDBX Classes
 90
        0
280
     0
281
     0
  0
CLASS
  1
LAYOUT
  2
AcDbLayout
  3
ObjectDBX Classes
 90
        0
280
     0
281
     0
  0
ENDSEC
  0
SECTION
  2
TABLES
  0
TABLE
  2
VPORT
  5
8
330
0
100
AcDbSymbolTable
 70
     1
  0
VPORT
  5
29
330
8
100
AcDbSymbolTableRecord
100
AcDbViewportTableRecord
  2
*Active
 70
     0
 10
0.0
 20
0.0
 11
1.0
 21
1.0
 12
107.95
 22
69.85
 13
0.0
 23
0.0
 14
10.0
 24
10.0
 15
10.0
 25
10.0
 16
0.0
 26
0.0
 36
1.0
 17
0.0
 27
0.0
 37
0.0
 40
139.7
 41
1.5454545455
 42
50.0
 43
0.0
 44
0.0
 50
0.0
 51
0.0
 71
     0
 72
  2000
 73
     1
 74
     3
 75
     0
 76
     0
 77
     0
 78
     0
281
     0
 65
     1
110
0.0
120
0.0
130
0.0
111
1.0
121
0.0
131
0.0
112
0.0
122
1.0
132
0.0
 79
     0
146
0.0
  0
ENDTAB
  0
TABLE
  2
LTYPE
  5
5
330
0
100
AcDbSymbolTable
 70
     6
  0
LTYPE
  5
14
330
5
100
AcDbSymbolTableRecord
100
AcDbLinetypeTableRecord
  2
ByBlock
 70
     0
  3

 72
    65
 73
     0
 40
0.0
  0
LTYPE
  5
15
330
5
100
AcDbSymbolTableRecord
100
AcDbLinetypeTableRecord
  2
ByLayer
 70
     0
  3

 72
    65
 73
     0
 40
0.0
  0
LTYPE
  5
16
330
5
100
AcDbSymbolTableRecord
100
AcDbLinetypeTableRecord
  2
Continuous
 70
     0
  3
Solid line
 72
    65
 73
     0
 40
0.0
  0
LTYPE
  5
6E
330
5
100
AcDbSymbolTableRecord
100
AcDbLinetypeTableRecord
  2
HIDDEN
 70
     0
  3
Hidden __ __ __ __ __ __ __ __ __ __ __ __ __ __
 72
    65
 73
     2
 40
1.905
 49
1.27
 74
     0
 49
-0.635
 74
     0
  0
LTYPE
  5
6F
330
5
100
AcDbSymbolTableRecord
100
AcDbLinetypeTableRecord
  2
PHANTOM
 70
     0
  3
Phantom ______  __  __  ______  __  __  ______
 72
    65
 73
     6
 40
12.7
 49
6.35
 74
     0
 49
-1.27
 74
     0
 49
1.27
 74
     0
 49
-1.27
 74
     0
 49
1.27
 74
     0
 49
-1.27
 74
     0
  0
LTYPE
  5
70
330
5
100
AcDbSymbolTableRecord
100
AcDbLinetypeTableRecord
  2
CENTER
 70
     0
  3
Center ____ _ ____ _ ____ _ ____ _ ____ _ ____
 72
    65
 73
     4
 40
10.16
 49
6.35
 74
     0
 49
-1.27
 74
     0
 49
1.27
 74
     0
 49
-1.27
 74
     0
  0
LTYPE
  5
71
330
5
100
AcDbSymbolTableRecord
100
AcDbLinetypeTableRecord
  2
CENTERX2
 70
     0
  3
Center (2x) ________  __  ________  __  _____
 72
    65
 73
     4
 40
20.32
 49
12.7
 74
     0
 49
-2.54
 74
     0
 49
2.54
 74
     0
 49
-2.54
 74
     0
  0
LTYPE
  5
72
330
5
100
AcDbSymbolTableRecord
100
AcDbLinetypeTableRecord
  2
DOT2
 70
     0
  3
Dot (.5x) ........................................
 72
    65
 73
     2
 40
0.635
 49
0.0
 74
     0
 49
-0.635
 74
     0
  0
ENDTAB
  0
TABLE
  2
LAYER
  5
2
330
0
100
AcDbSymbolTable
 70
     1
  0
LAYER
  5
10
330
2
100
AcDbSymbolTableRecord
100
AcDbLayerTableRecord
  2
0
 70
     0
 62
     7
  6
Continuous
370
    -3
390
F
  0
ENDTAB
  0
TABLE
  2
STYLE
  5
3
330
0
100
AcDbSymbolTable
 70
     2
  0
STYLE
  5
11
330
3
100
AcDbSymbolTableRecord
100
AcDbTextStyleTableRecord
  2
Standard
 70
     0
 40
0.0
 41
1.0
 50
0.0
 71
     0
 42
1.75
  3
txt
  4
bigfont
  0
STYLE
  5
73
330
3
100
AcDbSymbolTableRecord
100
AcDbTextStyleTableRecord
  2
SLDTEXTSTYLE0
 70
     0
 40
0.0
 41
0.7
 50
0.0
 71
     0
 42
1.75
  3
TXT
  4
bigfont
  0
ENDTAB
  0
TABLE
  2
VIEW
  5
6
330
0
100
AcDbSymbolTable
 70
     0
  0
ENDTAB
  0
TABLE
  2
UCS
  5
7
330
0
100
AcDbSymbolTable
 70
     0
  0
ENDTAB
  0
TABLE
  2
APPID
  5
9
330
0
100
AcDbSymbolTable
 70
     1
  0
APPID
  5
12
330
9
100
AcDbSymbolTableRecord
100
AcDbRegAppTableRecord
  2
ACAD
 70
     0
  0
ENDTAB
  0
TABLE
  2
DIMSTYLE
  5
A
330
0
100
AcDbSymbolTable
 70
     1
100
AcDbDimStyleTable
  0
DIMSTYLE
105
27
330
A
100
AcDbSymbolTableRecord
100
AcDbDimStyleTableRecord
  2
ISO-25
 70
     0
 41
2.5
 42
0.625
 43
3.75
 44
1.25
 73
     0
 74
     0
 77
     1
 78
     8
140
2.5
141
2.5
143
0.0393700787
147
0.625
171
     3
172
     1
178
     0
271
     2
272
     2
274
     3
278
    44
283
     0
284
     8
340
11
  0
ENDTAB
  0
TABLE
  2
BLOCK_RECORD
  5
1
330
0
100
AcDbSymbolTable
 70
     3
  0
BLOCK_RECORD
  5
1F
330
1
100
AcDbSymbolTableRecord
100
AcDbBlockTableRecord
  2
*Model_Space
340
22
  0
BLOCK_RECORD
  5
1B
330
1
100
AcDbSymbolTableRecord
100
AcDbBlockTableRecord
  2
*Paper_Space
340
1E
  0
BLOCK_RECORD
  5
23
330
1
100
AcDbSymbolTableRecord
100
AcDbBlockTableRecord
  2
*Paper_Space0
340
26
  0
BLOCK_RECORD
  5
1E5
330
1
100
AcDbSymbolTableRecord
100
AcDbBlockTableRecord
  2
SW_CENTERMARKSYMBOL_0
340
0
102
{BLKREFS
331
1F0
102
}
  0
BLOCK_RECORD
  5
244
330
1
100
AcDbSymbolTableRecord
100
AcDbBlockTableRecord
  2
SW_CENTERMARKSYMBOL_1
340
0
102
{BLKREFS
331
24F
102
}
  0
ENDTAB
  0
ENDSEC
  0
SECTION
  2
BLOCKS
  0
BLOCK
  5
20
330
1F
100
AcDbEntity
  8
0
100
AcDbBlockBegin
  2
*Model_Space
 70
     0
 10
0.0
 20
0.0
 30
0.0
  3
*Model_Space
  1

  0
ENDBLK
  5
21
330
1F
100
AcDbEntity
  8
0
100
AcDbBlockEnd
  0
BLOCK
  5
1C
330
1B
100
AcDbEntity
 67
     1
  8
0
100
AcDbBlockBegin
  2
*Paper_Space
 70
     0
 10
0.0
 20
0.0
 30
0.0
  3
*Paper_Space
  1

  0
ENDBLK
  5
1D
330
1B
100
AcDbEntity
 67
     1
  8
0
100
AcDbBlockEnd
  0
BLOCK
  5
24
330
23
100
AcDbEntity
  8
0
100
AcDbBlockBegin
  2
*Paper_Space0
 70
     0
 10
0.0
 20
0.0
 30
0.0
  3
*Paper_Space0
  1

  0
ENDBLK
  5
25
330
23
100
AcDbEntity
  8
0
100
AcDbBlockEnd
  0
BLOCK
  5
1E6
330
1E5
100
AcDbEntity
  8
0
100
AcDbBlockBegin
  2
SW_CENTERMARKSYMBOL_0
 70
     0
 10
0.0
 20
0.0
 30
0.0
  3
SW_CENTERMARKSYMBOL_0
  1

  0
LINE
  5
1E8
330
1E5
100
AcDbEntity
  8
0
  6
Continuous
 62
     0
370
    18
100
AcDbLine
 10
0.0
 20
0.0
 30
0.0
 11
0.0
 21
2.5
 31
0.0
  0
LINE
  5
1E9
330
1E5
100
AcDbEntity
  8
0
  6
Continuous
 62
     0
370
    18
100
AcDbLine
 10
0.0
 20
0.0
 30
0.0
 11
-2.5
 21
0.0
 31
0.0
  0
LINE
  5
1EA
330
1E5
100
AcDbEntity
  8
0
  6
Continuous
 62
     0
370
    18
100
AcDbLine
 10
0.0
 20
0.0
 30
0.0
 11
0.0
 21
-2.5
 31
0.0
  0
LINE
  5
1EB
330
1E5
100
AcDbEntity
  8
0
  6
Continuous
 62
     0
370
    18
100
AcDbLine
 10
0.0
 20
0.0
 30
0.0
 11
2.5
 21
0.0
 31
0.0
  0
LINE
  5
1EC
330
1E5
100
AcDbEntity
  8
0
  6
Continuous
 62
     0
370
    18
100
AcDbLine
 10
0.0
 20
5.0
 30
0.0
 11
0.0
 21
26.8324177952
 31
0.0
  0
LINE
  5
1ED
330
1E5
100
AcDbEntity
  8
0
  6
Continuous
 62
     0
370
    18
100
AcDbLine
 10
-5.0
 20
0.0
 30
0.0
 11
-9.5
 21
0.0
 31
0.0
  0
LINE
  5
1EE
330
1E5
100
AcDbEntity
  8
0
  6
Continuous
 62
     0
370
    18
100
AcDbLine
 10
0.0
 20
-5.0
 30
0.0
 11
0.0
 21
-9.5
 31
0.0
  0
LINE
  5
1EF
330
1E5
100
AcDbEntity
  8
0
  6
Continuous
 62
     0
370
    18
100
AcDbLine
 10
5.0
 20
0.0
 30
0.0
 11
9.5
 21
0.0
 31
0.0
  0
ENDBLK
  5
1E7
330
1E5
100
AcDbEntity
  8
0
100
AcDbBlockEnd
  0
BLOCK
  5
245
330
244
100
AcDbEntity
  8
0
100
AcDbBlockBegin
  2
SW_CENTERMARKSYMBOL_1
 70
     0
 10
0.0
 20
0.0
 30
0.0
  3
SW_CENTERMARKSYMBOL_1
  1

  0
LINE
  5
247
330
244
100
AcDbEntity
  8
0
  6
Continuous
 62
     0
370
    18
100
AcDbLine
 10
0.0
 20
0.0
 30
0.0
 11
0.0
 21
2.5
 31
0.0
  0
LINE
  5
248
330
244
100
AcDbEntity
  8
0
  6
Continuous
 62
     0
370
    18
100
AcDbLine
 10
0.0
 20
0.0
 30
0.0
 11
-2.5
 21
0.0
 31
0.0
  0
LINE
  5
249
330
244
100
AcDbEntity
  8
0
  6
Continuous
 62
     0
370
    18
100
AcDbLine
 10
0.0
 20
0.0
 30
0.0
 11
0.0
 21
-2.5
 31
0.0
  0
LINE
  5
24A
330
244
100
AcDbEntity
  8
0
  6
Continuous
 62
     0
370
    18
100
AcDbLine
 10
0.0
 20
0.0
 30
0.0
 11
2.5
 21
0.0
 31
0.0
  0
LINE
  5
24B
330
244
100
AcDbEntity
  8
0
  6
Continuous
 62
     0
370
    18
100
AcDbLine
 10
0.0
 20
5.0
 30
0.0
 11
0.0
 21
11.5
 31
0.0
  0
LINE
  5
24C
330
244
100
AcDbEntity
  8
0
  6
Continuous
 62
     0
370
    18
100
AcDbLine
 10
-5.0
 20
0.0
 30
0.0
 11
-11.5
 21
0.0
 31
0.0
  0
LINE
  5
24D
330
244
100
AcDbEntity
  8
0
  6
Continuous
 62
     0
370
    18
100
AcDbLine
 10
0.0
 20
-5.0
 30
0.0
 11
0.0
 21
-11.5
 31
0.0
  0
LINE
  5
24E
330
244
100
AcDbEntity
  8
0
  6
Continuous
 62
     0
370
    18
100
AcDbLine
 10
5.0
 20
0.0
 30
0.0
 11
25.7623491563
 21
0.0
 31
0.0
  0
ENDBLK
  5
246
330
244
100
AcDbEntity
  8
0
100
AcDbBlockEnd
  0
ENDSEC
  0
SECTION
  2
ENTITIES
  0
MTEXT
  5
74
330
1F
100
AcDbEntity
  8
0
  6
Continuous
 62
     7
370
     0
100
AcDbMText
 10
81.0251232772
 20
70.1667846777
 30
0.0
 40
2.6458333333
 41
0.0
 71
     1
 72
     1
  1
5R-LK1022
  7
SLDTEXTSTYLE0
 73
     1
 44
1.0
  0
LINE
  5
75
330
1F
100
AcDbEntity
  8
0
  6
Continuous
 62
     7
370
    25
100
AcDbLine
 10
68.4487354483
 20
60.5500293319
 30
0.0
 11
67.9487354483
 21
61.0500293319
 31
0.0
  0
LINE
  5
76
330
1F
100
AcDbEntity
  8
0
  6
Continuous
 62
     7
370
    25
100
AcDbLine
 10
50.9487354483
 20
61.0500293319
 30
0.0
 11
50.4487354483
 21
60.5500293319
 31
0.0
  0
LINE
  5
77
330
1F
100
AcDbEntity
  8
0
  6
Continuous
 62
     7
370
    25
100
AcDbLine
 10
50.4487354483
 20
60.5500293319
 30
0.0
 11
50.4487354483
 21
49.0500293319
 31
0.0
  0
LINE
  5
78
330
1F
100
AcDbEntity
  8
0
  6
Continuous
 62
     7
370
    25
100
AcDbLine
 10
68.4487354483
 20
49.0500293319
 30
0.0
 11
68.4487354483
 21
60.5500293319
 31
0.0
  0
ARC
  5
79
330
1F
100
AcDbEntity
  8
0
  6
Continuous
 62
     7
370
    25
100
AcDbCircle
 10
51.4487354483
 20
49.0500293319
 30
0.0
 40
1.0
100
AcDbArc
 50
180.0
 51
270.0
  0
ARC
  5
7A
330
1F
100
AcDbEntity
  8
0
  6
Continuous
 62
     7
370
    25
100
AcDbCircle
 10
67.4487354483
 20
49.0500293319
 30
0.0
 40
1.0
100
AcDbArc
 50
270.0
 51
0.0
  0
ARC
  5
7B
330
1F
100
AcDbEntity
  8
0
  6
Continuous
 62
     7
370
    25
100
AcDbCircle
 10
51.4487354483
 20
47.0500293319
 30
0.0
 40
1.0
100
AcDbArc
 50
0.0
 51
90.0
  0
ARC
  5
7C
330
1F
100
AcDbEntity
  8
0
  6
Continuous
 62
     7
370
    25
100
AcDbCircle
 10
67.4487354483
 20
47.0500293319
 30
0.0
 40
1.000000000000014
100
AcDbArc
 50
90.0
 51
180.0
  0
LINE
  5
7D
330
1F
100
AcDbEntity
  8
0
  6
Continuous
 62
     7
370
    25
100
AcDbLine
 10
66.4487354483
 20
43.0500293319
 30
0.0
 11
66.4487354483
 21
47.0500293319
 31
0.0
  0
LINE
  5
7E
330
1F
100
AcDbEntity
  8
0
  6
Continuous
 62
     7
370
    25
100
AcDbLine
 10
52.4487354483
 20
47.0500293319
 30
0.0
 11
52.4487354483
 21
31.0500293319
 31
0.0
  0
LINE
  5
7F
330
1F
100
AcDbEntity
  8
0
  6
Continuous
 62
     7
370
    25
100
AcDbLine
 10
54.4487354483
 20
29.0500293319
 30
0.0
 11
68.9487354483
 21
29.0500293319
 31
0.0
  0
LINE
  5
80
330
1F
100
AcDbEntity
  8
0
  6
Continuous
 62
     7
370
    25
100
AcDbLine
 10
68.9487354483
 20
43.0500293319
 30
0.0
 11
66.4487354483
 21
43.0500293319
 31
0.0
  0
LINE
  5
81
330
1F
100
AcDbEntity
  8
0
  6
Continuous
 62
     7
370
    25
100
AcDbLine
 10
68.9487354483
 20
29.0500293319
 30
0.0
 11
69.1099612548
 21
29.2112551384
 31
0.0
  0
LINE
  5
82
330
1F
100
AcDbEntity
  8
0
  6
Continuous
 62
     7
370
    25
100
AcDbLine
 10
69.1099612548
 20
42.8888035254
 30
0.0
 11
68.9487354483
 21
43.0500293319
 31
0.0
  0
LINE
  5
83
330
1F
100
AcDbEntity
  8
0
  6
Continuous
 62
     7
370
    25
100
AcDbLine
 10
69.1099612548
 20
29.2112551384
 30
0.0
 11
81.3599477945
 21
29.5940672177
 31
0.0
  0
LINE
  5
84
330
1F
100
AcDbEntity
  8
0
  6
Continuous
 62
     7
370
    25
100
AcDbLine
 10
81.3599477945
 20
42.5059914461
 30
0.0
 11
69.1099612548
 21
42.8888035254
 31
0.0
  0
LINE
  5
85
330
1F
100
AcDbEntity
  8
0
  6
Continuous
 62
     7
370
    25
100
AcDbLine
 10
81.3599477945
 20
29.5940672177
 30
0.0
 11
83.4487354483
 21
30.8000293319
 31
0.0
  0
LINE
  5
86
330
1F
100
AcDbEntity
  8
0
  6
Continuous
 62
     7
370
    25
100
AcDbLine
 10
83.4487354483
 20
41.3000293319
 30
0.0
 11
81.3599477945
 21
42.5059914461
 31
0.0
  0
ARC
  5
87
330
1F
100
AcDbEntity
  8
0
  6
Continuous
 62
     7
370
    25
100
AcDbCircle
 10
54.4487354483
 20
31.0500293319
 30
0.0
 40
2.000000000000002
100
AcDbArc
 50
179.7395241209
 51
270.1907788448
  0
LINE
  5
88
330
1F
100
AcDbEntity
  8
0
  6
Continuous
 62
     7
370
    25
100
AcDbLine
 10
68.4487354483
 20
60.5500293319
 30
0.0
 11
50.4487354483
 21
60.5500293319
 31
0.0
  0
LINE
  5
89
330
1F
100
AcDbEntity
  8
0
  6
Continuous
 62
     7
370
    25
100
AcDbLine
 10
50.9487354483
 20
61.0500293319
 30
0.0
 11
67.9487354483
 21
61.0500293319
 31
0.0
  0
LINE
  5
8A
330
1F
100
AcDbEntity
  8
0
  6
Continuous
 62
     7
370
    25
100
AcDbLine
 10
67.4487354483
 20
48.0500293319
 30
0.0
 11
51.4487354483
 21
48.0500293319
 31
0.0
  0
SPLINE
  5
8B
330
1F
100
AcDbEntity
  8
0
  6
Continuous
 62
     7
370
    25
100
AcDbSpline
210
0.0
220
0.0
230
1.0
 70
     8
 71
     3
 72
     8
 73
     4
 74
     0
 42
0.000000001
 43
0.00000001
 40
0.0
 40
0.0
 40
0.0
 40
0.0
 40
1.0
 40
1.0
 40
1.0
 40
1.0
 10
53.43323447479489
 20
31.75324292224373
 30
0.0
 10
53.42071861711032
 20
31.85065834135507
 30
0.0
 10
53.41425268969223
 20
31.94953907888233
 30
0.0
 10
53.41425268969223
 20
32.05002933189946
 30
0.0
  0
LINE
  5
8C
330
1F
100
AcDbEntity
  8
0
  6
Continuous
 62
     7
370
    25
100
AcDbLine
 10
65.817021937
 20
42.4183158206
 30
0.0
 11
66.4487354483
 21
43.0500293319
 31
0.0
  0
SPLINE
  5
8D
330
1F
100
AcDbEntity
  8
0
  6
Continuous
 62
     7
370
    25
100
AcDbSpline
210
0.0
220
0.0
230
1.0
 70
     8
 71
     3
 72
    12
 73
     8
 74
     0
 42
0.000000001
 43
0.00000001
 40
0.0
 40
0.0
 40
0.0
 40
0.0
 40
0.2500000000000002
 40
0.2500000000000002
 40
0.5000000000000004
 40
0.5000000000000004
 40
1.0
 40
1.0
 40
1.0
 40
1.0
 10
65.48321820693361
 20
43.05002933189947
 30
0.0
 10
65.48321820693361
 20
42.96322355478284
 30
0.0
 10
65.49831705987182
 20
42.87973835624597
 30
0.0
 10
65.54576891805831
 20
42.7357581675077
 30
0.0
 10
65.57667392997456
 20
42.67652203458446
 30
0.0
 10
65.67600768172372
 20
42.52620846642746
 30
0.0
 10
65.74833995345925
 20
42.46383969349871
 30
0.0
 10
65.81702193701021
 20
42.41831582059675
 30
0.0
  0
LINE
  5
8E
330
1F
100
AcDbEntity
  8
0
  6
Continuous
 62
     7
370
    25
100
AcDbLine
 10
65.4832182069
 20
43.3000293319
 30
0.0
 11
65.4832182069
 21
43.0500293319
 31
0.0
  0
SPLINE
  5
8F
330
1F
100
AcDbEntity
  8
0
  6
Continuous
 62
     7
370
    25
100
AcDbSpline
210
0.0
220
0.0
230
1.0
 70
     8
 71
     3
 72
    14
 73
    10
 74
     0
 42
0.000000001
 43
0.00000001
 40
0.0
 40
0.0
 40
0.0
 40
0.0
 40
0.25
 40
0.25
 40
0.5
 40
0.5
 40
0.75
 40
0.75
 40
1.0
 40
1.0
 40
1.0
 40
1.0
 10
65.48321820693361
 20
43.30002933189947
 30
0.0
 10
65.48321820693361
 20
43.39183172651239
 30
0.0
 10
65.4577080129945
 20
43.47599566542782
 30
0.0
 10
65.39074164520501
 20
43.60309134599919
 30
0.0
 10
65.34892701260355
 20
43.65121381525035
 30
0.0
 10
65.25896649492202
 20
43.72653159502911
 30
0.0
 10
65.20995950282233
 20
43.75390780812243
 30
0.0
 10
65.10864565228304
 20
43.79046965874456
 30
0.0
 10
65.05577703563243
 20
43.80002933189947
 30
0.0
 10
65.00045958624395
 20
43.80002933189947
 30
0.0
  0
LINE
  5
90
330
1F
100
AcDbEntity
  8
0
  6
Continuous
 62
     7
370
    25
100
AcDbLine
 10
62.0032539555
 20
43.8000293319
 30
0.0
 11
65.0004595862
 21
43.8000293319
 31
0.0
  0
SPLINE
  5
91
330
1F
100
AcDbEntity
  8
0
  6
Continuous
 62
     7
370
    25
100
AcDbSpline
210
0.0
220
0.0
230
1.0
 70
    24
 71
     3
 72
    14
 73
    10
 74
     0
 42
0.000000001
 43
0.00000001
 40
0.0
 40
0.0
 40
0.0
 40
0.0
 40
0.25
 40
0.25
 40
0.5
 40
0.5
 40
0.75
 40
0.75
 40
1.0
 40
1.0
 40
1.0
 40
1.0
 10
59.44873544831292
 20
43.80002933189947
 30
0.0
 10
59.66403167883552
 20
43.80002933189947
 30
0.0
 10
59.87932903997874
 20
43.80002933189947
 30
0.0
 10
60.30906280457477
 20
43.80002933189947
 30
0.0
 10
60.52350147397124
 20
43.80002933189947
 30
0.0
 10
60.95059127768134
 20
43.80002933189947
 30
0.0
 10
61.1632446891159
 20
43.80002933189947
 30
0.0
 10
61.58570139162829
 20
43.80002933189947
 30
0.0
 10
61.79550696851355
 20
43.80002933189947
 30
0.0
 10
62.00325395554771
 20
43.80002933189947
 30
0.0
  0
SPLINE
  5
92
330
1F
100
AcDbEntity
  8
0
  6
Continuous
 62
     7
370
    25
100
AcDbSpline
210
0.0
220
0.0
230
1.0
 70
    24
 71
     3
 72
    14
 73
    10
 74
     0
 42
0.000000001
 43
0.00000001
 40
0.0
 40
0.0
 40
0.0
 40
0.0
 40
0.25
 40
0.25
 40
0.5
 40
0.5
 40
0.75
 40
0.75
 40
1.0
 40
1.0
 40
1.0
 40
1.0
 10
59.44873544831292
 20
43.80002933189947
 30
0.0
 10
59.23343921779033
 20
43.80002933189947
 30
0.0
 10
59.01814185664711
 20
43.80002933189947
 30
0.0
 10
58.58840809205108
 20
43.80002933189947
 30
0.0
 10
58.37396942265462
 20
43.80002933189947
 30
0.0
 10
57.94687961894451
 20
43.80002933189947
 30
0.0
 10
57.73422620750994
 20
43.80002933189947
 30
0.0
 10
57.31176950499756
 20
43.80002933189947
 30
0.0
 10
57.1019639281123
 20
43.80002933189947
 30
0.0
 10
56.89421694107814
 20
43.80002933189947
 30
0.0
  0
LINE
  5
93
330
1F
100
AcDbEntity
  8
0
  6
Continuous
 62
     7
370
    25
100
AcDbLine
 10
53.8970113104
 20
43.8000293319
 30
0.0
 11
56.8942169411
 21
43.8000293319
 31
0.0
  0
SPLINE
  5
94
330
1F
100
AcDbEntity
  8
0
  6
Continuous
 62
     7
370
    25
100
AcDbSpline
210
0.0
220
0.0
230
1.0
 70
     8
 71
     3
 72
    14
 73
    10
 74
     0
 42
0.000000001
 43
0.00000001
 40
0.0
 40
0.0
 40
0.0
 40
0.0
 40
0.25
 40
0.25
 40
0.5
 40
0.5
 40
0.75
 40
0.75
 40
1.0
 40
1.0
 40
1.0
 40
1.0
 10
53.8970113103819
 20
43.80002933189947
 30
0.0
 10
53.84173253375631
 20
43.80002933189947
 30
0.0
 10
53.78875385559006
 20
43.79048076766333
 30
0.0
 10
53.6870123878639
 20
43.75369064953851
 30
0.0
 10
53.63796811414148
 20
43.72613960225033
 30
0.0
 10
53.54852006917326
 20
43.65113651468018
 30
0.0
 10
53.50664550084868
 20
43.6029561344882
 30
0.0
 10
53.43977387264499
 20
43.47599275671138
 30
0.0
 10
53.41425268969223
 20
43.39197027662259
 30
0.0
 10
53.41425268969223
 20
43.30002933189947
 30
0.0
  0
LINE
  5
95
330
1F
100
AcDbEntity
  8
0
  6
Continuous
 62
     7
370
    25
100
AcDbLine
 10
53.4142526897
 20
32.0500293319
 30
0.0
 11
53.4142526897
 21
43.3000293319
 31
0.0
  0
LINE
  5
96
330
1F
100
AcDbEntity
  8
0
  6
Continuous
 62
     7
370
    25
100
AcDbLine
 10
66.6987354483
 20
30.3000293319
 30
0.0
 11
66.6987354483
 21
33.4042780208
 31
0.0
  0
SPLINE
  5
97
330
1F
100
AcDbEntity
  8
0
  6
Continuous
 62
     7
370
    25
100
AcDbSpline
210
0.0
220
0.0
230
1.0
 70
     8
 71
     3
 72
    10
 73
     6
 74
     0
 42
0.000000001
 43
0.00000001
 40
0.0
 40
0.0
 40
0.0
 40
0.0
 40
0.5
 40
0.5
 40
1.0
 40
1.0
 40
1.0
 40
1.0
 10
66.87551214360805
 20
33.41764396890249
 30
0.0
 10
66.84695754009866
 20
33.4142556792507
 30
0.0
 10
66.8139360050218
 20
33.4109141922338
 30
0.0
 10
66.75099759787588
 20
33.40592536302589
 30
0.0
 10
66.72108072580679
 20
33.40427802083487
 30
0.0
 10
66.69873544831292
 20
33.40427802083487
 30
0.0
  0
SPLINE
  5
98
330
1F
100
AcDbEntity
  8
0
  6
Continuous
 62
     7
370
    25
100
AcDbSpline
210
0.0
220
0.0
230
1.0
 70
     8
 71
     3
 72
    12
 73
     8
 74
     0
 42
0.000000001
 43
0.00000001
 40
0.0
 40
0.0
 40
0.0
 40
0.0
 40
0.25
 40
0.25
 40
0.5
 40
0.5
 40
1.0
 40
1.0
 40
1.0
 40
1.0
 10
66.87551214360805
 20
33.41764396890249
 30
0.0
 10
66.88978944536275
 20
33.41933811372838
 30
0.0
 10
66.90150455278415
 20
33.42126432328449
 30
0.0
 10
66.92058791057433
 20
33.424179784575
 30
0.0
 10
66.9279561609431
 20
33.42516903630938
 30
0.0
 10
66.9447069238914
 20
33.42462972385677
 30
0.0
 10
66.94873544831293
 20
33.41959409201397
 30
0.0
 10
66.94873544831293
 20
33.40427802083487
 30
0.0
  0
LINE
  5
99
330
1F
100
AcDbEntity
  8
0
  6
Continuous
 62
     7
370
    25
100
AcDbLine
 10
66.9487354483
 20
33.4042780208
 30
0.0
 11
66.9487354483
 21
30.3000293319
 31
0.0
  0
LINE
  5
9A
330
1F
100
AcDbEntity
  8
0
  6
Continuous
 62
     7
370
    25
100
AcDbLine
 10
66.6987354483
 20
30.3000293319
 30
0.0
 11
66.9487354483
 21
30.3000293319
 31
0.0
  0
LINE
  5
9B
330
1F
100
AcDbEntity
  8
0
  6
Continuous
 62
     7
370
    25
100
AcDbLine
 10
53.6987354483
 20
43.5500293319
 30
0.0
 11
56.8029841372
 21
43.5500293319
 31
0.0
  0
SPLINE
  5
9C
330
1F
100
AcDbEntity
  8
0
  6
Continuous
 62
     7
370
    25
100
AcDbSpline
210
0.0
220
0.0
230
1.0
 70
     8
 71
     3
 72
    12
 73
     8
 74
     0
 42
0.000000001
 43
0.00000001
 40
0.0
 40
0.0
 40
0.0
 40
0.0
 40
0.25
 40
0.25
 40
0.5
 40
0.5
 40
1.0
 40
1.0
 40
1.0
 40
1.0
 10
56.81635008531595
 20
43.47680602719459
 30
0.0
 10
56.81804423014184
 20
43.4910833289493
 30
0.0
 10
56.81997043969795
 20
43.5027984363707
 30
0.0
 10
56.82288590098845
 20
43.52188179416087
 30
0.0
 10
56.82387515272283
 20
43.52925004452964
 30
0.0
 10
56.82333584027023
 20
43.54600080747795
 30
0.0
 10
56.81830020842743
 20
43.55002933189947
 30
0.0
 10
56.80298413724833
 20
43.55002933189947
 30
0.0
  0
SPLINE
  5
9D
330
1F
100
AcDbEntity
  8
0
  6
Continuous
 62
     7
370
    25
100
AcDbSpline
210
0.0
220
0.0
230
1.0
 70
     8
 71
     3
 72
    10
 73
     6
 74
     0
 42
0.000000001
 43
0.00000001
 40
0.0
 40
0.0
 40
0.0
 40
0.0
 40
0.5
 40
0.5
 40
1.0
 40
1.0
 40
1.0
 40
1.0
 10
56.81635008531595
 20
43.47680602719459
 30
0.0
 10
56.81296179566416
 20
43.4482514236852
 30
0.0
 10
56.80962030864725
 20
43.41522988860835
 30
0.0
 10
56.80463147943934
 20
43.35229148146242
 30
0.0
 10
56.80298413724833
 20
43.32237460939333
 30
0.0
 10
56.80298413724833
 20
43.30002933189947
 30
0.0
  0
LINE
  5
9E
330
1F
100
AcDbEntity
  8
0
  6
Continuous
 62
     7
370
    25
100
AcDbLine
 10
56.8029841372
 20
43.3000293319
 30
0.0
 11
53.6987354483
 21
43.3000293319
 31
0.0
  0
LINE
  5
9F
330
1F
100
AcDbEntity
  8
0
  6
Continuous
 62
     7
370
    25
100
AcDbLine
 10
53.6987354483
 20
43.5500293319
 30
0.0
 11
53.6987354483
 21
43.3000293319
 31
0.0
  0
LINE
  5
A0
330
1F
100
AcDbEntity
  8
0
  6
Continuous
 62
     7
370
    25
100
AcDbLine
 10
65.1987354483
 20
43.3000293319
 30
0.0
 11
62.0944867594
 21
43.3000293319
 31
0.0
  0
LINE
  5
A1
330
1F
100
AcDbEntity
  8
0
  6
Continuous
 62
     7
370
    25
100
AcDbLine
 10
65.1987354483
 20
43.0500293319
 30
0.0
 11
65.1987354483
 21
43.3000293319
 31
0.0
  0
ARC
  5
A2
330
1F
100
AcDbEntity
  8
0
  6
Continuous
 62
     7
370
    25
100
AcDbCircle
 10
66.4487354483
 20
43.0500293319
 30
0.0
 40
1.25
100
AcDbArc
 50
180.0
 51
270.0
  0
LINE
  5
A3
330
1F
100
AcDbEntity
  8
0
  6
Continuous
 62
     7
370
    25
100
AcDbLine
 10
66.6987354483
 20
41.8000293319
 30
0.0
 11
66.4487354483
 21
41.8000293319
 31
0.0
  0
LINE
  5
A4
330
1F
100
AcDbEntity
  8
0
  6
Continuous
 62
     7
370
    25
100
AcDbLine
 10
66.6987354483
 20
38.695780643
 30
0.0
 11
66.6987354483
 21
41.8000293319
 31
0.0
  0
LINE
  5
A5
330
1F
100
AcDbEntity
  8
0
  6
Continuous
 62
     7
370
    25
100
AcDbLine
 10
66.6987354483
 20
38.695780643
 30
0.0
 11
66.6987354483
 21
36.0500293319
 31
0.0
  0
LINE
  5
A6
330
1F
100
AcDbEntity
  8
0
  6
Continuous
 62
     7
370
    25
100
AcDbLine
 10
66.6987354483
 20
36.0500293319
 30
0.0
 11
66.6987354483
 21
33.4042780208
 31
0.0
  0
LINE
  5
A7
330
1F
100
AcDbEntity
  8
0
  6
Continuous
 62
     7
370
    25
100
AcDbLine
 10
55.4487354483
 20
30.3000293319
 30
0.0
 11
66.6987354483
 21
30.3000293319
 31
0.0
  0
ARC
  5
A8
330
1F
100
AcDbEntity
  8
0
  6
Continuous
 62
     7
370
    25
100
AcDbCircle
 10
55.4487354483
 20
32.0500293319
 30
0.0
 40
1.750000000000007
100
AcDbArc
 50
180.0
 51
270.0
  0
LINE
  5
A9
330
1F
100
AcDbEntity
  8
0
  6
Continuous
 62
     7
370
    25
100
AcDbLine
 10
53.6987354483
 20
43.3000293319
 30
0.0
 11
53.6987354483
 21
32.0500293319
 31
0.0
  0
LINE
  5
AA
330
1F
100
AcDbEntity
  8
0
  6
Continuous
 62
     7
370
    25
100
AcDbLine
 10
56.8029841372
 20
43.3000293319
 30
0.0
 11
59.4487354483
 21
43.3000293319
 31
0.0
  0
LINE
  5
AB
330
1F
100
AcDbEntity
  8
0
  6
Continuous
 62
     7
370
    25
100
AcDbLine
 10
59.4487354483
 20
43.3000293319
 30
0.0
 11
62.0944867594
 21
43.3000293319
 31
0.0
  0
LINE
  5
AC
330
1F
100
AcDbEntity
  8
0
  6
Continuous
 62
     7
370
    25
100
AcDbLine
 10
64.300637216
 20
35.8690748365
 30
0.0
 11
65.2759127349
 21
33.142247457
 31
0.0
  0
SPLINE
  5
AD
330
1F
100
AcDbEntity
  8
0
  6
Continuous
 62
     7
370
    25
100
AcDbSpline
210
0.0
220
0.0
230
1.0
 70
     8
 71
     3
 72
    14
 73
    10
 74
     0
 42
0.000000001
 43
0.00000001
 40
0.0
 40
0.0
 40
0.0
 40
0.0
 40
0.25
 40
0.25
 40
0.5
 40
0.5
 40
0.75
 40
0.75
 40
1.0
 40
1.0
 40
1.0
 40
1.0
 10
62.92698967795915
 20
35.86907483654223
 30
0.0
 10
62.98738610115798
 20
35.99971221684709
 30
0.0
 10
63.08691566281539
 20
36.1097765820126
 30
0.0
 10
63.32800135356177
 20
36.25955386548577
 30
0.0
 10
63.46931838685517
 20
36.2998998026202
 30
0.0
 10
63.75691160096782
 20
36.30015823354975
 30
0.0
 10
63.89836925685672
 20
36.26033719645201
 30
0.0
 10
64.14198919395507
 20
36.10897978229693
 30
0.0
 10
64.2402461929221
 20
35.99970053639727
 30
0.0
 10
64.30063721600183
 20
35.86907483654278
 30
0.0
  0
LINE
  5
AE
330
1F
100
AcDbEntity
  8
0
  6
Continuous
 62
     7
370
    25
100
AcDbLine
 10
61.9519404608
 20
33.1428801866
 30
0.0
 11
62.926989678
 21
35.8690748365
 31
0.0
  0
SPLINE
  5
AF
330
1F
100
AcDbEntity
  8
0
  6
Continuous
 62
     7
370
    25
100
AcDbSpline
210
0.0
220
0.0
230
1.0
 70
     8
 71
     3
 72
    10
 73
     6
 74
     0
 42
0.000000001
 43
0.00000001
 40
0.0
 40
0.0
 40
0.0
 40
0.0
 40
0.5
 40
0.5
 40
1.0
 40
1.0
 40
1.0
 40
1.0
 10
61.55133650249612
 20
33.00684646361453
 30
0.0
 10
61.62178840075312
 20
32.96807600148438
 30
0.0
 10
61.70712039584791
 20
32.96075366143079
 30
0.0
 10
61.85910630900956
 20
33.00971897647319
 30
0.0
 10
61.92481087427461
 20
33.06702705799787
 30
0.0
 10
61.95194046082367
 20
33.14288018664509
 30
0.0
  0
LINE
  5
B0
330
1F
100
AcDbEntity
  8
0
  6
Continuous
 62
     7
370
    25
100
AcDbLine
 10
60.7837269988
 20
33.4292704994
 30
0.0
 11
61.5513365025
 21
33.0068464636
 31
0.0
  0
LINE
  5
B1
330
1F
100
AcDbEntity
  8
0
  6
Continuous
 62
     7
370
    25
100
AcDbLine
 10
61.7835143491
 20
31.5233422856
 30
0.0
 11
60.7837269988
 21
33.4292704994
 31
0.0
  0
SPLINE
  5
B2
330
1F
100
AcDbEntity
  8
0
  6
Continuous
 62
     7
370
    25
100
AcDbSpline
210
0.0
220
0.0
230
1.0
 70
     8
 71
     3
 72
    10
 73
     6
 74
     0
 42
0.000000001
 43
0.00000001
 40
0.0
 40
0.0
 40
0.0
 40
0.0
 40
0.5
 40
0.5
 40
1.0
 40
1.0
 40
1.0
 40
1.0
 10
62.27388619269856
 20
31.43476824439426
 30
0.0
 10
62.20177519837651
 20
31.37076247459027
 30
0.0
 10
62.1006710715367
 20
31.34317713633669
 30
0.0
 10
61.91311321349674
 20
31.37697789630044
 30
0.0
 10
61.82830998790437
 20
31.43794685447085
 30
0.0
 10
61.78351434912079
 20
31.5233422855969
 30
0.0
  0
SPLINE
  5
B3
330
1F
100
AcDbEntity
  8
0
  6
Continuous
 62
     7
370
    25
100
AcDbSpline
210
0.0
220
0.0
230
1.0
 70
     8
 71
     3
 72
    14
 73
    10
 74
     0
 42
0.000000001
 43
0.00000001
 40
0.0
 40
0.0
 40
0.0
 40
0.0
 40
0.4999999999999987
 40
0.4999999999999987
 40
0.6249999999999988
 40
0.6249999999999988
 40
0.7499999999999993
 40
0.7499999999999993
 40
1.0
 40
1.0
 40
1.0
 40
1.0
 10
64.95374070126255
 20
31.43476824439417
 30
0.0
 10
64.58572021269264
 20
31.76142349157235
 30
0.0
 10
64.10167242897131
 20
31.93654633496443
 30
0.0
 10
63.49194664289971
 20
31.9365694334536
 30
0.0
 10
63.36883978425903
 20
31.92560255106365
 30
0.0
 10
63.12977169180213
 20
31.88272206713348
 30
0.0
 10
63.01258475969003
 20
31.85087621040701
 30
0.0
 10
62.66834769736743
 20
31.72286985047823
 30
0.0
 10
62.45791691080036
 20
31.59811404055771
 30
0.0
 10
62.27388619269856
 20
31.43476824439426
 30
0.0
  0
SPLINE
  5
B4
330
1F
100
AcDbEntity
  8
0
  6
Continuous
 62
     7
370
    25
100
AcDbSpline
210
0.0
220
0.0
230
1.0
 70
     8
 71
     3
 72
    10
 73
     6
 74
     0
 42
0.000000001
 43
0.00000001
 40
0.0
 40
0.0
 40
0.0
 40
0.0
 40
0.5
 40
0.5
 40
1.0
 40
1.0
 40
1.0
 40
1.0
 10
65.44411254484042
 20
31.52334228559725
 30
0.0
 10
65.39931355545316
 20
31.43794046710251
 30
0.0
 10
65.31402970979562
 20
31.37675201732679
 30
0.0
 10
65.12653985019483
 20
31.34324149925368
 30
0.0
 10
65.02586078487555
 20
31.37075440692904
 30
0.0
 10
64.95374070126253
 20
31.43476824439416
 30
0.0
  0
LINE
  5
B5
330
1F
100
AcDbEntity
  8
0
  6
Continuous
 62
     7
370
    25
100
AcDbLine
 10
66.4554595048
 20
33.4513069716
 30
0.0
 11
65.4441125448
 21
31.5233422856
 31
0.0
  0
LINE
  5
B6
330
1F
100
AcDbEntity
  8
0
  6
Continuous
 62
     7
370
    25
100
AcDbLine
 10
65.6804379392
 20
33.0084128913
 30
0.0
 11
66.4554595048
 21
33.4513069716
 31
0.0
  0
SPLINE
  5
B7
330
1F
100
AcDbEntity
  8
0
  6
Continuous
 62
     7
370
    25
100
AcDbSpline
210
0.0
220
0.0
230
1.0
 70
     8
 71
     3
 72
    10
 73
     6
 74
     0
 42
0.000000001
 43
0.00000001
 40
0.0
 40
0.0
 40
0.0
 40
0.0
 40
0.5
 40
0.5
 40
1.0
 40
1.0
 40
1.0
 40
1.0
 10
65.2759127348702
 20
33.14224745696921
 30
0.0
 10
65.30335491006035
 20
33.06552034425494
 30
0.0
 10
65.37043754073275
 20
33.00791315888988
 30
0.0
 10
65.52324539519289
 20
32.95995741000643
 30
0.0
 10
65.60983788035779
 20
32.96806775825318
 30
0.0
 10
65.68043793920846
 20
33.00841289125002
 30
0.0
  0
SPLINE
  5
B8
330
1F
100
AcDbEntity
  8
0
  6
Continuous
 62
     7
370
    25
100
AcDbSpline
210
0.0
220
0.0
230
1.0
 70
     8
 71
     3
 72
    12
 73
     8
 74
     0
 42
0.000000001
 43
0.00000001
 40
0.0
 40
0.0
 40
0.0
 40
0.0
 40
0.25
 40
0.25
 40
0.5
 40
0.5
 40
1.0
 40
1.0
 40
1.0
 40
1.0
 10
62.0811208113099
 20
43.47680602719459
 30
0.0
 10
62.079426666484
 20
43.49108332894929
 30
0.0
 10
62.0775004569279
 20
43.5027984363707
 30
0.0
 10
62.0745849956374
 20
43.52188179416088
 30
0.0
 10
62.07359574390301
 20
43.52925004452964
 30
0.0
 10
62.07413505635562
 20
43.54600080747795
 30
0.0
 10
62.07917068819842
 20
43.55002933189947
 30
0.0
 10
62.09448675937752
 20
43.55002933189947
 30
0.0
  0
LINE
  5
B9
330
1F
100
AcDbEntity
  8
0
  6
Continuous
 62
     7
370
    25
100
AcDbLine
 10
62.0944867594
 20
43.5500293319
 30
0.0
 11
65.1987354483
 21
43.5500293319
 31
0.0
  0
LINE
  5
BA
330
1F
100
AcDbEntity
  8
0
  6
Continuous
 62
     7
370
    25
100
AcDbLine
 10
65.1987354483
 20
43.5500293319
 30
0.0
 11
65.1987354483
 21
43.3000293319
 31
0.0
  0
SPLINE
  5
BB
330
1F
100
AcDbEntity
  8
0
  6
Continuous
 62
     7
370
    25
100
AcDbSpline
210
0.0
220
0.0
230
1.0
 70
     8
 71
     3
 72
    10
 73
     6
 74
     0
 42
0.000000001
 43
0.00000001
 40
0.0
 40
0.0
 40
0.0
 40
0.0
 40
0.5
 40
0.5
 40
1.0
 40
1.0
 40
1.0
 40
1.0
 10
62.0811208113099
 20
43.47680602719459
 30
0.0
 10
62.0845091009617
 20
43.4482514236852
 30
0.0
 10
62.08785058797859
 20
43.41522988860834
 30
0.0
 10
62.09283941718651
 20
43.35229148146242
 30
0.0
 10
62.09448675937752
 20
43.32237460939333
 30
0.0
 10
62.09448675937752
 20
43.30002933189947
 30
0.0
  0
LINE
  5
BC
330
1F
100
AcDbEntity
  8
0
  6
Continuous
 62
     7
370
    25
100
AcDbLine
 10
66.9487354483
 20
41.8000293319
 30
0.0
 11
66.9487354483
 21
38.695780643
 31
0.0
  0
SPLINE
  5
BD
330
1F
100
AcDbEntity
  8
0
  6
Continuous
 62
     7
370
    25
100
AcDbSpline
210
0.0
220
0.0
230
1.0
 70
     8
 71
     3
 72
    12
 73
     8
 74
     0
 42
0.000000001
 43
0.00000001
 40
0.0
 40
0.0
 40
0.0
 40
0.0
 40
0.25
 40
0.25
 40
0.5
 40
0.5
 40
1.0
 40
1.0
 40
1.0
 40
1.0
 10
66.87551214360805
 20
38.68241469489644
 30
0.0
 10
66.88978944536275
 20
38.68072055007055
 30
0.0
 10
66.90150455278415
 20
38.67879434051444
 30
0.0
 10
66.92058791057433
 20
38.67587887922394
 30
0.0
 10
66.9279561609431
 20
38.67488962748954
 30
0.0
 10
66.9447069238914
 20
38.67542893994216
 30
0.0
 10
66.94873544831293
 20
38.68046457178496
 30
0.0
 10
66.94873544831293
 20
38.69578064296405
 30
0.0
  0
SPLINE
  5
BE
330
1F
100
AcDbEntity
  8
0
  6
Continuous
 62
     7
370
    25
100
AcDbSpline
210
0.0
220
0.0
230
1.0
 70
     8
 71
     3
 72
    10
 73
     6
 74
     0
 42
0.000000001
 43
0.00000001
 40
0.0
 40
0.0
 40
0.0
 40
0.0
 40
0.5
 40
0.5
 40
1.0
 40
1.0
 40
1.0
 40
1.0
 10
66.87551214360805
 20
38.68241469489644
 30
0.0
 10
66.84695754009866
 20
38.68580298454822
 30
0.0
 10
66.8139360050218
 20
38.68914447156513
 30
0.0
 10
66.75099759787588
 20
38.69413330077305
 30
0.0
 10
66.72108072580679
 20
38.69578064296405
 30
0.0
 10
66.69873544831292
 20
38.69578064296405
 30
0.0
  0
LINE
  5
BF
330
1F
100
AcDbEntity
  8
0
  6
Continuous
 62
     7
370
    25
100
AcDbLine
 10
66.6987354483
 20
41.8000293319
 30
0.0
 11
66.9487354483
 21
41.8000293319
 31
0.0
  0
SPLINE
  5
C0
330
1F
100
AcDbEntity
  8
0
  6
Continuous
 62
     7
370
    25
100
AcDbSpline
210
0.0
220
0.0
230
1.0
 70
    24
 71
     3
 72
    14
 73
    10
 74
     0
 42
0.000000001
 43
0.00000001
 40
0.0
 40
0.0
 40
0.0
 40
0.0
 40
0.25
 40
0.25
 40
0.5
 40
0.5
 40
0.75
 40
0.75
 40
1.0
 40
1.0
 40
1.0
 40
1.0
 10
67.19873544831293
 20
36.05002933189947
 30
0.0
 10
67.19873544831293
 20
35.83473310137687
 30
0.0
 10
67.19873544831293
 20
35.61943574023365
 30
0.0
 10
67.19873544831293
 20
35.18970197563763
 30
0.0
 10
67.19873544831293
 20
34.97526330624116
 30
0.0
 10
67.19873544831293
 20
34.54817350253106
 30
0.0
 10
67.19873544831293
 20
34.33552009109648
 30
0.0
 10
67.19873544831293
 20
33.9130633885841
 30
0.0
 10
67.19873544831293
 20
33.70325781169884
 30
0.0
 10
67.19873544831293
 20
33.49551082466469
 30
0.0
  0
SPLINE
  5
C1
330
1F
100
AcDbEntity
  8
0
  6
Continuous
 62
     7
370
    25
100
AcDbSpline
210
0.0
220
0.0
230
1.0
 70
    24
 71
     3
 72
    14
 73
    10
 74
     0
 42
0.000000001
 43
0.00000001
 40
0.0
 40
0.0
 40
0.0
 40
0.0
 40
0.25
 40
0.25
 40
0.5
 40
0.5
 40
0.75
 40
0.75
 40
1.0
 40
1.0
 40
1.0
 40
1.0
 10
67.19873544831293
 20
36.05002933189947
 30
0.0
 10
67.19873544831293
 20
36.26532556242206
 30
0.0
 10
67.19873544831293
 20
36.48062292356529
 30
0.0
 10
67.19873544831293
 20
36.9103566881613
 30
0.0
 10
67.19873544831293
 20
37.12479535755777
 30
0.0
 10
67.19873544831293
 20
37.55188516126788
 30
0.0
 10
67.19873544831293
 20
37.76453857270244
 30
0.0
 10
67.19873544831293
 20
38.18699527521483
 30
0.0
 10
67.19873544831293
 20
38.39680085210009
 30
0.0
 10
67.19873544831293
 20
38.60454783913423
 30
0.0
  0
LINE
  5
C2
330
1F
100
AcDbEntity
  8
0
  6
Continuous
 62
     7
370
    25
100
AcDbLine
 10
67.1987354483
 20
41.6017534698
 30
0.0
 11
67.1987354483
 21
38.6045478391
 31
0.0
  0
SPLINE
  5
C3
330
1F
100
AcDbEntity
  8
0
  6
Continuous
 62
     7
370
    25
100
AcDbSpline
210
0.0
220
0.0
230
1.0
 70
     8
 71
     3
 72
    14
 73
    10
 74
     0
 42
0.000000001
 43
0.00000001
 40
0.0
 40
0.0
 40
0.0
 40
0.0
 40
0.25
 40
0.25
 40
0.5
 40
0.5
 40
0.75
 40
0.75
 40
1.0
 40
1.0
 40
1.0
 40
1.0
 10
67.19873544831293
 20
41.6017534698305
 30
0.0
 10
67.19873544831293
 20
41.65703224645608
 30
0.0
 10
67.18918688407679
 20
41.71001092462233
 30
0.0
 10
67.15239676595198
 20
41.8117523923485
 30
0.0
 10
67.12484571866379
 20
41.8607966660709
 30
0.0
 10
67.04984263109364
 20
41.95024471103912
 30
0.0
 10
67.00166225090165
 20
41.99211927936371
 30
0.0
 10
66.87469887312483
 20
42.0589909075674
 30
0.0
 10
66.79067639303604
 20
42.08451209052015
 30
0.0
 10
66.69873544831292
 20
42.08451209052015
 30
0.0
  0
LINE
  5
C4
330
1F
100
AcDbEntity
  8
0
  6
Continuous
 62
     7
370
    25
100
AcDbLine
 10
66.4487354483
 20
42.0845120905
 30
0.0
 11
66.6987354483
 21
42.0845120905
 31
0.0
  0
SPLINE
  5
C5
330
1F
100
AcDbEntity
  8
0
  6
Continuous
 62
     7
370
    25
100
AcDbSpline
210
0.0
220
0.0
230
1.0
 70
     8
 71
     3
 72
    12
 73
     8
 74
     0
 42
0.000000001
 43
0.00000001
 40
0.0
 40
0.0
 40
0.0
 40
0.0
 40
0.4999999999999991
 40
0.4999999999999991
 40
0.7499999999999996
 40
0.7499999999999996
 40
1.0
 40
1.0
 40
1.0
 40
1.0
 10
65.81702193701021
 20
42.41831582059675
 30
0.0
 10
65.86254580991216
 20
42.34963383704579
 30
0.0
 10
65.92491458284091
 20
42.27730156531025
 30
0.0
 10
66.07522815099792
 20
42.1779678135611
 30
0.0
 10
66.13446428392115
 20
42.14706280164486
 30
0.0
 10
66.27844447265943
 20
42.09961094345836
 30
0.0
 10
66.36192967119631
 20
42.08451209052015
 30
0.0
 10
66.44873544831292
 20
42.08451209052015
 30
0.0
  0
SPLINE
  5
C6
330
1F
100
AcDbEntity
  8
0
  6
Continuous
 62
     7
370
    25
100
AcDbSpline
210
0.0
220
0.0
230
1.0
 70
     8
 71
     3
 72
     8
 73
     4
 74
     0
 42
0.000000001
 43
0.00000001
 40
0.0
 40
0.0
 40
0.0
 40
0.0
 40
1.0
 40
1.0
 40
1.0
 40
1.0
 10
55.44873544831293
 20
30.01554657327878
 30
0.0
 10
55.3482451952958
 20
30.01554657327878
 30
0.0
 10
55.24936445776854
 20
30.02201250069686
 30
0.0
 10
55.15194903865719
 20
30.03452835838143
 30
0.0
  0
LINE
  5
C7
330
1F
100
AcDbEntity
  8
0
  6
Continuous
 62
     7
370
    25
100
AcDbLine
 10
66.6987354483
 20
30.0155465733
 30
0.0
 11
55.4487354483
 21
30.0155465733
 31
0.0
  0
SPLINE
  5
C8
330
1F
100
AcDbEntity
  8
0
  6
Continuous
 62
     7
370
    25
100
AcDbSpline
210
0.0
220
0.0
230
1.0
 70
     8
 71
     3
 72
    14
 73
    10
 74
     0
 42
0.000000001
 43
0.00000001
 40
0.0
 40
0.0
 40
0.0
 40
0.0
 40
0.25
 40
0.25
 40
0.5
 40
0.5
 40
0.75
 40
0.75
 40
1.0
 40
1.0
 40
1.0
 40
1.0
 10
66.69873544831292
 20
30.01554657327877
 30
0.0
 10
66.79053784292586
 20
30.01554657327877
 30
0.0
 10
66.87470178184128
 20
30.0410567672179
 30
0.0
 10
67.00179746241265
 20
30.10802313500738
 30
0.0
 10
67.04991993166381
 20
30.14983776760883
 30
0.0
 10
67.12523771144257
 20
30.23979828529037
 30
0.0
 10
67.1526139245359
 20
30.28880527739006
 30
0.0
 10
67.18917577515802
 20
30.39011912792935
 30
0.0
 10
67.19873544831293
 20
30.44298774457996
 30
0.0
 10
67.19873544831293
 20
30.49830519396843
 30
0.0
  0
LINE
  5
C9
330
1F
100
AcDbEntity
  8
0
  6
Continuous
 62
     7
370
    25
100
AcDbLine
 10
67.1987354483
 20
33.4955108247
 30
0.0
 11
67.1987354483
 21
30.498305194
 31
0.0
  0
LINE
  5
CA
330
1F
100
AcDbEntity
  8
0
  6
Continuous
 62
     7
370
    25
100
AcDbLine
 10
68.9487354483
 20
36.0500293319
 30
0.0
 11
68.9487354483
 21
43.0500293319
 31
0.0
  0
LINE
  5
CB
330
1F
100
AcDbEntity
  8
0
  6
Continuous
 62
     7
370
    25
100
AcDbLine
 10
68.9487354483
 20
29.0500293319
 30
0.0
 11
68.9487354483
 21
36.0500293319
 31
0.0
  0
SPLINE
  5
CC
330
1F
100
AcDbEntity
  8
0
  6
Continuous
 62
     7
370
    25
100
AcDbSpline
210
0.0
220
0.0
230
1.0
 70
    24
 71
     3
 72
    10
 73
     6
 74
     0
 42
0.000000001
 43
0.00000001
 40
0.0
 40
0.0
 40
0.0
 40
0.0
 40
0.5
 40
0.5
 40
1.0
 40
1.0
 40
1.0
 40
1.0
 10
66.95045520596723
 20
36.05002933189947
 30
0.0
 10
66.90948681217097
 20
36.05002933189947
 30
0.0
 10
66.86552230242647
 20
36.05002933189947
 30
0.0
 10
66.77447566268265
 20
36.05002933189947
 30
0.0
 10
66.7415272221018
 20
36.05002933189947
 30
0.0
 10
66.69873544831292
 20
36.05002933189947
 30
0.0
  0
SPLINE
  5
CD
330
1F
100
AcDbEntity
  8
0
  6
Continuous
 62
     7
370
    25
100
AcDbSpline
210
0.0
220
0.0
230
1.0
 70
     8
 71
     3
 72
    12
 73
     8
 74
     0
 42
0.000000001
 43
0.00000001
 40
0.0
 40
0.0
 40
0.0
 40
0.0
 40
0.25
 40
0.25
 40
0.5
 40
0.5
 40
1.0
 40
1.0
 40
1.0
 40
1.0
 10
66.95045520596723
 20
36.05002933189947
 30
0.0
 10
66.94021310751818
 20
36.26871841810582
 30
0.0
 10
66.93267389596484
 20
36.48710121951916
 30
0.0
 10
66.9183443803405
 20
36.92537137154689
 30
0.0
 10
66.91155407626948
 20
37.14525872216127
 30
0.0
 10
66.88532122581621
 20
37.81035327598653
 30
0.0
 10
66.8756385091279
 20
38.24354098105857
 30
0.0
 10
66.87551214360805
 20
38.68241469489644
 30
0.0
  0
SPLINE
  5
CE
330
1F
100
AcDbEntity
  8
0
  6
Continuous
 62
     7
370
    25
100
AcDbSpline
210
0.0
220
0.0
230
1.0
 70
     8
 71
     3
 72
    12
 73
     8
 74
     0
 42
0.000000001
 43
0.00000001
 40
0.0
 40
0.0
 40
0.0
 40
0.0
 40
0.25
 40
0.25
 40
0.5
 40
0.5
 40
1.0
 40
1.0
 40
1.0
 40
1.0
 10
66.95045520596723
 20
36.05002933189947
 30
0.0
 10
66.94021310751818
 20
35.83134024569311
 30
0.0
 10
66.93267389596484
 20
35.61295744427976
 30
0.0
 10
66.91834438034049
 20
35.17468729225204
 30
0.0
 10
66.91155407626948
 20
34.95479994163767
 30
0.0
 10
66.8853212258162
 20
34.2897053878124
 30
0.0
 10
66.8756385091279
 20
33.85651768274035
 30
0.0
 10
66.87551214360805
 20
33.41764396890249
 30
0.0
  0
SPLINE
  5
CF
330
1F
100
AcDbEntity
  8
0
  6
Continuous
 62
     7
370
    25
100
AcDbSpline
210
0.0
220
0.0
230
1.0
 70
    24
 71
     3
 72
    10
 73
     6
 74
     0
 42
0.000000001
 43
0.00000001
 40
0.0
 40
0.0
 40
0.0
 40
0.0
 40
0.5
 40
0.5
 40
1.0
 40
1.0
 40
1.0
 40
1.0
 10
59.44873544831292
 20
43.55174908955378
 30
0.0
 10
59.44873544831292
 20
43.51078069575751
 30
0.0
 10
59.44873544831292
 20
43.46681618601301
 30
0.0
 10
59.44873544831292
 20
43.37576954626918
 30
0.0
 10
59.44873544831292
 20
43.34282110568832
 30
0.0
 10
59.44873544831292
 20
43.30002933189947
 30
0.0
  0
SPLINE
  5
D0
330
1F
100
AcDbEntity
  8
0
  6
Continuous
 62
     7
370
    25
100
AcDbSpline
210
0.0
220
0.0
230
1.0
 70
     8
 71
     3
 72
    12
 73
     8
 74
     0
 42
0.000000001
 43
0.00000001
 40
0.0
 40
0.0
 40
0.0
 40
0.0
 40
0.25
 40
0.25
 40
0.5
 40
0.5
 40
1.0
 40
1.0
 40
1.0
 40
1.0
 10
59.44873544831292
 20
43.55174908955378
 30
0.0
 10
59.23004636210657
 20
43.54150699110472
 30
0.0
 10
59.01166356069323
 20
43.53396777955138
 30
0.0
 10
58.5733934086655
 20
43.51963826392704
 30
0.0
 10
58.35350605805112
 20
43.51284795985602
 30
0.0
 10
57.68841150422585
 20
43.48661510940274
 30
0.0
 10
57.2552237991538
 20
43.47693239271443
 30
0.0
 10
56.81635008531595
 20
43.47680602719459
 30
0.0
  0
SPLINE
  5
D1
330
1F
100
AcDbEntity
  8
0
  6
Continuous
 62
     7
370
    25
100
AcDbSpline
210
0.0
220
0.0
230
1.0
 70
     8
 71
     3
 72
    12
 73
     8
 74
     0
 42
0.000000001
 43
0.00000001
 40
0.0
 40
0.0
 40
0.0
 40
0.0
 40
0.25
 40
0.25
 40
0.5
 40
0.5
 40
1.0
 40
1.0
 40
1.0
 40
1.0
 10
59.44873544831292
 20
43.55174908955378
 30
0.0
 10
59.66742453451928
 20
43.54150699110471
 30
0.0
 10
59.88580733593262
 20
43.53396777955138
 30
0.0
 10
60.32407748796035
 20
43.51963826392703
 30
0.0
 10
60.54396483857473
 20
43.51284795985602
 30
0.0
 10
61.2090593924
 20
43.48661510940274
 30
0.0
 10
61.64224709747204
 20
43.47693239271443
 30
0.0
 10
62.0811208113099
 20
43.47680602719459
 30
0.0
  0
LINE
  5
D2
330
1F
100
AcDbEntity
  8
0
  6
Continuous
 62
     7
370
    25
100
AcDbLine
 10
65.2759127349
 20
33.142247457
 30
0.0
 11
65.0405157972
 21
33.0580555231
 31
0.0
  0
LINE
  5
D3
330
1F
100
AcDbEntity
  8
0
  6
Continuous
 62
     7
370
    25
100
AcDbLine
 10
65.0405157972
 20
33.0580555231
 30
0.0
 11
64.0694164076
 21
35.7732066291
 31
0.0
  0
SPLINE
  5
D4
330
1F
100
AcDbEntity
  8
0
  6
Continuous
 62
     7
370
    25
100
AcDbSpline
210
0.0
220
0.0
230
1.0
 70
     8
 71
     3
 72
    10
 73
     6
 74
     0
 42
0.000000001
 43
0.00000001
 40
0.0
 40
0.0
 40
0.0
 40
0.0
 40
0.5
 40
0.5
 40
1.0
 40
1.0
 40
1.0
 40
1.0
 10
64.06941640761855
 20
35.77320662914928
 30
0.0
 10
64.06941640761855
 20
35.77320662914928
 30
0.0
 10
64.09443391505238
 20
35.78378755967968
 30
0.0
 10
64.17965078956301
 20
35.81932235074392
 30
0.0
 10
64.24034037604973
 20
35.84439986893825
 30
0.0
 10
64.30063721600189
 20
35.86907483654279
 30
0.0
  0
SPLINE
  5
D5
330
1F
100
AcDbEntity
  8
0
  6
Continuous
 62
     7
370
    25
100
AcDbSpline
210
0.0
220
0.0
230
1.0
 70
     8
 71
     3
 72
    10
 73
     6
 74
     0
 42
0.000000001
 43
0.00000001
 40
0.0
 40
0.0
 40
0.0
 40
0.0
 40
0.5
 40
0.5
 40
1.0
 40
1.0
 40
1.0
 40
1.0
 10
63.15821048634261
 20
35.77320662914916
 30
0.0
 10
63.15821048634261
 20
35.77320662914916
 30
0.0
 10
63.13319297890854
 20
35.78378755967923
 30
0.0
 10
63.04797610439761
 20
35.81932235074357
 30
0.0
 10
62.98728651791169
 20
35.84439986893728
 30
0.0
 10
62.92698967795915
 20
35.86907483654223
 30
0.0
  0
LINE
  5
D6
330
1F
100
AcDbEntity
  8
0
  6
Continuous
 62
     7
370
    25
100
AcDbLine
 10
63.1582104863
 20
35.7732066291
 30
0.0
 11
62.1873373985
 21
33.0586882527
 31
0.0
  0
LINE
  5
D7
330
1F
100
AcDbEntity
  8
0
  6
Continuous
 62
     7
370
    25
100
AcDbLine
 10
61.9519404608
 20
33.1428801866
 30
0.0
 11
62.1873373985
 21
33.0586882527
 31
0.0
  0
SPLINE
  5
D8
330
1F
100
AcDbEntity
  8
0
  6
Continuous
 62
     7
370
    25
100
AcDbSpline
210
0.0
220
0.0
230
1.0
 70
     8
 71
     3
 72
    14
 73
    10
 74
     0
 42
0.000000001
 43
0.00000001
 40
0.0
 40
0.0
 40
0.0
 40
0.0
 40
0.25
 40
0.25
 40
0.5
 40
0.5
 40
0.75
 40
0.75
 40
1.0
 40
1.0
 40
1.0
 40
1.0
 10
64.06941640761856
 20
35.77320662914928
 30
0.0
 10
64.02796838831671
 20
35.85804907363034
 30
0.0
 10
63.9620423330895
 20
35.92820646292641
 30
0.0
 10
63.8001999936299
 20
36.02509640274909
 30
0.0
 10
63.70759572791395
 20
36.05012580293398
 30
0.0
 10
63.5189495129595
 20
36.04993230613251
 30
0.0
 10
63.42611265488188
 20
36.02435915983825
 30
0.0
 10
63.26650084609489
 20
35.9287053358228
 30
0.0
 10
63.19966568592647
 20
35.85806377138142
 30
0.0
 10
63.15821048634261
 20
35.77320662914916
 30
0.0
  0
SPLINE
  5
D9
330
1F
100
AcDbEntity
  8
0
  6
Continuous
 62
     7
370
    25
100
AcDbSpline
210
0.0
220
0.0
230
1.0
 70
     8
 71
     3
 72
     8
 73
     4
 74
     0
 42
0.000000001
 43
0.00000001
 40
0.0
 40
0.0
 40
0.0
 40
0.0
 40
1.0
 40
1.0
 40
1.0
 40
1.0
 10
62.00325395554771
 20
43.80002933189947
 30
0.0
 10
61.99924872529073
 20
43.73457665146331
 30
0.0
 10
62.0050710382162
 20
43.66952708645508
 30
0.0
 10
62.01783184764675
 20
43.62324662597274
 30
0.0
  0
SPLINE
  5
DA
330
1F
100
AcDbEntity
  8
0
  6
Continuous
 62
     7
370
    25
100
AcDbSpline
210
0.0
220
0.0
230
1.0
 70
     8
 71
     3
 72
    12
 73
     8
 74
     0
 42
0.000000001
 43
0.00000001
 40
0.0
 40
0.0
 40
0.0
 40
0.0
 40
0.25
 40
0.25
 40
0.5
 40
0.5
 40
1.0
 40
1.0
 40
1.0
 40
1.0
 10
59.44873544831292
 20
43.55174908955378
 30
0.0
 10
59.66742453451928
 20
43.56199118800284
 30
0.0
 10
59.88460343952777
 20
43.57667390246625
 30
0.0
 10
60.31595247410818
 20
43.60849629312411
 30
0.0
 10
60.53012260368013
 20
43.62563596931857
 30
0.0
 10
61.16813720967995
 20
43.67110403505212
 30
0.0
 10
61.59766383301612
 20
43.66427118398799
 30
0.0
 10
62.01783184764675
 20
43.62324662597274
 30
0.0
  0
SPLINE
  5
DB
330
1F
100
AcDbEntity
  8
0
  6
Continuous
 62
     7
370
    25
100
AcDbSpline
210
0.0
220
0.0
230
1.0
 70
    24
 71
     3
 72
    10
 73
     6
 74
     0
 42
0.000000001
 43
0.00000001
 40
0.0
 40
0.0
 40
0.0
 40
0.0
 40
0.5
 40
0.5
 40
1.0
 40
1.0
 40
1.0
 40
1.0
 10
59.44873544831292
 20
43.55174908955378
 30
0.0
 10
59.44873544831292
 20
43.59271748335004
 30
0.0
 10
59.44873544831292
 20
43.63617293042198
 30
0.0
 10
59.44873544831292
 20
43.72525877563921
 30
0.0
 10
59.44873544831292
 20
43.75764600425453
 30
0.0
 10
59.44873544831292
 20
43.80002933189947
 30
0.0
  0
SPLINE
  5
DC
330
1F
100
AcDbEntity
  8
0
  6
Continuous
 62
     7
370
    25
100
AcDbSpline
210
0.0
220
0.0
230
1.0
 70
     8
 71
     3
 72
    12
 73
     8
 74
     0
 42
0.000000001
 43
0.00000001
 40
0.0
 40
0.0
 40
0.0
 40
0.0
 40
0.25
 40
0.25
 40
0.5
 40
0.5
 40
1.0
 40
1.0
 40
1.0
 40
1.0
 10
59.44873544831292
 20
43.55174908955378
 30
0.0
 10
59.23004636210657
 20
43.56199118800285
 30
0.0
 10
59.01286745709809
 20
43.57667390246625
 30
0.0
 10
58.58151842251766
 20
43.60849629312412
 30
0.0
 10
58.36734829294572
 20
43.62563596931858
 30
0.0
 10
57.7293336869459
 20
43.67110403505212
 30
0.0
 10
57.29980706360973
 20
43.66427118398799
 30
0.0
 10
56.87963904897909
 20
43.62324662597274
 30
0.0
  0
SPLINE
  5
DD
330
1F
100
AcDbEntity
  8
0
  6
Continuous
 62
     7
370
    25
100
AcDbSpline
210
0.0
220
0.0
230
1.0
 70
     8
 71
     3
 72
    10
 73
     6
 74
     0
 42
0.000000001
 43
0.00000001
 40
0.0
 40
0.0
 40
0.0
 40
0.0
 40
0.5
 40
0.5
 40
1.0
 40
1.0
 40
1.0
 40
1.0
 10
56.87963904897909
 20
43.62324662597274
 30
0.0
 10
56.88693102943674
 20
43.65180044793632
 30
0.0
 10
56.89082819206156
 20
43.68616047966876
 30
0.0
 10
56.89436439604329
 20
43.74920330419788
 30
0.0
 10
56.89421694107814
 20
43.77768221417612
 30
0.0
 10
56.89421694107814
 20
43.80002933189947
 30
0.0
  0
SPLINE
  5
DE
330
1F
100
AcDbEntity
  8
0
  6
Continuous
 62
     7
370
    25
100
AcDbSpline
210
0.0
220
0.0
230
1.0
 70
     8
 71
     3
 72
    14
 73
    10
 74
     0
 42
0.000000001
 43
0.00000001
 40
0.0
 40
0.0
 40
0.0
 40
0.0
 40
0.25
 40
0.25
 40
0.5
 40
0.5
 40
0.75
 40
0.75
 40
1.0
 40
1.0
 40
1.0
 40
1.0
 10
66.95045520596723
 20
36.05002933189947
 30
0.0
 10
66.96069730441631
 20
36.26871841810582
 30
0.0
 10
66.97538001887972
 20
36.4858973231143
 30
0.0
 10
67.00720240953757
 20
36.91724635769472
 30
0.0
 10
67.02434208573203
 20
37.13141648726666
 30
0.0
 10
67.0546541295544
 20
37.55675955793321
 30
0.0
 10
67.06052392774394
 20
37.77047698143389
 30
0.0
 10
67.05442937366367
 20
38.19661806442627
 30
0.0
 10
67.04246502139382
 20
38.40904172391797
 30
0.0
 10
67.0219527423862
 20
38.61912573123329
 30
0.0
  0
SPLINE
  5
DF
330
1F
100
AcDbEntity
  8
0
  6
Continuous
 62
     7
370
    25
100
AcDbSpline
210
0.0
220
0.0
230
1.0
 70
     8
 71
     3
 72
     8
 73
     4
 74
     0
 42
0.000000001
 43
0.00000001
 40
0.0
 40
0.0
 40
0.0
 40
0.0
 40
1.0
 40
1.0
 40
1.0
 40
1.0
 10
67.0219527423862
 20
38.61912573123329
 30
0.0
 10
67.06823320286853
 20
38.60636492180274
 30
0.0
 10
67.13328276787678
 20
38.60054260887727
 30
0.0
 10
67.19873544831293
 20
38.60454783913423
 30
0.0
  0
SPLINE
  5
E0
330
1F
100
AcDbEntity
  8
0
  6
Continuous
 62
     7
370
    25
100
AcDbSpline
210
0.0
220
0.0
230
1.0
 70
    24
 71
     3
 72
    10
 73
     6
 74
     0
 42
0.000000001
 43
0.00000001
 40
0.0
 40
0.0
 40
0.0
 40
0.0
 40
0.5
 40
0.5
 40
1.0
 40
1.0
 40
1.0
 40
1.0
 10
66.95045520596723
 20
36.05002933189947
 30
0.0
 10
66.99142359976351
 20
36.05002933189947
 30
0.0
 10
67.03487904683543
 20
36.05002933189947
 30
0.0
 10
67.12396489205267
 20
36.05002933189947
 30
0.0
 10
67.15635212066799
 20
36.05002933189947
 30
0.0
 10
67.19873544831293
 20
36.05002933189947
 30
0.0
  0
SPLINE
  5
E1
330
1F
100
AcDbEntity
  8
0
  6
Continuous
 62
     7
370
    25
100
AcDbSpline
210
0.0
220
0.0
230
1.0
 70
     8
 71
     3
 72
    10
 73
     6
 74
     0
 42
0.000000001
 43
0.00000001
 40
0.0
 40
0.0
 40
0.0
 40
0.0
 40
0.5
 40
0.5
 40
1.0
 40
1.0
 40
1.0
 40
1.0
 10
67.0219527423862
 20
33.48093293256564
 30
0.0
 10
67.05050656434979
 20
33.48822491302329
 30
0.0
 10
67.08486659608222
 20
33.4921220756481
 30
0.0
 10
67.14790942061134
 20
33.49565827962982
 30
0.0
 10
67.17638833058959
 20
33.49551082466469
 30
0.0
 10
67.19873544831293
 20
33.49551082466469
 30
0.0
  0
SPLINE
  5
E2
330
1F
100
AcDbEntity
  8
0
  6
Continuous
 62
     7
370
    25
100
AcDbSpline
210
0.0
220
0.0
230
1.0
 70
     8
 71
     3
 72
    14
 73
    10
 74
     0
 42
0.000000001
 43
0.00000001
 40
0.0
 40
0.0
 40
0.0
 40
0.0
 40
0.25
 40
0.25
 40
0.5
 40
0.5
 40
0.75
 40
0.75
 40
1.0
 40
1.0
 40
1.0
 40
1.0
 10
66.95045520596723
 20
36.05002933189947
 30
0.0
 10
66.96069730441631
 20
35.83134024569311
 30
0.0
 10
66.9753800188797
 20
35.61416134068463
 30
0.0
 10
67.00720240953757
 20
35.1828123061042
 30
0.0
 10
67.02434208573203
 20
34.96864217653226
 30
0.0
 10
67.0546541295544
 20
34.54329910586572
 30
0.0
 10
67.06052392774394
 20
34.32958168236504
 30
0.0
 10
67.05442937366367
 20
33.90344059937266
 30
0.0
 10
67.04246502139382
 20
33.69101693988095
 30
0.0
 10
67.0219527423862
 20
33.48093293256564
 30
0.0
  0
SPLINE
  5
E3
330
1F
100
AcDbEntity
  8
0
  6
Continuous
 62
     7
370
    25
100
AcDbSpline
210
0.0
220
0.0
230
1.0
 70
     8
 71
     3
 72
    12
 73
     8
 74
     0
 42
0.000000001
 43
0.00000001
 40
0.0
 40
0.0
 40
0.0
 40
0.0
 40
0.25
 40
0.25
 40
0.5
 40
0.5
 40
1.0
 40
1.0
 40
1.0
 40
1.0
 10
56.87963904897909
 20
43.62324662597274
 30
0.0
 10
56.87599305875028
 20
43.60896971499096
 30
0.0
 10
56.87143652581784
 20
43.59620717874142
 30
0.0
 10
56.86081791183389
 20
43.57506042586255
 30
0.0
 10
56.85475583078237
 20
43.56667620923321
 30
0.0
 10
56.83478457138141
 20
43.55011539400898
 30
0.0
 10
56.81943377841218
 20
43.55002933189947
 30
0.0
 10
56.80298413724833
 20
43.55002933189947
 30
0.0
  0
SPLINE
  5
E4
330
1F
100
AcDbEntity
  8
0
  6
Continuous
 62
     7
370
    25
100
AcDbSpline
210
0.0
220
0.0
230
1.0
 70
     8
 71
     3
 72
    15
 73
    11
 74
     0
 42
0.000000001
 43
0.00000001
 40
0.0
 40
0.0
 40
0.0
 40
0.0
 40
0.0425877399909041
 40
0.1028282325346875
 40
0.1864706729280299
 40
0.2956205441869006
 40
0.4311891005861807
 40
0.5936297641565581
 40
0.7831876993469636
 40
1.0
 40
1.0
 40
1.0
 40
1.0
 10
66.94873544831293
 20
38.69578064296405
 30
0.0
 10
66.94874124141506
 20
38.69296131948355
 30
0.0
 10
66.94875522887847
 20
38.68615405404741
 30
0.0
 10
66.9492469297102
 20
38.67761385770652
 30
0.0
 10
66.9508742836688
 20
38.66831617517612
 30
0.0
 10
66.95469943205288
 20
38.65850843954912
 30
0.0
 10
66.96207174209368
 20
38.64818279350002
 30
0.0
 10
66.97468973107051
 20
38.63771608204805
 30
0.0
 10
66.99393393327469
 20
38.62738284680739
 30
0.0
 10
67.01220467964494
 20
38.62199847576564
 30
0.0
 10
67.0219527423862
 20
38.61912573123329
 30
0.0
  0
SPLINE
  5
E5
330
1F
100
AcDbEntity
  8
0
  6
Continuous
 62
     7
370
    25
100
AcDbSpline
210
0.0
220
0.0
230
1.0
 70
     8
 71
     3
 72
    12
 73
     8
 74
     0
 42
0.000000001
 43
0.00000001
 40
0.0
 40
0.0
 40
0.0
 40
0.0
 40
0.25
 40
0.25
 40
0.5
 40
0.5
 40
1.0
 40
1.0
 40
1.0
 40
1.0
 10
67.0219527423862
 20
33.48093293256564
 30
0.0
 10
67.00767583140441
 20
33.47728694233682
 30
0.0
 10
66.99491329515487
 20
33.47273040940438
 30
0.0
 10
66.97376654227601
 20
33.46211179542043
 30
0.0
 10
66.96538232564667
 20
33.45604971436892
 30
0.0
 10
66.94882151042245
 20
33.43607845496795
 30
0.0
 10
66.94873544831293
 20
33.42072766199873
 30
0.0
 10
66.94873544831293
 20
33.40427802083487
 30
0.0
  0
SPLINE
  5
E6
330
1F
100
AcDbEntity
  8
0
  6
Continuous
 62
     7
370
    25
100
AcDbSpline
210
0.0
220
0.0
230
1.0
 70
     8
 71
     3
 72
    14
 73
    10
 74
     0
 42
0.000000001
 43
0.00000001
 40
0.0
 40
0.0
 40
0.0
 40
0.0
 40
0.2455893235675696
 40
0.4556181963142487
 40
0.6303106213393677
 40
0.7701164303669036
 40
0.8759901151610805
 40
0.9502659312389182
 40
1.0
 40
1.0
 40
1.0
 40
1.0
 10
62.01783184764675
 20
43.62324662597274
 30
0.0
 10
62.02112342512
 20
43.61228158665745
 30
0.0
 10
62.02722997148609
 20
43.5919392062853
 30
0.0
 10
62.0391529617453
 20
43.57178719380882
 30
0.0
 10
62.05108204425983
 20
43.55966763433797
 30
0.0
 10
62.06252925162395
 20
43.55346181110557
 30
0.0
 10
62.07341477667075
 20
43.55084211213173
 30
0.0
 10
62.08310203846182
 20
43.55006191778669
 30
0.0
 10
62.09122789205514
 20
43.55003865958381
 30
0.0
 10
62.09448675937752
 20
43.55002933189947
 30
0.0
  0
LINE
  5
E7
330
1F
100
AcDbEntity
  8
0
  6
Continuous
 62
     7
370
    25
100
AcDbLine
 10
53.4487354483
 20
43.3000293319
 30
0.0
 11
53.6987354483
 21
43.3000293319
 31
0.0
  0
ARC
  5
E8
330
1F
100
AcDbEntity
  8
0
  6
Continuous
 62
     7
370
    25
100
AcDbCircle
 10
53.6987354483
 20
43.3000293319
 30
0.0
 40
0.25
100
AcDbArc
 50
90.0
 51
180.0
  0
ARC
  5
E9
330
1F
100
AcDbEntity
  8
0
  6
Continuous
 62
     7
370
    25
100
AcDbCircle
 10
66.6987354483
 20
41.8000293319
 30
0.0
 40
0.2500000000000142
100
AcDbArc
 50
0.0
 51
90.0
  0
LINE
  5
EA
330
1F
100
AcDbEntity
  8
0
  6
Continuous
 62
     7
370
    25
100
AcDbLine
 10
66.6987354483
 20
42.0500293319
 30
0.0
 11
66.6987354483
 21
41.8000293319
 31
0.0
  0
LINE
  5
EB
330
1F
100
AcDbEntity
  8
0
  6
Continuous
 62
     7
370
    25
100
AcDbLine
 10
61.3910397465
 20
32.8097042534
 30
0.0
 11
62.0049032505
 21
31.6394756329
 31
0.0
  0
LINE
  5
EC
330
1F
100
AcDbEntity
  8
0
  6
Continuous
 62
     7
370
    25
100
AcDbLine
 10
62.0049032505
 20
31.6394756329
 30
0.0
 11
61.7835143491
 21
31.5233422856
 31
0.0
  0
LINE
  5
ED
330
1F
100
AcDbEntity
  8
0
  6
Continuous
 62
     7
370
    25
100
AcDbLine
 10
61.3910397465
 20
32.8097042534
 30
0.0
 11
60.7837269988
 21
33.4292704994
 31
0.0
  0
ARC
  5
EE
330
1F
100
AcDbEntity
  8
0
  6
Continuous
 62
     7
370
    25
100
AcDbCircle
 10
66.6987354483
 20
30.3000293319
 30
0.0
 40
0.2500000000000142
100
AcDbArc
 50
270.0
 51
0.0
  0
LINE
  5
EF
330
1F
100
AcDbEntity
  8
0
  6
Continuous
 62
     7
370
    25
100
AcDbLine
 10
66.6987354483
 20
30.3000293319
 30
0.0
 11
66.6987354483
 21
30.0500293319
 31
0.0
  0
LINE
  5
F0
330
1F
100
AcDbEntity
  8
0
  6
Continuous
 62
     7
370
    25
100
AcDbLine
 10
55.4487354483
 20
30.3000293319
 30
0.0
 11
55.4487354483
 21
30.0500293319
 31
0.0
  0
ARC
  5
F1
330
1F
100
AcDbEntity
  8
0
  6
Continuous
 62
     7
370
    25
100
AcDbCircle
 10
55.4487354483
 20
32.0500293319
 30
0.0
 40
2.000000000000007
100
AcDbArc
 50
180.0
 51
270.0
  0
LINE
  5
F2
330
1F
100
AcDbEntity
  8
0
  6
Continuous
 62
     7
370
    25
100
AcDbLine
 10
53.6987354483
 20
32.0500293319
 30
0.0
 11
53.4487354483
 21
32.0500293319
 31
0.0
  0
ARC
  5
F3
330
1F
100
AcDbEntity
  8
0
  6
Continuous
 62
     7
370
    25
100
AcDbCircle
 10
65.1987354483
 20
43.3000293319
 30
0.0
 40
0.25
100
AcDbArc
 50
0.0
 51
90.0
  0
LINE
  5
F4
330
1F
100
AcDbEntity
  8
0
  6
Continuous
 62
     7
370
    25
100
AcDbLine
 10
65.1987354483
 20
43.3000293319
 30
0.0
 11
65.4487354483
 21
43.3000293319
 31
0.0
  0
SPLINE
  5
F5
330
1F
100
AcDbEntity
  8
0
  6
Continuous
 62
     7
370
    25
100
AcDbSpline
210
0.0
220
0.0
230
1.0
 70
     8
 71
     3
 72
    10
 73
     6
 74
     0
 42
0.000000001
 43
0.00000001
 40
0.0
 40
0.0
 40
0.0
 40
0.0
 40
0.5
 40
0.5
 40
1.0
 40
1.0
 40
1.0
 40
1.0
 10
62.18733739849366
 20
33.05868825273461
 30
0.0
 10
62.13572048049331
 20
32.91436962427514
 30
0.0
 10
62.01514025642336
 20
32.8012503626034
 30
0.0
 10
61.7285726329482
 20
32.70141061238548
 30
0.0
 10
61.56496500815414
 20
32.71399125008516
 30
0.0
 10
61.43080450347662
 20
32.78782126594913
 30
0.0
  0
LINE
  5
F6
330
1F
100
AcDbEntity
  8
0
  6
Continuous
 62
     7
370
    25
100
AcDbLine
 10
61.5513365025
 20
33.0068464636
 30
0.0
 11
61.4308045035
 21
32.7878212659
 31
0.0
  0
SPLINE
  5
F7
330
1F
100
AcDbEntity
  8
0
  6
Continuous
 62
     7
370
    25
100
AcDbSpline
210
0.0
220
0.0
230
1.0
 70
     8
 71
     3
 72
    23
 73
    19
 74
     0
 42
0.000000001
 43
0.00000001
 40
0.0
 40
0.0
 40
0.0
 40
0.0
 40
0.0000221251499261
 40
0.0000221251499261
 40
0.0000221251499261
 40
0.0000448428854419
 40
0.0000448428854419
 40
0.0000448428854419
 40
0.000067774629955
 40
0.000067774629955
 40
0.000067774629955
 40
0.0000902663208602
 40
0.0000902663208602
 40
0.0000902663208602
 40
0.000111841557339
 40
0.000111841557339
 40
0.000111841557339
 40
0.0001193253350659
 40
0.0001193253350659
 40
0.0001193253350659
 40
0.0001193253350659
 10
65.11969707238192
 20
31.62174012165082
 30
0.0
 10
65.12521278013693
 20
31.61684437552788
 30
0.0
 10
65.13166641443217
 20
31.61285850133684
 30
0.0
 10
65.13849362669056
 20
31.61006914031362
 30
0.0
 10
65.14550299565104
 20
31.60720535640948
 30
0.0
 10
65.15310262783507
 20
31.6055190397799
 30
0.0
 10
65.16066409393056
 20
31.60512313327526
 30
0.0
 10
65.16829552501821
 20
31.60472356351339
 30
0.0
 10
65.17610172822299
 20
31.60562709309628
 30
0.0
 10
65.18343606109147
 20
31.60777324262844
 30
0.0
 10
65.19062997490326
 20
31.60987830317565
 30
0.0
 10
65.1975694997587
 20
31.61323985445828
 30
0.0
 10
65.20365257991654
 20
31.61761933064068
 30
0.0
 10
65.20948961139973
 20
31.62182166559163
 30
0.0
 10
65.21469688798521
 20
31.62708028919387
 30
0.0
 10
65.21879445536796
 20
31.63299133792652
 30
0.0
 10
65.22023427149568
 20
31.63506838084055
 30
0.0
 10
65.22154963443131
 20
31.63723758000389
 30
0.0
 10
65.22272364345808
 20
31.63947563285256
 30
0.0
  0
LINE
  5
F8
330
1F
100
AcDbEntity
  8
0
  6
Continuous
 62
     7
370
    25
100
AcDbLine
 10
65.2227236435
 20
31.6394756329
 30
0.0
 11
65.4441125448
 21
31.5233422856
 31
0.0
  0
LINE
  5
F9
330
1F
100
AcDbEntity
  8
0
  6
Continuous
 62
     7
370
    25
100
AcDbLine
 10
65.1196970724
 20
31.6217401217
 30
0.0
 11
64.9537407013
 21
31.4347682444
 31
0.0
  0
SPLINE
  5
FA
330
1F
100
AcDbEntity
  8
0
  6
Continuous
 62
     7
370
    25
100
AcDbSpline
210
0.0
220
0.0
230
1.0
 70
     8
 71
     3
 72
    23
 73
    19
 74
     0
 42
0.000000001
 43
0.00000001
 40
0.0
 40
0.0
 40
0.0
 40
0.0
 40
0.0000210594021204
 40
0.0000210594021204
 40
0.0000210594021204
 40
0.0000429122282046
 40
0.0000429122282046
 40
0.0000429122282046
 40
0.0000655452306719
 40
0.0000655452306719
 40
0.0000655452306719
 40
0.000088492665435
 40
0.000088492665435
 40
0.000088492665435
 40
0.0001110534468608
 40
0.0001110534468608
 40
0.0001110534468608
 40
0.000119364715226
 40
0.000119364715226
 40
0.000119364715226
 40
0.000119364715226
 10
62.00490325050293
 20
31.63947563285258
 30
0.0
 10
62.00816418231553
 20
31.63325920898696
 30
0.0
 10
62.01256811360522
 20
31.62753770505217
 30
0.0
 10
62.01770702887932
 20
31.62275553485769
 30
0.0
 10
62.02303876177022
 20
31.61779393250469
 30
0.0
 10
62.02930802047415
 20
31.61370111647007
 30
0.0
 10
62.03597431161806
 20
31.61076761414116
 30
0.0
 10
62.04287645952003
 20
31.60773032301363
 30
0.0
 10
62.0503961924105
 20
31.60584827945012
 30
0.0
 10
62.05791308477361
 20
31.60524735328545
 30
0.0
 10
62.06553258566539
 20
31.60463822424296
 30
0.0
 10
62.07336229206911
 20
31.60532818498167
 30
0.0
 10
62.08075503404603
 20
31.60727117188152
 30
0.0
 10
62.08802336853823
 20
31.60918146156108
 30
0.0
 10
62.09507120659837
 20
31.61235841494094
 30
0.0
 10
62.10129000254541
 20
31.61657794926588
 30
0.0
 10
62.10360987263288
 20
31.61815201143914
 30
0.0
 10
62.1058331380619
 20
31.61987910387105
 30
0.0
 10
62.10792982157909
 20
31.62174012165085
 30
0.0
  0
LINE
  5
FB
330
1F
100
AcDbEntity
  8
0
  6
Continuous
 62
     7
370
    25
100
AcDbLine
 10
62.1079298216
 20
31.6217401217
 30
0.0
 11
62.2738861927
 21
31.4347682444
 31
0.0
  0
ELLIPSE
  5
FC
330
1F
100
AcDbEntity
  8
0
  6
Continuous
 62
     7
370
    25
100
AcDbEllipse
 10
63.6138134485
 20
33.7460825676
 30
0.0
 11
0.06537569707428048
 21
0.0
 31
0.0
210
0.0
220
0.0
230
1.0
 40
0.9531667975
 41
0.3430239404204636
 42
2.798568713169295
  0
LINE
  5
FD
330
1F
100
AcDbEntity
  8
0
  6
Continuous
 62
     7
370
    25
100
AcDbLine
 10
63.8479234974
 20
33.0589600287
 30
0.0
 11
63.379703397
 21
33.0589600287
 31
0.0
  0
ELLIPSE
  5
FE
330
1F
100
AcDbEntity
  8
0
  6
Continuous
 62
     7
370
    25
100
AcDbEllipse
 10
63.8479234974
 20
33.1212739725
 30
0.0
 11
0.06537569707428048
 21
7.105427357601002E-15
 31
0.0
210
0.0
220
0.0
230
1.0
 40
0.9531667975
 41
4.7123889803846
 42
6.62620924573933
  0
LINE
  5
FF
330
1F
100
AcDbEntity
  8
0
  6
Continuous
 62
     7
370
    25
100
AcDbLine
 10
63.6753804825
 20
33.7670410149
 30
0.0
 11
63.9094905313
 21
33.1422324197
 31
0.0
  0
LINE
  5
100
330
1F
100
AcDbEntity
  8
0
  6
Continuous
 62
     7
370
    25
100
AcDbLine
 10
63.3181363631
 20
33.14223242
 30
0.0
 11
63.5522464146
 21
33.7670410149
 31
0.0
  0
ELLIPSE
  5
101
330
1F
100
AcDbEntity
  8
0
  6
Continuous
 62
     7
370
    25
100
AcDbEllipse
 10
63.379703397
 20
33.1212739725
 30
0.0
 11
-0.0653756970743018
 21
-7.105427357601002E-15
 31
0.0
210
0.0
220
0.0
230
1.0
 40
0.9531667975
 41
5.940161364895785
 42
7.85398163397438
  0
LINE
  5
102
330
1F
100
AcDbEntity
  8
0
  6
Continuous
 62
     7
370
    25
100
AcDbLine
 10
65.6804379392
 20
33.0084128913
 30
0.0
 11
65.8044778705
 21
32.7913550754
 31
0.0
  0
SPLINE
  5
103
330
1F
100
AcDbEntity
  8
0
  6
Continuous
 62
     7
370
    25
100
AcDbSpline
210
0.0
220
0.0
230
1.0
 70
     8
 71
     3
 72
    10
 73
     6
 74
     0
 42
0.000000001
 43
0.00000001
 40
0.0
 40
0.0
 40
0.0
 40
0.0
 40
0.5
 40
0.5
 40
1.0
 40
1.0
 40
1.0
 40
1.0
 10
65.80447787051793
 20
32.79135507535587
 30
0.0
 10
65.670043322926
 20
32.71453106429595
 30
0.0
 10
65.50437795576445
 20
32.70028157381049
 30
0.0
 10
65.21559851405445
 20
32.79836762885476
 30
0.0
 10
65.09271572561367
 20
32.91210682317239
 30
0.0
 10
65.04051579720014
 20
33.05805552305888
 30
0.0
  0
ARC
  5
104
330
1F
100
AcDbEntity
  8
0
  6
Continuous
 62
     7
370
    25
100
AcDbCircle
 10
66.4487354483
 20
43.0500293319
 30
0.0
 40
1.0
100
AcDbArc
 50
180.0
 51
270.0
  0
LINE
  5
105
330
1F
100
AcDbEntity
  8
0
  6
Continuous
 62
     7
370
    25
100
AcDbLine
 10
66.4487354483
 20
42.0500293319
 30
0.0
 11
66.4487354483
 21
41.8000293319
 31
0.0
  0
LINE
  5
106
330
1F
100
AcDbEntity
  8
0
  6
Continuous
 62
     7
370
    25
100
AcDbLine
 10
65.4487354483
 20
43.0500293319
 30
0.0
 11
65.1987354483
 21
43.0500293319
 31
0.0
  0
SPLINE
  5
107
330
1F
100
AcDbEntity
  8
0
  6
Continuous
 62
     7
370
    25
100
AcDbSpline
210
0.0
220
0.0
230
1.0
 70
     8
 71
     3
 72
    20
 73
    16
 74
     0
 42
0.000000001
 43
0.00000001
 40
0.0
 40
0.0
 40
0.0
 40
0.0
 40
0.2500000000000003
 40
0.2500000000000003
 40
0.3750000000000002
 40
0.3750000000000002
 40
0.5000000000000002
 40
0.5000000000000002
 40
0.6250000000000002
 40
0.6250000000000002
 40
0.7500000000000001
 40
0.7500000000000001
 40
0.8750000000000001
 40
0.8750000000000001
 40
1.0
 40
1.0
 40
1.0
 40
1.0
 10
62.10792982157909
 20
31.62174012165086
 30
0.0
 10
62.31478503795695
 20
31.80534495870376
 30
0.0
 10
62.55113476460498
 20
31.94578105852831
 30
0.0
 10
62.93801708786473
 20
32.08998564253667
 30
0.0
 10
63.06972587639814
 20
32.12587483045672
 30
0.0
 10
63.33843425892282
 20
32.17420472578704
 30
0.0
 10
63.47681595991492
 20
32.18656968237006
 30
0.0
 10
63.75097560765136
 20
32.18655994518544
 30
0.0
 10
63.88674527516699
 20
32.17450101493293
 30
0.0
 10
64.15567959674746
 20
32.12641579152499
 30
0.0
 10
64.29001239982577
 20
32.08980725290454
 30
0.0
 10
64.5463020097491
 20
31.99433571079603
 30
0.0
 10
64.66912357730214
 20
31.93554813160596
 30
0.0
 10
64.90390489210122
 20
31.79542226867812
 30
0.0
 10
65.01627964173284
 20
31.71353350658569
 30
0.0
 10
65.11969707238192
 20
31.62174012165084
 30
0.0
  0
LINE
  5
108
330
1F
100
AcDbEntity
  8
0
  6
Continuous
 62
     7
370
    25
100
AcDbLine
 10
65.2227236435
 20
31.6394756329
 30
0.0
 11
65.8365871475
 21
32.8097042534
 31
0.0
  0
LINE
  5
109
330
1F
100
AcDbEntity
  8
0
  6
Continuous
 62
     7
370
    25
100
AcDbLine
 10
65.8365871475
 20
32.8097042534
 30
0.0
 11
66.4554595048
 21
33.4513069716
 31
0.0
  0
LINE
  5
10A
330
1F
100
AcDbEntity
  8
0
  6
Continuous
 62
     7
370
    25
100
AcDbLine
 10
53.4487354483
 20
32.0500293319
 30
0.0
 11
53.4487354483
 21
43.3000293319
 31
0.0
  0
LINE
  5
10B
330
1F
100
AcDbEntity
  8
0
  6
Continuous
 62
     7
370
    25
100
AcDbLine
 10
65.8365871475
 20
32.8097042534
 30
0.0
 11
65.8044778705
 21
32.7913550754
 31
0.0
  0
LINE
  5
10C
330
1F
100
AcDbEntity
  8
0
  6
Continuous
 62
     7
370
    25
100
AcDbLine
 10
65.4487354483
 20
43.3000293319
 30
0.0
 11
65.4487354483
 21
43.0500293319
 31
0.0
  0
LINE
  5
10D
330
1F
100
AcDbEntity
  8
0
  6
Continuous
 62
     7
370
    25
100
AcDbLine
 10
61.4308045035
 20
32.7878212659
 30
0.0
 11
61.3910397465
 21
32.8097042534
 31
0.0
  0
LINE
  5
10E
330
1F
100
AcDbEntity
  8
0
  6
Continuous
 62
     7
370
    25
100
AcDbLine
 10
66.6987354483
 20
30.0500293319
 30
0.0
 11
55.4487354483
 21
30.0500293319
 31
0.0
  0
LINE
  5
10F
330
1F
100
AcDbEntity
  8
0
  6
Continuous
 62
     7
370
    25
100
AcDbLine
 10
66.4487354483
 20
42.0500293319
 30
0.0
 11
66.6987354483
 21
42.0500293319
 31
0.0
  0
LINE
  5
110
330
1F
100
AcDbEntity
  8
0
  6
Continuous
 62
     7
370
    25
100
AcDbLine
 10
69.1099612548
 20
36.0500293319
 30
0.0
 11
69.1099612548
 21
29.2112551384
 31
0.0
  0
LINE
  5
111
330
1F
100
AcDbEntity
  8
0
  6
Continuous
 62
     7
370
    25
100
AcDbLine
 10
69.1099612548
 20
42.8888035254
 30
0.0
 11
69.1099612548
 21
36.0500293319
 31
0.0
  0
LINE
  5
112
330
1F
100
AcDbEntity
  8
0
  6
Continuous
 62
     7
370
    25
100
AcDbLine
 10
81.3599477945
 20
36.0500293319
 30
0.0
 11
81.3599477945
 21
29.5940672177
 31
0.0
  0
LINE
  5
113
330
1F
100
AcDbEntity
  8
0
  6
Continuous
 62
     7
370
    25
100
AcDbLine
 10
81.3599477945
 20
42.5059914461
 30
0.0
 11
81.3599477945
 21
36.0500293319
 31
0.0
  0
ARC
  5
114
330
1F
100
AcDbEntity
  8
0
  6
Continuous
 62
     7
370
    25
100
AcDbCircle
 10
65.2279708306
 20
43.7768426494
 30
0.0
 40
0.2286897211609214
100
AcDbArc
 50
174.1808239121
 51
262.6552867776
  0
ARC
  5
115
330
1F
100
AcDbEntity
  8
0
  6
Continuous
 62
     7
370
    25
100
AcDbCircle
 10
67.1755487658
 20
30.2707939496
 30
0.0
 40
0.2286897211609052
100
AcDbArc
 50
84.180823912
 51
172.6552867776
  0
ARC
  5
116
330
1F
100
AcDbEntity
  8
0
  6
Continuous
 62
     7
370
    25
100
AcDbCircle
 10
53.669500066
 20
43.7768426494
 30
0.0
 40
0.2286897211609341
100
AcDbArc
 50
277.3447132224
 51
5.8191760879
  0
ARC
  5
117
330
1F
100
AcDbEntity
  8
0
  6
Continuous
 62
     7
370
    25
100
AcDbCircle
 10
67.1755487658
 20
41.8292647142
 30
0.0
 40
0.2286897211609016
100
AcDbArc
 50
187.3447132224
 51
275.819176088
  0
LINE
  5
118
330
1F
100
AcDbEntity
  8
0
  6
Continuous
 62
     7
370
    25
100
AcDbLine
 10
83.4487354483
 20
41.3000293319
 30
0.0
 11
83.4487354483
 21
30.8000293319
 31
0.0
  0
LINE
  5
119
330
1F
100
AcDbEntity
  8
0
  6
Continuous
 62
     7
370
    25
100
AcDbLine
 10
65.4832182069
 20
43.3000293319
 30
0.0
 11
65.4487354483
 21
43.3000293319
 31
0.0
  0
LINE
  5
11A
330
1F
100
AcDbEntity
  8
0
  6
Continuous
 62
     7
370
    25
100
AcDbLine
 10
66.6987354483
 20
30.0500293319
 30
0.0
 11
66.6987354483
 21
30.0155465733
 31
0.0
  0
LINE
  5
11B
330
1F
100
AcDbEntity
  8
0
  6
Continuous
 62
     7
370
    25
100
AcDbLine
 10
53.4142526897
 20
43.3000293319
 30
0.0
 11
53.4487354483
 21
43.3000293319
 31
0.0
  0
LINE
  5
11C
330
1F
100
AcDbEntity
  8
0
  6
Continuous
 62
     7
370
    25
100
AcDbLine
 10
66.6987354483
 20
42.0500293319
 30
0.0
 11
66.6987354483
 21
42.0845120905
 31
0.0
  0
LWPOLYLINE
  5
11D
330
1F
100
AcDbEntity
  8
0
  6
Continuous
 62
     7
370
    25
100
AcDbPolyline
 90
        9
 70
   128
 43
0.0
 10
55.1849253064
 20
30.0675046261
 10
55.1811542365
 20
30.0674078393
 10
55.177244532
 20
30.0661351523
 10
55.173214752
 20
30.0636926066
 10
55.1690840254
 20
30.0600917966
 10
55.1648719605
 20
30.0553498151
 10
55.1605985516
 20
30.0494891719
 10
55.1562840842
 20
30.0425376869
 10
55.1519490387
 20
30.0345283584
  0
SPLINE
  5
11E
330
1F
100
AcDbEntity
  8
0
  6
Continuous
 62
     7
370
    25
100
AcDbSpline
210
0.0
220
0.0
230
1.0
 70
     8
 71
     3
 72
    14
 73
    10
 74
     0
 42
0.000000001
 43
0.00000001
 40
0.0
 40
0.0
 40
0.0
 40
0.0
 40
0.25
 40
0.25
 40
0.5
 40
0.5
 40
0.75
 40
0.75
 40
1.0
 40
1.0
 40
1.0
 40
1.0
 10
55.15194903865719
 20
30.03452835838143
 30
0.0
 10
54.93608976655946
 20
30.06097929529782
 30
0.0
 10
54.72825827216727
 20
30.1213651411532
 30
0.0
 10
54.33085488125658
 20
30.31364570643379
 30
0.0
 10
54.15237207337621
 20
30.44021349834428
 30
0.0
 10
53.83855626054099
 20
30.75412194281587
 30
0.0
 10
53.7116248364494
 20
30.93340425358083
 30
0.0
 10
53.51995797393857
 20
31.33003441286236
 30
0.0
 10
53.45968422403298
 20
31.53739334248229
 30
0.0
 10
53.43323447479489
 20
31.75324292224373
 30
0.0
  0
LWPOLYLINE
  5
11F
330
1F
100
AcDbEntity
  8
0
  6
Continuous
 62
     7
370
    25
100
AcDbPolyline
 90
        9
 70
   128
 43
0.0
 10
53.4662107425
 20
31.78621919
 10
53.4661139557
 20
31.7824481201
 10
53.4648412687
 20
31.7785384156
 10
53.462398723
 20
31.7745086356
 10
53.458797913
 20
31.770377909
 10
53.4540559315
 20
31.7661658441
 10
53.4481952883
 20
31.7618924352
 10
53.4412438034
 20
31.7575779678
 10
53.4332344748
 20
31.7532429222
  0
LINE
  5
120
330
1F
100
AcDbEntity
  8
0
  6
Continuous
 62
     7
370
    25
100
AcDbLine
 10
55.4487354483
 20
30.0500293319
 30
0.0
 11
55.4487354483
 21
30.0155465733
 31
0.0
  0
LINE
  5
121
330
1F
100
AcDbEntity
  8
0
  6
Continuous
 62
     7
370
    25
100
AcDbLine
 10
53.4142526897
 20
32.0500293319
 30
0.0
 11
53.4487354483
 21
32.0500293319
 31
0.0
  0
SPLINE
  5
122
330
1F
100
AcDbEntity
  8
0
  6
Continuous
 62
     7
370
    25
100
AcDbSpline
210
0.0
220
0.0
230
1.0
 70
    24
 71
     3
 72
     9
 73
     5
 74
     0
 42
0.000000001
 43
0.00000001
 40
0.0
 40
0.0
 40
0.0
 40
0.0
 40
0.6698939171332027
 40
1.0
 40
1.0
 40
1.0
 40
1.0
 10
65.81702193701021
 20
42.41831582059675
 30
0.0
 10
65.79259879266436
 20
42.39389267625089
 30
0.0
 10
65.75614056588962
 20
42.35743444947614
 30
0.0
 10
65.7494816808272
 20
42.35077556441374
 30
0.0
 10
65.747283542363
 20
42.34857742594954
 30
0.0
  0
LINE
  5
123
330
1F
100
AcDbEntity
  8
0
  6
Continuous
 62
     7
370
    25
100
AcDbLine
 10
65.4832182069
 20
43.0500293319
 30
0.0
 11
65.4487354483
 21
43.0500293319
 31
0.0
  0
LINE
  5
124
330
1F
100
AcDbEntity
  8
0
  6
Continuous
 62
     7
370
    25
100
AcDbLine
 10
66.4487354483
 20
42.0500293319
 30
0.0
 11
66.4487354483
 21
42.0845120905
 31
0.0
  0
LINE
  5
125
330
1F
100
AcDbEntity
  8
0
  6
Continuous
 62
     8
370
    25
100
AcDbLine
 10
50.4487354483
 20
49.0500293319
 30
0.0
 11
68.4487354483
 21
49.0500293319
 31
0.0
  0
LINE
  5
126
330
1F
100
AcDbEntity
  8
0
  6
Continuous
 62
     8
370
    25
100
AcDbLine
 10
66.4487354483
 20
47.0500293319
 30
0.0
 11
52.4487354483
 21
47.0500293319
 31
0.0
  0
LINE
  5
127
330
1F
100
AcDbEntity
  8
0
  6
Continuous
 62
     8
370
    25
100
AcDbLine
 10
52.4487354483
 20
31.0500293319
 30
0.0
 11
53.4332344748
 21
31.7532429222
 31
0.0
  0
LINE
  5
128
330
1F
100
AcDbEntity
  8
0
  6
Continuous
 62
     8
370
    25
100
AcDbLine
 10
55.1519490387
 20
30.0345283584
 30
0.0
 11
54.4487354483
 21
29.0500293319
 31
0.0
  0
LINE
  5
129
330
1F
100
AcDbEntity
  8
0
  6
Continuous
 62
     7
370
    18
100
AcDbLine
 10
82.7036939965
 20
30.3698794491
 30
0.0
 11
71.4487354483
 21
30.0181619945
 31
0.0
  0
LINE
  5
12A
330
1F
100
AcDbEntity
  8
0
  6
Continuous
 62
     7
370
    18
100
AcDbLine
 10
82.7036939965
 20
41.7301792147
 30
0.0
 11
71.4487354483
 21
42.0818966693
 31
0.0
  0
LINE
  5
12B
330
1F
100
AcDbEntity
  8
0
  6
Continuous
 62
     7
370
    18
100
AcDbLine
 10
71.4487354483
 20
42.8157168319
 30
0.0
 11
71.4487354483
 21
29.2843418319
 31
0.0
  0
LINE
  5
12C
330
1F
100
AcDbEntity
  8
0
  6
CENTERX2
 62
     7
370
    18
100
AcDbLine
 10
51.3311451024
 20
36.0500293319
 30
0.0
 11
84.4487354483
 21
36.0500293319
 31
0.0
  0
LINE
  5
12D
330
1F
100
AcDbEntity
  8
0
  6
CENTERX2
 62
     7
370
    18
100
AcDbLine
 10
59.4487354483
 20
62.0500293319
 30
0.0
 11
59.4487354483
 21
59.9530057333
 31
0.0
  0
LINE
  5
12E
330
1F
100
AcDbEntity
  8
0
  6
CENTERX2
 62
     7
370
    18
100
AcDbLine
 10
59.4487354483
 20
59.9530057333
 30
0.0
 11
59.4487354483
 21
50.1500293319
 31
0.0
  0
LINE
  5
12F
330
1F
100
AcDbEntity
  8
0
  6
CENTERX2
 62
     7
370
    18
100
AcDbLine
 10
59.4487354483
 20
50.0500293319
 30
0.0
 11
59.4487354483
 21
50.1500293319
 31
0.0
  0
LINE
  5
130
330
1F
100
AcDbEntity
  8
0
  6
CENTERX2
 62
     7
370
    18
100
AcDbLine
 10
59.4487354483
 20
27.6832716527
 30
0.0
 11
59.4487354483
 21
50.0500293319
 31
0.0
  0
LINE
  5
131
330
1F
100
AcDbEntity
  8
0
  6
CENTERX2
 62
     7
370
    18
100
AcDbLine
 10
59.4487354483
 20
36.0500293319
 30
0.0
 11
59.4487354483
 21
32.3713769073
 31
0.0
  0
LINE
  5
132
330
1F
100
AcDbEntity
  8
0
  6
Continuous
 62
     7
370
    25
100
AcDbLine
 10
112.6204924923
 20
60.5500293319
 30
0.0
 11
112.1204924923
 21
61.0500293319
 31
0.0
  0
LINE
  5
133
330
1F
100
AcDbEntity
  8
0
  6
Continuous
 62
     7
370
    25
100
AcDbLine
 10
95.1204924923
 20
61.0500293319
 30
0.0
 11
94.6204924923
 21
60.5500293319
 31
0.0
  0
LINE
  5
134
330
1F
100
AcDbEntity
  8
0
  6
Continuous
 62
     7
370
    25
100
AcDbLine
 10
94.6204924923
 20
60.5500293319
 30
0.0
 11
94.6204924923
 21
49.0500293319
 31
0.0
  0
LINE
  5
135
330
1F
100
AcDbEntity
  8
0
  6
Continuous
 62
     7
370
    25
100
AcDbLine
 10
112.6204924923
 20
49.0500293319
 30
0.0
 11
112.6204924923
 21
60.5500293319
 31
0.0
  0
ARC
  5
136
330
1F
100
AcDbEntity
  8
0
  6
Continuous
 62
     7
370
    25
100
AcDbCircle
 10
95.6204924923
 20
49.0500293319
 30
0.0
 40
1.0
100
AcDbArc
 50
180.0
 51
270.0
  0
ARC
  5
137
330
1F
100
AcDbEntity
  8
0
  6
Continuous
 62
     7
370
    25
100
AcDbCircle
 10
111.6204924923
 20
49.0500293319
 30
0.0
 40
1.0
100
AcDbArc
 50
270.0
 51
0.0
  0
ARC
  5
138
330
1F
100
AcDbEntity
  8
0
  6
Continuous
 62
     7
370
    25
100
AcDbCircle
 10
95.6204924923
 20
47.0500293319
 30
0.0
 40
1.0
100
AcDbArc
 50
0.0
 51
90.0
  0
ARC
  5
139
330
1F
100
AcDbEntity
  8
0
  6
Continuous
 62
     7
370
    25
100
AcDbCircle
 10
111.6204924923
 20
47.0500293319
 30
0.0
 40
1.0
100
AcDbArc
 50
90.0
 51
180.0
  0
ARC
  5
13A
330
1F
100
AcDbEntity
  8
0
  6
Continuous
 62
     7
370
    25
100
AcDbCircle
 10
107.2947271049
 20
42.3000286303
 30
0.0
 40
0.2499994075837348
100
AcDbArc
 50
262.5144907769
 51
269.9783679045
  0
SPLINE
  5
13B
330
1F
100
AcDbEntity
  8
0
  6
Continuous
 62
     7
370
    25
100
AcDbSpline
210
0.0
220
0.0
230
1.0
 70
     8
 71
     3
 72
     9
 73
     5
 74
     0
 42
0.000000001
 43
0.00000001
 40
0.0
 40
0.0
 40
0.0
 40
0.0
 40
0.4253581491405596
 40
1.0
 40
1.0
 40
1.0
 40
1.0
 10
110.6208122936485
 20
34.93857010056359
 30
0.0
 10
110.6212780684112
 20
35.0958985936672
 30
0.0
 10
110.6223730862534
 20
35.46577158992106
 30
0.0
 10
110.6227248689485
 20
35.83681325991066
 30
0.0
 10
110.6229270180075
 20
36.05002933189947
 30
0.0
  0
SPLINE
  5
13C
330
1F
100
AcDbEntity
  8
0
  6
Continuous
 62
     7
370
    25
100
AcDbSpline
210
0.0
220
0.0
230
1.0
 70
     8
 71
     3
 72
     9
 73
     5
 74
     0
 42
0.000000001
 43
0.00000001
 40
0.0
 40
0.0
 40
0.0
 40
0.0
 40
0.4253581491405992
 40
1.0
 40
1.0
 40
1.0
 40
1.0
 10
96.6201726908924
 20
37.16148856323531
 30
0.0
 10
96.61970691612974
 20
37.00416007013169
 30
0.0
 10
96.6186118982875
 20
36.63428707387784
 30
0.0
 10
96.6182601155924
 20
36.26324540388824
 30
0.0
 10
96.6180579665334
 20
36.05002933189947
 30
0.0
  0
SPLINE
  5
13D
330
1F
100
AcDbEntity
  8
0
  6
Continuous
 62
     7
370
    25
100
AcDbSpline
210
0.0
220
0.0
230
1.0
 70
     8
 71
     3
 72
    10
 73
     6
 74
     0
 42
0.000000001
 43
0.00000001
 40
0.0
 40
0.0
 40
0.0
 40
0.0
 40
0.3326517574744244
 40
0.697528343226405
 40
1.0
 40
1.0
 40
1.0
 40
1.0
 10
110.6229270180075
 20
36.05002933189947
 30
0.0
 10
110.6229783352007
 20
36.2109774031081
 30
0.0
 10
110.6230859408152
 20
36.54846499766642
 30
0.0
 10
110.6202579033647
 20
37.03186072400915
 30
0.0
 10
110.6203158743937
 20
37.35439603141228
 30
0.0
 10
110.6203421494208
 20
37.50058325808272
 30
0.0
  0
SPLINE
  5
13E
330
1F
100
AcDbEntity
  8
0
  6
Continuous
 62
     7
370
    25
100
AcDbSpline
210
0.0
220
0.0
230
1.0
 70
     8
 71
     3
 72
    10
 73
     6
 74
     0
 42
0.000000001
 43
0.00000001
 40
0.0
 40
0.0
 40
0.0
 40
0.0
 40
0.3326517574742749
 40
0.6975283432261947
 40
1.0
 40
1.0
 40
1.0
 40
1.0
 10
96.6180579665334
 20
36.05002933189947
 30
0.0
 10
96.61800664934017
 20
35.88908126069089
 30
0.0
 10
96.6178990437257
 20
35.55159366613263
 30
0.0
 10
96.62072708117623
 20
35.06819793978985
 30
0.0
 10
96.62066911014723
 20
34.74566263238661
 30
0.0
 10
96.6206428351201
 20
34.59947540571606
 30
0.0
  0
LINE
  5
13F
330
1F
100
AcDbEntity
  8
0
  6
Continuous
 62
     7
370
    25
100
AcDbLine
 10
110.6204924923
 20
43.8000293319
 30
0.0
 11
110.6204924923
 21
47.0500293319
 31
0.0
  0
LINE
  5
140
330
1F
100
AcDbEntity
  8
0
  6
Continuous
 62
     7
370
    25
100
AcDbLine
 10
96.6204924923
 20
47.0500293319
 30
0.0
 11
96.6204924923
 21
43.8000293319
 31
0.0
  0
LINE
  5
141
330
1F
100
AcDbEntity
  8
0
  6
Continuous
 62
     7
370
    25
100
AcDbLine
 10
96.6204924923
 20
32.9704006666
 30
0.0
 11
96.6204924932
 21
32.9704220206
 31
0.0
  0
SPLINE
  5
142
330
1F
100
AcDbEntity
  8
0
  6
Continuous
 62
     7
370
    25
100
AcDbSpline
210
0.0
220
0.0
230
1.0
 70
     8
 71
     3
 72
    11
 73
     7
 74
     0
 42
0.000000001
 43
0.00000001
 40
0.0
 40
0.0
 40
0.0
 40
0.0
 40
0.730571230983845
 40
0.9500135288461644
 40
0.9986319607411891
 40
1.0
 40
1.0
 40
1.0
 40
1.0
 10
96.62279924463758
 20
43.67479605854894
 30
0.0
 10
96.6225760378362
 20
43.66810995350362
 30
0.0
 10
96.62228578621931
 20
43.6594155374372
 30
0.0
 10
96.62208905527996
 20
43.65063683395538
 30
0.0
 10
96.62203485165533
 20
43.64803024872064
 30
0.0
 10
96.62202677392641
 20
43.64763381038583
 30
0.0
 10
96.62202655285358
 20
43.64762296058601
 30
0.0
  0
CIRCLE
  5
143
330
1F
100
AcDbEntity
  8
0
  6
Continuous
 62
     7
370
    25
100
AcDbCircle
 10
103.6204924923
 20
36.0500293319
 30
0.0
 40
4.525000000000006
  0
CIRCLE
  5
144
330
1F
100
AcDbEntity
  8
0
  6
Continuous
 62
     7
370
    25
100
AcDbCircle
 10
103.6204924923
 20
36.0500293319
 30
0.0
 40
4.200000000000003
  0
CIRCLE
  5
145
330
1F
100
AcDbEntity
  8
0
  6
Continuous
 62
     7
370
    25
100
AcDbCircle
 10
103.6204924923
 20
36.0500293319
 30
0.0
 40
4.0
  0
CIRCLE
  5
146
330
1F
100
AcDbEntity
  8
0
  6
Continuous
 62
     7
370
    25
100
AcDbCircle
 10
103.6204924923
 20
36.0500293319
 30
0.0
 40
6.455962114180096
  0
CIRCLE
  5
147
330
1F
100
AcDbEntity
  8
0
  6
Continuous
 62
     7
370
    25
100
AcDbCircle
 10
103.6204924923
 20
36.0500293319
 30
0.0
 40
5.25
  0
CIRCLE
  5
148
330
1F
100
AcDbEntity
  8
0
  6
Continuous
 62
     7
370
    25
100
AcDbCircle
 10
103.6204924923
 20
36.0500293319
 30
0.0
 40
4.775000000000006
  0
CIRCLE
  5
149
330
1F
100
AcDbEntity
  8
0
  6
Continuous
 62
     7
370
    25
100
AcDbCircle
 10
103.6204924923
 20
36.0500293319
 30
0.0
 40
4.650000000000006
  0
CIRCLE
  5
14A
330
1F
100
AcDbEntity
  8
0
  6
Continuous
 62
     7
370
    25
100
AcDbCircle
 10
103.6204924923
 20
36.0500293319
 30
0.0
 40
6.838774193548389
  0
CIRCLE
  5
14B
330
1F
100
AcDbEntity
  8
0
  6
Continuous
 62
     7
370
    25
100
AcDbCircle
 10
103.6204924923
 20
36.0500293319
 30
0.0
 40
7.000000000000014
  0
LINE
  5
14C
330
1F
100
AcDbEntity
  8
0
  6
Continuous
 62
     7
370
    25
100
AcDbLine
 10
103.6204924923
 20
60.5500293319
 30
0.0
 11
94.6204924923
 21
60.5500293319
 31
0.0
  0
LINE
  5
14D
330
1F
100
AcDbEntity
  8
0
  6
Continuous
 62
     7
370
    25
100
AcDbLine
 10
112.6204924923
 20
60.5500293319
 30
0.0
 11
103.6204924923
 21
60.5500293319
 31
0.0
  0
LINE
  5
14E
330
1F
100
AcDbEntity
  8
0
  6
Continuous
 62
     7
370
    25
100
AcDbLine
 10
103.6204924923
 20
61.0500293319
 30
0.0
 11
112.1204924923
 21
61.0500293319
 31
0.0
  0
LINE
  5
14F
330
1F
100
AcDbEntity
  8
0
  6
Continuous
 62
     7
370
    25
100
AcDbLine
 10
95.1204924923
 20
61.0500293319
 30
0.0
 11
103.6204924923
 21
61.0500293319
 31
0.0
  0
LINE
  5
150
330
1F
100
AcDbEntity
  8
0
  6
Continuous
 62
     7
370
    25
100
AcDbLine
 10
103.6204924923
 20
48.0500293319
 30
0.0
 11
111.6204924923
 21
48.0500293319
 31
0.0
  0
LINE
  5
151
330
1F
100
AcDbEntity
  8
0
  6
Continuous
 62
     7
370
    25
100
AcDbLine
 10
95.6204924923
 20
48.0500293319
 30
0.0
 11
103.6204924923
 21
48.0500293319
 31
0.0
  0
SPLINE
  5
152
330
1F
100
AcDbEntity
  8
0
  6
Continuous
 62
     7
370
    25
100
AcDbSpline
210
0.0
220
0.0
230
1.0
 70
     8
 71
     3
 72
    16
 73
    12
 74
     0
 42
0.000000001
 43
0.00000001
 40
0.0
 40
0.0
 40
0.0
 40
0.0
 40
0.4999999999999977
 40
0.4999999999999977
 40
0.7499999999999978
 40
0.7499999999999978
 40
0.8749999999999986
 40
0.8749999999999986
 40
0.9374999999999993
 40
0.9374999999999993
 40
1.0
 40
1.0
 40
1.0
 40
1.0
 10
99.20461205910654
 20
30.30002933189946
 30
0.0
 10
99.3388902180332
 20
30.24846791497724
 30
0.0
 10
99.4734703993395
 20
30.20054338731349
 30
0.0
 10
99.67317092336404
 20
30.13416012532382
 30
0.0
 10
99.73942175291873
 20
30.11295231453512
 30
0.0
 10
99.83375293469071
 20
30.08373220511276
 30
0.0
 10
99.86469176748388
 20
30.07432458622491
 30
0.0
 10
99.90575266106944
 20
30.06201380521859
 30
0.0
 10
99.91852284677302
 20
30.05821754049849
 30
0.0
 10
99.93905092869093
 20
30.05214483827029
 30
0.0
 10
99.9462578780957
 20
30.05002933189946
 30
0.0
 10
99.9462578780957
 20
30.05002933189946
 30
0.0
  0
LINE
  5
153
330
1F
100
AcDbEntity
  8
0
  6
Continuous
 62
     7
370
    25
100
AcDbLine
 10
99.2046120591
 20
30.3000293319
 30
0.0
 11
99.3568837982
 21
30.498305194
 31
0.0
  0
ARC
  5
154
330
1F
100
AcDbEntity
  8
0
  6
Continuous
 62
     7
370
    25
100
AcDbCircle
 10
99.9462578781
 20
29.8000293319
 30
0.0
 40
0.25
100
AcDbArc
 50
59.5496859786
 51
90.0
  0
ARC
  5
155
330
1F
100
AcDbEntity
  8
0
  6
Continuous
 62
     7
370
    25
100
AcDbCircle
 10
107.2947271064
 20
42.3000293319
 30
0.0
 40
0.2500000000000026
100
AcDbArc
 50
239.5496859786
 51
262.5145187188
  0
SPLINE
  5
156
330
1F
100
AcDbEntity
  8
0
  6
Continuous
 62
     7
370
    25
100
AcDbSpline
210
0.0
220
0.0
230
1.0
 70
     8
 71
     3
 72
    16
 73
    12
 74
     0
 42
0.000000001
 43
0.00000001
 40
0.0
 40
0.0
 40
0.0
 40
0.0
 40
0.499999999999999
 40
0.499999999999999
 40
0.7499999999999998
 40
0.7499999999999998
 40
0.8749999999999996
 40
0.8749999999999996
 40
0.9374999999999998
 40
0.9374999999999998
 40
1.0
 40
1.0
 40
1.0
 40
1.0
 10
108.0363729254344
 20
41.80002933189946
 30
0.0
 10
107.9020947665077
 20
41.85159074882169
 30
0.0
 10
107.7675145852014
 20
41.89951527648544
 30
0.0
 10
107.5678140611769
 20
41.96589853847511
 30
0.0
 10
107.5015632316222
 20
41.98710634926381
 30
0.0
 10
107.4072320498502
 20
42.01632645868617
 30
0.0
 10
107.376293217057
 20
42.02573407757401
 30
0.0
 10
107.3352323234715
 20
42.03804485858033
 30
0.0
 10
107.3224621377679
 20
42.04184112330044
 30
0.0
 10
107.30193405585
 20
42.04791382552864
 30
0.0
 10
107.2947271064452
 20
42.05002933189946
 30
0.0
 10
107.2947271064452
 20
42.05002933189946
 30
0.0
  0
LINE
  5
157
330
1F
100
AcDbEntity
  8
0
  6
Continuous
 62
     7
370
    25
100
AcDbLine
 10
107.8841011864
 20
41.6017534698
 30
0.0
 11
108.0363729254
 21
41.8000293319
 31
0.0
  0
SPLINE
  5
158
330
1F
100
AcDbEntity
  8
0
  6
Continuous
 62
     7
370
    25
100
AcDbSpline
210
0.0
220
0.0
230
1.0
 70
     8
 71
     3
 72
    16
 73
    12
 74
     0
 42
0.000000001
 43
0.00000001
 40
0.0
 40
0.0
 40
0.0
 40
0.0
 40
0.0625000000000002
 40
0.0625000000000002
 40
0.1250000000000003
 40
0.1250000000000003
 40
0.2500000000000007
 40
0.2500000000000007
 40
0.5000000000000006
 40
0.5000000000000006
 40
1.0
 40
1.0
 40
1.0
 40
1.0
 10
99.9462578780957
 20
42.05002933189946
 30
0.0
 10
99.9462578780957
 20
42.05002933189946
 30
0.0
 10
99.93898683144613
 20
42.04789490625699
 30
0.0
 10
99.91851052634152
 20
42.0418374362206
 30
0.0
 10
99.90583791812291
 20
42.0380703645431
 30
0.0
 10
99.86463219665434
 20
42.02571632817632
 30
0.0
 10
99.83380184375449
 20
42.01634150111484
 30
0.0
 10
99.73941535324492
 20
41.98710458210788
 30
0.0
 10
99.67323078065533
 20
41.96591672983816
 30
0.0
 10
99.47399500045769
 20
41.89969306507501
 30
0.0
 10
99.33886065574254
 20
41.85157939720941
 30
0.0
 10
99.20461205910654
 20
41.80002933189944
 30
0.0
  0
ARC
  5
159
330
1F
100
AcDbEntity
  8
0
  6
Continuous
 62
     7
370
    25
100
AcDbCircle
 10
99.9462578781
 20
42.3000293319
 30
0.0
 40
0.25
100
AcDbArc
 50
270.0
 51
300.4503140214
  0
LINE
  5
15A
330
1F
100
AcDbEntity
  8
0
  6
Continuous
 62
     7
370
    25
100
AcDbLine
 10
99.2046120591
 20
41.8000293319
 30
0.0
 11
99.3568837982
 21
41.6017534698
 31
0.0
  0
LINE
  5
15B
330
1F
100
AcDbEntity
  8
0
  6
Continuous
 62
     7
370
    25
100
AcDbLine
 10
107.8841011864
 20
30.498305194
 30
0.0
 11
108.0363729254
 21
30.3000293319
 31
0.0
  0
SPLINE
  5
15C
330
1F
100
AcDbEntity
  8
0
  6
Continuous
 62
     7
370
    25
100
AcDbSpline
210
0.0
220
0.0
230
1.0
 70
     8
 71
     3
 72
    16
 73
    12
 74
     0
 42
0.000000001
 43
0.00000001
 40
0.0
 40
0.0
 40
0.0
 40
0.0
 40
0.0625000000000013
 40
0.0625000000000013
 40
0.1250000000000026
 40
0.1250000000000026
 40
0.2500000000000022
 40
0.2500000000000022
 40
0.5000000000000006
 40
0.5000000000000006
 40
1.0
 40
1.0
 40
1.0
 40
1.0
 10
107.2947271064452
 20
30.05002933189946
 30
0.0
 10
107.2947271064452
 20
30.05002933189946
 30
0.0
 10
107.3019981530948
 20
30.05216375754194
 30
0.0
 10
107.3224744581994
 20
30.05822122757832
 30
0.0
 10
107.335147066418
 20
30.06198829925582
 30
0.0
 10
107.3763527878866
 20
30.0743423356226
 30
0.0
 10
107.4071831407864
 20
30.08371716268408
 30
0.0
 10
107.501569631296
 20
30.11295408169105
 30
0.0
 10
107.5677542038856
 20
30.13414193396076
 30
0.0
 10
107.7669899840832
 20
30.20036559872392
 30
0.0
 10
107.9021243287984
 20
30.24847926658952
 30
0.0
 10
108.0363729254344
 20
30.30002933189949
 30
0.0
  0
ARC
  5
15D
330
1F
100
AcDbEntity
  8
0
  6
Continuous
 62
     7
370
    25
100
AcDbCircle
 10
107.2947271064
 20
29.8000293319
 30
0.0
 40
0.2500000000000036
100
AcDbArc
 50
90.0
 51
120.4503140214
  0
ARC
  5
15E
330
1F
100
AcDbEntity
  8
0
  6
Continuous
 62
     7
370
    25
100
AcDbCircle
 10
103.6204924923
 20
36.0500293319
 30
0.0
 40
7.250000000000014
100
AcDbArc
 50
201.4033496394
 51
232.4764867979
  0
SPLINE
  5
15F
330
1F
100
AcDbEntity
  8
0
  6
Continuous
 62
     7
370
    25
100
AcDbSpline
210
0.0
220
0.0
230
1.0
 70
     8
 71
     3
 72
    12
 73
     8
 74
     0
 42
0.000000001
 43
0.00000001
 40
0.0
 40
0.0
 40
0.0
 40
0.0
 40
0.25
 40
0.25
 40
0.5
 40
0.5
 40
1.0
 40
1.0
 40
1.0
 40
1.0
 10
97.03032431223791
 20
33.48093293256564
 30
0.0
 10
97.01642120234341
 20
33.47728694233682
 30
0.0
 10
97.00015099562926
 20
33.47273040940438
 30
0.0
 10
96.9662647542006
 20
33.46211179542043
 30
0.0
 10
96.9486487194861
 20
33.45604971436892
 30
0.0
 10
96.89886442180074
 20
33.43607845496795
 30
0.0
 10
96.87049249227044
 20
33.42072766199873
 30
0.0
 10
96.87049249227044
 20
33.40427802083487
 30
0.0
  0
SPLINE
  5
160
330
1F
100
AcDbEntity
  8
0
  6
Continuous
 62
     7
370
    25
100
AcDbSpline
210
0.0
220
0.0
230
1.0
 70
     8
 71
     3
 72
    10
 73
     6
 74
     0
 42
0.000000001
 43
0.00000001
 40
0.0
 40
0.0
 40
0.0
 40
0.0
 40
0.5
 40
0.5
 40
1.0
 40
1.0
 40
1.0
 40
1.0
 10
97.03032431223791
 20
33.48093293256564
 30
0.0
 10
97.05813053202687
 20
33.48822491302329
 30
0.0
 10
97.07778582593838
 20
33.4921220756481
 30
0.0
 10
97.10001912824053
 20
33.49565827962982
 30
0.0
 10
97.10325111296011
 20
33.49551082466469
 30
0.0
 10
97.10325111296011
 20
33.49551082466469
 30
0.0
  0
SPLINE
  5
161
330
1F
100
AcDbEntity
  8
0
  6
Continuous
 62
     7
370
    25
100
AcDbSpline
210
0.0
220
0.0
230
1.0
 70
     8
 71
     3
 72
    15
 73
    11
 74
     0
 42
0.000000001
 43
0.00000001
 40
0.0
 40
0.0
 40
0.0
 40
0.0
 40
0.0425877399909041
 40
0.1028282325346875
 40
0.1864706729280299
 40
0.2956205441869006
 40
0.4311891005861807
 40
0.5936297641565581
 40
0.7831876993469636
 40
1.0
 40
1.0
 40
1.0
 40
1.0
 10
96.87049249227044
 20
38.69578064296405
 30
0.0
 10
96.87120799386729
 20
38.69296131948355
 30
0.0
 10
96.87293557472958
 20
38.68615405404741
 30
0.0
 10
96.88280975382446
 20
38.67761385770652
 30
0.0
 10
96.89670343364679
 20
38.66831617517612
 30
0.0
 10
96.91620069146845
 20
38.65850843954912
 30
0.0
 10
96.94040554431773
 20
38.64818279350002
 30
0.0
 10
96.96877420098187
 20
38.63771608204805
 30
0.0
 10
97.00031337172544
 20
38.62738284680739
 30
0.0
 10
97.01988316429775
 20
38.62199847576564
 30
0.0
 10
97.03032431223791
 20
38.61912573123329
 30
0.0
  0
ARC
  5
162
330
1F
100
AcDbEntity
  8
0
  6
Continuous
 62
     7
370
    25
100
AcDbCircle
 10
103.6204924923
 20
36.0500293319
 30
0.0
 40
7.250000000000012
100
AcDbArc
 50
127.5235132021
 51
158.5966503606
  0
SPLINE
  5
163
330
1F
100
AcDbEntity
  8
0
  6
Continuous
 62
     7
370
    25
100
AcDbSpline
210
0.0
220
0.0
230
1.0
 70
     8
 71
     3
 72
     8
 73
     4
 74
     0
 42
0.000000001
 43
0.00000001
 40
0.0
 40
0.0
 40
0.0
 40
0.0
 40
1.0
 40
1.0
 40
1.0
 40
1.0
 10
97.03032431223791
 20
38.61912573123329
 30
0.0
 10
97.07502587585937
 20
38.60636492180274
 30
0.0
 10
97.10168121026331
 20
38.60054260887727
 30
0.0
 10
97.10325111296011
 20
38.60454783913423
 30
0.0
  0
SPLINE
  5
164
330
1F
100
AcDbEntity
  8
0
  6
Continuous
 62
     7
370
    25
100
AcDbSpline
210
0.0
220
0.0
230
1.0
 70
     8
 71
     3
 72
    10
 73
     6
 74
     0
 42
0.000000001
 43
0.00000001
 40
0.0
 40
0.0
 40
0.0
 40
0.0
 40
0.5
 40
0.5
 40
1.0
 40
1.0
 40
1.0
 40
1.0
 10
110.210660672303
 20
33.48093293256563
 30
0.0
 10
110.1828544525141
 20
33.48822491302327
 30
0.0
 10
110.1631991586025
 20
33.49212207564809
 30
0.0
 10
110.1409658563004
 20
33.49565827962982
 30
0.0
 10
110.1377338715808
 20
33.49551082466468
 30
0.0
 10
110.1377338715808
 20
33.49551082466468
 30
0.0
  0
SPLINE
  5
165
330
1F
100
AcDbEntity
  8
0
  6
Continuous
 62
     7
370
    25
100
AcDbSpline
210
0.0
220
0.0
230
1.0
 70
     8
 71
     3
 72
    12
 73
     8
 74
     0
 42
0.000000001
 43
0.00000001
 40
0.0
 40
0.0
 40
0.0
 40
0.0
 40
0.25
 40
0.25
 40
0.5
 40
0.5
 40
1.0
 40
1.0
 40
1.0
 40
1.0
 10
110.210660672303
 20
33.48093293256563
 30
0.0
 10
110.2245637821975
 20
33.47728694233682
 30
0.0
 10
110.2408339889117
 20
33.47273040940438
 30
0.0
 10
110.2747202303403
 20
33.46211179542043
 30
0.0
 10
110.2923362650548
 20
33.45604971436892
 30
0.0
 10
110.3421205627402
 20
33.43607845496795
 30
0.0
 10
110.3704924922705
 20
33.42072766199873
 30
0.0
 10
110.3704924922705
 20
33.40427802083487
 30
0.0
  0
ARC
  5
166
330
1F
100
AcDbEntity
  8
0
  6
Continuous
 62
     7
370
    25
100
AcDbCircle
 10
103.6204924923
 20
36.0500293319
 30
0.0
 40
7.250000000000001
100
AcDbArc
 50
307.5235132021
 51
338.5966503606
  0
SPLINE
  5
167
330
1F
100
AcDbEntity
  8
0
  6
Continuous
 62
     7
370
    25
100
AcDbSpline
210
0.0
220
0.0
230
1.0
 70
     8
 71
     3
 72
     8
 73
     4
 74
     0
 42
0.000000001
 43
0.00000001
 40
0.0
 40
0.0
 40
0.0
 40
0.0
 40
1.0
 40
1.0
 40
1.0
 40
1.0
 10
110.1377338715808
 20
38.60454783913423
 30
0.0
 10
110.1393037742776
 20
38.60054260887727
 30
0.0
 10
110.1659591086815
 20
38.60636492180274
 30
0.0
 10
110.210660672303
 20
38.61912573123329
 30
0.0
  0
ARC
  5
168
330
1F
100
AcDbEntity
  8
0
  6
Continuous
 62
     7
370
    25
100
AcDbCircle
 10
103.6204924923
 20
36.0500293319
 30
0.0
 40
7.249999999999998
100
AcDbArc
 50
21.4033496394
 51
52.4764867979
  0
SPLINE
  5
169
330
1F
100
AcDbEntity
  8
0
  6
Continuous
 62
     7
370
    25
100
AcDbSpline
210
0.0
220
0.0
230
1.0
 70
     8
 71
     3
 72
    14
 73
    10
 74
     0
 42
0.000000001
 43
0.00000001
 40
0.0
 40
0.0
 40
0.0
 40
0.0
 40
0.245589323567575
 40
0.455618196314265
 40
0.6303106213393797
 40
0.77011643036692
 40
0.8759901151610914
 40
0.9502659312389357
 40
1.0
 40
1.0
 40
1.0
 40
1.0
 10
110.210660672303
 20
38.61912573123329
 30
0.0
 10
110.2225516128422
 20
38.62241730870652
 30
0.0
 10
110.2446117284948
 20
38.62852385507263
 30
0.0
 10
110.2801754268149
 20
38.64044684533184
 30
0.0
 10
110.3109677354182
 20
38.65237592784637
 30
0.0
 10
110.336207317991
 20
38.66382313521049
 30
0.0
 10
110.3541896109258
 20
38.67470866025729
 30
0.0
 10
110.3671117743418
 20
38.68439592204837
 30
0.0
 10
110.3695247644477
 20
38.69252177564168
 30
0.0
 10
110.3704924922705
 20
38.69578064296405
 30
0.0
  0
SPLINE
  5
16A
330
1F
100
AcDbEntity
  8
0
  6
Continuous
 62
     7
370
    25
100
AcDbSpline
210
0.0
220
0.0
230
1.0
 70
     8
 71
     3
 72
    12
 73
     8
 74
     0
 42
0.000000001
 43
0.00000001
 40
0.0
 40
0.0
 40
0.0
 40
0.0
 40
0.25
 40
0.25
 40
0.5
 40
0.5
 40
1.0
 40
1.0
 40
1.0
 40
1.0
 10
96.69371579697231
 20
38.68241469489644
 30
0.0
 10
96.70799309872677
 20
38.68072055007055
 30
0.0
 10
96.72542987610822
 20
38.67879434051444
 30
0.0
 10
96.76205345225482
 20
38.67587887922394
 30
0.0
 10
96.78124025101994
 20
38.67488962748954
 30
0.0
 10
96.83457228458519
 20
38.67542893994216
 30
0.0
 10
96.86448915665527
 20
38.68046457178496
 30
0.0
 10
96.87049249227044
 20
38.69578064296405
 30
0.0
  0
SPLINE
  5
16B
330
1F
100
AcDbEntity
  8
0
  6
Continuous
 62
     7
370
    25
100
AcDbSpline
210
0.0
220
0.0
230
1.0
 70
     8
 71
     3
 72
    12
 73
     8
 74
     0
 42
0.000000001
 43
0.00000001
 40
0.0
 40
0.0
 40
0.0
 40
0.0
 40
0.25
 40
0.25
 40
0.5
 40
0.5
 40
1.0
 40
1.0
 40
1.0
 40
1.0
 10
110.5472691875686
 20
33.41764396890249
 30
0.0
 10
110.5329918858141
 20
33.41933811372838
 30
0.0
 10
110.5155551084327
 20
33.42126432328449
 30
0.0
 10
110.4789315322861
 20
33.424179784575
 30
0.0
 10
110.459744733521
 20
33.42516903630938
 30
0.0
 10
110.4064126999557
 20
33.42462972385676
 30
0.0
 10
110.3764958278856
 20
33.41959409201397
 30
0.0
 10
110.3704924922705
 20
33.40427802083487
 30
0.0
  0
SPLINE
  5
16C
330
1F
100
AcDbEntity
  8
0
  6
Continuous
 62
     7
370
    25
100
AcDbSpline
210
0.0
220
0.0
230
1.0
 70
     8
 71
     3
 72
    12
 73
     8
 74
     0
 42
0.000000001
 43
0.00000001
 40
0.0
 40
0.0
 40
0.0
 40
0.0
 40
0.25
 40
0.25
 40
0.5
 40
0.5
 40
1.0
 40
1.0
 40
1.0
 40
1.0
 10
110.5472691875686
 20
38.68241469489644
 30
0.0
 10
110.5329918858141
 20
38.68072055007055
 30
0.0
 10
110.5155551084327
 20
38.67879434051444
 30
0.0
 10
110.4789315322861
 20
38.67587887922393
 30
0.0
 10
110.459744733521
 20
38.67488962748954
 30
0.0
 10
110.4064126999557
 20
38.67542893994216
 30
0.0
 10
110.3764958278856
 20
38.68046457178496
 30
0.0
 10
110.3704924922705
 20
38.69578064296405
 30
0.0
  0
SPLINE
  5
16D
330
1F
100
AcDbEntity
  8
0
  6
Continuous
 62
     7
370
    25
100
AcDbSpline
210
0.0
220
0.0
230
1.0
 70
     8
 71
     3
 72
    12
 73
     8
 74
     0
 42
0.000000001
 43
0.00000001
 40
0.0
 40
0.0
 40
0.0
 40
0.0
 40
0.25
 40
0.25
 40
0.5
 40
0.5
 40
1.0
 40
1.0
 40
1.0
 40
1.0
 10
96.69371579697231
 20
33.41764396890249
 30
0.0
 10
96.70799309872677
 20
33.41933811372838
 30
0.0
 10
96.72542987610822
 20
33.42126432328449
 30
0.0
 10
96.76205345225482
 20
33.424179784575
 30
0.0
 10
96.78124025101994
 20
33.42516903630938
 30
0.0
 10
96.83457228458519
 20
33.42462972385677
 30
0.0
 10
96.86448915665527
 20
33.41959409201397
 30
0.0
 10
96.87049249227044
 20
33.40427802083487
 30
0.0
  0
LINE
  5
16E
330
1F
100
AcDbEntity
  8
0
  6
Continuous
 62
     7
370
    25
100
AcDbLine
 10
110.3704924923
 20
30.3000293319
 30
0.0
 11
110.3704924923
 21
33.4042780208
 31
0.0
  0
SPLINE
  5
16F
330
1F
100
AcDbEntity
  8
0
  6
Continuous
 62
     7
370
    25
100
AcDbSpline
210
0.0
220
0.0
230
1.0
 70
     8
 71
     3
 72
    10
 73
     6
 74
     0
 42
0.000000001
 43
0.00000001
 40
0.0
 40
0.0
 40
0.0
 40
0.0
 40
0.5
 40
0.5
 40
1.0
 40
1.0
 40
1.0
 40
1.0
 10
110.5472691875686
 20
33.41764396890249
 30
0.0
 10
110.5758237910775
 20
33.4142556792507
 30
0.0
 10
110.594129617253
 20
33.4109141922338
 30
0.0
 10
110.6164639678495
 20
33.40592536302589
 30
0.0
 10
110.6204924922705
 20
33.40427802083487
 30
0.0
 10
110.6204924922705
 20
33.40427802083487
 30
0.0
  0
LINE
  5
170
330
1F
100
AcDbEntity
  8
0
  6
Continuous
 62
     7
370
    25
100
AcDbLine
 10
110.6204924923
 20
33.4042780208
 30
0.0
 11
110.6204924923
 21
30.3000293319
 31
0.0
  0
LINE
  5
171
330
1F
100
AcDbEntity
  8
0
  6
Continuous
 62
     7
370
    25
100
AcDbLine
 10
110.3704924923
 20
30.3000293319
 30
0.0
 11
110.6204924923
 21
30.3000293319
 31
0.0
  0
LINE
  5
172
330
1F
100
AcDbEntity
  8
0
  6
Continuous
 62
     7
370
    25
100
AcDbLine
 10
96.6204924923
 20
30.3000293319
 30
0.0
 11
96.6204924923
 21
33.4042780208
 31
0.0
  0
SPLINE
  5
173
330
1F
100
AcDbEntity
  8
0
  6
Continuous
 62
     7
370
    25
100
AcDbSpline
210
0.0
220
0.0
230
1.0
 70
     8
 71
     3
 72
    10
 73
     6
 74
     0
 42
0.000000001
 43
0.00000001
 40
0.0
 40
0.0
 40
0.0
 40
0.0
 40
0.5
 40
0.5
 40
1.0
 40
1.0
 40
1.0
 40
1.0
 10
96.69371579697231
 20
33.41764396890249
 30
0.0
 10
96.66516119346339
 20
33.4142556792507
 30
0.0
 10
96.64685536728794
 20
33.4109141922338
 30
0.0
 10
96.62452101669146
 20
33.40592536302589
 30
0.0
 10
96.62049249227044
 20
33.40427802083487
 30
0.0
 10
96.62049249227044
 20
33.40427802083487
 30
0.0
  0
LINE
  5
174
330
1F
100
AcDbEntity
  8
0
  6
Continuous
 62
     7
370
    25
100
AcDbLine
 10
96.8704924923
 20
33.4042780208
 30
0.0
 11
96.8704924923
 21
30.3000293319
 31
0.0
  0
LINE
  5
175
330
1F
100
AcDbEntity
  8
0
  6
Continuous
 62
     7
370
    25
100
AcDbLine
 10
96.6204924923
 20
30.3000293319
 30
0.0
 11
96.8704924923
 21
30.3000293319
 31
0.0
  0
LINE
  5
176
330
1F
100
AcDbEntity
  8
0
  6
Continuous
 62
     7
370
    25
100
AcDbLine
 10
96.8704924923
 20
30.3000293319
 30
0.0
 11
99.2046120591
 21
30.3000293319
 31
0.0
  0
LINE
  5
177
330
1F
100
AcDbEntity
  8
0
  6
Continuous
 62
     7
370
    25
100
AcDbLine
 10
108.0363729254
 20
30.3000293319
 30
0.0
 11
110.3704924923
 21
30.3000293319
 31
0.0
  0
LINE
  5
178
330
1F
100
AcDbEntity
  8
0
  6
Continuous
 62
     7
370
    25
100
AcDbLine
 10
96.8704924923
 20
41.8000293319
 30
0.0
 11
96.8704924923
 21
38.695780643
 31
0.0
  0
SPLINE
  5
179
330
1F
100
AcDbEntity
  8
0
  6
Continuous
 62
     7
370
    25
100
AcDbSpline
210
0.0
220
0.0
230
1.0
 70
     8
 71
     3
 72
    10
 73
     6
 74
     0
 42
0.000000001
 43
0.00000001
 40
0.0
 40
0.0
 40
0.0
 40
0.0
 40
0.5
 40
0.5
 40
1.0
 40
1.0
 40
1.0
 40
1.0
 10
96.69371579697231
 20
38.68241469489644
 30
0.0
 10
96.66516119346339
 20
38.68580298454822
 30
0.0
 10
96.64685536728794
 20
38.68914447156513
 30
0.0
 10
96.62452101669146
 20
38.69413330077305
 30
0.0
 10
96.62049249227044
 20
38.69578064296405
 30
0.0
 10
96.62049249227044
 20
38.69578064296405
 30
0.0
  0
LINE
  5
17A
330
1F
100
AcDbEntity
  8
0
  6
Continuous
 62
     7
370
    25
100
AcDbLine
 10
96.6204924923
 20
38.695780643
 30
0.0
 11
96.6204924923
 21
41.8000293319
 31
0.0
  0
LINE
  5
17B
330
1F
100
AcDbEntity
  8
0
  6
Continuous
 62
     7
370
    25
100
AcDbLine
 10
96.6204924923
 20
41.8000293319
 30
0.0
 11
96.8704924923
 21
41.8000293319
 31
0.0
  0
LINE
  5
17C
330
1F
100
AcDbEntity
  8
0
  6
Continuous
 62
     7
370
    25
100
AcDbLine
 10
110.3704924923
 20
38.695780643
 30
0.0
 11
110.3704924923
 21
41.8000293319
 31
0.0
  0
LINE
  5
17D
330
1F
100
AcDbEntity
  8
0
  6
Continuous
 62
     7
370
    25
100
AcDbLine
 10
110.3704924923
 20
41.8000293319
 30
0.0
 11
110.6204924923
 21
41.8000293319
 31
0.0
  0
LINE
  5
17E
330
1F
100
AcDbEntity
  8
0
  6
Continuous
 62
     7
370
    25
100
AcDbLine
 10
110.6204924923
 20
41.8000293319
 30
0.0
 11
110.6204924923
 21
38.695780643
 31
0.0
  0
SPLINE
  5
17F
330
1F
100
AcDbEntity
  8
0
  6
Continuous
 62
     7
370
    25
100
AcDbSpline
210
0.0
220
0.0
230
1.0
 70
     8
 71
     3
 72
    10
 73
     6
 74
     0
 42
0.000000001
 43
0.00000001
 40
0.0
 40
0.0
 40
0.0
 40
0.0
 40
0.5
 40
0.5
 40
1.0
 40
1.0
 40
1.0
 40
1.0
 10
110.5472691875686
 20
38.68241469489644
 30
0.0
 10
110.5758237910775
 20
38.68580298454822
 30
0.0
 10
110.594129617253
 20
38.68914447156513
 30
0.0
 10
110.6164639678495
 20
38.69413330077305
 30
0.0
 10
110.6204924922705
 20
38.69578064296405
 30
0.0
 10
110.6204924922705
 20
38.69578064296405
 30
0.0
  0
LINE
  5
180
330
1F
100
AcDbEntity
  8
0
  6
Continuous
 62
     7
370
    25
100
AcDbLine
 10
99.2046120591
 20
41.8000293319
 30
0.0
 11
96.8704924923
 21
41.8000293319
 31
0.0
  0
LINE
  5
181
330
1F
100
AcDbEntity
  8
0
  6
Continuous
 62
     7
370
    25
100
AcDbLine
 10
110.3704924923
 20
41.8000293319
 30
0.0
 11
108.0363729254
 21
41.8000293319
 31
0.0
  0
LINE
  5
182
330
1F
100
AcDbEntity
  8
0
  6
Continuous
 62
     7
370
    25
100
AcDbLine
 10
110.6204924923
 20
33.4042780208
 30
0.0
 11
110.6204924923
 21
34.9385701006
 31
0.0
  0
LINE
  5
183
330
1F
100
AcDbEntity
  8
0
  6
Continuous
 62
     7
370
    25
100
AcDbLine
 10
96.6204924923
 20
38.695780643
 30
0.0
 11
96.6204924923
 21
37.1614885632
 31
0.0
  0
LINE
  5
184
330
1F
100
AcDbEntity
  8
0
  6
Continuous
 62
     7
370
    25
100
AcDbLine
 10
110.6204924923
 20
36.0500293319
 30
0.0
 11
110.6204924923
 21
36.0687472318
 31
0.0
  0
LINE
  5
185
330
1F
100
AcDbEntity
  8
0
  6
Continuous
 62
     7
370
    25
100
AcDbLine
 10
110.6204924923
 20
37.2950390867
 30
0.0
 11
110.6204924923
 21
38.695780643
 31
0.0
  0
LINE
  5
186
330
1F
100
AcDbEntity
  8
0
  6
Continuous
 62
     7
370
    25
100
AcDbLine
 10
96.6204924923
 20
36.0500293319
 30
0.0
 11
96.6204924923
 21
36.031311432
 31
0.0
  0
LINE
  5
187
330
1F
100
AcDbEntity
  8
0
  6
Continuous
 62
     7
370
    25
100
AcDbLine
 10
96.6204924923
 20
34.8050195771
 30
0.0
 11
96.6204924923
 21
33.4042780208
 31
0.0
  0
LINE
  5
188
330
1F
100
AcDbEntity
  8
0
  6
Continuous
 62
     7
370
    25
100
AcDbLine
 10
99.9462578781
 20
30.0500293319
 30
0.0
 11
96.8704924923
 21
30.0500293319
 31
0.0
  0
LINE
  5
189
330
1F
100
AcDbEntity
  8
0
  6
Continuous
 62
     7
370
    25
100
AcDbLine
 10
96.8704924923
 20
30.0500293319
 30
0.0
 11
96.8704924923
 21
30.3000293319
 31
0.0
  0
LINE
  5
18A
330
1F
100
AcDbEntity
  8
0
  6
Continuous
 62
     7
370
    25
100
AcDbLine
 10
96.8704924923
 20
42.0500293319
 30
0.0
 11
96.8704924923
 21
41.8000293319
 31
0.0
  0
ARC
  5
18B
330
1F
100
AcDbEntity
  8
0
  6
Continuous
 62
     7
370
    25
100
AcDbCircle
 10
96.8704924923
 20
41.8000293319
 30
0.0
 40
0.25
100
AcDbArc
 50
90.0
 51
180.0
  0
ARC
  5
18C
330
1F
100
AcDbEntity
  8
0
  6
Continuous
 62
     7
370
    25
100
AcDbCircle
 10
110.3704924923
 20
30.3000293319
 30
0.0
 40
0.25
100
AcDbArc
 50
270.0
 51
0.0
  0
LINE
  5
18D
330
1F
100
AcDbEntity
  8
0
  6
Continuous
 62
     7
370
    25
100
AcDbLine
 10
110.3704924923
 20
30.3000293319
 30
0.0
 11
110.3704924923
 21
30.0500293319
 31
0.0
  0
LINE
  5
18E
330
1F
100
AcDbEntity
  8
0
  6
Continuous
 62
     7
370
    25
100
AcDbLine
 10
96.8704924923
 20
42.0500293319
 30
0.0
 11
99.9462578781
 21
42.0500293319
 31
0.0
  0
LINE
  5
18F
330
1F
100
AcDbEntity
  8
0
  6
Continuous
 62
     7
370
    25
100
AcDbLine
 10
110.3704924923
 20
30.0500293319
 30
0.0
 11
107.2947271064
 21
30.0500293319
 31
0.0
  0
LINE
  5
190
330
1F
100
AcDbEntity
  8
0
  6
Continuous
 62
     7
370
    25
100
AcDbLine
 10
110.3704924923
 20
41.8000293319
 30
0.0
 11
110.3704924923
 21
42.0500293319
 31
0.0
  0
ARC
  5
191
330
1F
100
AcDbEntity
  8
0
  6
Continuous
 62
     7
370
    25
100
AcDbCircle
 10
110.3704924923
 20
41.8000293319
 30
0.0
 40
0.25
100
AcDbArc
 50
0.0
 51
90.0
  0
LINE
  5
192
330
1F
100
AcDbEntity
  8
0
  6
Continuous
 62
     7
370
    25
100
AcDbLine
 10
107.2947271064
 20
42.0500293319
 30
0.0
 11
110.3704924923
 21
42.0500293319
 31
0.0
  0
ARC
  5
193
330
1F
100
AcDbEntity
  8
0
  6
Continuous
 62
     7
370
    25
100
AcDbCircle
 10
96.8704924923
 20
30.3000293319
 30
0.0
 40
0.25
100
AcDbArc
 50
180.0
 51
270.0
  0
SPLINE
  5
194
330
1F
100
AcDbEntity
  8
0
  6
Continuous
 62
     7
370
    25
100
AcDbSpline
210
0.0
220
0.0
230
1.0
 70
     8
 71
     3
 72
    10
 73
     6
 74
     0
 42
0.000000001
 43
0.00000001
 40
0.0
 40
0.0
 40
0.0
 40
0.0
 40
0.5
 40
0.5
 40
1.0
 40
1.0
 40
1.0
 40
1.0
 10
99.9462578780957
 20
42.05002933189946
 30
0.0
 10
99.9462578780957
 20
42.05002933189946
 30
0.0
 10
99.99311623099797
 20
42.08719888230794
 30
0.0
 10
100.1400049870793
 20
42.19734659607598
 30
0.0
 10
100.2387214402851
 20
42.26888984252596
 30
0.0
 10
100.348509729104
 20
42.34292255071292
 30
0.0
  0
SPLINE
  5
195
330
1F
100
AcDbEntity
  8
0
  6
Continuous
 62
     7
370
    25
100
AcDbSpline
210
0.0
220
0.0
230
1.0
 70
     8
 71
     3
 72
    10
 73
     6
 74
     0
 42
0.000000001
 43
0.00000001
 40
0.0
 40
0.0
 40
0.0
 40
0.0
 40
0.5
 40
0.5
 40
1.0
 40
1.0
 40
1.0
 40
1.0
 10
100.7144768010059
 20
42.41831582059675
 30
0.0
 10
100.6599294773311
 20
42.39342445008494
 30
0.0
 10
100.6011675468673
 20
42.37547775291404
 30
0.0
 10
100.4773463871444
 20
42.34996081484755
 30
0.0
 10
100.4125186445496
 20
42.3429225507136
 30
0.0
 10
100.3485097291058
 20
42.34292255071257
 30
0.0
  0
SPLINE
  5
196
330
1F
100
AcDbEntity
  8
0
  6
Continuous
 62
     7
370
    25
100
AcDbSpline
210
0.0
220
0.0
230
1.0
 70
     8
 71
     3
 72
    10
 73
     6
 74
     0
 42
0.000000001
 43
0.00000001
 40
0.0
 40
0.0
 40
0.0
 40
0.0
 40
0.5
 40
0.5
 40
1.0
 40
1.0
 40
1.0
 40
1.0
 10
106.5265081835348
 20
42.4183158205968
 30
0.0
 10
106.5810555072098
 20
42.39342445008493
 30
0.0
 10
106.6398174376739
 20
42.37547775291395
 30
0.0
 10
106.7636385973971
 20
42.34996081484746
 30
0.0
 10
106.8284663399921
 20
42.34292255071369
 30
0.0
 10
106.892475255436
 20
42.34292255071292
 30
0.0
  0
SPLINE
  5
197
330
1F
100
AcDbEntity
  8
0
  6
Continuous
 62
     7
370
    25
100
AcDbSpline
210
0.0
220
0.0
230
1.0
 70
     8
 71
     3
 72
    10
 73
     6
 74
     0
 42
0.000000001
 43
0.00000001
 40
0.0
 40
0.0
 40
0.0
 40
0.0
 40
0.5
 40
0.5
 40
1.0
 40
1.0
 40
1.0
 40
1.0
 10
106.892475255437
 20
42.34292255071292
 30
0.0
 10
107.0022635442559
 20
42.26888984252596
 30
0.0
 10
107.1009799974616
 20
42.19734659607598
 30
0.0
 10
107.2478687535429
 20
42.08719888230794
 30
0.0
 10
107.2947271064452
 20
42.05002933189946
 30
0.0
 10
107.2947271064452
 20
42.05002933189946
 30
0.0
  0
LINE
  5
198
330
1F
100
AcDbEntity
  8
0
  6
Continuous
 62
     7
370
    25
100
AcDbLine
 10
96.8704924923
 20
43.0500293319
 30
0.0
 11
96.8704924923
 21
42.0500293319
 31
0.0
  0
LINE
  5
199
330
1F
100
AcDbEntity
  8
0
  6
Continuous
 62
     7
370
    25
100
AcDbLine
 10
96.8704924923
 20
43.0500293319
 30
0.0
 11
96.6204924923
 21
43.0500293319
 31
0.0
  0
LINE
  5
19A
330
1F
100
AcDbEntity
  8
0
  6
Continuous
 62
     7
370
    25
100
AcDbLine
 10
96.6204924923
 20
41.8000293319
 30
0.0
 11
96.6204924923
 21
43.0500293319
 31
0.0
  0
LINE
  5
19B
330
1F
100
AcDbEntity
  8
0
  6
Continuous
 62
     7
370
    25
100
AcDbLine
 10
107.2947271064
 20
43.0500293319
 30
0.0
 11
110.3704924923
 21
43.0500293319
 31
0.0
  0
LINE
  5
19C
330
1F
100
AcDbEntity
  8
0
  6
Continuous
 62
     7
370
    25
100
AcDbLine
 10
110.3704924923
 20
42.0500293319
 30
0.0
 11
110.3704924923
 21
43.0500293319
 31
0.0
  0
SPLINE
  5
19D
330
1F
100
AcDbEntity
  8
0
  6
Continuous
 62
     7
370
    25
100
AcDbSpline
210
0.0
220
0.0
230
1.0
 70
     8
 71
     3
 72
    10
 73
     6
 74
     0
 42
0.000000001
 43
0.00000001
 40
0.0
 40
0.0
 40
0.0
 40
0.0
 40
0.5
 40
0.5
 40
1.0
 40
1.0
 40
1.0
 40
1.0
 10
107.2947271064452
 20
43.05002933189947
 30
0.0
 10
107.2947271064452
 20
42.89753445022462
 30
0.0
 10
107.2478687535429
 20
42.74970721406353
 30
0.0
 10
107.1009799974616
 20
42.51135688861817
 30
0.0
 10
107.0022635442559
 20
42.41695525889988
 30
0.0
 10
106.892475255437
 20
42.34292255071292
 30
0.0
  0
LINE
  5
19E
330
1F
100
AcDbEntity
  8
0
  6
Continuous
 62
     7
370
    25
100
AcDbLine
 10
110.3704924923
 20
43.0500293319
 30
0.0
 11
110.6204924923
 21
43.0500293319
 31
0.0
  0
LINE
  5
19F
330
1F
100
AcDbEntity
  8
0
  6
Continuous
 62
     7
370
    25
100
AcDbLine
 10
110.6204924923
 20
43.0500293319
 30
0.0
 11
110.6204924923
 21
41.8000293319
 31
0.0
  0
LINE
  5
1A0
330
1F
100
AcDbEntity
  8
0
  6
Continuous
 62
     7
370
    25
100
AcDbLine
 10
96.8704924923
 20
43.0500293319
 30
0.0
 11
99.9462578781
 21
43.0500293319
 31
0.0
  0
SPLINE
  5
1A1
330
1F
100
AcDbEntity
  8
0
  6
Continuous
 62
     7
370
    25
100
AcDbSpline
210
0.0
220
0.0
230
1.0
 70
     8
 71
     3
 72
    10
 73
     6
 74
     0
 42
0.000000001
 43
0.00000001
 40
0.0
 40
0.0
 40
0.0
 40
0.0
 40
0.5
 40
0.5
 40
1.0
 40
1.0
 40
1.0
 40
1.0
 10
100.348509729104
 20
42.34292255071292
 30
0.0
 10
100.2387214402851
 20
42.41695525889988
 30
0.0
 10
100.1400049870793
 20
42.51135688861817
 30
0.0
 10
99.99311623099797
 20
42.74970721406353
 30
0.0
 10
99.9462578780957
 20
42.89753445022462
 30
0.0
 10
99.9462578780957
 20
43.05002933189947
 30
0.0
  0
SPLINE
  5
1A2
330
1F
100
AcDbEntity
  8
0
  6
Continuous
 62
     7
370
    25
100
AcDbSpline
210
0.0
220
0.0
230
1.0
 70
    24
 71
     3
 72
    14
 73
    10
 74
     0
 42
0.000000001
 43
0.00000001
 40
0.0
 40
0.0
 40
0.0
 40
0.0
 40
0.25
 40
0.25
 40
0.5
 40
0.5
 40
0.75
 40
0.75
 40
1.0
 40
1.0
 40
1.0
 40
1.0
 10
110.6204924922705
 20
43.80002933189947
 30
0.0
 10
110.6204924922705
 20
43.80002933189947
 30
0.0
 10
110.6105678023451
 20
43.80002933189947
 30
0.0
 10
110.5707730996824
 20
43.80002933189947
 30
0.0
 10
110.5409027544607
 20
43.80002933189947
 30
0.0
 10
110.4609332145288
 20
43.80002933189947
 30
0.0
 10
110.4108333340929
 20
43.80002933189947
 30
0.0
 10
110.289948785105
 20
43.80002933189947
 30
0.0
 10
110.2191630365164
 20
43.80002933189947
 30
0.0
 10
110.1377338715808
 20
43.80002933189947
 30
0.0
  0
LINE
  5
1A3
330
1F
100
AcDbEntity
  8
0
  6
Continuous
 62
     7
370
    25
100
AcDbLine
 10
107.8841011864
 20
43.8000293319
 30
0.0
 11
110.1377338716
 21
43.8000293319
 31
0.0
  0
SPLINE
  5
1A4
330
1F
100
AcDbEntity
  8
0
  6
Continuous
 62
     7
370
    25
100
AcDbSpline
210
0.0
220
0.0
230
1.0
 70
     8
 71
     3
 72
    14
 73
    10
 74
     0
 42
0.000000001
 43
0.00000001
 40
0.0
 40
0.0
 40
0.0
 40
0.0
 40
0.25
 40
0.25
 40
0.5
 40
0.5
 40
0.75
 40
0.75
 40
1.0
 40
1.0
 40
1.0
 40
1.0
 10
107.8841011863598
 20
43.80002933189947
 30
0.0
 10
107.8121216637237
 20
43.80002933189947
 30
0.0
 10
107.7402433140587
 20
43.79048076766333
 30
0.0
 10
107.5967075063607
 20
43.75369064953851
 30
0.0
 10
107.5245473660547
 20
43.72613960225033
 30
0.0
 10
107.3880009460309
 20
43.65113651468018
 30
0.0
 10
107.3212610574933
 20
43.6029561344882
 30
0.0
 10
107.2116624547261
 20
43.47599275671137
 30
0.0
 10
107.1680293611288
 20
43.39197027662259
 30
0.0
 10
107.1680293611288
 20
43.30002933189947
 30
0.0
  0
LINE
  5
1A5
330
1F
100
AcDbEntity
  8
0
  6
Continuous
 62
     7
370
    25
100
AcDbLine
 10
107.1680293611
 20
43.0500293319
 30
0.0
 11
107.1680293611
 21
43.3000293319
 31
0.0
  0
SPLINE
  5
1A6
330
1F
100
AcDbEntity
  8
0
  6
Continuous
 62
     7
370
    25
100
AcDbSpline
210
0.0
220
0.0
230
1.0
 70
     8
 71
     3
 72
    12
 73
     8
 74
     0
 42
0.000000001
 43
0.00000001
 40
0.0
 40
0.0
 40
0.0
 40
0.0
 40
0.5000000000000004
 40
0.5000000000000004
 40
0.7500000000000002
 40
0.7500000000000002
 40
1.0
 40
1.0
 40
1.0
 40
1.0
 10
106.526508183535
 20
42.41831582059675
 30
0.0
 10
106.6770189151801
 20
42.46383969349871
 30
0.0
 10
106.8205772127699
 20
42.52620846642746
 30
0.0
 10
107.0047553938217
 20
42.67652203458446
 30
0.0
 10
107.0597452673221
 20
42.7357581675077
 30
0.0
 10
107.1425429045991
 20
42.87973835624597
 30
0.0
 10
107.1680293611288
 20
42.96322355478284
 30
0.0
 10
107.1680293611288
 20
43.05002933189947
 30
0.0
  0
SPLINE
  5
1A7
330
1F
100
AcDbEntity
  8
0
  6
Continuous
 62
     7
370
    25
100
AcDbSpline
210
0.0
220
0.0
230
1.0
 70
     8
 71
     3
 72
    12
 73
     8
 74
     0
 42
0.000000001
 43
0.00000001
 40
0.0
 40
0.0
 40
0.0
 40
0.0
 40
0.2500000000000002
 40
0.2500000000000002
 40
0.5000000000000004
 40
0.5000000000000004
 40
1.0
 40
1.0
 40
1.0
 40
1.0
 10
100.0729556234121
 20
43.05002933189947
 30
0.0
 10
100.0729556234121
 20
42.96322355478284
 30
0.0
 10
100.0984420799418
 20
42.87973835624597
 30
0.0
 10
100.1812397172188
 20
42.7357581675077
 30
0.0
 10
100.2362295907192
 20
42.67652203458446
 30
0.0
 10
100.420407771771
 20
42.52620846642746
 30
0.0
 10
100.5639660693608
 20
42.46383969349871
 30
0.0
 10
100.7144768010059
 20
42.41831582059675
 30
0.0
  0
LINE
  5
1A8
330
1F
100
AcDbEntity
  8
0
  6
Continuous
 62
     7
370
    25
100
AcDbLine
 10
100.0729556234
 20
43.3000293319
 30
0.0
 11
100.0729556234
 21
43.0500293319
 31
0.0
  0
SPLINE
  5
1A9
330
1F
100
AcDbEntity
  8
0
  6
Continuous
 62
     7
370
    25
100
AcDbSpline
210
0.0
220
0.0
230
1.0
 70
     8
 71
     3
 72
    14
 73
    10
 74
     0
 42
0.000000001
 43
0.00000001
 40
0.0
 40
0.0
 40
0.0
 40
0.0
 40
0.25
 40
0.25
 40
0.5
 40
0.5
 40
0.75
 40
0.75
 40
1.0
 40
1.0
 40
1.0
 40
1.0
 10
100.0729556234121
 20
43.30002933189947
 30
0.0
 10
100.0729556234121
 20
43.39183172651239
 30
0.0
 10
100.0293393092902
 20
43.47599566542782
 30
0.0
 10
99.91958789706386
 20
43.60309134599919
 30
0.0
 10
99.85293678306454
 20
43.65121381525035
 30
0.0
 10
99.71562992076859
 20
43.72653159502911
 30
0.0
 10
99.64356284494964
 20
43.75390780812243
 30
0.0
 10
99.500651656875
 20
43.79046965874456
 30
0.0
 10
99.42891367734067
 20
43.80002933189947
 30
0.0
 10
99.35688379818116
 20
43.80002933189947
 30
0.0
  0
LINE
  5
1AA
330
1F
100
AcDbEntity
  8
0
  6
Continuous
 62
     7
370
    25
100
AcDbLine
 10
97.103251113
 20
43.8000293319
 30
0.0
 11
99.3568837982
 21
43.8000293319
 31
0.0
  0
SPLINE
  5
1AB
330
1F
100
AcDbEntity
  8
0
  6
Continuous
 62
     7
370
    25
100
AcDbSpline
210
0.0
220
0.0
230
1.0
 70
    24
 71
     3
 72
    14
 73
    10
 74
     0
 42
0.000000001
 43
0.00000001
 40
0.0
 40
0.0
 40
0.0
 40
0.0
 40
0.25
 40
0.25
 40
0.5
 40
0.5
 40
0.75
 40
0.75
 40
1.0
 40
1.0
 40
1.0
 40
1.0
 10
96.62049249227044
 20
43.80002933189947
 30
0.0
 10
96.62049249227044
 20
43.80002933189947
 30
0.0
 10
96.63041718219584
 20
43.80002933189947
 30
0.0
 10
96.67021188485856
 20
43.80002933189947
 30
0.0
 10
96.7000822300802
 20
43.80002933189947
 30
0.0
 10
96.78005177001215
 20
43.80002933189947
 30
0.0
 10
96.83015165044803
 20
43.80002933189947
 30
0.0
 10
96.95103619943589
 20
43.80002933189947
 30
0.0
 10
97.0218219480245
 20
43.80002933189947
 30
0.0
 10
97.10325111296011
 20
43.80002933189947
 30
0.0
  0
LINE
  5
1AC
330
1F
100
AcDbEntity
  8
0
  6
Continuous
 62
     7
370
    25
100
AcDbLine
 10
107.2947271064
 20
43.0500293319
 30
0.0
 11
107.1680293611
 21
43.0500293319
 31
0.0
  0
LINE
  5
1AD
330
1F
100
AcDbEntity
  8
0
  6
Continuous
 62
     7
370
    25
100
AcDbLine
 10
100.0729556234
 20
43.0500293319
 30
0.0
 11
99.9462578781
 21
43.0500293319
 31
0.0
  0
LINE
  5
1AE
330
1F
100
AcDbEntity
  8
0
  6
Continuous
 62
     7
370
    25
100
AcDbLine
 10
100.0729556234
 20
43.3000293319
 30
0.0
 11
99.9462578781
 21
43.3000293319
 31
0.0
  0
SPLINE
  5
1AF
330
1F
100
AcDbEntity
  8
0
  6
Continuous
 62
     7
370
    25
100
AcDbSpline
210
0.0
220
0.0
230
1.0
 70
     8
 71
     3
 72
    16
 73
    12
 74
     0
 42
0.000000001
 43
0.00000001
 40
0.0
 40
0.0
 40
0.0
 40
0.0
 40
0.5000000000000004
 40
0.5000000000000004
 40
0.7499999999999992
 40
0.7499999999999992
 40
0.8749999999999993
 40
0.8749999999999993
 40
0.9374999999999997
 40
0.9374999999999997
 40
1.0
 40
1.0
 40
1.0
 40
1.0
 10
99.20461205910654
 20
43.55002933189947
 30
0.0
 10
99.3388902180332
 20
43.55002933189947
 30
0.0
 10
99.4734703993395
 20
43.53567379573555
 30
0.0
 10
99.67317092336404
 20
43.48902363852445
 30
0.0
 10
99.73942175291872
 20
43.46943404926384
 30
0.0
 10
99.83375293469071
 20
43.42657772231602
 30
0.0
 10
99.86469176748388
 20
43.41002078726101
 30
0.0
 10
99.90575266106943
 20
43.37738433934983
 30
0.0
 10
99.91852284677302
 20
43.365244960688
 30
0.0
 10
99.93905092869093
 20
43.33579661467354
 30
0.0
 10
99.9462578780957
 20
43.31835128100915
 30
0.0
 10
99.9462578780957
 20
43.30002933189947
 30
0.0
  0
LWPOLYLINE
  5
1B0
330
1F
100
AcDbEntity
  8
0
  6
Continuous
 62
     7
370
    25
100
AcDbPolyline
 90
        9
 70
   128
 43
0.0
 10
99.3568837982
 20
43.8000293319
 10
99.3539579394
 20
43.7512567514
 10
99.3452928022
 20
43.7043584738
 10
99.331221383
 20
43.6611367736
 10
99.3122844384
 20
43.6232526366
 10
99.2892097047
 20
43.5921619288
 10
99.2628839309
 20
43.5690594488
 10
99.2343188017
 20
43.5548330118
 10
99.2046120591
 20
43.5500293319
  0
SPLINE
  5
1B1
330
1F
100
AcDbEntity
  8
0
  6
Continuous
 62
     7
370
    25
100
AcDbSpline
210
0.0
220
0.0
230
1.0
 70
     8
 71
     3
 72
    16
 73
    12
 74
     0
 42
0.000000001
 43
0.00000001
 40
0.0
 40
0.0
 40
0.0
 40
0.0
 40
0.0624999999999998
 40
0.0624999999999998
 40
0.1249999999999995
 40
0.1249999999999995
 40
0.249999999999999
 40
0.249999999999999
 40
0.4999999999999984
 40
0.4999999999999984
 40
1.0
 40
1.0
 40
1.0
 40
1.0
 10
107.2947271064452
 20
43.30002933189947
 30
0.0
 10
107.2947271064452
 20
43.31843447744532
 30
0.0
 10
107.3019981530948
 20
43.33590492405351
 30
0.0
 10
107.3224744581994
 20
43.36524621428894
 30
0.0
 10
107.335147066418
 20
43.37731255990431
 30
0.0
 10
107.3763527878866
 20
43.41007614885942
 30
0.0
 10
107.4071831407864
 20
43.42655360041207
 30
0.0
 10
107.501569631296
 20
43.46944075728769
 30
0.0
 10
107.5677542038856
 20
43.48899932257478
 30
0.0
 10
107.7669899840832
 20
43.53557186512499
 30
0.0
 10
107.9021243287984
 20
43.55002933189948
 30
0.0
 10
108.0363729254344
 20
43.55002933189947
 30
0.0
  0
LINE
  5
1B2
330
1F
100
AcDbEntity
  8
0
  6
Continuous
 62
     7
370
    25
100
AcDbLine
 10
107.2947271064
 20
43.3000293319
 30
0.0
 11
107.1680293611
 21
43.3000293319
 31
0.0
  0
LWPOLYLINE
  5
1B3
330
1F
100
AcDbEntity
  8
0
  6
Continuous
 62
     7
370
    25
100
AcDbPolyline
 90
        9
 70
   128
 43
0.0
 10
108.0363729254
 20
43.5500293319
 10
108.0066661828
 20
43.5548330118
 10
107.9781010537
 20
43.5690594488
 10
107.9517752799
 20
43.5921619288
 10
107.9287005462
 20
43.6232526366
 10
107.9097636016
 20
43.6611367736
 10
107.8956921823
 20
43.7043584738
 10
107.8870270451
 20
43.7512567514
 10
107.8841011864
 20
43.8000293319
  0
LINE
  5
1B4
330
1F
100
AcDbEntity
  8
0
  6
Continuous
 62
     7
370
    25
100
AcDbLine
 10
99.9462578781
 20
43.0500293319
 30
0.0
 11
99.9462578781
 21
43.3000293319
 31
0.0
  0
LINE
  5
1B5
330
1F
100
AcDbEntity
  8
0
  6
Continuous
 62
     7
370
    25
100
AcDbLine
 10
107.2947271064
 20
43.3000293319
 30
0.0
 11
107.2947271064
 21
43.0500293319
 31
0.0
  0
LINE
  5
1B6
330
1F
100
AcDbEntity
  8
0
  6
Continuous
 62
     7
370
    25
100
AcDbLine
 10
110.3704924923
 20
43.3000293319
 30
0.0
 11
110.3704924923
 21
43.5500293319
 31
0.0
  0
ARC
  5
1B7
330
1F
100
AcDbEntity
  8
0
  6
Continuous
 62
     7
370
    25
100
AcDbCircle
 10
110.3704924923
 20
43.3000293319
 30
0.0
 40
0.25
100
AcDbArc
 50
0.0
 51
90.0
  0
LINE
  5
1B8
330
1F
100
AcDbEntity
  8
0
  6
Continuous
 62
     7
370
    25
100
AcDbLine
 10
110.3704924923
 20
43.3000293319
 30
0.0
 11
110.6204924923
 21
43.3000293319
 31
0.0
  0
LINE
  5
1B9
330
1F
100
AcDbEntity
  8
0
  6
Continuous
 62
     7
370
    25
100
AcDbLine
 10
110.3704924923
 20
43.0500293319
 30
0.0
 11
110.3704924923
 21
43.3000293319
 31
0.0
  0
LINE
  5
1BA
330
1F
100
AcDbEntity
  8
0
  6
Continuous
 62
     7
370
    25
100
AcDbLine
 10
110.3704924923
 20
43.3000293319
 30
0.0
 11
107.2947271064
 21
43.3000293319
 31
0.0
  0
LINE
  5
1BB
330
1F
100
AcDbEntity
  8
0
  6
Continuous
 62
     7
370
    25
100
AcDbLine
 10
108.0363729254
 20
43.5500293319
 30
0.0
 11
110.3704924923
 21
43.5500293319
 31
0.0
  0
LINE
  5
1BC
330
1F
100
AcDbEntity
  8
0
  6
Continuous
 62
     7
370
    25
100
AcDbLine
 10
110.6204924923
 20
43.3000293319
 30
0.0
 11
110.6204924923
 21
43.0500293319
 31
0.0
  0
LINE
  5
1BD
330
1F
100
AcDbEntity
  8
0
  6
Continuous
 62
     7
370
    25
100
AcDbLine
 10
96.8704924923
 20
43.5500293319
 30
0.0
 11
99.2046120591
 21
43.5500293319
 31
0.0
  0
LINE
  5
1BE
330
1F
100
AcDbEntity
  8
0
  6
Continuous
 62
     7
370
    25
100
AcDbLine
 10
99.9462578781
 20
43.3000293319
 30
0.0
 11
96.8704924923
 21
43.3000293319
 31
0.0
  0
LINE
  5
1BF
330
1F
100
AcDbEntity
  8
0
  6
Continuous
 62
     7
370
    25
100
AcDbLine
 10
96.8704924923
 20
43.5500293319
 30
0.0
 11
96.8704924923
 21
43.3000293319
 31
0.0
  0
LINE
  5
1C0
330
1F
100
AcDbEntity
  8
0
  6
Continuous
 62
     7
370
    25
100
AcDbLine
 10
96.6204924923
 20
43.3000293319
 30
0.0
 11
96.8704924923
 21
43.3000293319
 31
0.0
  0
ARC
  5
1C1
330
1F
100
AcDbEntity
  8
0
  6
Continuous
 62
     7
370
    25
100
AcDbCircle
 10
96.8704924923
 20
43.3000293319
 30
0.0
 40
0.25
100
AcDbArc
 50
90.0
 51
180.0
  0
LINE
  5
1C2
330
1F
100
AcDbEntity
  8
0
  6
Continuous
 62
     7
370
    25
100
AcDbLine
 10
96.8704924923
 20
43.3000293319
 30
0.0
 11
96.8704924923
 21
43.0500293319
 31
0.0
  0
LINE
  5
1C3
330
1F
100
AcDbEntity
  8
0
  6
Continuous
 62
     7
370
    25
100
AcDbLine
 10
96.6204924923
 20
43.0500293319
 30
0.0
 11
96.6204924923
 21
43.3000293319
 31
0.0
  0
SPLINE
  5
1C4
330
1F
100
AcDbEntity
  8
0
  6
Continuous
 62
     7
370
    25
100
AcDbSpline
210
0.0
220
0.0
230
1.0
 70
     8
 71
     3
 72
     8
 73
     4
 74
     0
 42
0.000000001
 43
0.00000001
 40
0.0
 40
0.0
 40
0.0
 40
0.0
 40
1.0
 40
1.0
 40
1.0
 40
1.0
 10
97.10325111296011
 20
43.80002933189947
 30
0.0
 10
97.10168121026331
 20
43.73457665146331
 30
0.0
 10
97.07502587585937
 20
43.66952708645508
 30
0.0
 10
97.03032431223791
 20
43.62324662597274
 30
0.0
  0
SPLINE
  5
1C5
330
1F
100
AcDbEntity
  8
0
  6
Continuous
 62
     7
370
    25
100
AcDbSpline
210
0.0
220
0.0
230
1.0
 70
     8
 71
     3
 72
    14
 73
    10
 74
     0
 42
0.000000001
 43
0.00000001
 40
0.0
 40
0.0
 40
0.0
 40
0.0
 40
0.2455893235675696
 40
0.4556181963142487
 40
0.6303106213393677
 40
0.7701164303669036
 40
0.8759901151610805
 40
0.9502659312389182
 40
1.0
 40
1.0
 40
1.0
 40
1.0
 10
97.03032431223791
 20
43.62324662597274
 30
0.0
 10
97.01843337169872
 20
43.61228158665745
 30
0.0
 10
96.99637325604614
 20
43.5919392062853
 30
0.0
 10
96.96080955772597
 20
43.57178719380882
 30
0.0
 10
96.93001724912276
 20
43.55966763433797
 30
0.0
 10
96.9047776665499
 20
43.55346181110557
 30
0.0
 10
96.88679537361509
 20
43.55084211213173
 30
0.0
 10
96.87387321019916
 20
43.55006191778669
 30
0.0
 10
96.87146022009317
 20
43.55003865958381
 30
0.0
 10
96.87049249227044
 20
43.55002933189947
 30
0.0
  0
SPLINE
  5
1C6
330
1F
100
AcDbEntity
  8
0
  6
Continuous
 62
     7
370
    25
100
AcDbSpline
210
0.0
220
0.0
230
1.0
 70
     8
 71
     3
 72
    15
 73
    11
 74
     0
 42
0.000000001
 43
0.00000001
 40
0.0
 40
0.0
 40
0.0
 40
0.0
 40
0.0425877399909108
 40
0.1028282325346858
 40
0.1864706729280343
 40
0.2956205441869044
 40
0.4311891005861843
 40
0.5936297641565587
 40
0.7831876993469675
 40
1.0
 40
1.0
 40
1.0
 40
1.0
 10
110.3704924922705
 20
43.55002933189947
 30
0.0
 10
110.3697769906736
 20
43.55003512500161
 30
0.0
 10
110.3680494098113
 20
43.550049112465
 30
0.0
 10
110.3581752307165
 20
43.55054081329675
 30
0.0
 10
110.3442815508941
 20
43.55216816725534
 30
0.0
 10
110.3247842930725
 20
43.55599331563942
 30
0.0
 10
110.3005794402232
 20
43.56336562568023
 30
0.0
 10
110.2722107835591
 20
43.57598361465705
 30
0.0
 10
110.2406716128155
 20
43.59522781686122
 30
0.0
 10
110.2211018202431
 20
43.61349856323147
 30
0.0
 10
110.210660672303
 20
43.62324662597274
 30
0.0
  0
SPLINE
  5
1C7
330
1F
100
AcDbEntity
  8
0
  6
Continuous
 62
     7
370
    25
100
AcDbSpline
210
0.0
220
0.0
230
1.0
 70
     8
 71
     3
 72
     8
 73
     4
 74
     0
 42
0.000000001
 43
0.00000001
 40
0.0
 40
0.0
 40
0.0
 40
0.0
 40
1.0
 40
1.0
 40
1.0
 40
1.0
 10
110.210660672303
 20
43.62324662597274
 30
0.0
 10
110.1659591086815
 20
43.66952708645507
 30
0.0
 10
110.1393037742776
 20
43.73457665146331
 30
0.0
 10
110.1377338715808
 20
43.80002933189947
 30
0.0
  0
SPLINE
  5
1C8
330
1F
100
AcDbEntity
  8
0
  6
Continuous
 62
     7
370
    25
100
AcDbSpline
210
0.0
220
0.0
230
1.0
 70
     8
 71
     3
 72
    10
 73
     6
 74
     0
 42
0.000000001
 43
0.00000001
 40
0.0
 40
0.0
 40
0.0
 40
0.0
 40
0.5000000000000001
 40
0.5000000000000001
 40
1.0
 40
1.0
 40
1.0
 40
1.0
 10
107.1826369062823
 20
35.05002933189946
 30
0.0
 10
107.2146417980618
 20
35.54982457177752
 30
0.0
 10
107.2225852834022
 20
36.05293390695426
 30
0.0
 10
107.1898499927399
 20
37.06639289628544
 30
0.0
 10
107.149505442155
 20
37.56337061721105
 30
0.0
 10
107.0845941074082
 20
38.05002933189947
 30
0.0
  0
LINE
  5
1C9
330
1F
100
AcDbEntity
  8
0
  6
Continuous
 62
     7
370
    25
100
AcDbLine
 10
107.1890436764
 20
35.0500293319
 30
0.0
 11
100.0513911566
 21
35.0500293319
 31
0.0
  0
SPLINE
  5
1CA
330
1F
100
AcDbEntity
  8
0
  6
Continuous
 62
     7
370
    25
100
AcDbSpline
210
0.0
220
0.0
230
1.0
 70
     8
 71
     3
 72
    12
 73
     8
 74
     0
 42
0.000000001
 43
0.00000001
 40
0.0
 40
0.0
 40
0.0
 40
0.0
 40
0.5
 40
0.5
 40
0.75
 40
0.75
 40
1.0
 40
1.0
 40
1.0
 40
1.0
 10
100.1563908771327
 20
38.05002933189947
 30
0.0
 10
100.091685431313
 20
37.56491422498014
 30
0.0
 10
100.0516426329167
 20
37.07227441047166
 30
0.0
 10
100.0268090456863
 20
36.3180556224747
 30
0.0
 10
100.0245131366234
 20
36.06272477108259
 30
0.0
 10
100.0322763570057
 20
35.55421744093692
 30
0.0
 10
100.0422482501834
 20
35.30144769288903
 30
0.0
 10
100.0583480782587
 20
35.05002933189946
 30
0.0
  0
SPLINE
  5
1CB
330
1F
100
AcDbEntity
  8
0
  6
Continuous
 62
     7
370
    25
100
AcDbSpline
210
0.0
220
0.0
230
1.0
 70
     8
 71
     3
 72
    12
 73
     8
 74
     0
 42
0.000000001
 43
0.00000001
 40
0.0
 40
0.0
 40
0.0
 40
0.0
 40
0.25
 40
0.25
 40
0.5
 40
0.5
 40
1.0
 40
1.0
 40
1.0
 40
1.0
 10
96.62160203155251
 20
43.55174908955378
 30
0.0
 10
96.62161063893771
 20
43.54150699110471
 30
0.0
 10
96.63022044926787
 20
43.53396777955138
 30
0.0
 10
96.65170155953813
 20
43.51963826392703
 30
0.0
 10
96.66457285947823
 20
43.51284795985602
 30
0.0
 10
96.69016761929346
 20
43.48661510940274
 30
0.0
 10
96.69384216249215
 20
43.47693239271443
 30
0.0
 10
96.69371579697231
 20
43.47680602719459
 30
0.0
  0
LINE
  5
1CC
330
1F
100
AcDbEntity
  8
0
  6
Continuous
 62
     7
370
    25
100
AcDbLine
 10
96.6201374292
 20
43.3581632028
 30
0.0
 11
96.6197518197
 21
43.4212983688
 31
0.0
  0
LINE
  5
1CD
330
1F
100
AcDbEntity
  8
0
  6
Continuous
 62
     7
370
    25
100
AcDbLine
 10
110.6208475554
 20
43.3581632028
 30
0.0
 11
110.6212331648
 21
43.4212983688
 31
0.0
  0
SPLINE
  5
1CE
330
1F
100
AcDbEntity
  8
0
  6
Continuous
 62
     7
370
    25
100
AcDbSpline
210
0.0
220
0.0
230
1.0
 70
     8
 71
     3
 72
    12
 73
     8
 74
     0
 42
0.000000001
 43
0.00000001
 40
0.0
 40
0.0
 40
0.0
 40
0.0
 40
0.25
 40
0.25
 40
0.5
 40
0.5
 40
1.0
 40
1.0
 40
1.0
 40
1.0
 10
110.6193829529884
 20
43.55174908955378
 30
0.0
 10
110.6193743456032
 20
43.54150699110471
 30
0.0
 10
110.610764535273
 20
43.53396777955138
 30
0.0
 10
110.5892834250028
 20
43.51963826392704
 30
0.0
 10
110.5764121250627
 20
43.51284795985602
 30
0.0
 10
110.5508173652475
 20
43.48661510940274
 30
0.0
 10
110.5471428220488
 20
43.47693239271443
 30
0.0
 10
110.5472691875686
 20
43.47680602719459
 30
0.0
  0
SPLINE
  5
1CF
330
1F
100
AcDbEntity
  8
0
  6
Continuous
 62
     7
370
    25
100
AcDbSpline
210
0.0
220
0.0
230
1.0
 70
     8
 71
     3
 72
    14
 73
    10
 74
     0
 42
0.000000001
 43
0.00000001
 40
0.0
 40
0.0
 40
0.0
 40
0.0
 40
0.25
 40
0.25
 40
0.5
 40
0.5
 40
0.75
 40
0.75
 40
1.0
 40
1.0
 40
1.0
 40
1.0
 10
110.6193829529884
 20
43.55174908955378
 30
0.0
 10
110.6193915603736
 20
43.56199118800284
 30
0.0
 10
110.6108004251888
 20
43.57667390246625
 30
0.0
 10
110.5744908256785
 20
43.60849629312411
 30
0.0
 10
110.5467723613531
 20
43.62563596931857
 30
0.0
 10
110.4702802595609
 20
43.65594801314094
 30
0.0
 10
110.4257545234551
 20
43.66181781133049
 30
0.0
 10
110.3258854032589
 20
43.65572325725021
 30
0.0
 10
110.2705420191685
 20
43.64375890498036
 30
0.0
 10
110.210660672303
 20
43.62324662597274
 30
0.0
  0
SPLINE
  5
1D0
330
1F
100
AcDbEntity
  8
0
  6
Continuous
 62
     7
370
    25
100
AcDbSpline
210
0.0
220
0.0
230
1.0
 70
     8
 71
     3
 72
    12
 73
     8
 74
     0
 42
0.000000001
 43
0.00000001
 40
0.0
 40
0.0
 40
0.0
 40
0.0
 40
0.25
 40
0.25
 40
0.5
 40
0.5
 40
1.0
 40
1.0
 40
1.0
 40
1.0
 10
96.62160203155251
 20
43.55174908955378
 30
0.0
 10
96.6215934241673
 20
43.56199118800284
 30
0.0
 10
96.63018455935213
 20
43.57667390246625
 30
0.0
 10
96.66649415886242
 20
43.60849629312411
 30
0.0
 10
96.69421262318787
 20
43.62563596931857
 30
0.0
 10
96.80895077587607
 20
43.67110403505212
 30
0.0
 10
96.91056161850697
 20
43.66427118398799
 30
0.0
 10
97.03032431223791
 20
43.62324662597274
 30
0.0
  0
SPLINE
  5
1D1
330
1F
100
AcDbEntity
  8
0
  6
Continuous
 62
     7
370
    25
100
AcDbSpline
210
0.0
220
0.0
230
1.0
 70
     8
 71
     3
 72
    10
 73
     6
 74
     0
 42
0.000000001
 43
0.00000001
 40
0.0
 40
0.0
 40
0.0
 40
0.0
 40
0.5
 40
0.5
 40
1.0
 40
1.0
 40
1.0
 40
1.0
 10
96.62160203155251
 20
43.55174908955378
 30
0.0
 10
96.62156760201171
 20
43.59271748335004
 30
0.0
 10
96.62118592457752
 20
43.63617293042198
 30
0.0
 10
96.62487793870372
 20
43.72525877563921
 30
0.0
 10
96.62049249227044
 20
43.75764600425453
 30
0.0
 10
96.62049249227044
 20
43.80002933189947
 30
0.0
  0
SPLINE
  5
1D2
330
1F
100
AcDbEntity
  8
0
  6
Continuous
 62
     7
370
    25
100
AcDbSpline
210
0.0
220
0.0
230
1.0
 70
     8
 71
     3
 72
     9
 73
     5
 74
     0
 42
0.000000001
 43
0.00000001
 40
0.0
 40
0.0
 40
0.0
 40
0.0
 40
0.1238836936197441
 40
1.0
 40
1.0
 40
1.0
 40
1.0
 10
110.6187580261762
 20
43.68070415211353
 30
0.0
 10
110.6186733304484
 20
43.6753793928604
 30
0.0
 10
110.6179896591331
 20
43.6323974708855
 30
0.0
 10
110.6187323070439
 20
43.58941059365542
 30
0.0
 10
110.6193829529884
 20
43.55174908955378
 30
0.0
  0
SPLINE
  5
1D3
330
1F
100
AcDbEntity
  8
0
  6
Continuous
 62
     7
370
    25
100
AcDbSpline
210
0.0
220
0.0
230
1.0
 70
     8
 71
     3
 72
    28
 73
    24
 74
     0
 42
0.000000001
 43
0.00000001
 40
0.0
 40
0.0
 40
0.0
 40
0.0
 40
0.125
 40
0.125
 40
0.2500000000000001
 40
0.2500000000000001
 40
0.3125000000000001
 40
0.3125000000000001
 40
0.3750000000000001
 40
0.3750000000000001
 40
0.4375000000000001
 40
0.4375000000000001
 40
0.5000000000000001
 40
0.5000000000000001
 40
0.5625000000000001
 40
0.5625000000000001
 40
0.6250000000000001
 40
0.6250000000000001
 40
0.7500000000000002
 40
0.7500000000000002
 40
0.8750000000000001
 40
0.8750000000000001
 40
1.0
 40
1.0
 40
1.0
 40
1.0
 10
100.0583480782586
 20
35.05002933189946
 30
0.0
 10
100.320836966721
 20
34.87580240560447
 30
0.0
 10
100.5868860976899
 20
34.70266216722921
 30
0.0
 10
101.1312537721504
 20
34.36122071683402
 30
0.0
 10
101.4094568110233
 20
34.19252114147618
 30
0.0
 10
101.8431109505864
 20
33.95055057876067
 30
0.0
 10
101.9904238083892
 20
33.87181650769696
 30
0.0
 10
102.2927757876668
 20
33.72213546289866
 30
0.0
 10
102.4488521173187
 20
33.65070117515361
 30
0.0
 10
102.7664632754414
 20
33.52588000451181
 30
0.0
 10
102.9276614587803
 20
33.47254624265214
 30
0.0
 10
103.2580573365345
 20
33.39588356147662
 30
0.0
 10
103.4298314666652
 20
33.37292436831213
 30
0.0
 10
103.7722841890519
 20
33.36982944626766
 30
0.0
 10
103.9407971875967
 20
33.38915188939114
 30
0.0
 10
104.2735518591976
 20
33.46093869166194
 30
0.0
 10
104.4385079162729
 20
33.51345528140155
 30
0.0
 10
104.91614517994
 20
33.69649972197087
 30
0.0
 10
105.2179795528936
 20
33.85122043270736
 30
0.0
 10
105.808782330614
 20
34.17887968892288
 30
0.0
 10
106.0948234845485
 20
34.35204076520566
 30
0.0
 10
106.6484512466438
 20
34.69895547152362
 30
0.0
 10
106.9176936605887
 20
34.87417332667879
 30
0.0
 10
107.1826369062823
 20
35.05002933189946
 30
0.0
  0
LINE
  5
1D4
330
1F
100
AcDbEntity
  8
0
  6
Continuous
 62
     8
370
    25
100
AcDbLine
 10
103.6204924923
 20
49.0500293319
 30
0.0
 11
112.6204924923
 21
49.0500293319
 31
0.0
  0
LINE
  5
1D5
330
1F
100
AcDbEntity
  8
0
  6
Continuous
 62
     8
370
    25
100
AcDbLine
 10
94.6204924923
 20
49.0500293319
 30
0.0
 11
103.6204924923
 21
49.0500293319
 31
0.0
  0
LINE
  5
1D6
330
1F
100
AcDbEntity
  8
0
  6
Continuous
 62
     8
370
    25
100
AcDbLine
 10
103.6204924923
 20
47.0500293319
 30
0.0
 11
96.6204924923
 21
47.0500293319
 31
0.0
  0
LINE
  5
1D7
330
1F
100
AcDbEntity
  8
0
  6
Continuous
 62
     8
370
    25
100
AcDbLine
 10
110.6204924923
 20
47.0500293319
 30
0.0
 11
103.6204924923
 21
47.0500293319
 31
0.0
  0
SPLINE
  5
1D8
330
1F
100
AcDbEntity
  8
0
  6
Continuous
 62
     8
370
    25
100
AcDbSpline
210
0.0
220
0.0
230
1.0
 70
     8
 71
     3
 72
    11
 73
     7
 74
     0
 42
0.000000001
 43
0.00000001
 40
0.0
 40
0.0
 40
0.0
 40
0.0
 40
0.313985688877521
 40
0.6254582918578814
 40
0.8694178120862461
 40
1.0
 40
1.0
 40
1.0
 40
1.0
 10
110.210660672303
 20
33.48093293256563
 30
0.0
 10
110.2742405910052
 20
33.71766789578924
 30
0.0
 10
110.4008915459902
 20
34.1892430374787
 30
0.0
 10
110.5337033386628
 20
34.85635943553834
 30
0.0
 10
110.6001694074794
 20
35.3874216628594
 30
0.0
 10
110.6072674464256
 20
35.67973222692104
 30
0.0
 10
110.6097421439969
 20
35.78164491695178
 30
0.0
  0
SPLINE
  5
1D9
330
1F
100
AcDbEntity
  8
0
  6
Continuous
 62
     8
370
    25
100
AcDbSpline
210
0.0
220
0.0
230
1.0
 70
     8
 71
     3
 72
    10
 73
     6
 74
     0
 42
0.000000001
 43
0.00000001
 40
0.0
 40
0.0
 40
0.0
 40
0.0
 40
0.4326501492475736
 40
0.8618374432536737
 40
1.0
 40
1.0
 40
1.0
 40
1.0
 10
97.03032431223791
 20
33.48093293256564
 30
0.0
 10
96.96761837497702
 20
33.71775173406688
 30
0.0
 10
96.84270838768192
 20
34.18949388128485
 30
0.0
 10
96.72179497766014
 20
34.74538971295071
 30
0.0
 10
96.68835579637005
 20
35.06459364773297
 30
0.0
 10
96.6802125972903
 20
35.1423270457316
 30
0.0
  0
SPLINE
  5
1DA
330
1F
100
AcDbEntity
  8
0
  6
Continuous
 62
     8
370
    25
100
AcDbSpline
210
0.0
220
0.0
230
1.0
 70
     8
 71
     3
 72
    10
 73
     6
 74
     0
 42
0.000000001
 43
0.00000001
 40
0.0
 40
0.0
 40
0.0
 40
0.0
 40
0.4326501492476059
 40
0.8618374432537387
 40
0.9999999999999999
 40
0.9999999999999999
 40
0.9999999999999999
 40
0.9999999999999999
 10
110.210660672303
 20
38.61912573123329
 30
0.0
 10
110.2733666095639
 20
38.38230692973205
 30
0.0
 10
110.398276596859
 20
37.91056478251407
 30
0.0
 10
110.5191900068808
 20
37.35466895084826
 30
0.0
 10
110.5526291881709
 20
37.03546501606604
 30
0.0
 10
110.5607723872506
 20
36.95773161806745
 30
0.0
  0
SPLINE
  5
1DB
330
1F
100
AcDbEntity
  8
0
  6
Continuous
 62
     8
370
    25
100
AcDbSpline
210
0.0
220
0.0
230
1.0
 70
     8
 71
     3
 72
    11
 73
     7
 74
     0
 42
0.000000001
 43
0.00000001
 40
0.0
 40
0.0
 40
0.0
 40
0.0
 40
0.3139856888777253
 40
0.6254582918582907
 40
0.8694178120868175
 40
1.0
 40
1.0
 40
1.0
 40
1.0
 10
97.03032431223791
 20
38.61912573123329
 30
0.0
 10
96.96674439353566
 20
38.38239076800967
 30
0.0
 10
96.84009343855068
 20
37.91081562632022
 30
0.0
 10
96.70728164587813
 20
37.24369922826059
 30
0.0
 10
96.6408155770616
 20
36.71263700094005
 30
0.0
 10
96.63371753811538
 20
36.42032643687892
 30
0.0
 10
96.63124284054409
 20
36.31841374684869
 30
0.0
  0
SPLINE
  5
1DC
330
1F
100
AcDbEntity
  8
0
  6
Continuous
 62
     8
370
    25
100
AcDbSpline
210
0.0
220
0.0
230
1.0
 70
     8
 71
     3
 72
    11
 73
     7
 74
     0
 42
0.000000001
 43
0.00000001
 40
0.0
 40
0.0
 40
0.0
 40
0.0
 40
0.3089027230144502
 40
0.6203071492592251
 40
0.8646748168774546
 40
1.0
 40
1.0
 40
1.0
 40
1.0
 10
96.69371579697231
 20
38.68241469489644
 30
0.0
 10
96.69302934076717
 20
38.43745912454075
 30
0.0
 10
96.69165086897013
 20
37.94556416790291
 30
0.0
 10
96.67293376626316
 20
37.26054619868068
 30
0.0
 10
96.6374512924735
 20
36.71381152629108
 30
0.0
 10
96.63086061486801
 20
36.41302558450487
 30
0.0
 10
96.62851165135152
 20
36.30582337468317
 30
0.0
  0
SPLINE
  5
1DD
330
1F
100
AcDbEntity
  8
0
  6
Continuous
 62
     8
370
    25
100
AcDbSpline
210
0.0
220
0.0
230
1.0
 70
     8
 71
     3
 72
    11
 73
     7
 74
     0
 42
0.000000001
 43
0.00000001
 40
0.0
 40
0.0
 40
0.0
 40
0.0
 40
0.3246908563002607
 40
0.6520112788152067
 40
0.9088686689889683
 40
1.0
 40
1.0
 40
1.0
 40
1.0
 10
110.5472691875686
 20
33.41764396890249
 30
0.0
 10
110.5479828359141
 20
33.66259868211654
 30
0.0
 10
110.5494159122122
 20
34.1544919175294
 30
0.0
 10
110.5677505869148
 20
34.83952194152048
 30
0.0
 10
110.6016685279991
 20
35.3477593642202
 30
0.0
 10
110.6077576586031
 20
35.61001454923334
 30
0.0
 10
110.609352280908
 20
35.6786939707773
 30
0.0
  0
LINE
  5
1DE
330
1F
100
AcDbEntity
  8
0
  6
Continuous
 62
     8
370
    25
100
AcDbLine
 10
110.6108840487
 20
35.7353999965
 30
0.0
 11
110.6124733332
 21
35.7942352891
 31
0.0
  0
SPLINE
  5
1DF
330
1F
100
AcDbEntity
  8
0
  6
Continuous
 62
     8
370
    25
100
AcDbSpline
210
0.0
220
0.0
230
1.0
 70
     8
 71
     3
 72
    11
 73
     7
 74
     0
 42
0.000000001
 43
0.00000001
 40
0.0
 40
0.0
 40
0.0
 40
0.0
 40
0.3089027230150551
 40
0.620307149260439
 40
0.8646748168791464
 40
1.0
 40
1.0
 40
1.0
 40
1.0
 10
110.5472691875686
 20
38.68241469489644
 30
0.0
 10
110.5479556437737
 20
38.43745912454074
 30
0.0
 10
110.5493341155708
 20
37.94556416790291
 30
0.0
 10
110.5680512182777
 20
37.26054619868068
 30
0.0
 10
110.6035336920673
 20
36.71381152629263
 30
0.0
 10
110.6101243696728
 20
36.41302558450796
 30
0.0
 10
110.6124733331893
 20
36.30582337468783
 30
0.0
  0
SPLINE
  5
1E0
330
1F
100
AcDbEntity
  8
0
  6
Continuous
 62
     8
370
    25
100
AcDbSpline
210
0.0
220
0.0
230
1.0
 70
     8
 71
     3
 72
    11
 73
     7
 74
     0
 42
0.000000001
 43
0.00000001
 40
0.0
 40
0.0
 40
0.0
 40
0.0
 40
0.3089027230147093
 40
0.6203071492597456
 40
0.8646748168781807
 40
1.0
 40
1.0
 40
1.0
 40
1.0
 10
96.69371579697231
 20
33.41764396890249
 30
0.0
 10
96.69302934076717
 20
33.66259953925818
 30
0.0
 10
96.69165086897013
 20
34.15449449589602
 30
0.0
 10
96.67293376626317
 20
34.83951246511825
 30
0.0
 10
96.63745129247354
 20
35.38624713750718
 30
0.0
 10
96.63086061486806
 20
35.68703307929274
 30
0.0
 10
96.62851165135157
 20
35.79423528911376
 30
0.0
  0
LINE
  5
1E1
330
1F
100
AcDbEntity
  8
0
  6
Continuous
 62
     8
370
    25
100
AcDbLine
 10
110.6204924923
 20
36.0500293319
 30
0.0
 11
110.6210500939
 21
36.0500293319
 31
0.0
  0
SPLINE
  5
1E2
330
1F
100
AcDbEntity
  8
0
  6
Continuous
 62
     8
370
    25
100
AcDbSpline
210
0.0
220
0.0
230
1.0
 70
     8
 71
     3
 72
     9
 73
     5
 74
     0
 42
0.000000001
 43
0.00000001
 40
0.0
 40
0.0
 40
0.0
 40
0.0
 40
0.1250376544250829
 40
1.0
 40
1.0
 40
1.0
 40
1.0
 10
96.61975181974825
 20
43.4212983687724
 30
0.0
 10
96.61971072486229
 20
43.42673610144836
 30
0.0
 10
96.61938206477872
 20
43.47022486250161
 30
0.0
 10
96.62056607083571
 20
43.51370532345304
 30
0.0
 10
96.62160203155251
 20
43.55174908955378
 30
0.0
  0
SPLINE
  5
1E3
330
1F
100
AcDbEntity
  8
0
  6
Continuous
 62
     8
370
    25
100
AcDbSpline
210
0.0
220
0.0
230
1.0
 70
     8
 71
     3
 72
     9
 73
     5
 74
     0
 42
0.000000001
 43
0.00000001
 40
0.0
 40
0.0
 40
0.0
 40
0.0
 40
0.1250376543823382
 40
1.0
 40
1.0
 40
1.0
 40
1.0
 10
110.6212331647927
 20
43.42129836877878
 30
0.0
 10
110.6212742596786
 20
43.4267361014526
 30
0.0
 10
110.6216029197622
 20
43.47022486250372
 30
0.0
 10
110.6204189137052
 20
43.51370532345304
 30
0.0
 10
110.6193829529884
 20
43.55174908955378
 30
0.0
  0
LINE
  5
1E4
330
1F
100
AcDbEntity
  8
0
  6
Continuous
 62
     8
370
    25
100
AcDbLine
 10
110.6204924923
 20
43.8000293319
 30
0.0
 11
110.6187580262
 21
43.6807041521
 31
0.0
  0
INSERT
  5
1F0
330
1F
100
AcDbEntity
  8
0
  6
Continuous
 62
     7
370
    18
100
AcDbBlockReference
  2
SW_CENTERMARKSYMBOL_0
 10
103.6204924923
 20
36.0500293319
 30
0.0
  0
ARC
  5
1F1
330
1F
100
AcDbEntity
  8
0
  6
Continuous
 62
     7
370
    18
100
AcDbCircle
 10
103.6204924923
 20
36.0500293319
 30
0.0
 40
5.722499999999997
100
AcDbArc
 50
75.0
 51
345.0
  0
LINE
  5
1F2
330
1F
100
AcDbEntity
  8
0
  6
Continuous
 62
     7
370
    25
100
AcDbLine
 10
67.1987354483
 20
76.7617932316
 30
0.0
 11
68.9487354483
 21
76.7617932316
 31
0.0
  0
LINE
  5
1F3
330
1F
100
AcDbEntity
  8
0
  6
Continuous
 62
     7
370
    25
100
AcDbLine
 10
68.9487354483
 20
90.7617932316
 30
0.0
 11
67.1987354483
 21
90.7617932316
 31
0.0
  0
LINE
  5
1F4
330
1F
100
AcDbEntity
  8
0
  6
Continuous
 62
     7
370
    25
100
AcDbLine
 10
68.9487354483
 20
76.7617932316
 30
0.0
 11
69.1099612548
 21
76.9230190381
 31
0.0
  0
LINE
  5
1F5
330
1F
100
AcDbEntity
  8
0
  6
Continuous
 62
     7
370
    25
100
AcDbLine
 10
69.1099612548
 20
90.6005674252
 30
0.0
 11
68.9487354483
 21
90.7617932316
 31
0.0
  0
LINE
  5
1F6
330
1F
100
AcDbEntity
  8
0
  6
Continuous
 62
     7
370
    25
100
AcDbLine
 10
69.1099612548
 20
76.9230190381
 30
0.0
 11
81.3599477945
 21
77.3058311174
 31
0.0
  0
LINE
  5
1F7
330
1F
100
AcDbEntity
  8
0
  6
Continuous
 62
     7
370
    25
100
AcDbLine
 10
81.3599477945
 20
90.2177553458
 30
0.0
 11
69.1099612548
 21
90.6005674252
 31
0.0
  0
LINE
  5
1F8
330
1F
100
AcDbEntity
  8
0
  6
Continuous
 62
     7
370
    25
100
AcDbLine
 10
81.3599477945
 20
77.3058311174
 30
0.0
 11
83.4487354483
 21
78.5117932316
 31
0.0
  0
LINE
  5
1F9
330
1F
100
AcDbEntity
  8
0
  6
Continuous
 62
     7
370
    25
100
AcDbLine
 10
83.4487354483
 20
89.0117932316
 30
0.0
 11
81.3599477945
 21
90.2177553458
 31
0.0
  0
CIRCLE
  5
1FA
330
1F
100
AcDbEntity
  8
0
  6
Continuous
 62
     7
370
    25
100
AcDbCircle
 10
59.4487354483
 20
83.7617932316
 30
0.0
 40
8.500000000000007
  0
CIRCLE
  5
1FB
330
1F
100
AcDbEntity
  8
0
  6
Continuous
 62
     7
370
    25
100
AcDbCircle
 10
59.4487354483
 20
83.7617932316
 30
0.0
 40
7.625
  0
CIRCLE
  5
1FC
330
1F
100
AcDbEntity
  8
0
  6
Continuous
 62
     7
370
    25
100
AcDbCircle
 10
59.4487354483
 20
83.7617932316
 30
0.0
 40
9.000000000000007
  0
CIRCLE
  5
1FD
330
1F
100
AcDbEntity
  8
0
  6
Continuous
 62
     7
370
    25
100
AcDbCircle
 10
59.4487354483
 20
83.7617932316
 30
0.0
 40
7.5
  0
CIRCLE
  5
1FE
330
1F
100
AcDbEntity
  8
0
  6
Continuous
 62
     7
370
    25
100
AcDbCircle
 10
59.4487354483
 20
83.7617932316
 30
0.0
 40
7.374999999999993
  0
CIRCLE
  5
1FF
330
1F
100
AcDbEntity
  8
0
  6
Continuous
 62
     7
370
    25
100
AcDbCircle
 10
59.4487354483
 20
83.7617932316
 30
0.0
 40
6.116633130021761
  0
CIRCLE
  5
200
330
1F
100
AcDbEntity
  8
0
  6
Continuous
 62
     7
370
    25
100
AcDbCircle
 10
59.4487354483
 20
83.7617932316
 30
0.0
 40
6.749999999999993
  0
CIRCLE
  5
201
330
1F
100
AcDbEntity
  8
0
  6
Continuous
 62
     7
370
    25
100
AcDbCircle
 10
59.4487354483
 20
83.7617932316
 30
0.0
 40
5.810617330388091
  0
CIRCLE
  5
202
330
1F
100
AcDbEntity
  8
0
  6
Continuous
 62
     7
370
    25
100
AcDbCircle
 10
59.4487354483
 20
83.7617932316
 30
0.0
 40
5.350000000000001
  0
CIRCLE
  5
203
330
1F
100
AcDbEntity
  8
0
  6
Continuous
 62
     7
370
    25
100
AcDbCircle
 10
59.4487354483
 20
83.7617932316
 30
0.0
 40
3.999999999999993
  0
LINE
  5
204
330
1F
100
AcDbEntity
  8
0
  6
Continuous
 62
     7
370
    25
100
AcDbLine
 10
53.6987354483
 20
90.7617932316
 30
0.0
 11
53.7918811988
 21
90.7617932316
 31
0.0
  0
LINE
  5
205
330
1F
100
AcDbEntity
  8
0
  6
Continuous
 62
     7
370
    25
100
AcDbLine
 10
65.1055896978
 20
90.7617932316
 30
0.0
 11
65.1987354483
 21
90.7617932316
 31
0.0
  0
LINE
  5
206
330
1F
100
AcDbEntity
  8
0
  6
Continuous
 62
     7
370
    25
100
AcDbLine
 10
65.1987354483
 20
76.7617932316
 30
0.0
 11
65.1055896978
 21
76.7617932316
 31
0.0
  0
LINE
  5
207
330
1F
100
AcDbEntity
  8
0
  6
Continuous
 62
     7
370
    25
100
AcDbLine
 10
53.7918811988
 20
76.7617932316
 30
0.0
 11
53.6987354483
 21
76.7617932316
 31
0.0
  0
ARC
  5
208
330
1F
100
AcDbEntity
  8
0
  6
Continuous
 62
     7
370
    25
100
AcDbCircle
 10
53.6987354483
 20
90.5117932316
 30
0.0
 40
0.25
100
AcDbArc
 50
90.0
 51
180.0
  0
ARC
  5
209
330
1F
100
AcDbEntity
  8
0
  6
Continuous
 62
     7
370
    25
100
AcDbCircle
 10
65.1987354483
 20
90.5117932316
 30
0.0
 40
0.25
100
AcDbArc
 50
0.0
 51
90.0
  0
LINE
  5
20A
330
1F
100
AcDbEntity
  8
0
  6
Continuous
 62
     7
370
    25
100
AcDbLine
 10
65.4487354483
 20
90.5117932316
 30
0.0
 11
65.4487354483
 21
90.4699971641
 31
0.0
  0
LINE
  5
20B
330
1F
100
AcDbEntity
  8
0
  6
Continuous
 62
     7
370
    25
100
AcDbLine
 10
53.4487354483
 20
90.4699971641
 30
0.0
 11
53.4487354483
 21
90.5117932316
 31
0.0
  0
LINE
  5
20C
330
1F
100
AcDbEntity
  8
0
  6
Continuous
 62
     7
370
    25
100
AcDbLine
 10
53.4487354483
 20
77.0117932316
 30
0.0
 11
53.4487354483
 21
77.0535892991
 31
0.0
  0
LINE
  5
20D
330
1F
100
AcDbEntity
  8
0
  6
Continuous
 62
     7
370
    25
100
AcDbLine
 10
65.4487354483
 20
77.0535892991
 30
0.0
 11
65.4487354483
 21
77.0117932316
 31
0.0
  0
ARC
  5
20E
330
1F
100
AcDbEntity
  8
0
  6
Continuous
 62
     7
370
    25
100
AcDbCircle
 10
53.6987354483
 20
77.0117932316
 30
0.0
 40
0.25
100
AcDbArc
 50
180.0
 51
270.0
  0
ARC
  5
20F
330
1F
100
AcDbEntity
  8
0
  6
Continuous
 62
     7
370
    25
100
AcDbCircle
 10
65.1987354483
 20
77.0117932316
 30
0.0
 40
0.25
100
AcDbArc
 50
270.0
 51
0.0
  0
LINE
  5
210
330
1F
100
AcDbEntity
  8
0
  6
Continuous
 62
     7
370
    25
100
AcDbLine
 10
66.4487354483
 20
90.5117932316
 30
0.0
 11
65.4487354483
 21
90.5117932316
 31
0.0
  0
LINE
  5
211
330
1F
100
AcDbEntity
  8
0
  6
Continuous
 62
     7
370
    25
100
AcDbLine
 10
66.4487354483
 20
90.7617932316
 30
0.0
 11
66.4487354483
 21
90.5117932316
 31
0.0
  0
LINE
  5
212
330
1F
100
AcDbEntity
  8
0
  6
Continuous
 62
     7
370
    25
100
AcDbLine
 10
65.1987354483
 20
90.7617932316
 30
0.0
 11
66.4487354483
 21
90.7617932316
 31
0.0
  0
SPLINE
  5
213
330
1F
100
AcDbEntity
  8
0
  6
Continuous
 62
     7
370
    25
100
AcDbSpline
210
0.0
220
0.0
230
1.0
 70
    24
 71
     3
 72
    14
 73
    10
 74
     0
 42
0.000000001
 43
0.00000001
 40
0.0
 40
0.0
 40
0.0
 40
0.0
 40
0.25
 40
0.25
 40
0.5
 40
0.5
 40
0.75
 40
0.75
 40
1.0
 40
1.0
 40
1.0
 40
1.0
 10
67.19873544831293
 20
76.76179323161718
 30
0.0
 10
67.19873544831293
 20
76.76179323161718
 30
0.0
 10
67.19873544831293
 20
76.77171792154256
 30
0.0
 10
67.19873544831293
 20
76.81151262420526
 30
0.0
 10
67.19873544831293
 20
76.84138296942693
 30
0.0
 10
67.19873544831293
 20
76.92135250935887
 30
0.0
 10
67.19873544831293
 20
76.97145238979476
 30
0.0
 10
67.19873544831293
 20
77.09233693878261
 30
0.0
 10
67.19873544831293
 20
77.16312268737123
 30
0.0
 10
67.19873544831293
 20
77.24455185230683
 30
0.0
  0
SPLINE
  5
214
330
1F
100
AcDbEntity
  8
0
  6
Continuous
 62
     7
370
    25
100
AcDbSpline
210
0.0
220
0.0
230
1.0
 70
    24
 71
     3
 72
    14
 73
    10
 74
     0
 42
0.000000001
 43
0.00000001
 40
0.0
 40
0.0
 40
0.0
 40
0.0
 40
0.25
 40
0.25
 40
0.5
 40
0.5
 40
0.75
 40
0.75
 40
1.0
 40
1.0
 40
1.0
 40
1.0
 10
67.19873544831293
 20
90.76179323161718
 30
0.0
 10
67.19873544831293
 20
90.76179323161718
 30
0.0
 10
67.19873544831293
 20
90.75186854169179
 30
0.0
 10
67.19873544831293
 20
90.71207383902907
 30
0.0
 10
67.19873544831293
 20
90.68220349380744
 30
0.0
 10
67.19873544831293
 20
90.60223395387547
 30
0.0
 10
67.19873544831293
 20
90.55213407343959
 30
0.0
 10
67.19873544831293
 20
90.43124952445176
 30
0.0
 10
67.19873544831293
 20
90.36046377586312
 30
0.0
 10
67.19873544831293
 20
90.27903461092751
 30
0.0
  0
LINE
  5
215
330
1F
100
AcDbEntity
  8
0
  6
Continuous
 62
     7
370
    25
100
AcDbLine
 10
68.9487354483
 20
76.7617932316
 30
0.0
 11
68.9487354483
 21
90.7617932316
 31
0.0
  0
LINE
  5
216
330
1F
100
AcDbEntity
  8
0
  6
Continuous
 62
     7
370
    25
100
AcDbLine
 10
69.1099612548
 20
90.6005674252
 30
0.0
 11
69.1099612548
 21
76.9230190381
 31
0.0
  0
LINE
  5
217
330
1F
100
AcDbEntity
  8
0
  6
Continuous
 62
     7
370
    25
100
AcDbLine
 10
65.4487354483
 20
77.0117932316
 30
0.0
 11
66.4487354483
 21
77.0117932316
 31
0.0
  0
LINE
  5
218
330
1F
100
AcDbEntity
  8
0
  6
Continuous
 62
     7
370
    25
100
AcDbLine
 10
66.4487354483
 20
77.0117932316
 30
0.0
 11
66.4487354483
 21
76.7617932316
 31
0.0
  0
LINE
  5
219
330
1F
100
AcDbEntity
  8
0
  6
Continuous
 62
     7
370
    25
100
AcDbLine
 10
66.4487354483
 20
76.7617932316
 30
0.0
 11
65.1987354483
 21
76.7617932316
 31
0.0
  0
LINE
  5
21A
330
1F
100
AcDbEntity
  8
0
  6
Continuous
 62
     7
370
    25
100
AcDbLine
 10
81.3599477945
 20
90.2177553458
 30
0.0
 11
81.3599477945
 21
77.3058311174
 31
0.0
  0
LINE
  5
21B
330
1F
100
AcDbEntity
  8
0
  6
Continuous
 62
     7
370
    25
100
AcDbLine
 10
83.4487354483
 20
89.0117932316
 30
0.0
 11
83.4487354483
 21
78.5117932316
 31
0.0
  0
LINE
  5
21C
330
1F
100
AcDbEntity
  8
0
  6
Continuous
 62
     7
370
    25
100
AcDbLine
 10
66.9487354483
 20
90.5117932316
 30
0.0
 11
66.6987354483
 21
90.5117932316
 31
0.0
  0
LINE
  5
21D
330
1F
100
AcDbEntity
  8
0
  6
Continuous
 62
     7
370
    25
100
AcDbLine
 10
66.6987354483
 20
90.7617932316
 30
0.0
 11
66.6987354483
 21
90.5117932316
 31
0.0
  0
ARC
  5
21E
330
1F
100
AcDbEntity
  8
0
  6
Continuous
 62
     7
370
    25
100
AcDbCircle
 10
66.6987354483
 20
90.5117932316
 30
0.0
 40
0.2500000000000142
100
AcDbArc
 50
0.0
 51
90.0
  0
LINE
  5
21F
330
1F
100
AcDbEntity
  8
0
  6
Continuous
 62
     7
370
    25
100
AcDbLine
 10
66.6987354483
 20
90.5117932316
 30
0.0
 11
66.4487354483
 21
90.5117932316
 31
0.0
  0
LINE
  5
220
330
1F
100
AcDbEntity
  8
0
  6
Continuous
 62
     7
370
    25
100
AcDbLine
 10
66.4487354483
 20
90.7617932316
 30
0.0
 11
66.6987354483
 21
90.7617932316
 31
0.0
  0
LINE
  5
221
330
1F
100
AcDbEntity
  8
0
  6
Continuous
 62
     7
370
    25
100
AcDbLine
 10
66.9487354483
 20
90.5117932316
 30
0.0
 11
66.9487354483
 21
88.7367304172
 31
0.0
  0
LINE
  5
222
330
1F
100
AcDbEntity
  8
0
  6
Continuous
 62
     7
370
    25
100
AcDbLine
 10
66.4487354483
 20
77.0117932316
 30
0.0
 11
66.6987354483
 21
77.0117932316
 31
0.0
  0
LINE
  5
223
330
1F
100
AcDbEntity
  8
0
  6
Continuous
 62
     7
370
    25
100
AcDbLine
 10
66.9487354483
 20
78.7868560461
 30
0.0
 11
66.9487354483
 21
77.0117932316
 31
0.0
  0
LINE
  5
224
330
1F
100
AcDbEntity
  8
0
  6
Continuous
 62
     7
370
    25
100
AcDbLine
 10
66.6987354483
 20
77.0117932316
 30
0.0
 11
66.9487354483
 21
77.0117932316
 31
0.0
  0
LINE
  5
225
330
1F
100
AcDbEntity
  8
0
  6
Continuous
 62
     7
370
    25
100
AcDbLine
 10
66.6987354483
 20
77.0117932316
 30
0.0
 11
66.6987354483
 21
76.7617932316
 31
0.0
  0
LINE
  5
226
330
1F
100
AcDbEntity
  8
0
  6
Continuous
 62
     7
370
    25
100
AcDbLine
 10
66.6987354483
 20
76.7617932316
 30
0.0
 11
66.4487354483
 21
76.7617932316
 31
0.0
  0
ARC
  5
227
330
1F
100
AcDbEntity
  8
0
  6
Continuous
 62
     7
370
    25
100
AcDbCircle
 10
66.6987354483
 20
77.0117932316
 30
0.0
 40
0.2500000000000142
100
AcDbArc
 50
270.0
 51
0.0
  0
SPLINE
  5
228
330
1F
100
AcDbEntity
  8
0
  6
Continuous
 62
     7
370
    25
100
AcDbSpline
210
0.0
220
0.0
230
1.0
 70
     8
 71
     3
 72
     8
 73
     4
 74
     0
 42
0.000000001
 43
0.00000001
 40
0.0
 40
0.0
 40
0.0
 40
0.0
 40
1.0
 40
1.0
 40
1.0
 40
1.0
 10
67.19873544831293
 20
90.27903461092751
 30
0.0
 10
67.13328276787676
 20
90.28060451362434
 30
0.0
 10
67.06823320286853
 20
90.30725984802827
 30
0.0
 10
67.0219527423862
 20
90.35196141164974
 30
0.0
  0
SPLINE
  5
229
330
1F
100
AcDbEntity
  8
0
  6
Continuous
 62
     7
370
    25
100
AcDbSpline
210
0.0
220
0.0
230
1.0
 70
     8
 71
     3
 72
    14
 73
    10
 74
     0
 42
0.000000001
 43
0.00000001
 40
0.0
 40
0.0
 40
0.0
 40
0.0
 40
0.245589323567575
 40
0.455618196314265
 40
0.6303106213393797
 40
0.77011643036692
 40
0.8759901151610914
 40
0.9502659312389357
 40
1.0
 40
1.0
 40
1.0
 40
1.0
 10
67.0219527423862
 20
90.35196141164974
 30
0.0
 10
67.0109877030709
 20
90.36385235218891
 30
0.0
 10
66.99064532269875
 20
90.3859124678415
 30
0.0
 10
66.97049331022228
 20
90.42147616616165
 30
0.0
 10
66.95837375075143
 20
90.45226847476486
 30
0.0
 10
66.95216792751903
 20
90.47750805733772
 30
0.0
 10
66.9495482285452
 20
90.49549035027255
 30
0.0
 10
66.94876803420014
 20
90.50841251368847
 30
0.0
 10
66.94874477599727
 20
90.51082550379445
 30
0.0
 10
66.94873544831293
 20
90.51179323161718
 30
0.0
  0
SPLINE
  5
22A
330
1F
100
AcDbEntity
  8
0
  6
Continuous
 62
     7
370
    25
100
AcDbSpline
210
0.0
220
0.0
230
1.0
 70
     8
 71
     3
 72
    15
 73
    11
 74
     0
 42
0.000000001
 43
0.00000001
 40
0.0
 40
0.0
 40
0.0
 40
0.0
 40
0.0425877399909041
 40
0.1028282325346875
 40
0.1864706729280299
 40
0.2956205441869006
 40
0.4311891005861807
 40
0.5936297641565581
 40
0.7831876993469636
 40
1.0
 40
1.0
 40
1.0
 40
1.0
 10
66.94873544831293
 20
77.01179323161718
 30
0.0
 10
66.94874124141506
 20
77.01250873321399
 30
0.0
 10
66.94875522887847
 20
77.0142363140763
 30
0.0
 10
66.9492469297102
 20
77.02411049317118
 30
0.0
 10
66.9508742836688
 20
77.03800417299351
 30
0.0
 10
66.95469943205288
 20
77.05750143081517
 30
0.0
 10
66.96207174209368
 20
77.08170628366445
 30
0.0
 10
66.97468973107051
 20
77.11007494032857
 30
0.0
 10
66.99393393327469
 20
77.14161411107214
 30
0.0
 10
67.01220467964494
 20
77.16118390364448
 30
0.0
 10
67.0219527423862
 20
77.17162505158461
 30
0.0
  0
SPLINE
  5
22B
330
1F
100
AcDbEntity
  8
0
  6
Continuous
 62
     7
370
    25
100
AcDbSpline
210
0.0
220
0.0
230
1.0
 70
     8
 71
     3
 72
     8
 73
     4
 74
     0
 42
0.000000001
 43
0.00000001
 40
0.0
 40
0.0
 40
0.0
 40
0.0
 40
1.0
 40
1.0
 40
1.0
 40
1.0
 10
67.0219527423862
 20
77.17162505158461
 30
0.0
 10
67.06823320286853
 20
77.2163266152061
 30
0.0
 10
67.13328276787678
 20
77.24298194961001
 30
0.0
 10
67.19873544831293
 20
77.24455185230683
 30
0.0
  0
LINE
  5
22C
330
1F
100
AcDbEntity
  8
0
  6
Continuous
 62
     7
370
    25
100
AcDbLine
 10
61.4487354483
 20
80.2976916165
 30
0.0
 11
61.4487354483
 21
87.2258948468
 31
0.0
  0
SPLINE
  5
22D
330
1F
100
AcDbEntity
  8
0
  6
Continuous
 62
     7
370
    25
100
AcDbSpline
210
0.0
220
0.0
230
1.0
 70
     8
 71
     3
 72
    12
 73
     8
 74
     0
 42
0.000000001
 43
0.00000001
 40
0.0
 40
0.0
 40
0.0
 40
0.0
 40
0.25
 40
0.25
 40
0.5
 40
0.5
 40
1.0
 40
1.0
 40
1.0
 40
1.0
 10
66.95045520596723
 20
90.76068369233514
 30
0.0
 10
66.94021310751818
 20
90.76067508494992
 30
0.0
 10
66.93267389596484
 20
90.75206527461975
 30
0.0
 10
66.91834438034049
 20
90.7305841643495
 30
0.0
 10
66.91155407626948
 20
90.71771286440939
 30
0.0
 10
66.88532122581621
 20
90.69211810459417
 30
0.0
 10
66.8756385091279
 20
90.68844356139547
 30
0.0
 10
66.87551214360805
 20
90.68856992691532
 30
0.0
  0
SPLINE
  5
22E
330
1F
100
AcDbEntity
  8
0
  6
Continuous
 62
     7
370
    25
100
AcDbSpline
210
0.0
220
0.0
230
1.0
 70
     8
 71
     3
 72
    10
 73
     6
 74
     0
 42
0.000000001
 43
0.00000001
 40
0.0
 40
0.0
 40
0.0
 40
0.0
 40
0.5
 40
0.5
 40
1.0
 40
1.0
 40
1.0
 40
1.0
 10
66.95045520596723
 20
90.76068369233514
 30
0.0
 10
66.90948681217097
 20
90.76064926279433
 30
0.0
 10
66.86552230242647
 20
90.76095747313128
 30
0.0
 10
66.77447566268265
 20
90.7659122065117
 30
0.0
 10
66.7415272221018
 20
90.76179323161718
 30
0.0
 10
66.69873544831292
 20
90.76179323161718
 30
0.0
  0
SPLINE
  5
22F
330
1F
100
AcDbEntity
  8
0
  6
Continuous
 62
     7
370
    25
100
AcDbSpline
210
0.0
220
0.0
230
1.0
 70
     8
 71
     3
 72
    12
 73
     8
 74
     0
 42
0.000000001
 43
0.00000001
 40
0.0
 40
0.0
 40
0.0
 40
0.0
 40
0.25
 40
0.25
 40
0.5
 40
0.5
 40
1.0
 40
1.0
 40
1.0
 40
1.0
 10
66.95045520596723
 20
90.76068369233514
 30
0.0
 10
66.96069730441631
 20
90.76069229972032
 30
0.0
 10
66.9753800188797
 20
90.7521011645355
 30
0.0
 10
67.00720240953757
 20
90.71579156502521
 30
0.0
 10
67.02434208573203
 20
90.68807310069977
 30
0.0
 10
67.06981015146559
 20
90.57333494801155
 30
0.0
 10
67.06297730040144
 20
90.47172410538066
 30
0.0
 10
67.0219527423862
 20
90.35196141164974
 30
0.0
  0
SPLINE
  5
230
330
1F
100
AcDbEntity
  8
0
  6
Continuous
 62
     7
370
    25
100
AcDbSpline
210
0.0
220
0.0
230
1.0
 70
     8
 71
     3
 72
    14
 73
    10
 74
     0
 42
0.000000001
 43
0.00000001
 40
0.0
 40
0.0
 40
0.0
 40
0.0
 40
0.25
 40
0.25
 40
0.5
 40
0.5
 40
0.75
 40
0.75
 40
1.0
 40
1.0
 40
1.0
 40
1.0
 10
66.95045520596723
 20
76.76290277089923
 30
0.0
 10
66.96069730441631
 20
76.76289416351402
 30
0.0
 10
66.97538001887972
 20
76.77148529869885
 30
0.0
 10
67.00720240953757
 20
76.80779489820912
 30
0.0
 10
67.02434208573203
 20
76.83551336253458
 30
0.0
 10
67.0546541295544
 20
76.91200546432673
 30
0.0
 10
67.06052392774394
 20
76.95653120043248
 30
0.0
 10
67.05442937366367
 20
77.0564003206287
 30
0.0
 10
67.04246502139382
 20
77.11174370471916
 30
0.0
 10
67.0219527423862
 20
77.17162505158461
 30
0.0
  0
SPLINE
  5
231
330
1F
100
AcDbEntity
  8
0
  6
Continuous
 62
     7
370
    25
100
AcDbSpline
210
0.0
220
0.0
230
1.0
 70
     8
 71
     3
 72
    12
 73
     8
 74
     0
 42
0.000000001
 43
0.00000001
 40
0.0
 40
0.0
 40
0.0
 40
0.0
 40
0.25
 40
0.25
 40
0.5
 40
0.5
 40
1.0
 40
1.0
 40
1.0
 40
1.0
 10
66.95045520596723
 20
76.76290277089923
 30
0.0
 10
66.94021310751818
 20
76.76291137828441
 30
0.0
 10
66.93267389596484
 20
76.77152118861457
 30
0.0
 10
66.9183443803405
 20
76.79300229888483
 30
0.0
 10
66.91155407626948
 20
76.80587359882493
 30
0.0
 10
66.88532122581621
 20
76.83146835864018
 30
0.0
 10
66.8756385091279
 20
76.83514290183886
 30
0.0
 10
66.87551214360805
 20
76.83501653631903
 30
0.0
  0
SPLINE
  5
232
330
1F
100
AcDbEntity
  8
0
  6
Continuous
 62
     7
370
    25
100
AcDbSpline
210
0.0
220
0.0
230
1.0
 70
     8
 71
     3
 72
    10
 73
     6
 74
     0
 42
0.000000001
 43
0.00000001
 40
0.0
 40
0.0
 40
0.0
 40
0.0
 40
0.5
 40
0.5
 40
1.0
 40
1.0
 40
1.0
 40
1.0
 10
66.95045520596723
 20
76.76290277089923
 30
0.0
 10
66.90948681217097
 20
76.76293720044004
 30
0.0
 10
66.86552230242647
 20
76.76262899010305
 30
0.0
 10
66.77447566268265
 20
76.75767425672264
 30
0.0
 10
66.7415272221018
 20
76.76179323161718
 30
0.0
 10
66.69873544831292
 20
76.76179323161718
 30
0.0
  0
SPLINE
  5
233
330
1F
100
AcDbEntity
  8
0
  6
Continuous
 62
     7
370
    25
100
AcDbSpline
210
0.0
220
0.0
230
1.0
 70
     8
 71
     3
 72
    10
 73
     6
 74
     0
 42
0.000000001
 43
0.00000001
 40
0.0
 40
0.0
 40
0.0
 40
0.0
 40
0.5
 40
0.5
 40
1.0
 40
1.0
 40
1.0
 40
1.0
 10
66.95045520596723
 20
90.76068369233514
 30
0.0
 10
66.99142359976351
 20
90.76071812187591
 30
0.0
 10
67.03487904683543
 20
90.7610997993101
 30
0.0
 10
67.12396489205267
 20
90.7574077851839
 30
0.0
 10
67.15635212066799
 20
90.76179323161718
 30
0.0
 10
67.19873544831293
 20
90.76179323161718
 30
0.0
  0
SPLINE
  5
234
330
1F
100
AcDbEntity
  8
0
  6
Continuous
 62
     7
370
    25
100
AcDbSpline
210
0.0
220
0.0
230
1.0
 70
     8
 71
     3
 72
    10
 73
     6
 74
     0
 42
0.000000001
 43
0.00000001
 40
0.0
 40
0.0
 40
0.0
 40
0.0
 40
0.5
 40
0.5
 40
1.0
 40
1.0
 40
1.0
 40
1.0
 10
66.95045520596723
 20
76.76290277089923
 30
0.0
 10
66.99142359976351
 20
76.76286834135843
 30
0.0
 10
67.03487904683543
 20
76.76248666392425
 30
0.0
 10
67.12396489205267
 20
76.76617867805045
 30
0.0
 10
67.15635212066799
 20
76.76179323161718
 30
0.0
 10
67.19873544831293
 20
76.76179323161718
 30
0.0
  0
SPLINE
  5
235
330
1F
100
AcDbEntity
  8
0
  6
Continuous
 62
     7
370
    25
100
AcDbSpline
210
0.0
220
0.0
230
1.0
 70
     8
 71
     3
 72
    28
 73
    24
 74
     0
 42
0.000000001
 43
0.00000001
 40
0.0
 40
0.0
 40
0.0
 40
0.0
 40
0.125
 40
0.125
 40
0.2500000000000001
 40
0.2500000000000001
 40
0.3125000000000001
 40
0.3125000000000001
 40
0.3750000000000001
 40
0.3750000000000001
 40
0.4375000000000001
 40
0.4375000000000001
 40
0.5000000000000001
 40
0.5000000000000001
 40
0.5625000000000001
 40
0.5625000000000001
 40
0.6250000000000001
 40
0.6250000000000001
 40
0.7500000000000002
 40
0.7500000000000002
 40
0.8750000000000001
 40
0.8750000000000001
 40
1.0
 40
1.0
 40
1.0
 40
1.0
 10
61.26838573716637
 20
80.19964881760536
 30
0.0
 10
61.14483130012773
 20
80.46213770606776
 30
0.0
 10
61.03262141853047
 20
80.72818683703662
 30
0.0
 10
60.84482542927043
 20
81.27255451149716
 30
0.0
 10
60.76969176690427
 20
81.55075755037004
 30
0.0
 10
60.69533077102835
 20
81.98441168993308
 30
0.0
 10
60.67690290554679
 20
82.13172454773594
 30
0.0
 10
60.65239935879634
 20
82.43407652701352
 30
0.0
 10
60.64638187863805
 20
82.59015285666538
 30
0.0
 10
60.64312911060471
 20
82.90776401478816
 30
0.0
 10
60.64573780729259
 20
83.06896219812708
 30
0.0
 10
60.65163891097895
 20
83.39935807588122
 30
0.0
 10
60.654648742021
 20
83.5711322060119
 30
0.0
 10
60.65501543426925
 20
83.91358492839866
 30
0.0
 10
60.65240348456263
 20
84.08209792694348
 30
0.0
 10
60.64644072438492
 20
84.41485259854433
 30
0.0
 10
60.64343410389886
 20
84.57980865561963
 30
0.0
 10
60.64650969856252
 20
85.05744591928676
 30
0.0
 10
60.66641698377794
 20
85.35928029224034
 30
0.0
 10
60.76403903785688
 20
85.95008306996068
 30
0.0
 10
60.84022216507712
 20
86.2361242238952
 30
0.0
 10
61.03015314816383
 20
86.78975198599046
 30
0.0
 10
61.14367602560253
 20
87.0589943999354
 30
0.0
 10
61.26838573716637
 20
87.32393764562899
 30
0.0
  0
LINE
  5
236
330
1F
100
AcDbEntity
  8
0
  6
Continuous
 62
     8
370
    25
100
AcDbLine
 10
53.6987354483
 20
90.7617932316
 30
0.0
 11
53.6987354483
 21
90.6854844437
 31
0.0
  0
LINE
  5
237
330
1F
100
AcDbEntity
  8
0
  6
Continuous
 62
     8
370
    25
100
AcDbLine
 10
65.1987354483
 20
90.7617932316
 30
0.0
 11
65.1987354483
 21
90.6854844437
 31
0.0
  0
LINE
  5
238
330
1F
100
AcDbEntity
  8
0
  6
Continuous
 62
     8
370
    25
100
AcDbLine
 10
65.1987354483
 20
76.8381020196
 30
0.0
 11
65.1987354483
 21
76.7617932316
 31
0.0
  0
LINE
  5
239
330
1F
100
AcDbEntity
  8
0
  6
Continuous
 62
     8
370
    25
100
AcDbLine
 10
53.6987354483
 20
76.8381020196
 30
0.0
 11
53.6987354483
 21
76.7617932316
 31
0.0
  0
LINE
  5
23A
330
1F
100
AcDbEntity
  8
0
  6
Continuous
 62
     8
370
    25
100
AcDbLine
 10
53.4487354483
 20
90.5117932316
 30
0.0
 11
53.4957949984
 21
90.5117932316
 31
0.0
  0
LINE
  5
23B
330
1F
100
AcDbEntity
  8
0
  6
Continuous
 62
     8
370
    25
100
AcDbLine
 10
65.4487354483
 20
90.5117932316
 30
0.0
 11
65.4016758982
 21
90.5117932316
 31
0.0
  0
LINE
  5
23C
330
1F
100
AcDbEntity
  8
0
  6
Continuous
 62
     8
370
    25
100
AcDbLine
 10
53.4957949984
 20
77.0117932316
 30
0.0
 11
53.4487354483
 21
77.0117932316
 31
0.0
  0
LINE
  5
23D
330
1F
100
AcDbEntity
  8
0
  6
Continuous
 62
     8
370
    25
100
AcDbLine
 10
65.4016758982
 20
77.0117932316
 30
0.0
 11
65.4487354483
 21
77.0117932316
 31
0.0
  0
LINE
  5
23E
330
1F
100
AcDbEntity
  8
0
  6
Continuous
 62
     8
370
    25
100
AcDbLine
 10
66.4487354483
 20
89.4186474811
 30
0.0
 11
66.4487354483
 21
90.5117932316
 31
0.0
  0
LINE
  5
23F
330
1F
100
AcDbEntity
  8
0
  6
Continuous
 62
     8
370
    25
100
AcDbLine
 10
67.1987354483
 20
79.1860419272
 30
0.0
 11
67.1987354483
 21
77.2445518523
 31
0.0
  0
LINE
  5
240
330
1F
100
AcDbEntity
  8
0
  6
Continuous
 62
     8
370
    25
100
AcDbLine
 10
67.1987354483
 20
90.2790346109
 30
0.0
 11
67.1987354483
 21
88.337544536
 31
0.0
  0
LINE
  5
241
330
1F
100
AcDbEntity
  8
0
  6
Continuous
 62
     8
370
    25
100
AcDbLine
 10
66.4487354483
 20
77.0117932316
 30
0.0
 11
66.4487354483
 21
78.1049389821
 31
0.0
  0
LINE
  5
242
330
1F
100
AcDbEntity
  8
0
  6
Continuous
 62
     8
370
    25
100
AcDbLine
 10
66.6987354483
 20
89.0944754835
 30
0.0
 11
66.6987354483
 21
90.5117932316
 31
0.0
  0
LINE
  5
243
330
1F
100
AcDbEntity
  8
0
  6
Continuous
 62
     8
370
    25
100
AcDbLine
 10
66.6987354483
 20
77.0117932316
 30
0.0
 11
66.6987354483
 21
78.4291109797
 31
0.0
  0
INSERT
  5
24F
330
1F
100
AcDbEntity
  8
0
  6
Continuous
 62
     7
370
    18
100
AcDbBlockReference
  2
SW_CENTERMARKSYMBOL_1
 10
59.4487354483
 20
83.7617932316
 30
0.0
  0
ARC
  5
250
330
1F
100
AcDbEntity
  8
0
  6
Continuous
 62
     7
370
    18
100
AcDbCircle
 10
59.4487354483
 20
83.7617932316
 30
0.0
 40
6.574758756464863
100
AcDbArc
 50
75.0
 51
345.0
  0
LINE
  5
251
330
1F
100
AcDbEntity
  8
0
  6
Continuous
 62
     7
370
    18
100
AcDbLine
 10
82.7036939965
 20
78.0816433488
 30
0.0
 11
71.4487354483
 21
77.7299258942
 31
0.0
  0
LINE
  5
252
330
1F
100
AcDbEntity
  8
0
  6
Continuous
 62
     7
370
    18
100
AcDbLine
 10
82.7036939965
 20
89.4419431144
 30
0.0
 11
71.4487354483
 21
89.793660569
 31
0.0
  0
LINE
  5
253
330
1F
100
AcDbEntity
  8
0
  6
Continuous
 62
     7
370
    18
100
AcDbLine
 10
71.4487354483
 20
90.5274807316
 30
0.0
 11
71.4487354483
 21
76.9961057316
 31
0.0
  0
ENDSEC
  0
SECTION
  2
OBJECTS
  0
DICTIONARY
  5
C
330
0
100
AcDbDictionary
281
     1
  3
ACAD_GROUP
350
D
  3
ACAD_LAYOUT
350
1A
  3
ACAD_MLINESTYLE
350
17
  3
ACAD_PLOTSETTINGS
350
19
  3
ACAD_PLOTSTYLENAME
350
E
  3
ACAD_SCALELIST
350
47
  0
DICTIONARY
  5
D
102
{ACAD_REACTORS
330
C
102
}
330
C
100
AcDbDictionary
281
     1
  0
DICTIONARY
  5
1A
102
{ACAD_REACTORS
330
C
102
}
330
C
100
AcDbDictionary
281
     1
  3
Layout1
350
1E
  3
Layout2
350
26
  3
Model
350
22
  0
DICTIONARY
  5
17
102
{ACAD_REACTORS
330
C
102
}
330
C
100
AcDbDictionary
281
     1
  3
Standard
350
18
  0
DICTIONARY
  5
19
102
{ACAD_REACTORS
330
C
102
}
330
C
100
AcDbDictionary
281
     1
  0
ACDBDICTIONARYWDFLT
  5
E
102
{ACAD_REACTORS
330
C
102
}
330
C
100
AcDbDictionary
281
     1
  3
Normal
350
F
100
AcDbDictionaryWithDefault
340
F
  0
DICTIONARY
  5
47
102
{ACAD_REACTORS
330
C
102
}
330
C
100
AcDbDictionary
281
     1
  3
A0
350
48
  3
A1
350
49
  3
A2
350
4A
  3
A3
350
4B
  3
A4
350
4C
  3
A5
350
4D
  3
A6
350
4E
  3
A7
350
4F
  3
A8
350
50
  3
A9
350
51
  3
B0
350
52
  3
B1
350
53
  3
B2
350
54
  3
B3
350
55
  3
B4
350
56
  3
B5
350
57
  3
B6
350
58
  3
B7
350
59
  3
B8
350
5A
  3
B9
350
5B
  3
C0
350
5C
  3
C1
350
5D
  3
C2
350
5E
  3
C3
350
5F
  3
C4
350
60
  3
C5
350
61
  3
C6
350
62
  3
C7
350
63
  3
C8
350
64
  3
C9
350
65
  3
D0
350
66
  3
D1
350
67
  3
D2
350
68
  0
LAYOUT
  5
1E
102
{ACAD_REACTORS
330
1A
102
}
330
1A
100
AcDbPlotSettings
  1

  2
none_device
  4

  6

 40
0.0
 41
0.0
 42
0.0
 43
0.0
 44
0.0
 45
0.0
 46
0.0
 47
0.0
 48
0.0
 49
0.0
140
0.0
141
0.0
142
1.0
143
1.0
 70
   688
 72
     1
 73
     0
 74
     5
  7

 75
    16
147
1.0
148
0.0
149
0.0
100
AcDbLayout
  1
Layout1
 70
     1
 71
     1
 10
0.0
 20
0.0
 11
420.0
 21
297.0
 12
0.0
 22
0.0
 32
0.0
 14
1.0000000000E+20
 24
1.0000000000E+20
 34
1.0000000000E+20
 15
-1.0000000000E+20
 25
-1.0000000000E+20
 35
-1.0000000000E+20
146
0.0
 13
0.0
 23
0.0
 33
0.0
 16
1.0
 26
0.0
 36
0.0
 17
0.0
 27
1.0
 37
0.0
 76
     0
330
1B
  0
LAYOUT
  5
26
102
{ACAD_REACTORS
330
1A
102
}
330
1A
100
AcDbPlotSettings
  1

  2
none_device
  4

  6

 40
0.0
 41
0.0
 42
0.0
 43
0.0
 44
0.0
 45
0.0
 46
0.0
 47
0.0
 48
0.0
 49
0.0
140
0.0
141
0.0
142
1.0
143
1.0
 70
   688
 72
     1
 73
     0
 74
     5
  7

 75
    16
147
1.0
148
0.0
149
0.0
100
AcDbLayout
  1
Layout2
 70
     1
 71
     2
 10
0.0
 20
0.0
 11
0.0
 21
0.0
 12
0.0
 22
0.0
 32
0.0
 14
0.0
 24
0.0
 34
0.0
 15
0.0
 25
0.0
 35
0.0
146
0.0
 13
0.0
 23
0.0
 33
0.0
 16
1.0
 26
0.0
 36
0.0
 17
0.0
 27
1.0
 37
0.0
 76
     0
330
23
  0
LAYOUT
  5
22
102
{ACAD_REACTORS
330
1A
102
}
330
1A
100
AcDbPlotSettings
  1

  2
none_device
  4
Letter_(8.50_x_11.00_Inches)
  6

 40
6.35
 41
6.35
 42
6.35000508
 43
6.35000508
 44
215.9
 45
279.4
 46
0.0
 47
0.0
 48
0.0
 49
0.0
140
0.0
141
0.0
142
1.0
143
1.0
 70
  1712
 72
     1
 73
     0
 74
     0
  7

 75
     0
147
1.0
148
0.0
149
0.0
100
AcDbLayout
  1
Model
 70
     1
 71
     0
 10
0.0
 20
0.0
 11
215.9
 21
139.7
 12
0.0
 22
0.0
 32
0.0
 14
0.0
 24
0.0
 34
0.0
 15
215.9
 25
139.7
 35
0.0
146
0.0
 13
0.0
 23
0.0
 33
0.0
 16
1.0
 26
0.0
 36
0.0
 17
0.0
 27
1.0
 37
0.0
 76
     0
330
1F
331
29
  0
MLINESTYLE
  5
18
102
{ACAD_REACTORS
330
17
102
}
330
17
100
AcDbMlineStyle
  2
Standard
 70
     0
  3

 62
   256
 51
90.0
 52
90.0
 71
     2
 49
0.5
 62
   256
  6
BYLAYER
 49
-0.5
 62
   256
  6
BYLAYER
  0
ACDBPLACEHOLDER
  5
F
102
{ACAD_REACTORS
330
E
102
}
330
E
  0
SCALE
  5
48
102
{ACAD_REACTORS
330
47
102
}
330
47
100
AcDbScale
 70
     0
300
1:1
140
1.0
141
1.0
290
     1
  0
SCALE
  5
49
102
{ACAD_REACTORS
330
47
102
}
330
47
100
AcDbScale
 70
     0
300
1:2
140
1.0
141
2.0
290
     0
  0
SCALE
  5
4A
102
{ACAD_REACTORS
330
47
102
}
330
47
100
AcDbScale
 70
     0
300
1:4
140
1.0
141
4.0
290
     0
  0
SCALE
  5
4B
102
{ACAD_REACTORS
330
47
102
}
330
47
100
AcDbScale
 70
     0
300
1:5
140
1.0
141
5.0
290
     0
  0
SCALE
  5
4C
102
{ACAD_REACTORS
330
47
102
}
330
47
100
AcDbScale
 70
     0
300
1:8
140
1.0
141
8.0
290
     0
  0
SCALE
  5
4D
102
{ACAD_REACTORS
330
47
102
}
330
47
100
AcDbScale
 70
     0
300
1:10
140
1.0
141
10.0
290
     0
  0
SCALE
  5
4E
102
{ACAD_REACTORS
330
47
102
}
330
47
100
AcDbScale
 70
     0
300
1:16
140
1.0
141
16.0
290
     0
  0
SCALE
  5
4F
102
{ACAD_REACTORS
330
47
102
}
330
47
100
AcDbScale
 70
     0
300
1:20
140
1.0
141
20.0
290
     0
  0
SCALE
  5
50
102
{ACAD_REACTORS
330
47
102
}
330
47
100
AcDbScale
 70
     0
300
1:30
140
1.0
141
30.0
290
     0
  0
SCALE
  5
51
102
{ACAD_REACTORS
330
47
102
}
330
47
100
AcDbScale
 70
     0
300
1:40
140
1.0
141
40.0
290
     0
  0
SCALE
  5
52
102
{ACAD_REACTORS
330
47
102
}
330
47
100
AcDbScale
 70
     0
300
1:50
140
1.0
141
50.0
290
     0
  0
SCALE
  5
53
102
{ACAD_REACTORS
330
47
102
}
330
47
100
AcDbScale
 70
     0
300
1:100
140
1.0
141
100.0
290
     0
  0
SCALE
  5
54
102
{ACAD_REACTORS
330
47
102
}
330
47
100
AcDbScale
 70
     0
300
2:1
140
2.0
141
1.0
290
     0
  0
SCALE
  5
55
102
{ACAD_REACTORS
330
47
102
}
330
47
100
AcDbScale
 70
     0
300
4:1
140
4.0
141
1.0
290
     0
  0
SCALE
  5
56
102
{ACAD_REACTORS
330
47
102
}
330
47
100
AcDbScale
 70
     0
300
8:1
140
8.0
141
1.0
290
     0
  0
SCALE
  5
57
102
{ACAD_REACTORS
330
47
102
}
330
47
100
AcDbScale
 70
     0
300
10:1
140
10.0
141
1.0
290
     0
  0
SCALE
  5
58
102
{ACAD_REACTORS
330
47
102
}
330
47
100
AcDbScale
 70
     0
300
100:1
140
100.0
141
1.0
290
     0
  0
SCALE
  5
59
102
{ACAD_REACTORS
330
47
102
}
330
47
100
AcDbScale
 70
     0
300
1/128" = 1'-0"
140
0.0078125
141
12.0
290
     0
  0
SCALE
  5
5A
102
{ACAD_REACTORS
330
47
102
}
330
47
100
AcDbScale
 70
     0
300
1/64" = 1'-0"
140
0.015625
141
12.0
290
     0
  0
SCALE
  5
5B
102
{ACAD_REACTORS
330
47
102
}
330
47
100
AcDbScale
 70
     0
300
1/32" = 1'-0"
140
0.03125
141
12.0
290
     0
  0
SCALE
  5
5C
102
{ACAD_REACTORS
330
47
102
}
330
47
100
AcDbScale
 70
     0
300
1/16" = 1'-0"
140
0.0625
141
12.0
290
     0
  0
SCALE
  5
5D
102
{ACAD_REACTORS
330
47
102
}
330
47
100
AcDbScale
 70
     0
300
3/32" = 1'-0"
140
0.09375
141
12.0
290
     0
  0
SCALE
  5
5E
102
{ACAD_REACTORS
330
47
102
}
330
47
100
AcDbScale
 70
     0
300
1/8" = 1'-0"
140
0.125
141
12.0
290
     0
  0
SCALE
  5
5F
102
{ACAD_REACTORS
330
47
102
}
330
47
100
AcDbScale
 70
     0
300
3/16" = 1'-0"
140
0.1875
141
12.0
290
     0
  0
SCALE
  5
60
102
{ACAD_REACTORS
330
47
102
}
330
47
100
AcDbScale
 70
     0
300
1/4" = 1'-0"
140
0.25
141
12.0
290
     0
  0
SCALE
  5
61
102
{ACAD_REACTORS
330
47
102
}
330
47
100
AcDbScale
 70
     0
300
3/8" = 1'-0"
140
0.375
141
12.0
290
     0
  0
SCALE
  5
62
102
{ACAD_REACTORS
330
47
102
}
330
47
100
AcDbScale
 70
     0
300
1/2" = 1'-0"
140
0.5
141
12.0
290
     0
  0
SCALE
  5
63
102
{ACAD_REACTORS
330
47
102
}
330
47
100
AcDbScale
 70
     0
300
3/4" = 1'-0"
140
0.75
141
12.0
290
     0
  0
SCALE
  5
64
102
{ACAD_REACTORS
330
47
102
}
330
47
100
AcDbScale
 70
     0
300
1" = 1'-0"
140
1.0
141
12.0
290
     0
  0
SCALE
  5
65
102
{ACAD_REACTORS
330
47
102
}
330
47
100
AcDbScale
 70
     0
300
1-1/2" = 1'-0"
140
1.5
141
12.0
290
     0
  0
SCALE
  5
66
102
{ACAD_REACTORS
330
47
102
}
330
47
100
AcDbScale
 70
     0
300
3" = 1'-0"
140
3.0
141
12.0
290
     0
  0
SCALE
  5
67
102
{ACAD_REACTORS
330
47
102
}
330
47
100
AcDbScale
 70
     0
300
6" = 1'-0"
140
6.0
141
12.0
290
     0
  0
SCALE
  5
68
102
{ACAD_REACTORS
330
47
102
}
330
47
100
AcDbScale
 70
     0
300
1'-0" = 1'-0"
140
12.0
141
12.0
290
     0
  0
ENDSEC
  0
EOF
