  0
SECTION
  2
HEADER
  9
$ACADVER
  1
AC1015
  9
$ACADMAINTVER
 70
     6
  9
$DWGCODEPAGE
  3
DOS932
  9
$INSBASE
 10
0.0
 20
0.0
 30
0.0
  9
$EXTMIN
 10
0.0
 20
0.0
 30
0.0
  9
$EXTMAX
 10
215.9
 20
139.7
 30
0.0
  9
$LIMMIN
 10
0.0
 20
0.0
  9
$LIMMAX
 10
215.9
 20
139.7
  9
$ORTHOMODE
 70
     0
  9
$REGENMODE
 70
     1
  9
$FILLMODE
 70
     1
  9
$QTEXTMODE
 70
     0
  9
$MIRRTEXT
 70
     1
  9
$LTSCALE
 40
0.5
  9
$ATTMODE
 70
     1
  9
$TEXTSIZE
 40
1.75
  9
$TRACEWID
 40
1.0
  9
$TEXTSTYLE
  7
Standard
  9
$CLAYER
  8
0
  9
$CELTYPE
  6
ByLayer
  9
$CECOLOR
 62
   256
  9
$CELTSCALE
 40
1.0
  9
$DISPSILH
 70
     0
  9
$DIMSCALE
 40
1.0
  9
$DIMASZ
 40
1.651
  9
$DIMEXO
 40
0.5
  9
$DIMDLI
 40
3.75
  9
$DIMRND
 40
0.0
  9
$DIMDLE
 40
0.0
  9
$DIMEXE
 40
0.5
  9
$DIMTP
 40
0.0
  9
$DIMTM
 40
0.0
  9
$DIMTXT
 40
1.75
  9
$DIMCEN
 40
2.5
  9
$DIMTSZ
 40
0.0
  9
$DIMTOL
 70
     0
  9
$DIMLIM
 70
     0
  9
$DIMTIH
 70
     1
  9
$DIMTOH
 70
     1
  9
$DIMSE1
 70
     0
  9
$DIMSE2
 70
     0
  9
$DIMTAD
 70
     1
  9
$DIMZIN
 70
     1
  9
$DIMBLK
  1

  9
$DIMASO
 70
     1
  9
$DIMSHO
 70
     1
  9
$DIMPOST
  1

  9
$DIMAPOST
  1

  9
$DIMALT
 70
     0
  9
$DIMALTD
 70
     3
  9
$DIMALTF
 40
0.0393700787
  9
$DIMLFAC
 40
1.0
  9
$DIMTOFL
 70
     1
  9
$DIMTVP
 40
0.0
  9
$DIMTIX
 70
     0
  9
$DIMSOXD
 70
     0
  9
$DIMSAH
 70
     0
  9
$DIMBLK1
  1

  9
$DIMBLK2
  1

  9
$DIMSTYLE
  2
ISO-25
  9
$DIMCLRD
 70
     0
  9
$DIMCLRE
 70
     0
  9
$DIMCLRT
 70
     0
  9
$DIMTFAC
 40
1.0
  9
$DIMGAP
 40
0.762
  9
$DIMJUST
 70
     0
  9
$DIMSD1
 70
     0
  9
$DIMSD2
 70
     0
  9
$DIMTOLJ
 70
     0
  9
$DIMTZIN
 70
     1
  9
$DIMALTZ
 70
     0
  9
$DIMALTTZ
 70
     0
  9
$DIMUPT
 70
     0
  9
$DIMDEC
 70
     2
  9
$DIMTDEC
 70
     2
  9
$DIMALTU
 70
     2
  9
$DIMALTTD
 70
     3
  9
$DIMTXSTY
  7
Standard
  9
$DIMAUNIT
 70
     0
  9
$DIMADEC
 70
     2
  9
$DIMALTRND
 40
0.0
  9
$DIMAZIN
 70
     0
  9
$DIMDSEP
 70
    44
  9
$DIMATFIT
 70
     3
  9
$DIMFRAC
 70
     0
  9
$DIMLDRBLK
  1

  9
$DIMLUNIT
 70
     2
  9
$DIMLWD
 70
    -2
  9
$DIMLWE
 70
    -2
  9
$DIMTMOVE
 70
     0
  9
$LUNITS
 70
     2
  9
$LUPREC
 70
     2
  9
$SKETCHINC
 40
1.0
  9
$FILLETRAD
 40
10.0
  9
$AUNITS
 70
     0
  9
$AUPREC
 70
     2
  9
$MENU
  1
.
  9
$ELEVATION
 40
0.0
  9
$PELEVATION
 40
0.0
  9
$THICKNESS
 40
0.0
  9
$LIMCHECK
 70
     0
  9
$CHAMFERA
 40
0.0
  9
$CHAMFERB
 40
0.0
  9
$CHAMFERC
 40
0.0
  9
$CHAMFERD
 40
0.0
  9
$SKPOLY
 70
     0
  9
$TDCREATE
 40
2459235.589260173
  9
$TDUCREATE
 40
2459235.214260173
  9
$TDUPDATE
 40
2459235.589260764
  9
$TDUUPDATE
 40
2459235.214260764
  9
$TDINDWG
 40
0.0000000116
  9
$TDUSRTIMER
 40
0.0000000116
  9
$USRTIMER
 70
     1
  9
$ANGBASE
 50
0.0
  9
$ANGDIR
 70
     0
  9
$PDMODE
 70
     0
  9
$PDSIZE
 40
-1.0
  9
$PLINEWID
 40
0.0
  9
$SPLFRAME
 70
     0
  9
$SPLINETYPE
 70
     6
  9
$SPLINESEGS
 70
     8
  9
$HANDSEED
  5
21E
  9
$SURFTAB1
 70
     6
  9
$SURFTAB2
 70
     6
  9
$SURFTYPE
 70
     6
  9
$SURFU
 70
     6
  9
$SURFV
 70
     6
  9
$UCSBASE
  2

  9
$UCSNAME
  2

  9
$UCSORG
 10
0.0
 20
0.0
 30
0.0
  9
$UCSXDIR
 10
1.0
 20
0.0
 30
0.0
  9
$UCSYDIR
 10
0.0
 20
1.0
 30
0.0
  9
$UCSORTHOREF
  2

  9
$UCSORTHOVIEW
 70
     0
  9
$UCSORGTOP
 10
0.0
 20
0.0
 30
0.0
  9
$UCSORGBOTTOM
 10
0.0
 20
0.0
 30
0.0
  9
$UCSORGLEFT
 10
0.0
 20
0.0
 30
0.0
  9
$UCSORGRIGHT
 10
0.0
 20
0.0
 30
0.0
  9
$UCSORGFRONT
 10
0.0
 20
0.0
 30
0.0
  9
$UCSORGBACK
 10
0.0
 20
0.0
 30
0.0
  9
$PUCSBASE
  2

  9
$PUCSNAME
  2

  9
$PUCSORG
 10
0.0
 20
0.0
 30
0.0
  9
$PUCSXDIR
 10
1.0
 20
0.0
 30
0.0
  9
$PUCSYDIR
 10
0.0
 20
1.0
 30
0.0
  9
$PUCSORTHOREF
  2

  9
$PUCSORTHOVIEW
 70
     0
  9
$PUCSORGTOP
 10
0.0
 20
0.0
 30
0.0
  9
$PUCSORGBOTTOM
 10
0.0
 20
0.0
 30
0.0
  9
$PUCSORGLEFT
 10
0.0
 20
0.0
 30
0.0
  9
$PUCSORGRIGHT
 10
0.0
 20
0.0
 30
0.0
  9
$PUCSORGFRONT
 10
0.0
 20
0.0
 30
0.0
  9
$PUCSORGBACK
 10
0.0
 20
0.0
 30
0.0
  9
$USERI1
 70
     0
  9
$USERI2
 70
     0
  9
$USERI3
 70
     0
  9
$USERI4
 70
     0
  9
$USERI5
 70
     0
  9
$USERR1
 40
0.0
  9
$USERR2
 40
0.0
  9
$USERR3
 40
0.0
  9
$USERR4
 40
0.0
  9
$USERR5
 40
0.0
  9
$WORLDVIEW
 70
     1
  9
$SHADEDGE
 70
     3
  9
$SHADEDIF
 70
    70
  9
$TILEMODE
 70
     1
  9
$MAXACTVP
 70
    64
  9
$PINSBASE
 10
0.0
 20
0.0
 30
0.0
  9
$PLIMCHECK
 70
     0
  9
$PEXTMIN
 10
1.0000000000E+20
 20
1.0000000000E+20
 30
1.0000000000E+20
  9
$PEXTMAX
 10
-1.0000000000E+20
 20
-1.0000000000E+20
 30
-1.0000000000E+20
  9
$PLIMMIN
 10
0.0
 20
0.0
  9
$PLIMMAX
 10
420.0
 20
297.0
  9
$UNITMODE
 70
     0
  9
$VISRETAIN
 70
     1
  9
$PLINEGEN
 70
     0
  9
$PSLTSCALE
 70
     1
  9
$TREEDEPTH
 70
  3020
  9
$CMLSTYLE
  2
Standard
  9
$CMLJUST
 70
     0
  9
$CMLSCALE
 40
20.0
  9
$PROXYGRAPHICS
 70
     1
  9
$MEASUREMENT
 70
     1
  9
$CELWEIGHT
370
    -1
  9
$ENDCAPS
280
     0
  9
$JOINSTYLE
280
     0
  9
$LWDISPLAY
290
     1
  9
$INSUNITS
 70
     4
  9
$HYPERLINKBASE
  1

  9
$STYLESHEET
  1

  9
$XEDIT
290
     1
  9
$CEPSNTYPE
380
     0
  9
$PSTYLEMODE
290
     1
  9
$FINGERPRINTGUID
  2
{3442978D-C028-41EB-938D-B8A8EEC6BF14}
  9
$VERSIONGUID
  2
{FAEB1C32-E019-11D5-929B-00C0DF256EC4}
  9
$EXTNAMES
290
     1
  9
$PSVPSCALE
 40
0.0
  9
$OLESTARTUP
290
     0
  0
ENDSEC
  0
SECTION
  2
CLASSES
  0
CLASS
  1
ACDBDICTIONARYWDFLT
  2
AcDbDictionaryWithDefault
  3
ObjectDBX Classes
 90
        0
280
     0
281
     0
  0
CLASS
  1
VISUALSTYLE
  2
AcDbVisualStyle
  3
ObjectDBX Classes
 90
     4095
280
     0
281
     0
  0
CLASS
  1
MATERIAL
  2
AcDbMaterial
  3
ObjectDBX Classes
 90
     1153
280
     0
281
     0
  0
CLASS
  1
SCALE
  2
AcDbScale
  3
ObjectDBX Classes
 90
     1153
280
     0
281
     0
  0
CLASS
  1
TABLESTYLE
  2
AcDbTableStyle
  3
ObjectDBX Classes
 90
     4095
280
     0
281
     0
  0
CLASS
  1
MLEADERSTYLE
  2
AcDbMLeaderStyle
  3
ACDB_MLEADERSTYLE_CLASS
 90
     4095
280
     0
281
     0
  0
CLASS
  1
SUN
  2
AcDbSun
  3
SCENEOE
 90
     1153
280
     0
281
     0
  0
CLASS
  1
ACDBPLACEHOLDER
  2
AcDbPlaceHolder
  3
ObjectDBX Classes
 90
        0
280
     0
281
     0
  0
CLASS
  1
LAYOUT
  2
AcDbLayout
  3
ObjectDBX Classes
 90
        0
280
     0
281
     0
  0
ENDSEC
  0
SECTION
  2
TABLES
  0
TABLE
  2
VPORT
  5
8
330
0
100
AcDbSymbolTable
 70
     1
  0
VPORT
  5
29
330
8
100
AcDbSymbolTableRecord
100
AcDbViewportTableRecord
  2
*Active
 70
     0
 10
0.0
 20
0.0
 11
1.0
 21
1.0
 12
107.95
 22
69.85
 13
0.0
 23
0.0
 14
10.0
 24
10.0
 15
10.0
 25
10.0
 16
0.0
 26
0.0
 36
1.0
 17
0.0
 27
0.0
 37
0.0
 40
139.7
 41
1.5454545455
 42
50.0
 43
0.0
 44
0.0
 50
0.0
 51
0.0
 71
     0
 72
  2000
 73
     1
 74
     3
 75
     0
 76
     0
 77
     0
 78
     0
281
     0
 65
     1
110
0.0
120
0.0
130
0.0
111
1.0
121
0.0
131
0.0
112
0.0
122
1.0
132
0.0
 79
     0
146
0.0
  0
ENDTAB
  0
TABLE
  2
LTYPE
  5
5
330
0
100
AcDbSymbolTable
 70
     6
  0
LTYPE
  5
14
330
5
100
AcDbSymbolTableRecord
100
AcDbLinetypeTableRecord
  2
ByBlock
 70
     0
  3

 72
    65
 73
     0
 40
0.0
  0
LTYPE
  5
15
330
5
100
AcDbSymbolTableRecord
100
AcDbLinetypeTableRecord
  2
ByLayer
 70
     0
  3

 72
    65
 73
     0
 40
0.0
  0
LTYPE
  5
16
330
5
100
AcDbSymbolTableRecord
100
AcDbLinetypeTableRecord
  2
Continuous
 70
     0
  3
Solid line
 72
    65
 73
     0
 40
0.0
  0
LTYPE
  5
6E
330
5
100
AcDbSymbolTableRecord
100
AcDbLinetypeTableRecord
  2
HIDDEN
 70
     0
  3
Hidden __ __ __ __ __ __ __ __ __ __ __ __ __ __
 72
    65
 73
     2
 40
1.905
 49
1.27
 74
     0
 49
-0.635
 74
     0
  0
LTYPE
  5
6F
330
5
100
AcDbSymbolTableRecord
100
AcDbLinetypeTableRecord
  2
PHANTOM
 70
     0
  3
Phantom ______  __  __  ______  __  __  ______
 72
    65
 73
     6
 40
12.7
 49
6.35
 74
     0
 49
-1.27
 74
     0
 49
1.27
 74
     0
 49
-1.27
 74
     0
 49
1.27
 74
     0
 49
-1.27
 74
     0
  0
LTYPE
  5
70
330
5
100
AcDbSymbolTableRecord
100
AcDbLinetypeTableRecord
  2
CENTER
 70
     0
  3
Center ____ _ ____ _ ____ _ ____ _ ____ _ ____
 72
    65
 73
     4
 40
10.16
 49
6.35
 74
     0
 49
-1.27
 74
     0
 49
1.27
 74
     0
 49
-1.27
 74
     0
  0
LTYPE
  5
71
330
5
100
AcDbSymbolTableRecord
100
AcDbLinetypeTableRecord
  2
CENTERX2
 70
     0
  3
Center (2x) ________  __  ________  __  _____
 72
    65
 73
     4
 40
20.32
 49
12.7
 74
     0
 49
-2.54
 74
     0
 49
2.54
 74
     0
 49
-2.54
 74
     0
  0
LTYPE
  5
72
330
5
100
AcDbSymbolTableRecord
100
AcDbLinetypeTableRecord
  2
DOT2
 70
     0
  3
Dot (.5x) ........................................
 72
    65
 73
     2
 40
0.635
 49
0.0
 74
     0
 49
-0.635
 74
     0
  0
ENDTAB
  0
TABLE
  2
LAYER
  5
2
330
0
100
AcDbSymbolTable
 70
     1
  0
LAYER
  5
10
330
2
100
AcDbSymbolTableRecord
100
AcDbLayerTableRecord
  2
0
 70
     0
 62
     7
  6
Continuous
370
    -3
390
F
  0
ENDTAB
  0
TABLE
  2
STYLE
  5
3
330
0
100
AcDbSymbolTable
 70
     2
  0
STYLE
  5
11
330
3
100
AcDbSymbolTableRecord
100
AcDbTextStyleTableRecord
  2
Standard
 70
     0
 40
0.0
 41
1.0
 50
0.0
 71
     0
 42
1.75
  3
txt
  4
bigfont
  0
STYLE
  5
73
330
3
100
AcDbSymbolTableRecord
100
AcDbTextStyleTableRecord
  2
SLDTEXTSTYLE0
 70
     0
 40
0.0
 41
0.7
 50
0.0
 71
     0
 42
1.75
  3
TXT
  4
bigfont
  0
ENDTAB
  0
TABLE
  2
VIEW
  5
6
330
0
100
AcDbSymbolTable
 70
     0
  0
ENDTAB
  0
TABLE
  2
UCS
  5
7
330
0
100
AcDbSymbolTable
 70
     0
  0
ENDTAB
  0
TABLE
  2
APPID
  5
9
330
0
100
AcDbSymbolTable
 70
     1
  0
APPID
  5
12
330
9
100
AcDbSymbolTableRecord
100
AcDbRegAppTableRecord
  2
ACAD
 70
     0
  0
ENDTAB
  0
TABLE
  2
DIMSTYLE
  5
A
330
0
100
AcDbSymbolTable
 70
     1
100
AcDbDimStyleTable
  0
DIMSTYLE
105
27
330
A
100
AcDbSymbolTableRecord
100
AcDbDimStyleTableRecord
  2
ISO-25
 70
     0
 41
2.5
 42
0.625
 43
3.75
 44
1.25
 73
     0
 74
     0
 77
     1
 78
     8
140
2.5
141
2.5
143
0.0393700787
147
0.625
171
     3
172
     1
178
     0
271
     2
272
     2
274
     3
278
    44
283
     0
284
     8
340
11
  0
ENDTAB
  0
TABLE
  2
BLOCK_RECORD
  5
1
330
0
100
AcDbSymbolTable
 70
     3
  0
BLOCK_RECORD
  5
1F
330
1
100
AcDbSymbolTableRecord
100
AcDbBlockTableRecord
  2
*Model_Space
340
22
  0
BLOCK_RECORD
  5
1B
330
1
100
AcDbSymbolTableRecord
100
AcDbBlockTableRecord
  2
*Paper_Space
340
1E
  0
BLOCK_RECORD
  5
23
330
1
100
AcDbSymbolTableRecord
100
AcDbBlockTableRecord
  2
*Paper_Space0
340
26
  0
BLOCK_RECORD
  5
19C
330
1
100
AcDbSymbolTableRecord
100
AcDbBlockTableRecord
  2
SW_CENTERMARKSYMBOL_0
340
0
102
{BLKREFS
331
1A7
102
}
  0
BLOCK_RECORD
  5
20E
330
1
100
AcDbSymbolTableRecord
100
AcDbBlockTableRecord
  2
SW_CENTERMARKSYMBOL_1
340
0
102
{BLKREFS
331
219
102
}
  0
ENDTAB
  0
ENDSEC
  0
SECTION
  2
BLOCKS
  0
BLOCK
  5
20
330
1F
100
AcDbEntity
  8
0
100
AcDbBlockBegin
  2
*Model_Space
 70
     0
 10
0.0
 20
0.0
 30
0.0
  3
*Model_Space
  1

  0
ENDBLK
  5
21
330
1F
100
AcDbEntity
  8
0
100
AcDbBlockEnd
  0
BLOCK
  5
1C
330
1B
100
AcDbEntity
 67
     1
  8
0
100
AcDbBlockBegin
  2
*Paper_Space
 70
     0
 10
0.0
 20
0.0
 30
0.0
  3
*Paper_Space
  1

  0
ENDBLK
  5
1D
330
1B
100
AcDbEntity
 67
     1
  8
0
100
AcDbBlockEnd
  0
BLOCK
  5
24
330
23
100
AcDbEntity
  8
0
100
AcDbBlockBegin
  2
*Paper_Space0
 70
     0
 10
0.0
 20
0.0
 30
0.0
  3
*Paper_Space0
  1

  0
ENDBLK
  5
25
330
23
100
AcDbEntity
  8
0
100
AcDbBlockEnd
  0
BLOCK
  5
19D
330
19C
100
AcDbEntity
  8
0
100
AcDbBlockBegin
  2
SW_CENTERMARKSYMBOL_0
 70
     0
 10
0.0
 20
0.0
 30
0.0
  3
SW_CENTERMARKSYMBOL_0
  1

  0
LINE
  5
19F
330
19C
100
AcDbEntity
  8
0
  6
Continuous
 62
     0
370
    18
100
AcDbLine
 10
0.0
 20
0.0
 30
0.0
 11
0.0
 21
2.5
 31
0.0
  0
LINE
  5
1A0
330
19C
100
AcDbEntity
  8
0
  6
Continuous
 62
     0
370
    18
100
AcDbLine
 10
0.0
 20
0.0
 30
0.0
 11
-2.5
 21
0.0
 31
0.0
  0
LINE
  5
1A1
330
19C
100
AcDbEntity
  8
0
  6
Continuous
 62
     0
370
    18
100
AcDbLine
 10
0.0
 20
0.0
 30
0.0
 11
0.0
 21
-2.5
 31
0.0
  0
LINE
  5
1A2
330
19C
100
AcDbEntity
  8
0
  6
Continuous
 62
     0
370
    18
100
AcDbLine
 10
0.0
 20
0.0
 30
0.0
 11
2.5
 21
0.0
 31
0.0
  0
LINE
  5
1A3
330
19C
100
AcDbEntity
  8
0
  6
Continuous
 62
     0
370
    18
100
AcDbLine
 10
0.0
 20
5.0
 30
0.0
 11
0.0
 21
23.8080185939
 31
0.0
  0
LINE
  5
1A4
330
19C
100
AcDbEntity
  8
0
  6
Continuous
 62
     0
370
    18
100
AcDbLine
 10
-5.0
 20
0.0
 30
0.0
 11
-7.7616719459
 21
0.0
 31
0.0
  0
LINE
  5
1A5
330
19C
100
AcDbEntity
  8
0
  6
Continuous
 62
     0
370
    18
100
AcDbLine
 10
0.0
 20
-5.0
 30
0.0
 11
0.0
 21
-7.9063398949
 31
0.0
  0
LINE
  5
1A6
330
19C
100
AcDbEntity
  8
0
  6
Continuous
 62
     0
370
    18
100
AcDbLine
 10
5.0
 20
0.0
 30
0.0
 11
7.6782131078
 21
0.0
 31
0.0
  0
ENDBLK
  5
19E
330
19C
100
AcDbEntity
  8
0
100
AcDbBlockEnd
  0
BLOCK
  5
20F
330
20E
100
AcDbEntity
  8
0
100
AcDbBlockBegin
  2
SW_CENTERMARKSYMBOL_1
 70
     0
 10
0.0
 20
0.0
 30
0.0
  3
SW_CENTERMARKSYMBOL_1
  1

  0
LINE
  5
211
330
20E
100
AcDbEntity
  8
0
  6
Continuous
 62
     0
370
    18
100
AcDbLine
 10
0.0
 20
0.0
 30
0.0
 11
0.0
 21
2.5
 31
0.0
  0
LINE
  5
212
330
20E
100
AcDbEntity
  8
0
  6
Continuous
 62
     0
370
    18
100
AcDbLine
 10
0.0
 20
0.0
 30
0.0
 11
-2.5
 21
0.0
 31
0.0
  0
LINE
  5
213
330
20E
100
AcDbEntity
  8
0
  6
Continuous
 62
     0
370
    18
100
AcDbLine
 10
0.0
 20
0.0
 30
0.0
 11
0.0
 21
-2.5
 31
0.0
  0
LINE
  5
214
330
20E
100
AcDbEntity
  8
0
  6
Continuous
 62
     0
370
    18
100
AcDbLine
 10
0.0
 20
0.0
 30
0.0
 11
2.5
 21
0.0
 31
0.0
  0
LINE
  5
215
330
20E
100
AcDbEntity
  8
0
  6
Continuous
 62
     0
370
    18
100
AcDbLine
 10
0.0
 20
5.0
 30
0.0
 11
0.0
 21
9.75
 31
0.0
  0
LINE
  5
216
330
20E
100
AcDbEntity
  8
0
  6
Continuous
 62
     0
370
    18
100
AcDbLine
 10
-5.0
 20
0.0
 30
0.0
 11
-9.75
 21
0.0
 31
0.0
  0
LINE
  5
217
330
20E
100
AcDbEntity
  8
0
  6
Continuous
 62
     0
370
    18
100
AcDbLine
 10
0.0
 20
-5.0
 30
0.0
 11
0.0
 21
-9.75
 31
0.0
  0
LINE
  5
218
330
20E
100
AcDbEntity
  8
0
  6
Continuous
 62
     0
370
    18
100
AcDbLine
 10
5.0
 20
0.0
 30
0.0
 11
23.1487204063
 21
0.0
 31
0.0
  0
ENDBLK
  5
210
330
20E
100
AcDbEntity
  8
0
100
AcDbBlockEnd
  0
ENDSEC
  0
SECTION
  2
ENTITIES
  0
MTEXT
  5
74
330
1F
100
AcDbEntity
  8
0
  6
Continuous
 62
     7
370
     0
100
AcDbMText
 10
88.196672126
 20
70.3470521086
 30
0.0
 40
2.6458333333
 41
0.0
 71
     1
 72
     1
  1
5R-LK1021
  7
SLDTEXTSTYLE0
 73
     1
 44
1.0
  0
LINE
  5
75
330
1F
100
AcDbEntity
  8
0
  6
Continuous
 62
     7
370
    25
100
AcDbLine
 10
75.6169780136
 20
62.9850814832
 30
0.0
 11
75.1169783973
 21
63.4850806338
 31
0.0
  0
LINE
  5
76
330
1F
100
AcDbEntity
  8
0
  6
Continuous
 62
     7
370
    25
100
AcDbLine
 10
61.6169780471
 20
63.4850806338
 30
0.0
 11
61.1169784308
 21
62.9850814832
 31
0.0
  0
LINE
  5
77
330
1F
100
AcDbEntity
  8
0
  6
Continuous
 62
     7
370
    25
100
AcDbLine
 10
61.1169784308
 20
62.9850814832
 30
0.0
 11
61.1169784308
 21
51.9850806115
 31
0.0
  0
LINE
  5
78
330
1F
100
AcDbEntity
  8
0
  6
Continuous
 62
     7
370
    25
100
AcDbLine
 10
75.6169780136
 20
51.9850806115
 30
0.0
 11
75.6169780136
 21
62.9850814832
 31
0.0
  0
ARC
  5
79
330
1F
100
AcDbEntity
  8
0
  6
Continuous
 62
     7
370
    25
100
AcDbCircle
 10
61.6169782222
 20
51.985080753
 30
0.0
 40
0.5
100
AcDbArc
 50
180.0
 51
270.0
  0
ARC
  5
7A
330
1F
100
AcDbEntity
  8
0
  6
Continuous
 62
     7
370
    25
100
AcDbCircle
 10
75.1169782222
 20
51.985080753
 30
0.0
 40
0.5
100
AcDbArc
 50
270.0
 51
0.0
  0
ARC
  5
7B
330
1F
100
AcDbEntity
  8
0
  6
Continuous
 62
     7
370
    25
100
AcDbCircle
 10
78.8669782222
 20
48.235080753
 30
0.0
 40
0.500000000000008
100
AcDbArc
 50
178.1671385201
 51
180.0
  0
ARC
  5
7C
330
1F
100
AcDbEntity
  8
0
  6
Continuous
 62
     7
370
    25
100
AcDbCircle
 10
78.8669782222
 20
34.735080753
 30
0.0
 40
0.5000000000000082
100
AcDbArc
 50
180.0
 51
181.8328614799
  0
LINE
  5
7D
330
1F
100
AcDbEntity
  8
0
  6
Continuous
 62
     7
370
    25
100
AcDbLine
 10
78.3672341124
 20
34.719088838
 30
0.0
 11
88.2776192368
 21
35.028788053
 31
0.0
  0
LINE
  5
7E
330
1F
100
AcDbEntity
  8
0
  6
Continuous
 62
     7
370
    25
100
AcDbLine
 10
88.2776192368
 20
47.9413734531
 30
0.0
 11
78.3672341124
 21
48.2510726681
 31
0.0
  0
ARC
  5
7F
330
1F
100
AcDbEntity
  8
0
  6
Continuous
 62
     7
370
    25
100
AcDbCircle
 10
61.8669782222
 20
50.985080753
 30
0.0
 40
0.5
100
AcDbArc
 50
0.0
 51
90.0
  0
ARC
  5
80
330
1F
100
AcDbEntity
  8
0
  6
Continuous
 62
     7
370
    25
100
AcDbCircle
 10
74.8669782222
 20
50.985080753
 30
0.0
 40
0.5
100
AcDbArc
 50
90.0
 51
180.0
  0
ARC
  5
81
330
1F
100
AcDbEntity
  8
0
  6
Continuous
 62
     7
370
    25
100
AcDbCircle
 10
77.8669782222
 20
47.985080753
 30
0.0
 40
0.5
100
AcDbArc
 50
270.0
 51
0.0
  0
ARC
  5
82
330
1F
100
AcDbEntity
  8
0
  6
Continuous
 62
     7
370
    25
100
AcDbCircle
 10
77.8669782222
 20
34.985080753
 30
0.0
 40
0.5
100
AcDbArc
 50
0.0
 51
90.0
  0
LINE
  5
83
330
1F
100
AcDbEntity
  8
0
  6
Continuous
 62
     7
370
    25
100
AcDbLine
 10
88.2776192368
 20
35.028788053
 30
0.0
 11
90.366978103
 21
36.2350808238
 31
0.0
  0
LINE
  5
84
330
1F
100
AcDbEntity
  8
0
  6
Continuous
 62
     7
370
    25
100
AcDbLine
 10
90.366978103
 20
46.7350806823
 30
0.0
 11
88.2776192368
 21
47.9413734531
 31
0.0
  0
LINE
  5
85
330
1F
100
AcDbEntity
  8
0
  6
Continuous
 62
     7
370
    25
100
AcDbLine
 10
64.3669780322
 20
35.4850807009
 30
0.0
 11
77.8669779167
 21
35.4850807009
 31
0.0
  0
LINE
  5
86
330
1F
100
AcDbEntity
  8
0
  6
Continuous
 62
     7
370
    25
100
AcDbLine
 10
77.8669779167
 20
47.4850808052
 30
0.0
 11
74.3669782744
 21
47.4850808052
 31
0.0
  0
LINE
  5
87
330
1F
100
AcDbEntity
  8
0
  6
Continuous
 62
     7
370
    25
100
AcDbLine
 10
74.3669782744
 20
47.4850808052
 30
0.0
 11
74.3669782744
 21
50.9850804476
 31
0.0
  0
LINE
  5
88
330
1F
100
AcDbEntity
  8
0
  6
Continuous
 62
     7
370
    25
100
AcDbLine
 10
62.3669781701
 20
50.9850804476
 30
0.0
 11
62.3669781701
 21
37.4850805631
 31
0.0
  0
ARC
  5
89
330
1F
100
AcDbEntity
  8
0
  6
Continuous
 62
     7
370
    25
100
AcDbCircle
 10
64.3669782222
 20
37.485080753
 30
0.0
 40
2.000000000000002
100
AcDbArc
 50
179.7733194704
 51
270.2178539452
  0
LINE
  5
8A
330
1F
100
AcDbEntity
  8
0
  6
Continuous
 62
     7
370
    25
100
AcDbLine
 10
75.6169780136
 20
62.9850814832
 30
0.0
 11
61.1169784308
 21
62.9850814832
 31
0.0
  0
LINE
  5
8B
330
1F
100
AcDbEntity
  8
0
  6
Continuous
 62
     7
370
    25
100
AcDbLine
 10
61.6169780471
 20
63.4850806338
 30
0.0
 11
75.1169783973
 21
63.4850806338
 31
0.0
  0
LINE
  5
8C
330
1F
100
AcDbEntity
  8
0
  6
Continuous
 62
     7
370
    25
100
AcDbLine
 10
75.1169783973
 20
51.4850805295
 30
0.0
 11
61.6169780471
 21
51.4850805295
 31
0.0
  0
LINE
  5
8D
330
1F
100
AcDbEntity
  8
0
  6
Continuous
 62
     7
370
    25
100
AcDbLine
 10
78.3672341124
 20
34.719088838
 30
0.0
 11
78.3672341124
 21
48.2510726681
 31
0.0
  0
LINE
  5
8E
330
1F
100
AcDbEntity
  8
0
  6
Continuous
 62
     7
370
    25
100
AcDbLine
 10
78.3669779987
 20
34.735080578
 30
0.0
 11
78.3669779987
 21
48.2350809281
 31
0.0
  0
LINE
  5
8F
330
1F
100
AcDbEntity
  8
0
  6
Continuous
 62
     7
370
    25
100
AcDbLine
 10
88.2776192368
 20
41.485080753
 30
0.0
 11
88.2776192368
 21
47.9413734531
 31
0.0
  0
LINE
  5
90
330
1F
100
AcDbEntity
  8
0
  6
Continuous
 62
     7
370
    25
100
AcDbLine
 10
88.2776192368
 20
35.028788053
 30
0.0
 11
88.2776192368
 21
41.485080753
 31
0.0
  0
LINE
  5
91
330
1F
100
AcDbEntity
  8
0
  6
Continuous
 62
     7
370
    25
100
AcDbLine
 10
90.366978103
 20
46.7350806823
 30
0.0
 11
90.366978103
 21
36.2350808238
 31
0.0
  0
SPLINE
  5
92
330
1F
100
AcDbEntity
  8
0
  6
Continuous
 62
     7
370
    25
100
AcDbSpline
210
0.0
220
0.0
230
1.0
 70
     8
 71
     3
 72
     8
 73
     4
 74
     0
 42
0.000000001
 43
0.00000001
 40
0.0
 40
0.0
 40
0.0
 40
0.0
 40
1.0
 40
1.0
 40
1.0
 40
1.0
 10
65.36697822221996
 20
36.44508075303995
 30
0.0
 10
65.25051163499776
 20
36.44508075303995
 30
0.0
 10
65.1362000645357
 20
36.45370157617015
 30
0.0
 10
65.02382410059013
 20
36.47034957059522
 30
0.0
  0
LINE
  5
93
330
1F
100
AcDbEntity
  8
0
  6
Continuous
 62
     7
370
    25
100
AcDbLine
 10
74.6169783154
 20
36.4450805602
 30
0.0
 11
65.3669781961
 21
36.4450805602
 31
0.0
  0
SPLINE
  5
94
330
1F
100
AcDbEntity
  8
0
  6
Continuous
 62
     7
370
    25
100
AcDbSpline
210
0.0
220
0.0
230
1.0
 70
     8
 71
     3
 72
    14
 73
    10
 74
     0
 42
0.000000001
 43
0.00000001
 40
0.0
 40
0.0
 40
0.0
 40
0.0
 40
0.25
 40
0.25
 40
0.5
 40
0.5
 40
0.75
 40
0.75
 40
1.0
 40
1.0
 40
1.0
 40
1.0
 10
74.61697822221996
 20
36.44508075303994
 30
0.0
 10
74.70429625122634
 20
36.44508075303994
 30
0.0
 10
74.78592435904794
 20
36.46803355182639
 30
0.0
 10
74.91362547718137
 20
36.53252915098808
 30
0.0
 10
74.96301627000695
 20
36.57376163779436
 30
0.0
 10
75.04037493756498
 20
36.66322347776344
 30
0.0
 10
75.06894374713686
 20
36.71269831512361
 30
0.0
 10
75.10701111610396
 20
36.81527057305578
 30
0.0
 10
75.11697822221996
 20
36.86888033433706
 30
0.0
 10
75.11697822221996
 20
36.92508075303995
 30
0.0
  0
LINE
  5
95
330
1F
100
AcDbEntity
  8
0
  6
Continuous
 62
     7
370
    25
100
AcDbLine
 10
75.1169783973
 20
39.1335706474
 30
0.0
 11
75.1169783973
 21
36.9250809555
 31
0.0
  0
SPLINE
  5
96
330
1F
100
AcDbEntity
  8
0
  6
Continuous
 62
     7
370
    25
100
AcDbSpline
210
0.0
220
0.0
230
1.0
 70
    24
 71
     3
 72
    14
 73
    10
 74
     0
 42
0.000000001
 43
0.00000001
 40
0.0
 40
0.0
 40
0.0
 40
0.0
 40
0.25
 40
0.25
 40
0.5
 40
0.5
 40
0.75
 40
0.75
 40
1.0
 40
1.0
 40
1.0
 40
1.0
 10
75.11697822221996
 20
41.48508075303995
 30
0.0
 10
75.11697822221996
 20
41.28654343845092
 30
0.0
 10
75.11697822221996
 20
41.08800470761756
 30
0.0
 10
75.11697822221996
 20
40.69183587134402
 30
0.0
 10
75.11697822221996
 20
40.49420292602272
 30
0.0
 10
75.11697822221996
 20
40.10083649713254
 30
0.0
 10
75.11697822221996
 20
39.90510015647624
 30
0.0
 10
75.11697822221996
 20
39.51668824358444
 30
0.0
 10
75.11697822221996
 20
39.3240098025056
 30
0.0
 10
75.11697822221996
 20
39.13357059996809
 30
0.0
  0
SPLINE
  5
97
330
1F
100
AcDbEntity
  8
0
  6
Continuous
 62
     7
370
    25
100
AcDbSpline
210
0.0
220
0.0
230
1.0
 70
    24
 71
     3
 72
    14
 73
    10
 74
     0
 42
0.000000001
 43
0.00000001
 40
0.0
 40
0.0
 40
0.0
 40
0.0
 40
0.25
 40
0.25
 40
0.5
 40
0.5
 40
0.75
 40
0.75
 40
1.0
 40
1.0
 40
1.0
 40
1.0
 10
75.11697822221996
 20
41.48508075303995
 30
0.0
 10
75.11697822221996
 20
41.68361806762897
 30
0.0
 10
75.11697822221996
 20
41.88215679846233
 30
0.0
 10
75.11697822221996
 20
42.27832563473586
 30
0.0
 10
75.11697822221996
 20
42.47595858005717
 30
0.0
 10
75.11697822221996
 20
42.86932500894736
 30
0.0
 10
75.11697822221996
 20
43.06506134960365
 30
0.0
 10
75.11697822221996
 20
43.45347326249545
 30
0.0
 10
75.11697822221996
 20
43.64615170357429
 30
0.0
 10
75.11697822221996
 20
43.83659090611181
 30
0.0
  0
LINE
  5
98
330
1F
100
AcDbEntity
  8
0
  6
Continuous
 62
     7
370
    25
100
AcDbLine
 10
75.1169783973
 20
46.0450805505
 30
0.0
 11
75.1169783973
 21
43.8365908587
 31
0.0
  0
SPLINE
  5
99
330
1F
100
AcDbEntity
  8
0
  6
Continuous
 62
     7
370
    25
100
AcDbSpline
210
0.0
220
0.0
230
1.0
 70
     8
 71
     3
 72
    14
 73
    10
 74
     0
 42
0.000000001
 43
0.00000001
 40
0.0
 40
0.0
 40
0.0
 40
0.0
 40
0.25
 40
0.25
 40
0.5
 40
0.5
 40
0.75
 40
0.75
 40
1.0
 40
1.0
 40
1.0
 40
1.0
 10
75.11697822221996
 20
46.04508075303995
 30
0.0
 10
75.11697822221996
 20
46.10123399337078
 30
0.0
 10
75.10702491566744
 20
46.15498758568933
 30
0.0
 10
75.06865329985143
 20
46.25811099409881
 30
0.0
 10
75.04011436787827
 20
46.30728897010645
 30
0.0
 10
74.96292682059816
 20
46.39645348243222
 30
0.0
 10
74.91349813541024
 20
46.4377021467041
 30
0.0
 10
74.78598964823317
 20
46.50208949970611
 30
0.0
 10
74.70437343817903
 20
46.52508075303994
 30
0.0
 10
74.61697822221996
 20
46.52508075303994
 30
0.0
  0
LINE
  5
9A
330
1F
100
AcDbEntity
  8
0
  6
Continuous
 62
     7
370
    25
100
AcDbLine
 10
74.3669782744
 20
46.5250809459
 30
0.0
 11
74.6169783154
 21
46.5250809459
 31
0.0
  0
SPLINE
  5
9B
330
1F
100
AcDbEntity
  8
0
  6
Continuous
 62
     7
370
    25
100
AcDbSpline
210
0.0
220
0.0
230
1.0
 70
     8
 71
     3
 72
    12
 73
     8
 74
     0
 42
0.000000001
 43
0.00000001
 40
0.0
 40
0.0
 40
0.0
 40
0.0
 40
0.5000000000000009
 40
0.5000000000000009
 40
0.7500000000000004
 40
0.7500000000000004
 40
1.0
 40
1.0
 40
1.0
 40
1.0
 10
73.73671198508161
 20
46.85481451590161
 30
0.0
 10
73.78376013963002
 20
46.78479032152927
 30
0.0
 10
73.84879837083966
 20
46.71134701676657
 30
0.0
 10
74.00227172389164
 20
46.61317891650037
 30
0.0
 10
74.06243144361669
 20
46.58325178514764
 30
0.0
 10
74.2037189651818
 20
46.53873035988439
 30
0.0
 10
74.28415927400548
 20
46.52508075303994
 30
0.0
 10
74.36697822221997
 20
46.52508075303994
 30
0.0
  0
LINE
  5
9C
330
1F
100
AcDbEntity
  8
0
  6
Continuous
 62
     7
370
    25
100
AcDbLine
 10
73.7367117756
 20
46.8548143064
 30
0.0
 11
74.3669782744
 21
47.4850808052
 31
0.0
  0
SPLINE
  5
9D
330
1F
100
AcDbEntity
  8
0
  6
Continuous
 62
     7
370
    25
100
AcDbSpline
210
0.0
220
0.0
230
1.0
 70
    24
 71
     3
 72
    14
 73
    10
 74
     0
 42
0.000000001
 43
0.00000001
 40
0.0
 40
0.0
 40
0.0
 40
0.0
 40
0.25
 40
0.25
 40
0.5
 40
0.5
 40
0.75
 40
0.75
 40
1.0
 40
1.0
 40
1.0
 40
1.0
 10
68.36697822221996
 20
48.23508075303995
 30
0.0
 10
68.56551553680897
 20
48.23508075303995
 30
0.0
 10
68.76405426764235
 20
48.23508075303995
 30
0.0
 10
69.16022310391588
 20
48.23508075303995
 30
0.0
 10
69.35785604923718
 20
48.23508075303995
 30
0.0
 10
69.75122247812736
 20
48.23508075303995
 30
0.0
 10
69.94695881878366
 20
48.23508075303995
 30
0.0
 10
70.33537073167545
 20
48.23508075303995
 30
0.0
 10
70.5280491727543
 20
48.23508075303995
 30
0.0
 10
70.71848837529181
 20
48.23508075303995
 30
0.0
  0
SPLINE
  5
9E
330
1F
100
AcDbEntity
  8
0
  6
Continuous
 62
     7
370
    25
100
AcDbSpline
210
0.0
220
0.0
230
1.0
 70
    24
 71
     3
 72
    14
 73
    10
 74
     0
 42
0.000000001
 43
0.00000001
 40
0.0
 40
0.0
 40
0.0
 40
0.0
 40
0.25
 40
0.25
 40
0.5
 40
0.5
 40
0.75
 40
0.75
 40
1.0
 40
1.0
 40
1.0
 40
1.0
 10
68.36697822221996
 20
48.23508075303995
 30
0.0
 10
68.16844090763092
 20
48.23508075303995
 30
0.0
 10
67.96990217679758
 20
48.23508075303995
 30
0.0
 10
67.57373334052404
 20
48.23508075303995
 30
0.0
 10
67.37610039520273
 20
48.23508075303995
 30
0.0
 10
66.98273396631255
 20
48.23508075303995
 30
0.0
 10
66.78699762565626
 20
48.23508075303995
 30
0.0
 10
66.39858571276444
 20
48.23508075303995
 30
0.0
 10
66.20590727168562
 20
48.23508075303995
 30
0.0
 10
66.0154680691481
 20
48.23508075303995
 30
0.0
  0
LINE
  5
9F
330
1F
100
AcDbEntity
  8
0
  6
Continuous
 62
     7
370
    25
100
AcDbLine
 10
63.8069784247
 20
48.2350809281
 30
0.0
 11
66.0154681166
 21
48.2350809281
 31
0.0
  0
SPLINE
  5
A0
330
1F
100
AcDbEntity
  8
0
  6
Continuous
 62
     7
370
    25
100
AcDbSpline
210
0.0
220
0.0
230
1.0
 70
     8
 71
     3
 72
    14
 73
    10
 74
     0
 42
0.000000001
 43
0.00000001
 40
0.0
 40
0.0
 40
0.0
 40
0.0
 40
0.25
 40
0.25
 40
0.5
 40
0.5
 40
0.75
 40
0.75
 40
1.0
 40
1.0
 40
1.0
 40
1.0
 10
63.80697822221995
 20
48.23508075303995
 30
0.0
 10
63.75082498188912
 20
48.23508075303995
 30
0.0
 10
63.69707138957058
 20
48.22512744648743
 30
0.0
 10
63.59394798116109
 20
48.18675583067143
 30
0.0
 10
63.54477000515345
 20
48.15821689869827
 30
0.0
 10
63.45560549282768
 20
48.08102935141815
 30
0.0
 10
63.41435682855581
 20
48.03160066623023
 30
0.0
 10
63.3499694755538
 20
47.90409217905317
 30
0.0
 10
63.32697822221996
 20
47.82247596899904
 30
0.0
 10
63.32697822221996
 20
47.73508075303995
 30
0.0
  0
LINE
  5
A1
330
1F
100
AcDbEntity
  8
0
  6
Continuous
 62
     7
370
    25
100
AcDbLine
 10
63.3269780294
 20
38.485080727
 30
0.0
 11
63.3269780294
 21
47.7350808462
 31
0.0
  0
SPLINE
  5
A2
330
1F
100
AcDbEntity
  8
0
  6
Continuous
 62
     7
370
    25
100
AcDbSpline
210
0.0
220
0.0
230
1.0
 70
     8
 71
     3
 72
     8
 73
     4
 74
     0
 42
0.000000001
 43
0.00000001
 40
0.0
 40
0.0
 40
0.0
 40
0.0
 40
1.0
 40
1.0
 40
1.0
 40
1.0
 10
63.35224703977523
 20
38.14192663141012
 30
0.0
 10
63.33559904535014
 20
38.2543025953557
 30
0.0
 10
63.32697822221996
 20
38.36861416581775
 30
0.0
 10
63.32697822221996
 20
38.48508075303995
 30
0.0
  0
SPLINE
  5
A3
330
1F
100
AcDbEntity
  8
0
  6
Continuous
 62
     7
370
    25
100
AcDbSpline
210
0.0
220
0.0
230
1.0
 70
     8
 71
     3
 72
    12
 73
     8
 74
     0
 42
0.000000001
 43
0.00000001
 40
0.0
 40
0.0
 40
0.0
 40
0.0
 40
0.2499999999999999
 40
0.2499999999999999
 40
0.4999999999999998
 40
0.4999999999999998
 40
1.0
 40
1.0
 40
1.0
 40
1.0
 10
73.40697822221995
 20
47.48508075303996
 30
0.0
 10
73.40697822221995
 20
47.40226180482547
 30
0.0
 10
73.42062782906439
 20
47.3218214960018
 30
0.0
 10
73.46514925432764
 20
47.18053397443667
 30
0.0
 10
73.49507638568036
 20
47.12037425471163
 30
0.0
 10
73.59324448594656
 20
46.96690090165966
 30
0.0
 10
73.66668779070923
 20
46.90186267044968
 30
0.0
 10
73.73671198508158
 20
46.85481451590128
 30
0.0
  0
LINE
  5
A4
330
1F
100
AcDbEntity
  8
0
  6
Continuous
 62
     7
370
    25
100
AcDbLine
 10
73.406978415
 20
47.7350808462
 30
0.0
 11
73.406978415
 21
47.4850808052
 31
0.0
  0
SPLINE
  5
A5
330
1F
100
AcDbEntity
  8
0
  6
Continuous
 62
     7
370
    25
100
AcDbSpline
210
0.0
220
0.0
230
1.0
 70
     8
 71
     3
 72
    14
 73
    10
 74
     0
 42
0.000000001
 43
0.00000001
 40
0.0
 40
0.0
 40
0.0
 40
0.0
 40
0.25
 40
0.25
 40
0.5
 40
0.5
 40
0.75
 40
0.75
 40
1.0
 40
1.0
 40
1.0
 40
1.0
 10
73.40697822221995
 20
47.73508075303995
 30
0.0
 10
73.40697822221995
 20
47.82239878204633
 30
0.0
 10
73.3840254234335
 20
47.90402688986793
 30
0.0
 10
73.31952982427183
 20
48.03172800800137
 30
0.0
 10
73.27829733746553
 20
48.08111880082694
 30
0.0
 10
73.18883549749647
 20
48.15847746838497
 30
0.0
 10
73.13936066013629
 20
48.18704627795685
 30
0.0
 10
73.03678840220411
 20
48.22511364692395
 30
0.0
 10
72.98317864092283
 20
48.23508075303995
 30
0.0
 10
72.92697822221996
 20
48.23508075303995
 30
0.0
  0
LINE
  5
A6
330
1F
100
AcDbEntity
  8
0
  6
Continuous
 62
     7
370
    25
100
AcDbLine
 10
70.7184883279
 20
48.2350809281
 30
0.0
 11
72.9269780197
 21
48.2350809281
 31
0.0
  0
LINE
  5
A7
330
1F
100
AcDbEntity
  8
0
  6
Continuous
 62
     7
370
    25
100
AcDbLine
 10
74.8669783563
 20
46.2350806003
 30
0.0
 11
74.8669783563
 21
43.9345704173
 31
0.0
  0
SPLINE
  5
A8
330
1F
100
AcDbEntity
  8
0
  6
Continuous
 62
     7
370
    25
100
AcDbSpline
210
0.0
220
0.0
230
1.0
 70
     8
 71
     3
 72
    12
 73
     8
 74
     0
 42
0.000000001
 43
0.00000001
 40
0.0
 40
0.0
 40
0.0
 40
0.0
 40
0.25
 40
0.25
 40
0.5
 40
0.5
 40
1.0
 40
1.0
 40
1.0
 40
1.0
 10
74.7937549175158
 20
43.9203144060108
 30
0.0
 10
74.80796906294466
 20
43.91851895881074
 30
0.0
 10
74.81965259220311
 20
43.91649169900396
 30
0.0
 10
74.83871226637096
 20
43.91344006859368
 30
0.0
 10
74.84608841128038
 20
43.91241569799018
 30
0.0
 10
74.86288654147279
 20
43.91304669160974
 30
0.0
 10
74.86697822221996
 20
43.91840616126287
 30
0.0
 10
74.86697822221996
 20
43.93457049582313
 30
0.0
  0
SPLINE
  5
A9
330
1F
100
AcDbEntity
  8
0
  6
Continuous
 62
     7
370
    25
100
AcDbSpline
210
0.0
220
0.0
230
1.0
 70
     8
 71
     3
 72
    10
 73
     6
 74
     0
 42
0.000000001
 43
0.00000001
 40
0.0
 40
0.0
 40
0.0
 40
0.0
 40
0.5
 40
0.5
 40
1.0
 40
1.0
 40
1.0
 40
1.0
 10
74.7937549175158
 20
43.9203144060108
 30
0.0
 10
74.76532662665807
 20
43.92390530041089
 30
0.0
 10
74.73239269822125
 20
43.92746932286397
 30
0.0
 10
74.66947874138936
 20
43.93280192057009
 30
0.0
 10
74.63949871299425
 20
43.93457049582313
 30
0.0
 10
74.61697822221996
 20
43.93457049582313
 30
0.0
  0
LINE
  5
AA
330
1F
100
AcDbEntity
  8
0
  6
Continuous
 62
     7
370
    25
100
AcDbLine
 10
74.6169783154
 20
43.9345704173
 30
0.0
 11
74.6169783154
 21
46.2350806003
 31
0.0
  0
LINE
  5
AB
330
1F
100
AcDbEntity
  8
0
  6
Continuous
 62
     7
370
    25
100
AcDbLine
 10
74.8669783563
 20
46.2350806003
 30
0.0
 11
74.6169783154
 21
46.2350806003
 31
0.0
  0
LINE
  5
AC
330
1F
100
AcDbEntity
  8
0
  6
Continuous
 62
     7
370
    25
100
AcDbLine
 10
73.1169780695
 20
47.7350808462
 30
0.0
 11
70.8164678865
 21
47.7350808462
 31
0.0
  0
LINE
  5
AD
330
1F
100
AcDbEntity
  8
0
  6
Continuous
 62
     7
370
    25
100
AcDbLine
 10
73.1169780695
 20
47.4850808052
 30
0.0
 11
73.1169780695
 21
47.7350808462
 31
0.0
  0
ARC
  5
AE
330
1F
100
AcDbEntity
  8
0
  6
Continuous
 62
     7
370
    25
100
AcDbCircle
 10
74.3669782222
 20
47.485080753
 30
0.0
 40
1.250000000000007
100
AcDbArc
 50
180.0
 51
270.0
  0
LINE
  5
AF
330
1F
100
AcDbEntity
  8
0
  6
Continuous
 62
     7
370
    25
100
AcDbLine
 10
74.6169783154
 20
46.2350806003
 30
0.0
 11
74.3669782744
 21
46.2350806003
 31
0.0
  0
LINE
  5
B0
330
1F
100
AcDbEntity
  8
0
  6
Continuous
 62
     7
370
    25
100
AcDbLine
 10
74.6169783154
 20
43.9345704173
 30
0.0
 11
74.6169783154
 21
41.485080753
 31
0.0
  0
LINE
  5
B1
330
1F
100
AcDbEntity
  8
0
  6
Continuous
 62
     7
370
    25
100
AcDbLine
 10
74.6169783154
 20
41.485080753
 30
0.0
 11
74.6169783154
 21
39.0355910888
 31
0.0
  0
LINE
  5
B2
330
1F
100
AcDbEntity
  8
0
  6
Continuous
 62
     7
370
    25
100
AcDbLine
 10
74.6169783154
 20
36.7350809058
 30
0.0
 11
74.6169783154
 21
39.0355910888
 31
0.0
  0
LINE
  5
B3
330
1F
100
AcDbEntity
  8
0
  6
Continuous
 62
     7
370
    25
100
AcDbLine
 10
65.3669781961
 20
36.7350809058
 30
0.0
 11
74.6169783154
 21
36.7350809058
 31
0.0
  0
ARC
  5
B4
330
1F
100
AcDbEntity
  8
0
  6
Continuous
 62
     7
370
    25
100
AcDbCircle
 10
65.3669782222
 20
38.485080753
 30
0.0
 40
1.75
100
AcDbArc
 50
180.0
 51
270.0
  0
LINE
  5
B5
330
1F
100
AcDbEntity
  8
0
  6
Continuous
 62
     7
370
    25
100
AcDbLine
 10
63.616978375
 20
47.7350808462
 30
0.0
 11
63.616978375
 21
38.485080727
 31
0.0
  0
LINE
  5
B6
330
1F
100
AcDbEntity
  8
0
  6
Continuous
 62
     7
370
    25
100
AcDbLine
 10
65.9174885579
 20
47.7350808462
 30
0.0
 11
63.616978375
 21
47.7350808462
 31
0.0
  0
LINE
  5
B7
330
1F
100
AcDbEntity
  8
0
  6
Continuous
 62
     7
370
    25
100
AcDbLine
 10
65.9174885579
 20
47.7350808462
 30
0.0
 11
68.3669782222
 21
47.7350808462
 31
0.0
  0
LINE
  5
B8
330
1F
100
AcDbEntity
  8
0
  6
Continuous
 62
     7
370
    25
100
AcDbLine
 10
68.3669782222
 20
47.7350808462
 30
0.0
 11
70.8164678865
 21
47.7350808462
 31
0.0
  0
SPLINE
  5
B9
330
1F
100
AcDbEntity
  8
0
  6
Continuous
 62
     7
370
    25
100
AcDbSpline
210
0.0
220
0.0
230
1.0
 70
     8
 71
     3
 72
    14
 73
    10
 74
     0
 42
0.000000001
 43
0.00000001
 40
0.0
 40
0.0
 40
0.0
 40
0.0
 40
0.25
 40
0.25
 40
0.5
 40
0.5
 40
0.75
 40
0.75
 40
1.0
 40
1.0
 40
1.0
 40
1.0
 10
71.07384121958226
 20
41.76572805698353
 30
0.0
 10
71.13066720909322
 20
41.88910493463083
 30
0.0
 10
71.22326632677598
 20
41.99239315077063
 30
0.0
 10
71.45304044178249
 20
42.13549297403667
 30
0.0
 10
71.58656521274155
 20
42.17317803657567
 30
0.0
 10
71.85802544227673
 20
42.17293891167542
 30
0.0
 10
71.99140008611516
 20
42.13477445313873
 30
0.0
 10
72.21882765302561
 20
41.99315358998407
 30
0.0
 10
72.31262895779038
 20
41.88911523229287
 30
0.0
 10
72.36945969028744
 20
41.76572805698406
 30
0.0
  0
LINE
  5
BA
330
1F
100
AcDbEntity
  8
0
  6
Continuous
 62
     7
370
    25
100
AcDbLine
 10
70.1820468741
 20
39.272310237
 30
0.0
 11
71.0738412083
 21
41.7657280588
 31
0.0
  0
SPLINE
  5
BB
330
1F
100
AcDbEntity
  8
0
  6
Continuous
 62
     7
370
    25
100
AcDbSpline
210
0.0
220
0.0
230
1.0
 70
     8
 71
     3
 72
    10
 73
     6
 74
     0
 42
0.000000001
 43
0.00000001
 40
0.0
 40
0.0
 40
0.0
 40
0.0
 40
0.5
 40
0.5
 40
1.0
 40
1.0
 40
1.0
 40
1.0
 10
69.84628856275083
 20
39.15949372409362
 30
0.0
 10
69.90537244253663
 20
39.12697920879439
 30
0.0
 10
69.97658381238189
 20
39.12087435194849
 30
0.0
 10
70.10360447114383
 20
39.1610747629742
 30
0.0
 10
70.15929371868967
 20
39.20869353996112
 30
0.0
 10
70.1820468443627
 20
39.27231027682814
 30
0.0
  0
LINE
  5
BC
330
1F
100
AcDbEntity
  8
0
  6
Continuous
 62
     7
370
    25
100
AcDbLine
 10
69.0820874508
 20
39.580042033
 30
0.0
 11
69.846288555
 21
39.1594937784
 31
0.0
  0
LINE
  5
BD
330
1F
100
AcDbEntity
  8
0
  6
Continuous
 62
     7
370
    25
100
AcDbLine
 10
70.0292579343
 20
37.7744192039
 30
0.0
 11
69.0820874508
 21
39.580042033
 31
0.0
  0
SPLINE
  5
BE
330
1F
100
AcDbEntity
  8
0
  6
Continuous
 62
     7
370
    25
100
AcDbSpline
210
0.0
220
0.0
230
1.0
 70
     8
 71
     3
 72
    10
 73
     6
 74
     0
 42
0.000000001
 43
0.00000001
 40
0.0
 40
0.0
 40
0.0
 40
0.0
 40
0.5000000000000006
 40
0.5000000000000006
 40
1.0
 40
1.0
 40
1.0
 40
1.0
 10
70.51079893997358
 20
37.68736531724188
 30
0.0
 10
70.43997269264673
 20
37.62449988978369
 30
0.0
 10
70.34109874529182
 20
37.59747155645641
 30
0.0
 10
70.1569773225802
 20
37.63042228475443
 30
0.0
 10
70.07325300855403
 20
37.69054990475713
 30
0.0
 10
70.02925794534507
 20
37.77441917176986
 30
0.0
  0
SPLINE
  5
BF
330
1F
100
AcDbEntity
  8
0
  6
Continuous
 62
     7
370
    25
100
AcDbSpline
210
0.0
220
0.0
230
1.0
 70
     8
 71
     3
 72
    14
 73
    10
 74
     0
 42
0.000000001
 43
0.00000001
 40
0.0
 40
0.0
 40
0.0
 40
0.0
 40
0.2500000000000001
 40
0.2500000000000001
 40
0.3750000000000003
 40
0.3750000000000003
 40
0.5000000000000004
 40
0.5000000000000004
 40
1.0
 40
1.0
 40
1.0
 40
1.0
 10
72.93250196989682
 20
37.68736531724154
 30
0.0
 10
72.76620174819081
 20
37.83497351220436
 30
0.0
 10
72.57603101340091
 20
37.94769121095813
 30
0.0
 10
72.26495415161351
 20
38.06333779552156
 30
0.0
 10
72.15905565208715
 20
38.09210775673086
 30
0.0
 10
71.94301681475088
 20
38.13084599157261
 30
0.0
 10
71.83176947811599
 20
38.14075276521543
 30
0.0
 10
71.28079908948395
 20
38.14073064621699
 30
0.0
 10
70.84336206098892
 20
37.98254857978156
 30
0.0
 10
70.51079893997358
 20
37.68736531724188
 30
0.0
  0
SPLINE
  5
C0
330
1F
100
AcDbEntity
  8
0
  6
Continuous
 62
     7
370
    25
100
AcDbSpline
210
0.0
220
0.0
230
1.0
 70
     8
 71
     3
 72
    10
 73
     6
 74
     0
 42
0.000000001
 43
0.00000001
 40
0.0
 40
0.0
 40
0.0
 40
0.0
 40
0.5
 40
0.5
 40
1.0
 40
1.0
 40
1.0
 40
1.0
 10
73.4140429645251
 20
37.77441917176988
 30
0.0
 10
73.37005095447441
 20
37.69055572509532
 30
0.0
 10
73.28679693597053
 20
37.63064463227612
 30
0.0
 10
73.10261705302688
 20
37.59740883166895
 30
0.0
 10
73.00331990105542
 20
37.62450727122044
 30
0.0
 10
72.93250196989685
 20
37.68736531724158
 30
0.0
  0
LINE
  5
C1
330
1F
100
AcDbEntity
  8
0
  6
Continuous
 62
     7
370
    25
100
AcDbLine
 10
74.3727729634
 20
39.6020785221
 30
0.0
 11
73.4140429624
 21
37.7744192039
 31
0.0
  0
LINE
  5
C2
330
1F
100
AcDbEntity
  8
0
  6
Continuous
 62
     7
370
    25
100
AcDbLine
 10
73.6005035208
 20
39.1607573503
 30
0.0
 11
74.3727729634
 21
39.6020785221
 31
0.0
  0
SPLINE
  5
C3
330
1F
100
AcDbEntity
  8
0
  6
Continuous
 62
     7
370
    25
100
AcDbSpline
210
0.0
220
0.0
230
1.0
 70
     8
 71
     3
 72
    10
 73
     6
 74
     0
 42
0.000000001
 43
0.00000001
 40
0.0
 40
0.0
 40
0.0
 40
0.0
 40
0.5
 40
0.5
 40
1.0
 40
1.0
 40
1.0
 40
1.0
 10
73.26146096994856
 20
39.2717317811245
 30
0.0
 10
73.2843770913624
 20
39.20765931534839
 30
0.0
 10
73.34050474217639
 20
39.15981774412895
 30
0.0
 10
73.46958638494503
 20
39.11995395225171
 30
0.0
 10
73.54153754964938
 20
39.12706043177903
 30
0.0
 10
73.6005037108597
 20
39.16075725377997
 30
0.0
  0
LINE
  5
C4
330
1F
100
AcDbEntity
  8
0
  6
Continuous
 62
     7
370
    25
100
AcDbLine
 10
72.3694599212
 20
41.7657280588
 30
0.0
 11
73.2614611254
 21
39.2717318857
 31
0.0
  0
SPLINE
  5
C5
330
1F
100
AcDbEntity
  8
0
  6
Continuous
 62
     7
370
    25
100
AcDbSpline
210
0.0
220
0.0
230
1.0
 70
     8
 71
     3
 72
    10
 73
     6
 74
     0
 42
0.000000001
 43
0.00000001
 40
0.0
 40
0.0
 40
0.0
 40
0.0
 40
0.5
 40
0.5
 40
1.0
 40
1.0
 40
1.0
 40
1.0
 10
70.80221187519079
 20
47.9118574483358
 30
0.0
 10
70.8058027695909
 20
47.88342915747806
 30
0.0
 10
70.80936679204397
 20
47.85049522904125
 30
0.0
 10
70.8146993897501
 20
47.78758127220935
 30
0.0
 10
70.81646796500314
 20
47.75760124381425
 30
0.0
 10
70.81646796500314
 20
47.73508075303995
 30
0.0
  0
SPLINE
  5
C6
330
1F
100
AcDbEntity
  8
0
  6
Continuous
 62
     7
370
    25
100
AcDbSpline
210
0.0
220
0.0
230
1.0
 70
     8
 71
     3
 72
    12
 73
     8
 74
     0
 42
0.000000001
 43
0.00000001
 40
0.0
 40
0.0
 40
0.0
 40
0.0
 40
0.25
 40
0.25
 40
0.5
 40
0.5
 40
1.0
 40
1.0
 40
1.0
 40
1.0
 10
70.80221187519079
 20
47.9118574483358
 30
0.0
 10
70.80041642799074
 20
47.92607159376466
 30
0.0
 10
70.79838916818397
 20
47.93775512302311
 30
0.0
 10
70.79533753777369
 20
47.95681479719096
 30
0.0
 10
70.79431316717017
 20
47.96419094210037
 30
0.0
 10
70.79494416078974
 20
47.98098907229278
 30
0.0
 10
70.80030363044287
 20
47.98508075303995
 30
0.0
 10
70.81646796500313
 20
47.98508075303995
 30
0.0
  0
LINE
  5
C7
330
1F
100
AcDbEntity
  8
0
  6
Continuous
 62
     7
370
    25
100
AcDbLine
 10
70.8164678865
 20
47.9850808872
 30
0.0
 11
73.1169780695
 21
47.9850808872
 31
0.0
  0
LINE
  5
C8
330
1F
100
AcDbEntity
  8
0
  6
Continuous
 62
     7
370
    25
100
AcDbLine
 10
73.1169780695
 20
47.7350808462
 30
0.0
 11
73.1169780695
 21
47.9850808872
 31
0.0
  0
LINE
  5
C9
330
1F
100
AcDbEntity
  8
0
  6
Continuous
 62
     7
370
    25
100
AcDbLine
 10
63.616978375
 20
47.9850808872
 30
0.0
 11
65.9174885579
 21
47.9850808872
 31
0.0
  0
SPLINE
  5
CA
330
1F
100
AcDbEntity
  8
0
  6
Continuous
 62
     7
370
    25
100
AcDbSpline
210
0.0
220
0.0
230
1.0
 70
     8
 71
     3
 72
    12
 73
     8
 74
     0
 42
0.000000001
 43
0.00000001
 40
0.0
 40
0.0
 40
0.0
 40
0.0
 40
0.25
 40
0.25
 40
0.5
 40
0.5
 40
1.0
 40
1.0
 40
1.0
 40
1.0
 10
65.9317445692491
 20
47.9118574483358
 30
0.0
 10
65.93354001644916
 20
47.92607159376466
 30
0.0
 10
65.93556727625594
 20
47.9377551230231
 30
0.0
 10
65.93861890666622
 20
47.95681479719096
 30
0.0
 10
65.93964327726972
 20
47.96419094210037
 30
0.0
 10
65.93901228365016
 20
47.98098907229278
 30
0.0
 10
65.93365281399703
 20
47.98508075303995
 30
0.0
 10
65.91748847943677
 20
47.98508075303995
 30
0.0
  0
SPLINE
  5
CB
330
1F
100
AcDbEntity
  8
0
  6
Continuous
 62
     7
370
    25
100
AcDbSpline
210
0.0
220
0.0
230
1.0
 70
     8
 71
     3
 72
    10
 73
     6
 74
     0
 42
0.000000001
 43
0.00000001
 40
0.0
 40
0.0
 40
0.0
 40
0.0
 40
0.5
 40
0.5
 40
1.0
 40
1.0
 40
1.0
 40
1.0
 10
65.9317445692491
 20
47.9118574483358
 30
0.0
 10
65.92815367484901
 20
47.88342915747806
 30
0.0
 10
65.92458965239594
 20
47.85049522904125
 30
0.0
 10
65.91925705468981
 20
47.78758127220935
 30
0.0
 10
65.91748847943677
 20
47.75760124381425
 30
0.0
 10
65.91748847943677
 20
47.73508075303995
 30
0.0
  0
LINE
  5
CC
330
1F
100
AcDbEntity
  8
0
  6
Continuous
 62
     7
370
    25
100
AcDbLine
 10
63.616978375
 20
47.7350808462
 30
0.0
 11
63.616978375
 21
47.9850808872
 31
0.0
  0
SPLINE
  5
CD
330
1F
100
AcDbEntity
  8
0
  6
Continuous
 62
     7
370
    25
100
AcDbSpline
210
0.0
220
0.0
230
1.0
 70
     8
 71
     3
 72
    12
 73
     8
 74
     0
 42
0.000000001
 43
0.00000001
 40
0.0
 40
0.0
 40
0.0
 40
0.0
 40
0.25
 40
0.25
 40
0.5
 40
0.5
 40
1.0
 40
1.0
 40
1.0
 40
1.0
 10
74.7937549175158
 20
39.0498471000691
 30
0.0
 10
74.80796906294466
 20
39.05164254726915
 30
0.0
 10
74.81965259220313
 20
39.05366980707593
 30
0.0
 10
74.83871226637096
 20
39.05672143748622
 30
0.0
 10
74.84608841128038
 20
39.05774580808972
 30
0.0
 10
74.86288654147279
 20
39.05711481447015
 30
0.0
 10
74.86697822221996
 20
39.05175534481702
 30
0.0
 10
74.86697822221996
 20
39.03559101025676
 30
0.0
  0
LINE
  5
CE
330
1F
100
AcDbEntity
  8
0
  6
Continuous
 62
     7
370
    25
100
AcDbLine
 10
74.8669783563
 20
39.0355910888
 30
0.0
 11
74.8669783563
 21
36.7350809058
 31
0.0
  0
LINE
  5
CF
330
1F
100
AcDbEntity
  8
0
  6
Continuous
 62
     7
370
    25
100
AcDbLine
 10
74.8669783563
 20
36.7350809058
 30
0.0
 11
74.6169783154
 21
36.7350809058
 31
0.0
  0
SPLINE
  5
D0
330
1F
100
AcDbEntity
  8
0
  6
Continuous
 62
     7
370
    25
100
AcDbSpline
210
0.0
220
0.0
230
1.0
 70
     8
 71
     3
 72
    10
 73
     6
 74
     0
 42
0.000000001
 43
0.00000001
 40
0.0
 40
0.0
 40
0.0
 40
0.0
 40
0.5
 40
0.5
 40
1.0
 40
1.0
 40
1.0
 40
1.0
 10
74.7937549175158
 20
39.0498471000691
 30
0.0
 10
74.76532662665807
 20
39.04625620566901
 30
0.0
 10
74.73239269822125
 20
39.04269218321593
 30
0.0
 10
74.66947874138936
 20
39.0373595855098
 30
0.0
 10
74.63949871299425
 20
39.03559101025676
 30
0.0
 10
74.61697822221996
 20
39.03559101025676
 30
0.0
  0
SPLINE
  5
D1
330
1F
100
AcDbEntity
  8
0
  6
Continuous
 62
     7
370
    25
100
AcDbSpline
210
0.0
220
0.0
230
1.0
 70
     8
 71
     3
 72
    12
 73
     8
 74
     0
 42
0.000000001
 43
0.00000001
 40
0.0
 40
0.0
 40
0.0
 40
0.0
 40
0.25
 40
0.25
 40
0.5
 40
0.5
 40
1.0
 40
1.0
 40
1.0
 40
1.0
 10
68.36697822221996
 20
47.98708835332963
 30
0.0
 10
68.56918564464024
 20
47.9768248940405
 30
0.0
 10
68.7710724687447
 20
47.96924611424372
 30
0.0
 10
69.17644965589291
 20
47.95483265879464
 30
0.0
 10
69.3799400189367
 20
47.94799798314236
 30
0.0
 10
69.99618351983354
 20
47.92167223014192
 30
0.0
 10
70.3961750456973
 20
47.91200527878095
 30
0.0
 10
70.80221187519079
 20
47.9118574483358
 30
0.0
  0
SPLINE
  5
D2
330
1F
100
AcDbEntity
  8
0
  6
Continuous
 62
     7
370
    25
100
AcDbSpline
210
0.0
220
0.0
230
1.0
 70
    24
 71
     3
 72
    10
 73
     6
 74
     0
 42
0.000000001
 43
0.00000001
 40
0.0
 40
0.0
 40
0.0
 40
0.0
 40
0.5
 40
0.5
 40
1.0
 40
1.0
 40
1.0
 40
1.0
 10
68.36697822221996
 20
47.98708835332963
 30
0.0
 10
68.36697822221996
 20
47.9460345161731
 30
0.0
 10
68.36697822221996
 20
47.90196016386006
 30
0.0
 10
68.36697822221996
 20
47.81060889434813
 30
0.0
 10
68.36697822221996
 20
47.77785911285111
 30
0.0
 10
68.36697822221996
 20
47.73508075303995
 30
0.0
  0
SPLINE
  5
D3
330
1F
100
AcDbEntity
  8
0
  6
Continuous
 62
     7
370
    25
100
AcDbSpline
210
0.0
220
0.0
230
1.0
 70
     8
 71
     3
 72
    12
 73
     8
 74
     0
 42
0.000000001
 43
0.00000001
 40
0.0
 40
0.0
 40
0.0
 40
0.0
 40
0.25
 40
0.25
 40
0.5
 40
0.5
 40
1.0
 40
1.0
 40
1.0
 40
1.0
 10
74.86898582250964
 20
41.48508075303995
 30
0.0
 10
74.85872236322051
 20
41.28287333061965
 30
0.0
 10
74.85114358342372
 20
41.0809865065152
 30
0.0
 10
74.83673012797465
 20
40.67560931936699
 30
0.0
 10
74.82989545232236
 20
40.47211895632321
 30
0.0
 10
74.80356969932193
 20
39.85587545542636
 30
0.0
 10
74.79390274796096
 20
39.4558839295626
 30
0.0
 10
74.7937549175158
 20
39.0498471000691
 30
0.0
  0
SPLINE
  5
D4
330
1F
100
AcDbEntity
  8
0
  6
Continuous
 62
     7
370
    25
100
AcDbSpline
210
0.0
220
0.0
230
1.0
 70
    24
 71
     3
 72
    10
 73
     6
 74
     0
 42
0.000000001
 43
0.00000001
 40
0.0
 40
0.0
 40
0.0
 40
0.0
 40
0.5
 40
0.5
 40
1.0
 40
1.0
 40
1.0
 40
1.0
 10
74.86898582250964
 20
41.48508075303995
 30
0.0
 10
74.8279319853531
 20
41.48508075303995
 30
0.0
 10
74.78385763304007
 20
41.48508075303995
 30
0.0
 10
74.69250636352814
 20
41.48508075303995
 30
0.0
 10
74.65975658203111
 20
41.48508075303995
 30
0.0
 10
74.61697822221996
 20
41.48508075303995
 30
0.0
  0
SPLINE
  5
D5
330
1F
100
AcDbEntity
  8
0
  6
Continuous
 62
     7
370
    25
100
AcDbSpline
210
0.0
220
0.0
230
1.0
 70
     8
 71
     3
 72
    12
 73
     8
 74
     0
 42
0.000000001
 43
0.00000001
 40
0.0
 40
0.0
 40
0.0
 40
0.0
 40
0.25
 40
0.25
 40
0.5
 40
0.5
 40
1.0
 40
1.0
 40
1.0
 40
1.0
 10
74.86898582250964
 20
41.48508075303995
 30
0.0
 10
74.85872236322051
 20
41.68728817546024
 30
0.0
 10
74.85114358342373
 20
41.88917499956468
 30
0.0
 10
74.83673012797466
 20
42.29455218671291
 30
0.0
 10
74.82989545232236
 20
42.49804254975668
 30
0.0
 10
74.80356969932194
 20
43.11428605065354
 30
0.0
 10
74.79390274796096
 20
43.51427757651729
 30
0.0
 10
74.7937549175158
 20
43.9203144060108
 30
0.0
  0
SPLINE
  5
D6
330
1F
100
AcDbEntity
  8
0
  6
Continuous
 62
     7
370
    25
100
AcDbSpline
210
0.0
220
0.0
230
1.0
 70
     8
 71
     3
 72
    12
 73
     8
 74
     0
 42
0.000000001
 43
0.00000001
 40
0.0
 40
0.0
 40
0.0
 40
0.0
 40
0.25
 40
0.25
 40
0.5
 40
0.5
 40
1.0
 40
1.0
 40
1.0
 40
1.0
 10
68.36697822221996
 20
47.98708835332963
 30
0.0
 10
68.16477079979965
 20
47.9768248940405
 30
0.0
 10
67.96288397569522
 20
47.96924611424372
 30
0.0
 10
67.55750678854699
 20
47.95483265879465
 30
0.0
 10
67.35401642550322
 20
47.94799798314236
 30
0.0
 10
66.73777292460636
 20
47.92167223014192
 30
0.0
 10
66.3377813987426
 20
47.91200527878095
 30
0.0
 10
65.9317445692491
 20
47.9118574483358
 30
0.0
  0
SPLINE
  5
D7
330
1F
100
AcDbEntity
  8
0
  6
Continuous
 62
     7
370
    25
100
AcDbSpline
210
0.0
220
0.0
230
1.0
 70
     8
 71
     3
 72
    10
 73
     6
 74
     0
 42
0.000000001
 43
0.00000001
 40
0.0
 40
0.0
 40
0.0
 40
0.0
 40
0.5
 40
0.5
 40
1.0
 40
1.0
 40
1.0
 40
1.0
 10
72.13820173323252
 20
41.6699637156397
 30
0.0
 10
72.13820173323252
 20
41.6699637156397
 30
0.0
 10
72.16321778058318
 20
41.68054637940063
 30
0.0
 10
72.24844404788236
 20
41.71605267862233
 30
0.0
 10
72.30914586768597
 20
41.74109581315325
 30
0.0
 10
72.3694596902875
 20
41.76572805698408
 30
0.0
  0
SPLINE
  5
D8
330
1F
100
AcDbEntity
  8
0
  6
Continuous
 62
     7
370
    25
100
AcDbSpline
210
0.0
220
0.0
230
1.0
 70
     8
 71
     3
 72
    14
 73
    10
 74
     0
 42
0.000000001
 43
0.00000001
 40
0.0
 40
0.0
 40
0.0
 40
0.0
 40
0.25
 40
0.25
 40
0.5
 40
0.5
 40
0.75
 40
0.75
 40
1.0
 40
1.0
 40
1.0
 40
1.0
 10
72.13820173323255
 20
41.66996371563971
 30
0.0
 10
72.10030005148386
 20
41.7475469484134
 30
0.0
 10
72.03919093949197
 20
41.81213641372626
 30
0.0
 10
71.89325725693926
 20
41.89959111833007
 30
0.0
 10
71.80837863678663
 20
41.92297083569142
 30
0.0
 10
71.63590246850495
 20
41.92314618236309
 30
0.0
 10
71.55124511409862
 20
41.90026592984104
 30
0.0
 10
71.40326557239699
 20
41.81167547304308
 30
0.0
 10
71.3429943940246
 20
41.74753371612268
 30
0.0
 10
71.30509917663755
 20
41.66996371563996
 30
0.0
  0
SPLINE
  5
D9
330
1F
100
AcDbEntity
  8
0
  6
Continuous
 62
     7
370
    25
100
AcDbSpline
210
0.0
220
0.0
230
1.0
 70
     8
 71
     3
 72
    10
 73
     6
 74
     0
 42
0.000000001
 43
0.00000001
 40
0.0
 40
0.0
 40
0.0
 40
0.0
 40
0.5
 40
0.5
 40
1.0
 40
1.0
 40
1.0
 40
1.0
 10
71.30509917663738
 20
41.66996371563962
 30
0.0
 10
71.30509917663738
 20
41.66996371563962
 30
0.0
 10
71.28008312928657
 20
41.68054637940015
 30
0.0
 10
71.1948568619874
 20
41.71605267862181
 30
0.0
 10
71.13415504218376
 20
41.74109581315263
 30
0.0
 10
71.07384121958228
 20
41.76572805698353
 30
0.0
  0
LWPOLYLINE
  5
DA
330
1F
100
AcDbEntity
  8
0
  6
Continuous
 62
     7
370
    25
100
AcDbPolyline
 90
        9
 70
   128
 43
0.0
 10
73.2614611254
 20
39.2717318857
 10
73.2155371436
 20
39.2553068479
 10
73.1713784837
 20
39.239513014
 10
73.1306815498
 20
39.2249571407
 10
73.0950100326
 20
39.2121991856
 10
73.0657357701
 20
39.2017287915
 10
73.0439824031
 20
39.1939485227
 10
73.0305871905
 20
39.1891575666
 10
73.0260642224
 20
39.1875398593
  0
LINE
  5
DB
330
1F
100
AcDbEntity
  8
0
  6
Continuous
 62
     7
370
    25
100
AcDbLine
 10
73.0260642224
 20
39.1875398593
 30
0.0
 11
72.1382018157
 21
41.6699637091
 31
0.0
  0
LINE
  5
DC
330
1F
100
AcDbEntity
  8
0
  6
Continuous
 62
     7
370
    25
100
AcDbLine
 10
71.305099081
 20
41.6699637091
 30
0.0
 11
70.4174438936
 21
39.1881184434
 31
0.0
  0
LWPOLYLINE
  5
DD
330
1F
100
AcDbEntity
  8
0
  6
Continuous
 62
     7
370
    25
100
AcDbPolyline
 90
        9
 70
   128
 43
0.0
 10
70.1820468741
 20
39.272310237
 10
70.2279705067
 20
39.2558851992
 10
70.2721293994
 20
39.2400913653
 10
70.3128263333
 20
39.2255357248
 10
70.3484976177
 20
39.2127775369
 10
70.3777723459
 20
39.2023071428
 10
70.3995252472
 20
39.1945271069
 10
70.4129206927
 20
39.1897361507
 10
70.4174438936
 20
39.1881184434
  0
SPLINE
  5
DE
330
1F
100
AcDbEntity
  8
0
  6
Continuous
 62
     7
370
    25
100
AcDbSpline
210
0.0
220
0.0
230
1.0
 70
     8
 71
     3
 72
     8
 73
     4
 74
     0
 42
0.000000001
 43
0.00000001
 40
0.0
 40
0.0
 40
0.0
 40
0.0
 40
1.0
 40
1.0
 40
1.0
 40
1.0
 10
75.11697822221996
 20
39.1335705999681
 30
0.0
 10
75.05152465088196
 20
39.13776788660419
 30
0.0
 10
74.98647422208383
 20
39.13141169526695
 30
0.0
 10
74.94019362647938
 20
39.11762167392386
 30
0.0
  0
SPLINE
  5
DF
330
1F
100
AcDbEntity
  8
0
  6
Continuous
 62
     7
370
    25
100
AcDbSpline
210
0.0
220
0.0
230
1.0
 70
     8
 71
     3
 72
    12
 73
     8
 74
     0
 42
0.000000001
 43
0.00000001
 40
0.0
 40
0.0
 40
0.0
 40
0.0
 40
0.25
 40
0.25
 40
0.5
 40
0.5
 40
1.0
 40
1.0
 40
1.0
 40
1.0
 10
74.86898582250964
 20
41.48508075303995
 30
0.0
 10
74.87924928179878
 20
41.28287333061965
 30
0.0
 10
74.89391417222953
 20
41.08228349808937
 30
0.0
 10
74.92564955041303
 20
40.68430951813545
 30
0.0
 10
74.94272003816579
 20
40.48692537071182
 30
0.0
 10
74.98794399996522
 20
39.89953721409079
 30
0.0
 10
74.98112057269852
 20
39.50361661690958
 30
0.0
 10
74.94019362647938
 20
39.11762167392386
 30
0.0
  0
SPLINE
  5
E0
330
1F
100
AcDbEntity
  8
0
  6
Continuous
 62
     7
370
    25
100
AcDbSpline
210
0.0
220
0.0
230
1.0
 70
    24
 71
     3
 72
    10
 73
     6
 74
     0
 42
0.000000001
 43
0.00000001
 40
0.0
 40
0.0
 40
0.0
 40
0.0
 40
0.5
 40
0.5
 40
1.0
 40
1.0
 40
1.0
 40
1.0
 10
74.86898582250964
 20
41.48508075303995
 30
0.0
 10
74.91003965966618
 20
41.48508075303995
 30
0.0
 10
74.95351649004718
 20
41.48508075303995
 30
0.0
 10
75.04257518977153
 20
41.48508075303995
 30
0.0
 10
75.07467855929518
 20
41.48508075303995
 30
0.0
 10
75.11697822221996
 20
41.48508075303995
 30
0.0
  0
SPLINE
  5
E1
330
1F
100
AcDbEntity
  8
0
  6
Continuous
 62
     7
370
    25
100
AcDbSpline
210
0.0
220
0.0
230
1.0
 70
     8
 71
     3
 72
    14
 73
    10
 74
     0
 42
0.000000001
 43
0.00000001
 40
0.0
 40
0.0
 40
0.0
 40
0.0
 40
0.25
 40
0.25
 40
0.5
 40
0.5
 40
0.75
 40
0.75
 40
1.0
 40
1.0
 40
1.0
 40
1.0
 10
68.36697822221996
 20
47.98708835332963
 30
0.0
 10
68.16477079979965
 20
47.99735181261877
 30
0.0
 10
67.96418096726937
 20
48.01201670304953
 30
0.0
 10
67.56620698731545
 20
48.04375208123303
 30
0.0
 10
67.36882283989182
 20
48.06082256898578
 30
0.0
 10
66.9772307354778
 20
48.09097187685207
 30
0.0
 10
66.780352560079
 20
48.09680334700196
 30
0.0
 10
66.38799549963846
 20
48.0906972237804
 30
0.0
 10
66.19251661459673
 20
48.07875963040894
 30
0.0
 10
65.99951914310387
 20
48.05829615729937
 30
0.0
  0
SPLINE
  5
E2
330
1F
100
AcDbEntity
  8
0
  6
Continuous
 62
     7
370
    25
100
AcDbSpline
210
0.0
220
0.0
230
1.0
 70
     8
 71
     3
 72
     8
 73
     4
 74
     0
 42
0.000000001
 43
0.00000001
 40
0.0
 40
0.0
 40
0.0
 40
0.0
 40
1.0
 40
1.0
 40
1.0
 40
1.0
 10
65.99951914310387
 20
48.05829615729937
 30
0.0
 10
66.01330916444695
 20
48.10457675290382
 30
0.0
 10
66.0196653557842
 20
48.16962718170195
 30
0.0
 10
66.0154680691481
 20
48.23508075303995
 30
0.0
  0
SPLINE
  5
E3
330
1F
100
AcDbEntity
  8
0
  6
Continuous
 62
     7
370
    25
100
AcDbSpline
210
0.0
220
0.0
230
1.0
 70
    24
 71
     3
 72
    10
 73
     6
 74
     0
 42
0.000000001
 43
0.00000001
 40
0.0
 40
0.0
 40
0.0
 40
0.0
 40
0.5
 40
0.5
 40
1.0
 40
1.0
 40
1.0
 40
1.0
 10
68.36697822221996
 20
47.98708835332963
 30
0.0
 10
68.36697822221996
 20
48.02814219048617
 30
0.0
 10
68.36697822221996
 20
48.07161902086717
 30
0.0
 10
68.36697822221996
 20
48.16067772059152
 30
0.0
 10
68.36697822221996
 20
48.19278109011518
 30
0.0
 10
68.36697822221996
 20
48.23508075303995
 30
0.0
  0
SPLINE
  5
E4
330
1F
100
AcDbEntity
  8
0
  6
Continuous
 62
     7
370
    25
100
AcDbSpline
210
0.0
220
0.0
230
1.0
 70
     8
 71
     3
 72
    12
 73
     8
 74
     0
 42
0.000000001
 43
0.00000001
 40
0.0
 40
0.0
 40
0.0
 40
0.0
 40
0.25
 40
0.25
 40
0.5
 40
0.5
 40
1.0
 40
1.0
 40
1.0
 40
1.0
 10
74.86898582250964
 20
41.48508075303995
 30
0.0
 10
74.87924928179878
 20
41.68728817546024
 30
0.0
 10
74.89391417222953
 20
41.88787800799052
 30
0.0
 10
74.92564955041303
 20
42.28585198794444
 30
0.0
 10
74.94272003816579
 20
42.48323613536809
 30
0.0
 10
74.98794399996522
 20
43.0706242919891
 30
0.0
 10
74.98112057269852
 20
43.46654488917032
 30
0.0
 10
74.94019362647938
 20
43.85253983215603
 30
0.0
  0
SPLINE
  5
E5
330
1F
100
AcDbEntity
  8
0
  6
Continuous
 62
     7
370
    25
100
AcDbSpline
210
0.0
220
0.0
230
1.0
 70
     8
 71
     3
 72
    10
 73
     6
 74
     0
 42
0.000000001
 43
0.00000001
 40
0.0
 40
0.0
 40
0.0
 40
0.0
 40
0.5
 40
0.5
 40
1.0
 40
1.0
 40
1.0
 40
1.0
 10
74.94019362647938
 20
43.85253983215603
 30
0.0
 10
74.96862088654666
 20
43.84467059977579
 30
0.0
 10
75.0028475247135
 20
43.84040375239086
 30
0.0
 10
75.06586957025108
 20
43.83647491607688
 30
0.0
 10
75.09445528954306
 20
43.83659090611181
 30
0.0
 10
75.11697822221996
 20
43.83659090611181
 30
0.0
  0
SPLINE
  5
E6
330
1F
100
AcDbEntity
  8
0
  6
Continuous
 62
     7
370
    25
100
AcDbSpline
210
0.0
220
0.0
230
1.0
 70
     8
 71
     3
 72
    10
 73
     6
 74
     0
 42
0.000000001
 43
0.00000001
 40
0.0
 40
0.0
 40
0.0
 40
0.0
 40
0.5
 40
0.5
 40
1.0
 40
1.0
 40
1.0
 40
1.0
 10
70.73443730133603
 20
48.05829615729937
 30
0.0
 10
70.72656806895579
 20
48.08672341736666
 30
0.0
 10
70.72230122157086
 20
48.12095005553351
 30
0.0
 10
70.71837238525688
 20
48.18397210107106
 30
0.0
 10
70.71848837529181
 20
48.21255782036305
 30
0.0
 10
70.71848837529181
 20
48.23508075303995
 30
0.0
  0
SPLINE
  5
E7
330
1F
100
AcDbEntity
  8
0
  6
Continuous
 62
     7
370
    25
100
AcDbSpline
210
0.0
220
0.0
230
1.0
 70
     8
 71
     3
 72
    14
 73
    10
 74
     0
 42
0.000000001
 43
0.00000001
 40
0.0
 40
0.0
 40
0.0
 40
0.0
 40
0.25
 40
0.25
 40
0.5
 40
0.5
 40
0.75
 40
0.75
 40
1.0
 40
1.0
 40
1.0
 40
1.0
 10
68.36697822221996
 20
47.98708835332963
 30
0.0
 10
68.56918564464024
 20
47.99735181261877
 30
0.0
 10
68.76977547717053
 20
48.01201670304952
 30
0.0
 10
69.16774945712444
 20
48.04375208123303
 30
0.0
 10
69.36513360454809
 20
48.06082256898578
 30
0.0
 10
69.75672570896211
 20
48.09097187685207
 30
0.0
 10
69.9536038843609
 20
48.09680334700196
 30
0.0
 10
70.34596094480145
 20
48.0906972237804
 30
0.0
 10
70.54143982984317
 20
48.07875963040895
 30
0.0
 10
70.73443730133603
 20
48.05829615729937
 30
0.0
  0
SPLINE
  5
E8
330
1F
100
AcDbEntity
  8
0
  6
Continuous
 62
     7
370
    25
100
AcDbSpline
210
0.0
220
0.0
230
1.0
 70
     8
 71
     3
 72
    14
 73
    10
 74
     0
 42
0.000000001
 43
0.00000001
 40
0.0
 40
0.0
 40
0.0
 40
0.0
 40
0.0526822267945598
 40
0.1287456339724992
 40
0.2353187193853958
 40
0.3749156516620482
 40
0.5485969096886099
 40
0.7568720674016369
 40
0.9999999999999999
 40
0.9999999999999999
 40
0.9999999999999999
 40
0.9999999999999999
 10
65.91748847943677
 20
47.98508075303995
 30
0.0
 10
65.92096916408042
 20
47.98509155404774
 30
0.0
 10
65.92947531460536
 20
47.98511794971626
 30
0.0
 10
65.94002497351444
 20
47.98594485618264
 30
0.0
 10
65.95166853076805
 20
47.9886483565767
 30
0.0
 10
65.96394412459136
 20
47.99494879733367
 30
0.0
 10
65.9766914895665
 20
48.00712297630884
 30
0.0
 10
65.98943628356221
 20
48.0272272655889
 30
0.0
 10
65.99598953144626
 20
48.04742016305214
 30
0.0
 10
65.99951914310387
 20
48.05829615729937
 30
0.0
  0
SPLINE
  5
E9
330
1F
100
AcDbEntity
  8
0
  6
Continuous
 62
     7
370
    25
100
AcDbSpline
210
0.0
220
0.0
230
1.0
 70
     8
 71
     3
 72
    14
 73
    10
 74
     0
 42
0.000000001
 43
0.00000001
 40
0.0
 40
0.0
 40
0.0
 40
0.0
 40
0.243127932598341
 40
0.4514030903113563
 40
0.6250843483379128
 40
0.7646812806145595
 40
0.8712543660274661
 40
0.9473177732054238
 40
1.0
 40
1.0
 40
1.0
 40
1.0
 10
74.94019362647938
 20
39.11762167392386
 30
0.0
 10
74.92931763223216
 20
39.11409206226625
 30
0.0
 10
74.90912473476891
 20
39.10753881438221
 30
0.0
 10
74.88902044548885
 20
39.09479402038652
 30
0.0
 10
74.87684626651367
 20
39.08204665541139
 30
0.0
 10
74.87054582575671
 20
39.06977106158806
 30
0.0
 10
74.86784232536264
 20
39.05812750433444
 30
0.0
 10
74.86701541889627
 20
39.04757784542536
 30
0.0
 10
74.86698902322775
 20
39.03907169490041
 30
0.0
 10
74.86697822221996
 20
39.03559101025676
 30
0.0
  0
SPLINE
  5
EA
330
1F
100
AcDbEntity
  8
0
  6
Continuous
 62
     7
370
    25
100
AcDbSpline
210
0.0
220
0.0
230
1.0
 70
     8
 71
     3
 72
    12
 73
     8
 74
     0
 42
0.000000001
 43
0.00000001
 40
0.0
 40
0.0
 40
0.0
 40
0.0
 40
0.25
 40
0.25
 40
0.5
 40
0.5
 40
1.0
 40
1.0
 40
1.0
 40
1.0
 10
74.94019362647938
 20
43.85253983215603
 30
0.0
 10
74.92597999644575
 20
43.85647444834615
 30
0.0
 10
74.91327847269318
 20
43.8613719821677
 30
0.0
 10
74.89221104335074
 20
43.8727586159326
 30
0.0
 10
74.88384513776087
 20
43.87924771587594
 30
0.0
 10
74.86721795663621
 20
43.90060096117698
 30
0.0
 10
74.86697822221996
 20
43.91700191716571
 30
0.0
 10
74.86697822221996
 20
43.93457049582313
 30
0.0
  0
SPLINE
  5
EB
330
1F
100
AcDbEntity
  8
0
  6
Continuous
 62
     7
370
    25
100
AcDbSpline
210
0.0
220
0.0
230
1.0
 70
     8
 71
     3
 72
    12
 73
     8
 74
     0
 42
0.000000001
 43
0.00000001
 40
0.0
 40
0.0
 40
0.0
 40
0.0
 40
0.25
 40
0.25
 40
0.5
 40
0.5
 40
1.0
 40
1.0
 40
1.0
 40
1.0
 10
70.73443730133603
 20
48.05829615729937
 30
0.0
 10
70.73837191752615
 20
48.04408252726574
 30
0.0
 10
70.7432694513477
 20
48.03138100351318
 30
0.0
 10
70.7546560851126
 20
48.01031357417074
 30
0.0
 10
70.76114518505594
 20
48.00194766858088
 30
0.0
 10
70.782498430357
 20
47.98532048745621
 30
0.0
 10
70.79889938634571
 20
47.98508075303995
 30
0.0
 10
70.81646796500313
 20
47.98508075303995
 30
0.0
  0
LINE
  5
EC
330
1F
100
AcDbEntity
  8
0
  6
Continuous
 62
     7
370
    25
100
AcDbLine
 10
71.4513171908
 20
39.2645015629
 30
0.0
 11
71.665360497
 21
39.8357551559
 31
0.0
  0
ELLIPSE
  5
ED
330
1F
100
AcDbEntity
  8
0
  6
Continuous
 62
     7
370
    25
100
AcDbEllipse
 10
71.7216504564
 20
39.8165931451
 30
0.0
 11
0.05977206589648176
 21
0.0
 31
0.0
210
0.0
220
0.0
230
1.0
 40
0.9531667975
 41
0.3430239404213355
 42
2.798568713169242
  0
LINE
  5
EE
330
1F
100
AcDbEntity
  8
0
  6
Continuous
 62
     7
370
    25
100
AcDbLine
 10
71.7779403997
 20
39.8357551559
 30
0.0
 11
71.9919837058
 21
39.2645015629
 31
0.0
  0
ELLIPSE
  5
EF
330
1F
100
AcDbEntity
  8
0
  6
Continuous
 62
     7
370
    25
100
AcDbEllipse
 10
71.9356939296
 20
39.2453395724
 30
0.0
 11
0.05977206589648176
 21
0.0
 31
0.0
210
0.0
220
0.0
230
1.0
 40
0.9531667975
 41
4.712388980384703
 42
6.626209245739922
  0
LINE
  5
F0
330
1F
100
AcDbEntity
  8
0
  6
Continuous
 62
     7
370
    25
100
AcDbLine
 10
71.9356938709
 20
39.1883668737
 30
0.0
 11
71.5076070257
 21
39.1883668737
 31
0.0
  0
ELLIPSE
  5
F1
330
1F
100
AcDbEntity
  8
0
  6
Continuous
 62
     7
370
    25
100
AcDbEllipse
 10
71.5076069806
 20
39.2453395724
 30
0.0
 11
-0.05977206589648176
 21
0.0
 31
0.0
210
0.0
220
0.0
230
1.0
 40
0.9531667975
 41
5.940161364898015
 42
7.853981633974483
  0
LINE
  5
F2
330
1F
100
AcDbEntity
  8
0
  6
Continuous
 62
     7
370
    25
100
AcDbLine
 10
73.1169780695
 20
47.4850808052
 30
0.0
 11
73.3669781105
 21
47.4850808052
 31
0.0
  0
ARC
  5
F3
330
1F
100
AcDbEntity
  8
0
  6
Continuous
 62
     7
370
    25
100
AcDbCircle
 10
74.3669782222
 20
47.485080753
 30
0.0
 40
1.000000000000007
100
AcDbArc
 50
180.0
 51
270.0
  0
LINE
  5
F4
330
1F
100
AcDbEntity
  8
0
  6
Continuous
 62
     7
370
    25
100
AcDbLine
 10
74.3669782744
 20
46.4850806413
 30
0.0
 11
74.3669782744
 21
46.2350806003
 31
0.0
  0
LWPOLYLINE
  5
F5
330
1F
100
AcDbEntity
  8
0
  6
Continuous
 62
     7
370
    25
100
AcDbPolyline
 90
        9
 70
   128
 43
0.0
 10
69.846288555
 20
39.1594937784
 10
69.8227739406
 20
39.1167640002
 10
69.8001629419
 20
39.0756763765
 10
69.7793245993
 20
39.037809732
 10
69.7610596173
 20
39.0046194909
 10
69.7460698641
 20
38.9773808667
 10
69.7349314789
 20
38.9571408989
 10
69.728072521
 20
38.9446770088
 10
69.7257565546
 20
38.940468595
  0
LINE
  5
F6
330
1F
100
AcDbEntity
  8
0
  6
Continuous
 62
     7
370
    25
100
AcDbLine
 10
69.7257565546
 20
38.940468595
 30
0.0
 11
69.689400166
 21
38.9604757322
 31
0.0
  0
LWPOLYLINE
  5
F7
330
1F
100
AcDbEntity
  8
0
  6
Continuous
 62
     7
370
    25
100
AcDbPolyline
 90
        9
 70
   128
 43
0.0
 10
69.0820874508
 20
39.580042033
 10
69.2005683297
 20
39.4591707984
 10
69.3144959725
 20
39.3429443022
 10
69.4194924065
 20
39.2358294004
 10
69.5115224437
 20
39.1419425388
 10
69.5870495613
 20
39.0648916611
 10
69.6431712924
 20
39.0076374417
 10
69.677730927
 20
38.9723805958
 10
69.689400166
 20
38.9604757322
  0
LINE
  5
F8
330
1F
100
AcDbEntity
  8
0
  6
Continuous
 62
     7
370
    25
100
AcDbLine
 10
73.1169780695
 20
47.7350808462
 30
0.0
 11
73.3669781105
 21
47.7350808462
 31
0.0
  0
LINE
  5
F9
330
1F
100
AcDbEntity
  8
0
  6
Continuous
 62
     7
370
    25
100
AcDbLine
 10
73.3669781105
 20
47.7350808462
 30
0.0
 11
73.3669781105
 21
47.4850808052
 31
0.0
  0
LINE
  5
FA
330
1F
100
AcDbEntity
  8
0
  6
Continuous
 62
     7
370
    25
100
AcDbLine
 10
69.689400166
 20
38.9604757322
 30
0.0
 11
70.2506468144
 21
37.8905525678
 31
0.0
  0
LWPOLYLINE
  5
FB
330
1F
100
AcDbEntity
  8
0
  6
Continuous
 62
     7
370
    25
100
AcDbPolyline
 90
        9
 70
   128
 43
0.0
 10
70.2506468144
 20
37.8905525678
 10
70.2463928821
 20
37.8883211189
 10
70.2337946488
 20
37.881712454
 10
70.213336053
 20
37.8709805911
 10
70.1858035966
 20
37.8565378734
 10
70.1522550291
 20
37.8389393692
 10
70.1139797668
 20
37.8188614515
 10
70.0724488336
 20
37.797075721
 10
70.0292579343
 20
37.7744192039
  0
ARC
  5
FC
330
1F
100
AcDbEntity
  8
0
  6
Continuous
 62
     7
370
    25
100
AcDbCircle
 10
73.1169782222
 20
47.735080753
 30
0.0
 40
0.25
100
AcDbArc
 50
0.0
 51
90.0
  0
ARC
  5
FD
330
1F
100
AcDbEntity
  8
0
  6
Continuous
 62
     7
370
    25
100
AcDbCircle
 10
65.3669782222
 20
38.485080753
 30
0.0
 40
2.0
100
AcDbArc
 50
180.0
 51
270.0
  0
LINE
  5
FE
330
1F
100
AcDbEntity
  8
0
  6
Continuous
 62
     7
370
    25
100
AcDbLine
 10
63.366978334
 20
38.485080727
 30
0.0
 11
63.616978375
 21
38.485080727
 31
0.0
  0
LINE
  5
FF
330
1F
100
AcDbEntity
  8
0
  6
Continuous
 62
     7
370
    25
100
AcDbLine
 10
65.3669781961
 20
36.7350809058
 30
0.0
 11
65.3669781961
 21
36.4850808648
 31
0.0
  0
SPLINE
  5
100
330
1F
100
AcDbEntity
  8
0
  6
Continuous
 62
     7
370
    25
100
AcDbSpline
210
0.0
220
0.0
230
1.0
 70
     8
 71
     3
 72
    14
 73
    10
 74
     0
 42
0.000000001
 43
0.00000001
 40
0.0
 40
0.0
 40
0.0
 40
0.0
 40
0.5000000000000003
 40
0.5000000000000003
 40
0.6250000000000006
 40
0.6250000000000006
 40
0.7500000000000008
 40
0.7500000000000008
 40
1.0
 40
1.0
 40
1.0
 40
1.0
 10
70.34484256885393
 20
37.87433719449832
 30
0.0
 10
70.72305491455877
 20
38.21003874131185
 30
0.0
 10
71.22025666981632
 20
38.39072952177515
 30
0.0
 10
71.8468994391021
 20
38.39075304634216
 30
0.0
 10
71.9734218775715
 20
38.37944824580902
 30
0.0
 10
72.2191014062231
 20
38.33526058794877
 30
0.0
 10
72.33952188682697
 20
38.30244727050446
 30
0.0
 10
72.69324416703577
 20
38.17060240767037
 30
0.0
 10
72.9093336272105
 20
38.0422044248683
 30
0.0
 10
73.09845834101617
 20
37.87433719449824
 30
0.0
  0
LWPOLYLINE
  5
101
330
1F
100
AcDbEntity
  8
0
  6
Continuous
 62
     7
370
    25
100
AcDbPolyline
 90
        9
 70
   128
 43
0.0
 10
73.0984582544
 20
37.8743373105
 10
73.0952694059
 20
37.8707445008
 10
73.085825795
 20
37.8601048389
 10
73.0704897062
 20
37.8428267097
 10
73.0498506666
 20
37.8195743789
 10
73.0247021631
 20
37.7912412179
 10
72.9960109086
 20
37.7589164083
 10
72.9648786575
 20
37.723841636
 10
72.9325021596
 20
37.6873652232
  0
LWPOLYLINE
  5
102
330
1F
100
AcDbEntity
  8
0
  6
Continuous
 62
     7
370
    25
100
AcDbPolyline
 90
        9
 70
   128
 43
0.0
 10
70.3448426423
 20
37.8743373105
 10
70.3480312579
 20
37.8707445008
 10
70.3574753345
 20
37.8601048389
 10
70.3728111905
 20
37.8428267097
 10
70.3934499972
 20
37.8195743789
 10
70.4185985007
 20
37.7912412179
 10
70.4472902209
 20
37.7589164083
 10
70.478422472
 20
37.723841636
 10
70.51079897
 20
37.6873652232
  0
LINE
  5
103
330
1F
100
AcDbEntity
  8
0
  6
Continuous
 62
     7
370
    25
100
AcDbLine
 10
73.1926540823
 20
37.8905525678
 30
0.0
 11
73.7539007307
 21
38.9604757322
 31
0.0
  0
LWPOLYLINE
  5
104
330
1F
100
AcDbEntity
  8
0
  6
Continuous
 62
     7
370
    25
100
AcDbPolyline
 90
        9
 70
   128
 43
0.0
 10
73.7539007307
 20
38.9604757322
 10
73.765792323
 20
38.9728041147
 10
73.8010093548
 20
39.0093149865
 10
73.8581995458
 20
39.0686053099
 10
73.9351640434
 20
39.1483968371
 10
74.0289458984
 20
39.2456231886
 10
74.1359408923
 20
39.3565478982
 10
74.2520372362
 20
39.4769080696
 10
74.3727729634
 20
39.6020785221
  0
LWPOLYLINE
  5
105
330
1F
100
AcDbEntity
  8
0
  6
Continuous
 62
     7
370
    25
100
AcDbPolyline
 90
        9
 70
   128
 43
0.0
 10
73.1926540823
 20
37.8905525678
 10
73.1969078981
 20
37.8883211189
 10
73.2095063643
 20
37.881712454
 10
73.2299647273
 20
37.8709805911
 10
73.2574974165
 20
37.8565378734
 10
73.291045984
 20
37.8389393692
 10
73.3293210135
 20
37.8188614515
 10
73.3708519467
 20
37.797075721
 10
73.4140429624
 20
37.7744192039
  0
LINE
  5
106
330
1F
100
AcDbEntity
  8
0
  6
Continuous
 62
     7
370
    25
100
AcDbLine
 10
74.3669782744
 20
46.4850806413
 30
0.0
 11
74.6169783154
 21
46.4850806413
 31
0.0
  0
LINE
  5
107
330
1F
100
AcDbEntity
  8
0
  6
Continuous
 62
     7
370
    25
100
AcDbLine
 10
74.6169783154
 20
46.4850806413
 30
0.0
 11
74.6169783154
 21
46.2350806003
 31
0.0
  0
SPLINE
  5
108
330
1F
100
AcDbEntity
  8
0
  6
Continuous
 62
     7
370
    25
100
AcDbSpline
210
0.0
220
0.0
230
1.0
 70
     8
 71
     3
 72
    23
 73
    19
 74
     0
 42
0.000000001
 43
0.00000001
 40
0.0
 40
0.0
 40
0.0
 40
0.0
 40
0.0000069464595966
 40
0.0000069464595966
 40
0.0000069464595966
 40
0.0000269173558753
 40
0.0000269173558753
 40
0.0000269173558753
 40
0.0000477420212559
 40
0.0000477420212559
 40
0.0000477420212559
 40
0.0000689844307043
 40
0.0000689844307043
 40
0.0000689844307043
 40
0.0000900350769267
 40
0.0000900350769267
 40
0.0000900350769267
 40
0.0001105259114901
 40
0.0001105259114901
 40
0.0001105259114901
 40
0.0001105259114901
 10
70.2506468467272
 20
37.89055251902559
 30
0.0
 10
70.25172246753323
 20
37.88850202694746
 30
0.0
 10
70.25292787249319
 20
37.88651474337225
 30
0.0
 10
70.25424750997948
 20
37.88461210447179
 30
0.0
 10
70.2579927984618
 20
37.87921218848428
 30
0.0
 10
70.26275110701995
 20
37.87440825568927
 30
0.0
 10
70.26808444482505
 20
37.87056875229109
 30
0.0
 10
70.2736440149693
 20
37.86656638281042
 30
0.0
 10
70.27998593441454
 20
37.86349396620007
 30
0.0
 10
70.28656041208923
 20
37.86156938184144
 30
0.0
 10
70.29326638012117
 20
37.85960630556034
 30
0.0
 10
70.30040397265394
 20
37.85877947653886
 30
0.0
 10
70.30738183885597
 20
37.85914424906699
 30
0.0
 10
70.31429780272678
 20
37.8595057856102
 30
0.0
 10
70.32124881905997
 20
37.86104803079286
 30
0.0
 10
70.32765967276278
 20
37.86366761467886
 30
0.0
 10
70.3339007522201
 20
37.86621782591992
 30
0.0
 10
70.33980030648672
 20
37.86986167883842
 30
0.0
 10
70.34484256885199
 20
37.87433719449658
 30
0.0
  0
LINE
  5
109
330
1F
100
AcDbEntity
  8
0
  6
Continuous
 62
     7
370
    25
100
AcDbLine
 10
73.7539007307
 20
38.9604757322
 30
0.0
 11
73.7245435805
 21
38.943699353
 31
0.0
  0
LWPOLYLINE
  5
10A
330
1F
100
AcDbEntity
  8
0
  6
Continuous
 62
     7
370
    25
100
AcDbPolyline
 90
        9
 70
   128
 43
0.0
 10
73.7245435805
 20
38.943699353
 10
73.722160326
 20
38.9478700483
 10
73.7151018322
 20
38.9602219468
 10
73.703639114
 20
38.9802803067
 10
73.6882131525
 20
39.0072742259
 10
73.6694167347
 20
39.0401664437
 10
73.6479716354
 20
39.0776929227
 10
73.6247025409
 20
39.118411277
 10
73.6005035208
 20
39.1607573503
  0
LINE
  5
10B
330
1F
100
AcDbEntity
  8
0
  6
Continuous
 62
     7
370
    25
100
AcDbLine
 10
63.366978334
 20
38.485080727
 30
0.0
 11
63.366978334
 21
47.7350808462
 31
0.0
  0
LINE
  5
10C
330
1F
100
AcDbEntity
  8
0
  6
Continuous
 62
     7
370
    25
100
AcDbLine
 10
63.366978334
 20
47.7350808462
 30
0.0
 11
63.616978375
 21
47.7350808462
 31
0.0
  0
ARC
  5
10D
330
1F
100
AcDbEntity
  8
0
  6
Continuous
 62
     7
370
    25
100
AcDbCircle
 10
74.6169782222
 20
46.235080753
 30
0.0
 40
0.25
100
AcDbArc
 50
0.0
 51
90.0
  0
SPLINE
  5
10E
330
1F
100
AcDbEntity
  8
0
  6
Continuous
 62
     7
370
    25
100
AcDbSpline
210
0.0
220
0.0
230
1.0
 70
     8
 71
     3
 72
    10
 73
     6
 74
     0
 42
0.000000001
 43
0.00000001
 40
0.0
 40
0.0
 40
0.0
 40
0.0
 40
0.5
 40
0.5
 40
1.0
 40
1.0
 40
1.0
 40
1.0
 10
70.4174437820327
 20
39.18811834291767
 30
0.0
 10
70.37020903671149
 20
39.05605207618825
 30
0.0
 10
70.25953751633013
 20
38.95260006019565
 30
0.0
 10
69.99857797196296
 20
38.86164841665902
 30
0.0
 10
69.8485125669199
 20
38.87291453440508
 30
0.0
 10
69.72575656373135
 20
38.94046852642821
 30
0.0
  0
LINE
  5
10F
330
1F
100
AcDbEntity
  8
0
  6
Continuous
 62
     7
370
    25
100
AcDbLine
 10
74.6169783154
 20
36.7350809058
 30
0.0
 11
74.6169783154
 21
36.4850808648
 31
0.0
  0
LINE
  5
110
330
1F
100
AcDbEntity
  8
0
  6
Continuous
 62
     7
370
    25
100
AcDbLine
 10
74.6169783154
 20
36.4850808648
 30
0.0
 11
65.3669781961
 21
36.4850808648
 31
0.0
  0
SPLINE
  5
111
330
1F
100
AcDbEntity
  8
0
  6
Continuous
 62
     7
370
    25
100
AcDbSpline
210
0.0
220
0.0
230
1.0
 70
     8
 71
     3
 72
    23
 73
    19
 74
     0
 42
0.000000001
 43
0.00000001
 40
0.0
 40
0.0
 40
0.0
 40
0.0
 40
0.0000076769896581
 40
0.0000076769896581
 40
0.0000076769896581
 40
0.0000285420058146
 40
0.0000285420058146
 40
0.0000285420058146
 40
0.0000497754494318
 40
0.0000497754494318
 40
0.0000497754494318
 40
0.00007072706396
 40
0.00007072706396
 40
0.00007072706396
 40
0.0000909558732107
 40
0.0000909558732107
 40
0.0000909558732107
 40
0.0001104364738497
 40
0.0001104364738497
 40
0.0001104364738497
 40
0.0001104364738497
 10
73.09845834101621
 20
37.87433719449829
 30
0.0
 10
73.10037218257361
 20
37.87263846737191
 30
0.0
 10
73.102401371428
 20
37.87106179106343
 30
0.0
 10
73.10451863470695
 20
37.86962455080364
 30
0.0
 10
73.11020140449662
 20
37.86576697408653
 30
0.0
 10
73.11664175951267
 20
37.86286175314113
 30
0.0
 10
73.12328397154958
 20
37.8611136713732
 30
0.0
 10
73.13004322953064
 20
37.85933478572851
 30
0.0
 10
73.13720248596073
 20
37.8587016853437
 30
0.0
 10
73.14416983972455
 20
37.85925664851436
 30
0.0
 10
73.15104628036889
 20
37.85980437027964
 30
0.0
 10
73.15792570512784
 20
37.86152468401988
 30
0.0
 10
73.1642399446024
 20
37.86430241959497
 30
0.0
 10
73.1703382455579
 20
37.8669851603399
 30
0.0
 10
73.17607333156539
 20
37.87072900049902
 30
0.0
 10
73.18095027489368
 20
37.87526792065926
 30
0.0
 10
73.18564762502436
 20
37.87963969530842
 30
0.0
 10
73.18967316603583
 20
37.88486993472747
 30
0.0
 10
73.1926540631417
 20
37.89055251902317
 30
0.0
  0
ARC
  5
112
330
1F
100
AcDbEntity
  8
0
  6
Continuous
 62
     7
370
    25
100
AcDbCircle
 10
63.6169782222
 20
47.735080753
 30
0.0
 40
0.25
100
AcDbArc
 50
90.0
 51
180.0
  0
SPLINE
  5
113
330
1F
100
AcDbEntity
  8
0
  6
Continuous
 62
     7
370
    25
100
AcDbSpline
210
0.0
220
0.0
230
1.0
 70
     8
 71
     3
 72
    10
 73
     6
 74
     0
 42
0.000000001
 43
0.00000001
 40
0.0
 40
0.0
 40
0.0
 40
0.0
 40
0.5
 40
0.5
 40
1.0
 40
1.0
 40
1.0
 40
1.0
 10
73.72454364216898
 20
38.94369943788571
 30
0.0
 10
73.60186165719628
 20
38.87359155014986
 30
0.0
 10
73.45087302841382
 20
38.86019555217104
 30
0.0
 10
73.18545385276606
 20
38.95034058776466
 30
0.0
 10
73.07369203240424
 20
39.0543740573787
 30
0.0
 10
73.0260640322785
 20
39.18753984721415
 30
0.0
  0
ARC
  5
114
330
1F
100
AcDbEntity
  8
0
  6
Continuous
 62
     7
370
    25
100
AcDbCircle
 10
74.6169782222
 20
36.735080753
 30
0.0
 40
0.25
100
AcDbArc
 50
270.0
 51
0.0
  0
ARC
  5
115
330
1F
100
AcDbEntity
  8
0
  6
Continuous
 62
     7
370
    25
100
AcDbCircle
 10
75.090578575
 20
36.7003438404
 30
0.0
 40
0.2262823933024138
100
AcDbArc
 50
83.3001813581
 51
171.1694920169
  0
ARC
  5
116
330
1F
100
AcDbEntity
  8
0
  6
Continuous
 62
     7
370
    25
100
AcDbCircle
 10
73.1517151348
 20
48.2086811059
 30
0.0
 40
0.2262823933024068
100
AcDbArc
 50
173.3001813581
 51
261.1694920169
  0
ARC
  5
117
330
1F
100
AcDbEntity
  8
0
  6
Continuous
 62
     7
370
    25
100
AcDbCircle
 10
75.090578575
 20
46.2698176656
 30
0.0
 40
0.2262823933024138
100
AcDbArc
 50
188.8305079831
 51
276.6998186419
  0
ARC
  5
118
330
1F
100
AcDbEntity
  8
0
  6
Continuous
 62
     7
370
    25
100
AcDbCircle
 10
63.5822413096
 20
48.2086811059
 30
0.0
 40
0.2262823933024068
100
AcDbArc
 50
278.8305079831
 51
6.6998186419
  0
LINE
  5
119
330
1F
100
AcDbEntity
  8
0
  6
Continuous
 62
     7
370
    25
100
AcDbLine
 10
73.3669781105
 20
47.7350808462
 30
0.0
 11
73.406978415
 21
47.7350808462
 31
0.0
  0
LINE
  5
11A
330
1F
100
AcDbEntity
  8
0
  6
Continuous
 62
     7
370
    25
100
AcDbLine
 10
74.6169783154
 20
36.4450805602
 30
0.0
 11
74.6169783154
 21
36.4850808648
 31
0.0
  0
LINE
  5
11B
330
1F
100
AcDbEntity
  8
0
  6
Continuous
 62
     7
370
    25
100
AcDbLine
 10
63.366978334
 20
47.7350808462
 30
0.0
 11
63.3269780294
 21
47.7350808462
 31
0.0
  0
LINE
  5
11C
330
1F
100
AcDbEntity
  8
0
  6
Continuous
 62
     7
370
    25
100
AcDbLine
 10
74.6169783154
 20
46.5250809459
 30
0.0
 11
74.6169783154
 21
46.4850806413
 31
0.0
  0
LWPOLYLINE
  5
11D
330
1F
100
AcDbEntity
  8
0
  6
Continuous
 62
     7
370
    25
100
AcDbPolyline
 90
        9
 70
   128
 43
0.0
 10
65.0238240116
 20
36.47034967
 10
65.028882723
 20
36.4796461319
 10
65.0339127962
 20
36.4877206986
 10
65.0388865245
 20
36.4945277353
 10
65.0437757351
 20
36.5000295234
 10
65.0485534199
 20
36.5041948637
 10
65.0531925705
 20
36.5070004729
 10
65.0576671098
 20
36.5084309844
 10
65.0619523578
 20
36.5084780162
  0
SPLINE
  5
11E
330
1F
100
AcDbEntity
  8
0
  6
Continuous
 62
     7
370
    25
100
AcDbSpline
210
0.0
220
0.0
230
1.0
 70
     8
 71
     3
 72
    14
 73
    10
 74
     0
 42
0.000000001
 43
0.00000001
 40
0.0
 40
0.0
 40
0.0
 40
0.0
 40
0.2500000000000003
 40
0.2500000000000003
 40
0.5000000000000002
 40
0.5000000000000002
 40
0.7500000000000001
 40
0.7500000000000001
 40
1.0
 40
1.0
 40
1.0
 40
1.0
 10
65.02382410059013
 20
36.47034957059522
 30
0.0
 10
64.81581221092489
 20
36.50010346932077
 30
0.0
 10
64.61585315384738
 20
36.56145920886458
 30
0.0
 10
64.23329927444864
 20
36.75121345004629
 30
0.0
 10
64.06099830761823
 20
36.87463009961697
 30
0.0
 10
63.75732668485486
 20
37.17810522388648
 30
0.0
 10
63.63349825398456
 20
37.35082256483837
 30
0.0
 10
63.44370282508157
 20
37.73305696783814
 30
0.0
 10
63.38200262014029
 20
37.93390298526829
 30
0.0
 10
63.35224703977523
 20
38.14192663141012
 30
0.0
  0
LWPOLYLINE
  5
11F
330
1F
100
AcDbEntity
  8
0
  6
Continuous
 62
     7
370
    25
100
AcDbPolyline
 90
        9
 70
   128
 43
0.0
 10
63.3903754854
 20
38.1800548886
 10
63.3903284536
 20
38.1757696407
 10
63.3888979421
 20
38.1712951013
 10
63.3860923328
 20
38.1666559508
 10
63.3819269926
 20
38.161878266
 10
63.3764252045
 20
38.1569890553
 10
63.3696181678
 20
38.1520153271
 10
63.3615436011
 20
38.1469852538
 10
63.3522471392
 20
38.1419265424
  0
LINE
  5
120
330
1F
100
AcDbEntity
  8
0
  6
Continuous
 62
     7
370
    25
100
AcDbLine
 10
65.3669781961
 20
36.4450805602
 30
0.0
 11
65.3669781961
 21
36.4850808648
 31
0.0
  0
LINE
  5
121
330
1F
100
AcDbEntity
  8
0
  6
Continuous
 62
     7
370
    25
100
AcDbLine
 10
63.366978334
 20
38.485080727
 30
0.0
 11
63.3269780294
 21
38.485080727
 31
0.0
  0
SPLINE
  5
122
330
1F
100
AcDbEntity
  8
0
  6
Continuous
 62
     7
370
    25
100
AcDbSpline
210
0.0
220
0.0
230
1.0
 70
    24
 71
     3
 72
    10
 73
     6
 74
     0
 42
0.000000001
 43
0.00000001
 40
0.0
 40
0.0
 40
0.0
 40
0.0
 40
0.5
 40
0.5
 40
1.0
 40
1.0
 40
1.0
 40
1.0
 10
73.73671198508161
 20
46.85481451590161
 30
0.0
 10
73.71139996406329
 20
46.82950249488327
 30
0.0
 10
73.69305396574273
 20
46.81115649656273
 30
0.0
 10
73.66695572952561
 20
46.7850582603456
 30
0.0
 10
73.65987144103417
 20
46.77797397185415
 30
0.0
 10
73.6598714410334
 20
46.77797397185341
 30
0.0
  0
LINE
  5
123
330
1F
100
AcDbEntity
  8
0
  6
Continuous
 62
     7
370
    25
100
AcDbLine
 10
73.3669781105
 20
47.4850808052
 30
0.0
 11
73.406978415
 21
47.4850808052
 31
0.0
  0
LINE
  5
124
330
1F
100
AcDbEntity
  8
0
  6
Continuous
 62
     7
370
    25
100
AcDbLine
 10
74.3669782744
 20
46.5250809459
 30
0.0
 11
74.3669782744
 21
46.4850806413
 31
0.0
  0
LINE
  5
125
330
1F
100
AcDbEntity
  8
0
  6
Continuous
 62
     8
370
    25
100
AcDbLine
 10
61.1169784308
 20
51.9850806115
 30
0.0
 11
75.6169780136
 21
51.9850806115
 31
0.0
  0
LINE
  5
126
330
1F
100
AcDbEntity
  8
0
  6
Continuous
 62
     8
370
    25
100
AcDbLine
 10
74.3669782744
 20
50.9850804476
 30
0.0
 11
62.3669781701
 21
50.9850804476
 31
0.0
  0
LINE
  5
127
330
1F
100
AcDbEntity
  8
0
  6
Continuous
 62
     8
370
    25
100
AcDbLine
 10
77.8669779167
 20
35.4850807009
 30
0.0
 11
77.8669779167
 21
47.4850808052
 31
0.0
  0
LWPOLYLINE
  5
128
330
1F
100
AcDbEntity
  8
0
  6
Continuous
 62
     8
370
    25
100
AcDbPolyline
 90
       10
 70
   128
 43
0.0
 10
65.0238240116
 20
36.47034967
 10
64.8890588411
 20
36.2682014485
 10
64.7687936646
 20
36.0878038002
 10
64.6635304649
 20
35.9299092335
 10
64.5737078951
 20
35.7951752623
 10
64.4997003467
 20
35.6841639397
 10
64.4418163204
 20
35.5973381331
 10
64.4002974943
 20
35.5350596612
 10
64.3753166289
 20
35.4975883631
 10
64.3669780322
 20
35.4850807009
  0
LWPOLYLINE
  5
129
330
1F
100
AcDbEntity
  8
0
  6
Continuous
 62
     8
370
    25
100
AcDbPolyline
 90
       10
 70
   128
 43
0.0
 10
62.3669781701
 20
37.4850805631
 10
62.3794858322
 20
37.4934191597
 10
62.4169571304
 20
37.5184000251
 10
62.4792356023
 20
37.5599188512
 10
62.5660614089
 20
37.6178028775
 10
62.6770727315
 20
37.6918104259
 10
62.8118067027
 20
37.7816329958
 10
62.9697012694
 20
37.8868961954
 10
63.1500989177
 20
38.0071613719
 10
63.3522471392
 20
38.1419265424
  0
LINE
  5
12A
330
1F
100
AcDbEntity
  8
0
  6
Continuous
 62
     7
370
    18
100
AcDbLine
 10
89.5017524997
 20
35.7355424492
 30
0.0
 11
78.3679782222
 21
35.387612003
 31
0.0
  0
LINE
  5
12B
330
1F
100
AcDbEntity
  8
0
  6
Continuous
 62
     7
370
    18
100
AcDbLine
 10
89.5017524997
 20
47.2346190569
 30
0.0
 11
78.3679782222
 21
47.582549503
 31
0.0
  0
LINE
  5
12C
330
1F
100
AcDbEntity
  8
0
  6
Continuous
 62
     7
370
    18
100
AcDbLine
 10
78.3679782222
 20
48.251049503
 30
0.0
 11
78.3679782222
 21
34.719112003
 31
0.0
  0
LINE
  5
12D
330
1F
100
AcDbEntity
  8
0
  6
CENTERX2
 62
     7
370
    18
100
AcDbLine
 10
68.3669782222
 20
33.5787408582
 30
0.0
 11
68.3669782222
 21
63.985080753
 31
0.0
  0
LINE
  5
12E
330
1F
100
AcDbEntity
  8
0
  6
CENTERX2
 62
     7
370
    18
100
AcDbLine
 10
88.2776183292
 20
41.485080753
 30
0.0
 11
59.3840459491
 21
41.485080753
 31
0.0
  0
LINE
  5
12F
330
1F
100
AcDbEntity
  8
0
  6
CENTERX2
 62
     7
370
    18
100
AcDbLine
 10
88.2776183292
 20
41.485080753
 30
0.0
 11
91.3669782222
 21
41.485080753
 31
0.0
  0
LINE
  5
130
330
1F
100
AcDbEntity
  8
0
  6
Continuous
 62
     7
370
    25
100
AcDbLine
 10
118.6289018944
 20
62.9850814832
 30
0.0
 11
118.1289022781
 21
63.4850806338
 31
0.0
  0
LINE
  5
131
330
1F
100
AcDbEntity
  8
0
  6
Continuous
 62
     7
370
    25
100
AcDbLine
 10
104.6289019279
 20
63.4850806338
 30
0.0
 11
104.1289023117
 21
62.9850814832
 31
0.0
  0
ARC
  5
132
330
1F
100
AcDbEntity
  8
0
  6
Continuous
 62
     7
370
    25
100
AcDbCircle
 10
104.628902103
 20
51.985080753
 30
0.0
 40
0.5
100
AcDbArc
 50
180.0
 51
270.0
  0
ARC
  5
133
330
1F
100
AcDbEntity
  8
0
  6
Continuous
 62
     7
370
    25
100
AcDbCircle
 10
118.128902103
 20
51.985080753
 30
0.0
 40
0.5
100
AcDbArc
 50
270.0
 51
0.0
  0
LINE
  5
134
330
1F
100
AcDbEntity
  8
0
  6
Continuous
 62
     7
370
    25
100
AcDbLine
 10
104.1289023117
 20
62.9850814832
 30
0.0
 11
104.1289023117
 21
51.9850806115
 31
0.0
  0
LINE
  5
135
330
1F
100
AcDbEntity
  8
0
  6
Continuous
 62
     7
370
    25
100
AcDbLine
 10
118.6289018944
 20
51.9850806115
 30
0.0
 11
118.6289018944
 21
62.9850814832
 31
0.0
  0
ARC
  5
136
330
1F
100
AcDbEntity
  8
0
  6
Continuous
 62
     7
370
    25
100
AcDbCircle
 10
104.878902103
 20
50.985080753
 30
0.0
 40
0.5
100
AcDbArc
 50
0.0
 51
90.0
  0
ARC
  5
137
330
1F
100
AcDbEntity
  8
0
  6
Continuous
 62
     7
370
    25
100
AcDbCircle
 10
117.878902103
 20
50.985080753
 30
0.0
 40
0.5
100
AcDbArc
 50
90.0
 51
180.0
  0
LINE
  5
138
330
1F
100
AcDbEntity
  8
0
  6
Continuous
 62
     7
370
    25
100
AcDbLine
 10
117.3789021552
 20
48.2350809281
 30
0.0
 11
117.3789021552
 21
50.9850804476
 31
0.0
  0
LINE
  5
139
330
1F
100
AcDbEntity
  8
0
  6
Continuous
 62
     7
370
    25
100
AcDbLine
 10
105.3789020509
 20
50.9850804476
 30
0.0
 11
105.3789020509
 21
48.2350809281
 31
0.0
  0
CIRCLE
  5
13A
330
1F
100
AcDbEntity
  8
0
  6
Continuous
 62
     7
370
    25
100
AcDbCircle
 10
111.378902103
 20
41.485080753
 30
0.0
 40
4.0
  0
CIRCLE
  5
13B
330
1F
100
AcDbEntity
  8
0
  6
Continuous
 62
     7
370
    25
100
AcDbCircle
 10
111.378902103
 20
41.485080753
 30
0.0
 40
4.500000000000014
  0
CIRCLE
  5
13C
330
1F
100
AcDbEntity
  8
0
  6
Continuous
 62
     7
370
    25
100
AcDbCircle
 10
111.378902103
 20
41.485080753
 30
0.0
 40
5.25
  0
CIRCLE
  5
13D
330
1F
100
AcDbEntity
  8
0
  6
Continuous
 62
     7
370
    25
100
AcDbCircle
 10
111.378902103
 20
41.485080753
 30
0.0
 40
6.456292496656175
  0
CIRCLE
  5
13E
330
1F
100
AcDbEntity
  8
0
  6
Continuous
 62
     7
370
    25
100
AcDbCircle
 10
111.378902103
 20
41.485080753
 30
0.0
 40
6.765992005947226
  0
LINE
  5
13F
330
1F
100
AcDbEntity
  8
0
  6
Continuous
 62
     7
370
    25
100
AcDbLine
 10
111.378902103
 20
62.9850814832
 30
0.0
 11
104.1289023117
 21
62.9850814832
 31
0.0
  0
LINE
  5
140
330
1F
100
AcDbEntity
  8
0
  6
Continuous
 62
     7
370
    25
100
AcDbLine
 10
118.6289018944
 20
62.9850814832
 30
0.0
 11
111.378902103
 21
62.9850814832
 31
0.0
  0
LINE
  5
141
330
1F
100
AcDbEntity
  8
0
  6
Continuous
 62
     7
370
    25
100
AcDbLine
 10
111.378902103
 20
63.4850806338
 30
0.0
 11
118.1289022781
 21
63.4850806338
 31
0.0
  0
LINE
  5
142
330
1F
100
AcDbEntity
  8
0
  6
Continuous
 62
     7
370
    25
100
AcDbLine
 10
104.6289019279
 20
63.4850806338
 30
0.0
 11
111.378902103
 21
63.4850806338
 31
0.0
  0
LINE
  5
143
330
1F
100
AcDbEntity
  8
0
  6
Continuous
 62
     7
370
    25
100
AcDbLine
 10
111.378902103
 20
51.4850805295
 30
0.0
 11
104.6289019279
 21
51.4850805295
 31
0.0
  0
LINE
  5
144
330
1F
100
AcDbEntity
  8
0
  6
Continuous
 62
     7
370
    25
100
AcDbLine
 10
118.1289022781
 20
51.4850805295
 30
0.0
 11
111.378902103
 21
51.4850805295
 31
0.0
  0
LINE
  5
145
330
1F
100
AcDbEntity
  8
0
  6
Continuous
 62
     7
370
    25
100
AcDbLine
 10
105.6289020919
 20
36.7350809058
 30
0.0
 11
105.3789020509
 21
36.7350809058
 31
0.0
  0
LINE
  5
146
330
1F
100
AcDbEntity
  8
0
  6
Continuous
 62
     7
370
    25
100
AcDbLine
 10
105.3789020509
 20
36.7350809058
 30
0.0
 11
105.3789020509
 21
38.3579978035
 31
0.0
  0
LINE
  5
147
330
1F
100
AcDbEntity
  8
0
  6
Continuous
 62
     7
370
    25
100
AcDbLine
 10
105.3789020509
 20
44.6121637025
 30
0.0
 11
105.3789020509
 21
46.2350806003
 31
0.0
  0
LINE
  5
148
330
1F
100
AcDbEntity
  8
0
  6
Continuous
 62
     7
370
    25
100
AcDbLine
 10
105.6289020919
 20
46.2350806003
 30
0.0
 11
105.3789020509
 21
46.2350806003
 31
0.0
  0
LINE
  5
149
330
1F
100
AcDbEntity
  8
0
  6
Continuous
 62
     7
370
    25
100
AcDbLine
 10
117.3789021552
 20
38.3579978035
 30
0.0
 11
117.3789021552
 21
36.7350809058
 31
0.0
  0
LINE
  5
14A
330
1F
100
AcDbEntity
  8
0
  6
Continuous
 62
     7
370
    25
100
AcDbLine
 10
117.1289021142
 20
36.7350809058
 30
0.0
 11
117.3789021552
 21
36.7350809058
 31
0.0
  0
LINE
  5
14B
330
1F
100
AcDbEntity
  8
0
  6
Continuous
 62
     7
370
    25
100
AcDbLine
 10
117.3789021552
 20
46.2350806003
 30
0.0
 11
117.3789021552
 21
44.6121637025
 31
0.0
  0
LINE
  5
14C
330
1F
100
AcDbEntity
  8
0
  6
Continuous
 62
     7
370
    25
100
AcDbLine
 10
117.3789021552
 20
46.2350806003
 30
0.0
 11
117.1289021142
 21
46.2350806003
 31
0.0
  0
ARC
  5
14D
330
1F
100
AcDbEntity
  8
0
  6
Continuous
 62
     7
370
    25
100
AcDbCircle
 10
117.128902103
 20
36.735080753
 30
0.0
 40
0.25
100
AcDbArc
 50
270.0
 51
0.0
  0
LINE
  5
14E
330
1F
100
AcDbEntity
  8
0
  6
Continuous
 62
     7
370
    25
100
AcDbLine
 10
117.1289021142
 20
36.4850808648
 30
0.0
 11
117.1289021142
 21
36.7350809058
 31
0.0
  0
LINE
  5
14F
330
1F
100
AcDbEntity
  8
0
  6
Continuous
 62
     7
370
    25
100
AcDbLine
 10
117.1289021142
 20
36.4850808648
 30
0.0
 11
115.9372623071
 21
36.4850808648
 31
0.0
  0
LINE
  5
150
330
1F
100
AcDbEntity
  8
0
  6
Continuous
 62
     7
370
    25
100
AcDbLine
 10
117.1289021142
 20
46.4850806413
 30
0.0
 11
117.1289021142
 21
46.2350806003
 31
0.0
  0
ARC
  5
151
330
1F
100
AcDbEntity
  8
0
  6
Continuous
 62
     7
370
    25
100
AcDbCircle
 10
117.128902103
 20
46.235080753
 30
0.0
 40
0.25
100
AcDbArc
 50
0.0
 51
90.0
  0
LINE
  5
152
330
1F
100
AcDbEntity
  8
0
  6
Continuous
 62
     7
370
    25
100
AcDbLine
 10
105.6289020919
 20
46.2350806003
 30
0.0
 11
105.6289020919
 21
46.4850806413
 31
0.0
  0
LINE
  5
153
330
1F
100
AcDbEntity
  8
0
  6
Continuous
 62
     7
370
    25
100
AcDbLine
 10
105.6289020919
 20
46.4850806413
 30
0.0
 11
106.8205418989
 21
46.4850806413
 31
0.0
  0
LINE
  5
154
330
1F
100
AcDbEntity
  8
0
  6
Continuous
 62
     7
370
    25
100
AcDbLine
 10
115.9372623071
 20
46.4850806413
 30
0.0
 11
117.1289021142
 21
46.4850806413
 31
0.0
  0
ARC
  5
155
330
1F
100
AcDbEntity
  8
0
  6
Continuous
 62
     7
370
    25
100
AcDbCircle
 10
105.628902103
 20
46.235080753
 30
0.0
 40
0.25
100
AcDbArc
 50
90.0
 51
180.0
  0
LINE
  5
156
330
1F
100
AcDbEntity
  8
0
  6
Continuous
 62
     7
370
    25
100
AcDbLine
 10
105.6289020919
 20
36.7350809058
 30
0.0
 11
105.6289020919
 21
36.4850808648
 31
0.0
  0
ARC
  5
157
330
1F
100
AcDbEntity
  8
0
  6
Continuous
 62
     7
370
    25
100
AcDbCircle
 10
105.628902103
 20
36.735080753
 30
0.0
 40
0.25
100
AcDbArc
 50
180.0
 51
270.0
  0
LINE
  5
158
330
1F
100
AcDbEntity
  8
0
  6
Continuous
 62
     7
370
    25
100
AcDbLine
 10
106.8205418989
 20
36.4850808648
 30
0.0
 11
105.6289020919
 21
36.4850808648
 31
0.0
  0
LINE
  5
159
330
1F
100
AcDbEntity
  8
0
  6
Continuous
 62
     7
370
    25
100
AcDbLine
 10
105.3789020509
 20
47.4850808052
 30
0.0
 11
105.6289020919
 21
47.4850808052
 31
0.0
  0
LINE
  5
15A
330
1F
100
AcDbEntity
  8
0
  6
Continuous
 62
     7
370
    25
100
AcDbLine
 10
105.6289020919
 20
47.4850808052
 30
0.0
 11
105.6289020919
 21
46.4850806413
 31
0.0
  0
LINE
  5
15B
330
1F
100
AcDbEntity
  8
0
  6
Continuous
 62
     7
370
    25
100
AcDbLine
 10
105.3789020509
 20
46.2350806003
 30
0.0
 11
105.3789020509
 21
47.4850808052
 31
0.0
  0
LINE
  5
15C
330
1F
100
AcDbEntity
  8
0
  6
Continuous
 62
     7
370
    25
100
AcDbLine
 10
105.6289020919
 20
47.4850808052
 30
0.0
 11
107.9877370496
 21
47.4850808052
 31
0.0
  0
LINE
  5
15D
330
1F
100
AcDbEntity
  8
0
  6
Continuous
 62
     7
370
    25
100
AcDbLine
 10
114.7700671565
 20
47.4850808052
 30
0.0
 11
117.1289021142
 21
47.4850808052
 31
0.0
  0
LINE
  5
15E
330
1F
100
AcDbEntity
  8
0
  6
Continuous
 62
     7
370
    25
100
AcDbLine
 10
117.1289021142
 20
46.4850806413
 30
0.0
 11
117.1289021142
 21
47.4850808052
 31
0.0
  0
LINE
  5
15F
330
1F
100
AcDbEntity
  8
0
  6
Continuous
 62
     7
370
    25
100
AcDbLine
 10
117.3789021552
 20
47.4850808052
 30
0.0
 11
117.1289021142
 21
47.4850808052
 31
0.0
  0
LINE
  5
160
330
1F
100
AcDbEntity
  8
0
  6
Continuous
 62
     7
370
    25
100
AcDbLine
 10
117.3789021552
 20
47.4850808052
 30
0.0
 11
117.3789021552
 21
46.2350806003
 31
0.0
  0
SPLINE
  5
161
330
1F
100
AcDbEntity
  8
0
  6
Continuous
 62
     7
370
    25
100
AcDbSpline
210
0.0
220
0.0
230
1.0
 70
    24
 71
     3
 72
    14
 73
    10
 74
     0
 42
0.000000001
 43
0.00000001
 40
0.0
 40
0.0
 40
0.0
 40
0.0
 40
0.25
 40
0.25
 40
0.5
 40
0.5
 40
0.75
 40
0.75
 40
1.0
 40
1.0
 40
1.0
 40
1.0
 10
105.3789021030345
 20
48.23508075303995
 30
0.0
 10
105.3789021030345
 20
48.23508075303995
 30
0.0
 10
105.3887470167721
 20
48.23508075303995
 30
0.0
 10
105.4282391230812
 20
48.23508075303995
 30
0.0
 10
105.4578867622564
 20
48.23508075303995
 30
0.0
 10
105.53731589946
 20
48.23508075303995
 30
0.0
 10
105.5870983235293
 20
48.23508075303995
 30
0.0
 10
105.7073273098639
 20
48.23508075303995
 30
0.0
 10
105.7777753424711
 20
48.23508075303995
 30
0.0
 10
105.8589021030345
 20
48.23508075303995
 30
0.0
  0
SPLINE
  5
162
330
1F
100
AcDbEntity
  8
0
  6
Continuous
 62
     7
370
    25
100
AcDbSpline
210
0.0
220
0.0
230
1.0
 70
    24
 71
     3
 72
    14
 73
    10
 74
     0
 42
0.000000001
 43
0.00000001
 40
0.0
 40
0.0
 40
0.0
 40
0.0
 40
0.25
 40
0.25
 40
0.5
 40
0.5
 40
0.75
 40
0.75
 40
1.0
 40
1.0
 40
1.0
 40
1.0
 10
117.3789021030345
 20
48.23508075303995
 30
0.0
 10
117.3789021030345
 20
48.23508075303995
 30
0.0
 10
117.3690571892969
 20
48.23508075303995
 30
0.0
 10
117.3295650829878
 20
48.23508075303995
 30
0.0
 10
117.2999174438125
 20
48.23508075303995
 30
0.0
 10
117.2204883066089
 20
48.23508075303995
 30
0.0
 10
117.1707058825396
 20
48.23508075303995
 30
0.0
 10
117.050476896205
 20
48.23508075303995
 30
0.0
 10
116.9800288635979
 20
48.23508075303995
 30
0.0
 10
116.8989021030345
 20
48.23508075303995
 30
0.0
  0
LINE
  5
163
330
1F
100
AcDbEntity
  8
0
  6
Continuous
 62
     7
370
    25
100
AcDbLine
 10
114.6344204892
 20
48.2350809281
 30
0.0
 11
116.8989022255
 21
48.2350809281
 31
0.0
  0
LINE
  5
164
330
1F
100
AcDbEntity
  8
0
  6
Continuous
 62
     7
370
    25
100
AcDbLine
 10
114.6344204892
 20
47.4850808052
 30
0.0
 11
114.6344204892
 21
48.2350809281
 31
0.0
  0
LINE
  5
165
330
1F
100
AcDbEntity
  8
0
  6
Continuous
 62
     7
370
    25
100
AcDbLine
 10
108.1233837169
 20
47.7350808462
 30
0.0
 11
108.1233837169
 21
47.4850808052
 31
0.0
  0
SPLINE
  5
166
330
1F
100
AcDbEntity
  8
0
  6
Continuous
 62
     7
370
    25
100
AcDbSpline
210
0.0
220
0.0
230
1.0
 70
     8
 71
     3
 72
    14
 73
    10
 74
     0
 42
0.000000001
 43
0.00000001
 40
0.0
 40
0.0
 40
0.0
 40
0.0
 40
0.25
 40
0.25
 40
0.5
 40
0.5
 40
0.75
 40
0.75
 40
1.0
 40
1.0
 40
1.0
 40
1.0
 10
108.1233837111343
 20
47.73508075303995
 30
0.0
 10
108.1233837111343
 20
47.82239878204633
 30
0.0
 10
108.0876114082611
 20
47.90402688986793
 30
0.0
 10
107.9913381278866
 20
48.03172800800137
 30
0.0
 10
107.9314692972678
 20
48.08111880082694
 30
0.0
 10
107.8074121032003
 20
48.15847746838497
 30
0.0
 10
107.7414205778505
 20
48.18704627795685
 30
0.0
 10
107.610642708738
 20
48.22511364692395
 30
0.0
 10
107.5450827054613
 20
48.23508075303995
 30
0.0
 10
107.4793636688092
 20
48.23508075303995
 30
0.0
  0
LINE
  5
167
330
1F
100
AcDbEntity
  8
0
  6
Continuous
 62
     7
370
    25
100
AcDbLine
 10
105.8589019805
 20
48.2350809281
 30
0.0
 11
107.4793636792
 21
48.2350809281
 31
0.0
  0
LINE
  5
168
330
1F
100
AcDbEntity
  8
0
  6
Continuous
 62
     7
370
    25
100
AcDbLine
 10
107.9877370496
 20
47.4850808052
 30
0.0
 11
108.1233837169
 21
47.4850808052
 31
0.0
  0
LINE
  5
169
330
1F
100
AcDbEntity
  8
0
  6
Continuous
 62
     7
370
    25
100
AcDbLine
 10
114.7700671565
 20
47.4850808052
 30
0.0
 11
114.6344204892
 21
47.4850808052
 31
0.0
  0
SPLINE
  5
16A
330
1F
100
AcDbEntity
  8
0
  6
Continuous
 62
     7
370
    25
100
AcDbSpline
210
0.0
220
0.0
230
1.0
 70
     8
 71
     3
 72
    14
 73
    10
 74
     0
 42
0.000000001
 43
0.00000001
 40
0.0
 40
0.0
 40
0.0
 40
0.0
 40
0.4999999999999986
 40
0.4999999999999986
 40
0.7499999999999989
 40
0.7499999999999989
 40
0.8749999999999994
 40
0.8749999999999994
 40
1.0
 40
1.0
 40
1.0
 40
1.0
 10
107.3168829007165
 20
47.98508075303995
 30
0.0
 10
107.4395559513444
 20
47.98508075303995
 30
0.0
 10
107.5630219803693
 20
47.97017708620608
 30
0.0
 10
107.7450188378519
 20
47.92241833262446
 30
0.0
 10
107.805412483563
 20
47.90234831217115
 30
0.0
 10
107.8904232326965
 20
47.85872920830504
 30
0.0
 10
107.9182235817298
 20
47.84178979370869
 30
0.0
 10
107.9659374859897
 20
47.79833549712085
 30
0.0
 10
107.9877371114718
 20
47.76910244079525
 30
0.0
 10
107.9877371114718
 20
47.73508075303995
 30
0.0
  0
LWPOLYLINE
  5
16B
330
1F
100
AcDbEntity
  8
0
  6
Continuous
 62
     7
370
    25
100
AcDbPolyline
 90
        9
 70
   128
 43
0.0
 10
107.3168828145
 20
47.9850808872
 10
107.3485813096
 20
47.989884649
 10
107.3790616349
 20
48.004111067
 10
107.4071521864
 20
48.0272134548
 10
107.4317740269
 20
48.0583042619
 10
107.4519809328
 20
48.096188136
 10
107.4669957154
 20
48.1394098853
 10
107.4762416531
 20
48.1863080306
 10
107.4793636792
 20
48.2350809281
  0
LINE
  5
16C
330
1F
100
AcDbEntity
  8
0
  6
Continuous
 62
     7
370
    25
100
AcDbLine
 10
107.9877370496
 20
47.7350808462
 30
0.0
 11
108.1233837169
 21
47.7350808462
 31
0.0
  0
SPLINE
  5
16D
330
1F
100
AcDbEntity
  8
0
  6
Continuous
 62
     7
370
    25
100
AcDbSpline
210
0.0
220
0.0
230
1.0
 70
     8
 71
     3
 72
    10
 73
     6
 74
     0
 42
0.000000001
 43
0.00000001
 40
0.0
 40
0.0
 40
0.0
 40
0.0
 40
0.5
 40
0.5
 40
1.0
 40
1.0
 40
1.0
 40
1.0
 10
115.1289021030345
 20
47.98508075303995
 30
0.0
 10
115.0645520443288
 20
47.98508075303995
 30
0.0
 10
115.0016662191243
 20
47.99353267903249
 30
0.0
 10
114.8790889316367
 20
48.02887520147832
 30
0.0
 10
114.8195587458668
 20
48.05513001711065
 30
0.0
 10
114.7700670945972
 20
48.09710490382649
 30
0.0
  0
SPLINE
  5
16E
330
1F
100
AcDbEntity
  8
0
  6
Continuous
 62
     7
370
    25
100
AcDbSpline
210
0.0
220
0.0
230
1.0
 70
     8
 71
     3
 72
     8
 73
     4
 74
     0
 42
0.000000001
 43
0.00000001
 40
0.0
 40
0.0
 40
0.0
 40
0.0
 40
1.0
 40
1.0
 40
1.0
 40
1.0
 10
114.7700670945971
 20
48.09710490382637
 30
0.0
 10
114.7191557935218
 20
48.14028382472243
 30
0.0
 10
114.673241102056
 20
48.18791279845059
 30
0.0
 10
114.6344204949346
 20
48.23508075303995
 30
0.0
  0
SPLINE
  5
16F
330
1F
100
AcDbEntity
  8
0
  6
Continuous
 62
     7
370
    25
100
AcDbSpline
210
0.0
220
0.0
230
1.0
 70
     8
 71
     3
 72
    10
 73
     6
 74
     0
 42
0.000000001
 43
0.00000001
 40
0.0
 40
0.0
 40
0.0
 40
0.0
 40
0.5
 40
0.5
 40
1.0
 40
1.0
 40
1.0
 40
1.0
 10
116.9716898501401
 20
48.05829615729937
 30
0.0
 10
116.9441489033181
 20
48.08672341736666
 30
0.0
 10
116.9245357694284
 20
48.12095005553351
 30
0.0
 10
116.9022268961401
 20
48.18397210107106
 30
0.0
 10
116.8989021030345
 20
48.21255782036305
 30
0.0
 10
116.8989021030345
 20
48.23508075303995
 30
0.0
  0
SPLINE
  5
170
330
1F
100
AcDbEntity
  8
0
  6
Continuous
 62
     7
370
    25
100
AcDbSpline
210
0.0
220
0.0
230
1.0
 70
     8
 71
     3
 72
    12
 73
     8
 74
     0
 42
0.000000001
 43
0.00000001
 40
0.0
 40
0.0
 40
0.0
 40
0.0
 40
0.25
 40
0.25
 40
0.5
 40
0.5
 40
1.0
 40
1.0
 40
1.0
 40
1.0
 10
116.9716898501401
 20
48.05829615729937
 30
0.0
 10
116.9854603235511
 20
48.04408252726574
 30
0.0
 10
117.0015243434023
 20
48.03138100351317
 30
0.0
 10
117.0349156475977
 20
48.01031357417074
 30
0.0
 10
117.0522429319418
 20
48.00194766858088
 30
0.0
 10
117.1011339391321
 20
47.98532048745621
 30
0.0
 10
117.1289021030345
 20
47.98508075303995
 30
0.0
 10
117.1289021030345
 20
47.98508075303995
 30
0.0
  0
LINE
  5
171
330
1F
100
AcDbEntity
  8
0
  6
Continuous
 62
     7
370
    25
100
AcDbLine
 10
114.7700671565
 20
48.097105023
 30
0.0
 11
114.7700671565
 21
47.4850808052
 31
0.0
  0
LINE
  5
172
330
1F
100
AcDbEntity
  8
0
  6
Continuous
 62
     7
370
    25
100
AcDbLine
 10
107.9877370496
 20
47.4850808052
 30
0.0
 11
107.9877370496
 21
47.7350808462
 31
0.0
  0
LINE
  5
173
330
1F
100
AcDbEntity
  8
0
  6
Continuous
 62
     7
370
    25
100
AcDbLine
 10
105.6289020919
 20
47.7350808462
 30
0.0
 11
105.6289020919
 21
47.4850808052
 31
0.0
  0
LINE
  5
174
330
1F
100
AcDbEntity
  8
0
  6
Continuous
 62
     7
370
    25
100
AcDbLine
 10
107.9877370496
 20
47.7350808462
 30
0.0
 11
105.6289020919
 21
47.7350808462
 31
0.0
  0
LINE
  5
175
330
1F
100
AcDbEntity
  8
0
  6
Continuous
 62
     7
370
    25
100
AcDbLine
 10
117.1289021142
 20
47.4850808052
 30
0.0
 11
117.1289021142
 21
47.9850808872
 31
0.0
  0
LINE
  5
176
330
1F
100
AcDbEntity
  8
0
  6
Continuous
 62
     7
370
    25
100
AcDbLine
 10
115.1289020192
 20
47.9850808872
 30
0.0
 11
117.1289021142
 21
47.9850808872
 31
0.0
  0
ARC
  5
177
330
1F
100
AcDbEntity
  8
0
  6
Continuous
 62
     7
370
    25
100
AcDbCircle
 10
117.128902103
 20
47.735080753
 30
0.0
 40
0.25
100
AcDbArc
 50
0.0
 51
90.0
  0
LINE
  5
178
330
1F
100
AcDbEntity
  8
0
  6
Continuous
 62
     7
370
    25
100
AcDbLine
 10
117.3789021552
 20
47.7350808462
 30
0.0
 11
117.3789021552
 21
47.4850808052
 31
0.0
  0
ARC
  5
179
330
1F
100
AcDbEntity
  8
0
  6
Continuous
 62
     7
370
    25
100
AcDbCircle
 10
105.628902103
 20
47.735080753
 30
0.0
 40
0.25
100
AcDbArc
 50
90.0
 51
180.0
  0
LINE
  5
17A
330
1F
100
AcDbEntity
  8
0
  6
Continuous
 62
     7
370
    25
100
AcDbLine
 10
105.6289020919
 20
47.7350808462
 30
0.0
 11
105.6289020919
 21
47.9850808872
 31
0.0
  0
LINE
  5
17B
330
1F
100
AcDbEntity
  8
0
  6
Continuous
 62
     7
370
    25
100
AcDbLine
 10
105.3789020509
 20
47.7350808462
 30
0.0
 11
105.6289020919
 21
47.7350808462
 31
0.0
  0
LINE
  5
17C
330
1F
100
AcDbEntity
  8
0
  6
Continuous
 62
     7
370
    25
100
AcDbLine
 10
105.3789020509
 20
47.4850808052
 30
0.0
 11
105.3789020509
 21
47.7350808462
 31
0.0
  0
LINE
  5
17D
330
1F
100
AcDbEntity
  8
0
  6
Continuous
 62
     7
370
    25
100
AcDbLine
 10
105.6289020919
 20
47.9850808872
 30
0.0
 11
107.3168828145
 21
47.9850808872
 31
0.0
  0
SPLINE
  5
17E
330
1F
100
AcDbEntity
  8
0
  6
Continuous
 62
     7
370
    25
100
AcDbSpline
210
0.0
220
0.0
230
1.0
 70
     8
 71
     3
 72
    12
 73
     8
 74
     0
 42
0.000000001
 43
0.00000001
 40
0.0
 40
0.0
 40
0.0
 40
0.0
 40
0.25
 40
0.25
 40
0.5
 40
0.5
 40
1.0
 40
1.0
 40
1.0
 40
1.0
 10
105.7861143559289
 20
48.05829615729937
 30
0.0
 10
105.7723438825179
 20
48.04408252726574
 30
0.0
 10
105.7562798626666
 20
48.03138100351318
 30
0.0
 10
105.7228885584713
 20
48.01031357417074
 30
0.0
 10
105.7055612741271
 20
48.00194766858088
 30
0.0
 10
105.6566702669368
 20
47.98532048745621
 30
0.0
 10
105.6289021030345
 20
47.98508075303995
 30
0.0
 10
105.6289021030345
 20
47.98508075303995
 30
0.0
  0
SPLINE
  5
17F
330
1F
100
AcDbEntity
  8
0
  6
Continuous
 62
     7
370
    25
100
AcDbSpline
210
0.0
220
0.0
230
1.0
 70
     8
 71
     3
 72
    10
 73
     6
 74
     0
 42
0.000000001
 43
0.00000001
 40
0.0
 40
0.0
 40
0.0
 40
0.0
 40
0.5
 40
0.5
 40
1.0
 40
1.0
 40
1.0
 40
1.0
 10
105.7861143559289
 20
48.05829615729937
 30
0.0
 10
105.8136553027509
 20
48.08672341736666
 30
0.0
 10
105.8332684366405
 20
48.12095005553351
 30
0.0
 10
105.8555773099289
 20
48.18397210107106
 30
0.0
 10
105.8589021030345
 20
48.21255782036305
 30
0.0
 10
105.8589021030345
 20
48.23508075303995
 30
0.0
  0
SPLINE
  5
180
330
1F
100
AcDbEntity
  8
0
  6
Continuous
 62
     7
370
    25
100
AcDbSpline
210
0.0
220
0.0
230
1.0
 70
     8
 71
     3
 72
    12
 73
     8
 74
     0
 42
0.000000001
 43
0.00000001
 40
0.0
 40
0.0
 40
0.0
 40
0.0
 40
0.25
 40
0.25
 40
0.5
 40
0.5
 40
1.0
 40
1.0
 40
1.0
 40
1.0
 10
117.3776088857059
 20
47.98708835332964
 30
0.0
 10
117.3775987283488
 20
47.97682489404051
 30
0.0
 10
117.3690423022373
 20
47.96924611424372
 30
0.0
 10
117.3476689460024
 20
47.95483265879466
 30
0.0
 10
117.334852015879
 20
47.94799798314236
 30
0.0
 10
117.3092585197354
 20
47.92167223014192
 30
0.0
 10
117.3055309678868
 20
47.91200527878095
 30
0.0
 10
117.3056787983319
 20
47.9118574483358
 30
0.0
  0
LINE
  5
181
330
1F
100
AcDbEntity
  8
0
  6
Continuous
 62
     7
370
    25
100
AcDbLine
 10
117.379203438
 20
47.7931851303
 30
0.0
 11
117.3795307979
 21
47.8562892196
 31
0.0
  0
SPLINE
  5
182
330
1F
100
AcDbEntity
  8
0
  6
Continuous
 62
     7
370
    25
100
AcDbSpline
210
0.0
220
0.0
230
1.0
 70
     8
 71
     3
 72
    12
 73
     8
 74
     0
 42
0.000000001
 43
0.00000001
 40
0.0
 40
0.0
 40
0.0
 40
0.0
 40
0.25
 40
0.25
 40
0.5
 40
0.5
 40
1.0
 40
1.0
 40
1.0
 40
1.0
 10
117.3776088857059
 20
47.98708835332964
 30
0.0
 10
117.3776190430631
 20
47.99735181261877
 30
0.0
 10
117.3690846306701
 20
48.01201670304953
 30
0.0
 10
117.3330391425648
 20
48.04375208123304
 30
0.0
 10
117.3055280668526
 20
48.06082256898579
 30
0.0
 10
117.1916985590089
 20
48.10604653078521
 30
0.0
 10
117.0906370079656
 20
48.09922310351851
 30
0.0
 10
116.9716898501401
 20
48.05829615729937
 30
0.0
  0
SPLINE
  5
183
330
1F
100
AcDbEntity
  8
0
  6
Continuous
 62
     7
370
    25
100
AcDbSpline
210
0.0
220
0.0
230
1.0
 70
     8
 71
     3
 72
    12
 73
     8
 74
     0
 42
0.000000001
 43
0.00000001
 40
0.0
 40
0.0
 40
0.0
 40
0.0
 40
0.25
 40
0.25
 40
0.5
 40
0.5
 40
1.0
 40
1.0
 40
1.0
 40
1.0
 10
105.380195320363
 20
47.98708835332963
 30
0.0
 10
105.3802054777202
 20
47.9768248940405
 30
0.0
 10
105.3887619038316
 20
47.96924611424372
 30
0.0
 10
105.4101352600665
 20
47.95483265879464
 30
0.0
 10
105.42295219019
 20
47.94799798314236
 30
0.0
 10
105.4485456863336
 20
47.92167223014192
 30
0.0
 10
105.4522732381822
 20
47.91200527878095
 30
0.0
 10
105.452125407737
 20
47.9118574483358
 30
0.0
  0
LINE
  5
184
330
1F
100
AcDbEntity
  8
0
  6
Continuous
 62
     7
370
    25
100
AcDbLine
 10
105.378600768
 20
47.7931851303
 30
0.0
 11
105.3782734081
 21
47.8562892196
 31
0.0
  0
SPLINE
  5
185
330
1F
100
AcDbEntity
  8
0
  6
Continuous
 62
     7
370
    25
100
AcDbSpline
210
0.0
220
0.0
230
1.0
 70
     8
 71
     3
 72
    14
 73
    10
 74
     0
 42
0.000000001
 43
0.00000001
 40
0.0
 40
0.0
 40
0.0
 40
0.0
 40
0.25
 40
0.25
 40
0.5
 40
0.5
 40
0.75
 40
0.75
 40
1.0
 40
1.0
 40
1.0
 40
1.0
 10
105.380195320363
 20
47.98708835332963
 30
0.0
 10
105.3801851630059
 20
47.99735181261877
 30
0.0
 10
105.3887195753989
 20
48.01201670304952
 30
0.0
 10
105.4247650635041
 20
48.04375208123303
 30
0.0
 10
105.4522761392163
 20
48.06082256898578
 30
0.0
 10
105.5281624777788
 20
48.09097187685207
 30
0.0
 10
105.5723994501802
 20
48.09680334700196
 30
0.0
 10
105.6716385997989
 20
48.0906972237804
 30
0.0
 10
105.7266407770161
 20
48.07875963040895
 30
0.0
 10
105.7861143559289
 20
48.05829615729937
 30
0.0
  0
SPLINE
  5
186
330
1F
100
AcDbEntity
  8
0
  6
Continuous
 62
     7
370
    25
100
AcDbSpline
210
0.0
220
0.0
230
1.0
 70
     8
 71
     3
 72
    10
 73
     6
 74
     0
 42
0.000000001
 43
0.00000001
 40
0.0
 40
0.0
 40
0.0
 40
0.0
 40
0.5
 40
0.5
 40
1.0
 40
1.0
 40
1.0
 40
1.0
 10
117.3776088857059
 20
47.98708835332964
 30
0.0
 10
117.3776495151346
 20
48.02814219048617
 30
0.0
 10
117.3780947199828
 20
48.07161902086717
 30
0.0
 10
117.3745691190315
 20
48.16067772059153
 30
0.0
 10
117.3789021030345
 20
48.19278109011518
 30
0.0
 10
117.3789021030345
 20
48.23508075303995
 30
0.0
  0
SPLINE
  5
187
330
1F
100
AcDbEntity
  8
0
  6
Continuous
 62
     7
370
    25
100
AcDbSpline
210
0.0
220
0.0
230
1.0
 70
     8
 71
     3
 72
     9
 73
     5
 74
     0
 42
0.000000001
 43
0.00000001
 40
0.0
 40
0.0
 40
0.0
 40
0.0
 40
0.1237681934257705
 40
1.0
 40
1.0
 40
1.0
 40
1.0
 10
105.3806887932398
 20
48.11613659985029
 30
0.0
 10
105.3807758156545
 20
48.11081303500241
 30
0.0
 10
105.381478923717
 20
48.06780065273738
 30
0.0
 10
105.3807947164473
 20
48.02478235430826
 30
0.0
 10
105.3801951922753
 20
47.98708835295999
 30
0.0
  0
SPLINE
  5
188
330
1F
100
AcDbEntity
  8
0
  6
Continuous
 62
     7
370
    25
100
AcDbSpline
210
0.0
220
0.0
230
1.0
 70
     8
 71
     3
 72
    30
 73
    26
 74
     0
 42
0.000000001
 43
0.00000001
 40
0.0
 40
0.0
 40
0.0
 40
0.0
 40
0.125
 40
0.125
 40
0.25
 40
0.25
 40
0.3125
 40
0.3125
 40
0.375
 40
0.375
 40
0.4375
 40
0.4375
 40
0.5
 40
0.5
 40
0.5625
 40
0.5625
 40
0.625
 40
0.625
 40
0.6875
 40
0.6875
 40
0.75
 40
0.75
 40
0.875
 40
0.875
 40
1.0
 40
1.0
 40
1.0
 40
1.0
 10
109.4424104299308
 20
44.98508075303995
 30
0.0
 10
109.4795169897975
 20
44.73226405781976
 30
0.0
 10
109.5331730809676
 20
44.48382206655119
 30
0.0
 10
109.6887843802715
 20
44.00198286023682
 30
0.0
 10
109.7905143843061
 20
43.76580915247647
 30
0.0
 10
110.009393085217
 20
43.4560385950103
 30
0.0
 10
110.0942030582937
 20
43.36047791618061
 30
0.0
 10
110.2922045161633
 20
43.20052119200329
 30
0.0
 10
110.4085448085178
 20
43.13552677758324
 30
0.0
 10
110.6608841757453
 20
43.04724734406116
 30
0.0
 10
110.8005774954097
 20
43.02177512060351
 30
0.0
 10
111.0859417153606
 20
42.99318531023486
 30
0.0
 10
111.2316087442786
 20
42.98863710134621
 30
0.0
 10
111.5281742818434
 20
42.98868612122343
 30
0.0
 10
111.6737130803034
 20
42.99328255007138
 30
0.0
 10
111.9588428009144
 20
43.02202627503014
 30
0.0
 10
112.0986058429436
 20
43.04758059206812
 30
0.0
 10
112.3519247239729
 20
43.13672019073351
 30
0.0
 10
112.4677894858839
 20
43.20190377756694
 30
0.0
 10
112.6657289550108
 20
43.3625918503415
 30
0.0
 10
112.7507517837671
 20
43.45898299501582
 30
0.0
 10
112.9676682114335
 20
43.76709420018784
 30
0.0
 10
113.0693067244573
 20
44.00272184178015
 30
0.0
 10
113.2247525332898
 20
44.48434777063419
 30
0.0
 10
113.2783318757473
 20
44.73256833450554
 30
0.0
 10
113.3153937761387
 20
44.98508075304355
 30
0.0
  0
LINE
  5
189
330
1F
100
AcDbEntity
  8
0
  6
Continuous
 62
     8
370
    25
100
AcDbLine
 10
111.378902103
 20
51.9850806115
 30
0.0
 11
118.6289018944
 21
51.9850806115
 31
0.0
  0
LINE
  5
18A
330
1F
100
AcDbEntity
  8
0
  6
Continuous
 62
     8
370
    25
100
AcDbLine
 10
104.1289023117
 20
51.9850806115
 30
0.0
 11
111.378902103
 21
51.9850806115
 31
0.0
  0
LINE
  5
18B
330
1F
100
AcDbEntity
  8
0
  6
Continuous
 62
     8
370
    25
100
AcDbLine
 10
117.1289021142
 20
46.2350806003
 30
0.0
 11
116.1972158581
 21
46.2350806003
 31
0.0
  0
LINE
  5
18C
330
1F
100
AcDbEntity
  8
0
  6
Continuous
 62
     8
370
    25
100
AcDbLine
 10
117.1289021142
 20
45.0510515613
 30
0.0
 11
117.1289021142
 21
46.2350806003
 31
0.0
  0
LINE
  5
18D
330
1F
100
AcDbEntity
  8
0
  6
Continuous
 62
     8
370
    25
100
AcDbLine
 10
105.6289020919
 20
37.9191099448
 30
0.0
 11
105.6289020919
 21
36.7350809058
 31
0.0
  0
LINE
  5
18E
330
1F
100
AcDbEntity
  8
0
  6
Continuous
 62
     8
370
    25
100
AcDbLine
 10
116.1972158581
 20
36.7350809058
 30
0.0
 11
117.1289021142
 21
36.7350809058
 31
0.0
  0
LINE
  5
18F
330
1F
100
AcDbEntity
  8
0
  6
Continuous
 62
     8
370
    25
100
AcDbLine
 10
117.1289021142
 20
36.7350809058
 30
0.0
 11
117.1289021142
 21
37.9191099448
 31
0.0
  0
LINE
  5
190
330
1F
100
AcDbEntity
  8
0
  6
Continuous
 62
     8
370
    25
100
AcDbLine
 10
105.6289020919
 20
46.2350806003
 30
0.0
 11
105.6289020919
 21
45.0510515613
 31
0.0
  0
LINE
  5
191
330
1F
100
AcDbEntity
  8
0
  6
Continuous
 62
     8
370
    25
100
AcDbLine
 10
106.5605883479
 20
46.2350806003
 30
0.0
 11
105.6289020919
 21
46.2350806003
 31
0.0
  0
LINE
  5
192
330
1F
100
AcDbEntity
  8
0
  6
Continuous
 62
     8
370
    25
100
AcDbLine
 10
105.6289020919
 20
36.7350809058
 30
0.0
 11
106.5605883479
 21
36.7350809058
 31
0.0
  0
LINE
  5
193
330
1F
100
AcDbEntity
  8
0
  6
Continuous
 62
     8
370
    25
100
AcDbLine
 10
111.378902103
 20
50.9850804476
 30
0.0
 11
105.3789020509
 21
50.9850804476
 31
0.0
  0
LINE
  5
194
330
1F
100
AcDbEntity
  8
0
  6
Continuous
 62
     8
370
    25
100
AcDbLine
 10
117.3789021552
 20
50.9850804476
 30
0.0
 11
111.378902103
 21
50.9850804476
 31
0.0
  0
LINE
  5
195
330
1F
100
AcDbEntity
  8
0
  6
Continuous
 62
     8
370
    25
100
AcDbLine
 10
108.0045755945
 20
47.3332817448
 30
0.0
 11
107.9877370496
 21
47.4850808052
 31
0.0
  0
LINE
  5
196
330
1F
100
AcDbEntity
  8
0
  6
Continuous
 62
     8
370
    25
100
AcDbLine
 10
114.7700671565
 20
47.4850808052
 30
0.0
 11
114.7531433955
 21
47.332514335
 31
0.0
  0
LINE
  5
197
330
1F
100
AcDbEntity
  8
0
  6
Continuous
 62
     8
370
    25
100
AcDbLine
 10
114.6233666215
 20
47.4072287572
 30
0.0
 11
114.6344204892
 21
47.4850808052
 31
0.0
  0
LINE
  5
198
330
1F
100
AcDbEntity
  8
0
  6
Continuous
 62
     8
370
    25
100
AcDbLine
 10
108.1233837169
 20
47.4850808052
 30
0.0
 11
108.1339775112
 21
47.4104688285
 31
0.0
  0
SPLINE
  5
199
330
1F
100
AcDbEntity
  8
0
  6
Continuous
 62
     8
370
    25
100
AcDbSpline
210
0.0
220
0.0
230
1.0
 70
     8
 71
     3
 72
     9
 73
     5
 74
     0
 42
0.000000001
 43
0.00000001
 40
0.0
 40
0.0
 40
0.0
 40
0.0
 40
0.1251159292884992
 40
1.0
 40
1.0
 40
1.0
 40
1.0
 10
117.3795307979264
 20
47.8562892196294
 30
0.0
 10
117.3795669653375
 20
47.86174495512716
 30
0.0
 10
117.3798560365313
 20
47.9053503979256
 30
0.0
 10
117.3786575503034
 20
47.94894666945579
 30
0.0
 10
117.3776090137937
 20
47.98708835295998
 30
0.0
  0
SPLINE
  5
19A
330
1F
100
AcDbEntity
  8
0
  6
Continuous
 62
     8
370
    25
100
AcDbSpline
210
0.0
220
0.0
230
1.0
 70
     8
 71
     3
 72
     9
 73
     5
 74
     0
 42
0.000000001
 43
0.00000001
 40
0.0
 40
0.0
 40
0.0
 40
0.0
 40
0.1251159292884992
 40
1.0
 40
1.0
 40
1.0
 40
1.0
 10
105.3782734081425
 20
47.8562892196294
 30
0.0
 10
105.3782372407315
 20
47.86174495512716
 30
0.0
 10
105.3779481695376
 20
47.9053503979256
 30
0.0
 10
105.3791466557655
 20
47.94894666945579
 30
0.0
 10
105.3801951922753
 20
47.98708835295998
 30
0.0
  0
LINE
  5
19B
330
1F
100
AcDbEntity
  8
0
  6
Continuous
 62
     8
370
    25
100
AcDbLine
 10
105.3789020509
 20
48.2350809281
 30
0.0
 11
105.3806887932
 21
48.1161365999
 31
0.0
  0
INSERT
  5
1A7
330
1F
100
AcDbEntity
  8
0
  6
Continuous
 62
     7
370
    18
100
AcDbBlockReference
  2
SW_CENTERMARKSYMBOL_0
 10
111.378902103
 20
41.485080753
 30
0.0
  0
ARC
  5
1A8
330
1F
100
AcDbEntity
  8
0
  6
Continuous
 62
     7
370
    18
100
AcDbCircle
 10
111.378902103
 20
41.485080753
 30
0.0
 40
5.7225
100
AcDbArc
 50
75.0
 51
345.0
  0
ARC
  5
1A9
330
1F
100
AcDbEntity
  8
0
  6
Continuous
 62
     7
370
    25
100
AcDbCircle
 10
78.8669782222
 20
88.2341139439
 30
0.0
 40
0.5000000000000078
100
AcDbArc
 50
178.1671385201
 51
180.0
  0
ARC
  5
1AA
330
1F
100
AcDbEntity
  8
0
  6
Continuous
 62
     7
370
    25
100
AcDbCircle
 10
78.8669782222
 20
74.7341139439
 30
0.0
 40
0.5000000000000082
100
AcDbArc
 50
180.0
 51
181.8328614799
  0
LINE
  5
1AB
330
1F
100
AcDbEntity
  8
0
  6
Continuous
 62
     7
370
    25
100
AcDbLine
 10
78.3672341124
 20
74.7181220289
 30
0.0
 11
88.2776192368
 21
75.0278212439
 31
0.0
  0
LINE
  5
1AC
330
1F
100
AcDbEntity
  8
0
  6
Continuous
 62
     7
370
    25
100
AcDbLine
 10
88.2776192368
 20
87.9404066439
 30
0.0
 11
78.3672341124
 21
88.2501058589
 31
0.0
  0
ARC
  5
1AD
330
1F
100
AcDbEntity
  8
0
  6
Continuous
 62
     7
370
    25
100
AcDbCircle
 10
77.8669782222
 20
87.9841139439
 30
0.0
 40
0.5
100
AcDbArc
 50
270.0
 51
0.0
  0
ARC
  5
1AE
330
1F
100
AcDbEntity
  8
0
  6
Continuous
 62
     7
370
    25
100
AcDbCircle
 10
77.8669782222
 20
74.9841139439
 30
0.0
 40
0.5
100
AcDbArc
 50
0.0
 51
90.0
  0
LINE
  5
1AF
330
1F
100
AcDbEntity
  8
0
  6
Continuous
 62
     7
370
    25
100
AcDbLine
 10
88.2776192368
 20
75.0278212439
 30
0.0
 11
90.366978103
 21
76.2341140147
 31
0.0
  0
LINE
  5
1B0
330
1F
100
AcDbEntity
  8
0
  6
Continuous
 62
     7
370
    25
100
AcDbLine
 10
90.366978103
 20
86.7341138731
 30
0.0
 11
88.2776192368
 21
87.9404066439
 31
0.0
  0
LINE
  5
1B1
330
1F
100
AcDbEntity
  8
0
  6
Continuous
 62
     7
370
    25
100
AcDbLine
 10
75.1169783973
 20
75.4841138917
 30
0.0
 11
77.8669779167
 21
75.4841138917
 31
0.0
  0
LINE
  5
1B2
330
1F
100
AcDbEntity
  8
0
  6
Continuous
 62
     7
370
    25
100
AcDbLine
 10
75.3669784383
 20
87.484113996
 30
0.0
 11
75.1169783973
 21
87.484113996
 31
0.0
  0
LINE
  5
1B3
330
1F
100
AcDbEntity
  8
0
  6
Continuous
 62
     7
370
    25
100
AcDbLine
 10
77.8669779167
 20
87.484113996
 30
0.0
 11
76.3669786022
 21
87.484113996
 31
0.0
  0
SPLINE
  5
1B4
330
1F
100
AcDbEntity
  8
0
  6
Continuous
 62
     7
370
    25
100
AcDbSpline
210
0.0
220
0.0
230
1.0
 70
     8
 71
     3
 72
    11
 73
     7
 74
     0
 42
0.000000001
 43
0.00000001
 40
0.0
 40
0.0
 40
0.0
 40
0.0
 40
0.2499994838650191
 40
0.4999993130045736
 40
0.7499992072430485
 40
1.0
 40
1.0
 40
1.0
 40
1.0
 10
75.6169780136037
 20
87.78411395207004
 30
0.0
 10
75.58421883760008
 20
87.7803560313269
 30
0.0
 10
75.51870044034914
 20
87.77284018465055
 30
0.0
 10
75.43606454511439
 20
87.71502782644228
 30
0.0
 10
75.37825210764701
 20
87.63239180501436
 30
0.0
 10
75.37073633257558
 20
87.56687324831239
 30
0.0
 10
75.3669784382868
 20
87.53411391109185
 30
0.0
  0
SPLINE
  5
1B5
330
1F
100
AcDbEntity
  8
0
  6
Continuous
 62
     7
370
    25
100
AcDbSpline
210
0.0
220
0.0
230
1.0
 70
     8
 71
     3
 72
    11
 73
     7
 74
     0
 42
0.000000001
 43
0.00000001
 40
0.0
 40
0.0
 40
0.0
 40
0.0
 40
0.2500005652367812
 40
0.499999291414365
 40
0.749999671277814
 40
1.0
 40
1.0
 40
1.0
 40
1.0
 10
76.36697860219957
 20
87.53411391109185
 30
0.0
 10
76.36322048115646
 20
87.56687321186234
 30
0.0
 10
76.35570426671583
 20
87.63239157241873
 30
0.0
 10
76.29789253664296
 20
87.71502815213445
 30
0.0
 10
76.21525601473186
 20
87.772840160057
 30
0.0
 10
76.14973739971688
 20
87.78035602165528
 30
0.0
 10
76.11697809556009
 20
87.78411395207004
 30
0.0
  0
LINE
  5
1B6
330
1F
100
AcDbEntity
  8
0
  6
Continuous
 62
     7
370
    25
100
AcDbLine
 10
75.3669784383
 20
87.534413797
 30
0.0
 11
75.3669784383
 21
87.484113996
 31
0.0
  0
LINE
  5
1B7
330
1F
100
AcDbEntity
  8
0
  6
Continuous
 62
     7
370
    25
100
AcDbLine
 10
76.3669786022
 20
87.484113996
 30
0.0
 11
76.3669786022
 21
87.534413797
 31
0.0
  0
LINE
  5
1B8
330
1F
100
AcDbEntity
  8
0
  6
Continuous
 62
     7
370
    25
100
AcDbLine
 10
76.1169743703
 20
87.7841139521
 30
0.0
 11
75.6169780136
 21
87.7841139521
 31
0.0
  0
CIRCLE
  5
1B9
330
1F
100
AcDbEntity
  8
0
  6
Continuous
 62
     7
370
    25
100
AcDbCircle
 10
68.3669782222
 20
81.4841139439
 30
0.0
 40
7.25
  0
CIRCLE
  5
1BA
330
1F
100
AcDbEntity
  8
0
  6
Continuous
 62
     7
370
    25
100
AcDbCircle
 10
68.3669782222
 20
81.4841139439
 30
0.0
 40
6.749999999999972
  0
CIRCLE
  5
1BB
330
1F
100
AcDbEntity
  8
0
  6
Continuous
 62
     7
370
    25
100
AcDbCircle
 10
68.3669782222
 20
81.4841139439
 30
0.0
 40
5.0
  0
CIRCLE
  5
1BC
330
1F
100
AcDbEntity
  8
0
  6
Continuous
 62
     7
370
    25
100
AcDbCircle
 10
68.3669782222
 20
81.4841139439
 30
0.0
 40
4.618423633796652
  0
CIRCLE
  5
1BD
330
1F
100
AcDbEntity
  8
0
  6
Continuous
 62
     7
370
    25
100
AcDbCircle
 10
68.3669782222
 20
81.4841139439
 30
0.0
 40
4.342497099879523
  0
CIRCLE
  5
1BE
330
1F
100
AcDbEntity
  8
0
  6
Continuous
 62
     7
370
    25
100
AcDbCircle
 10
68.3669782222
 20
81.4841139439
 30
0.0
 40
4.283000000000001
  0
CIRCLE
  5
1BF
330
1F
100
AcDbEntity
  8
0
  6
Continuous
 62
     7
370
    25
100
AcDbCircle
 10
68.3669782222
 20
81.4841139439
 30
0.0
 40
2.0
  0
LINE
  5
1C0
330
1F
100
AcDbEntity
  8
0
  6
Continuous
 62
     7
370
    25
100
AcDbLine
 10
78.3672341124
 20
74.7181220289
 30
0.0
 11
78.3672341124
 21
88.2501058589
 31
0.0
  0
LINE
  5
1C1
330
1F
100
AcDbEntity
  8
0
  6
Continuous
 62
     7
370
    25
100
AcDbLine
 10
78.3669779987
 20
74.7341137688
 30
0.0
 11
78.3669779987
 21
88.234114119
 31
0.0
  0
LINE
  5
1C2
330
1F
100
AcDbEntity
  8
0
  6
Continuous
 62
     7
370
    25
100
AcDbLine
 10
88.2776192368
 20
75.0278212439
 30
0.0
 11
88.2776192368
 21
87.9404066439
 31
0.0
  0
LINE
  5
1C3
330
1F
100
AcDbEntity
  8
0
  6
Continuous
 62
     7
370
    25
100
AcDbLine
 10
72.4366832503
 20
87.484113996
 30
0.0
 11
73.1169780695
 21
87.484113996
 31
0.0
  0
ARC
  5
1C4
330
1F
100
AcDbEntity
  8
0
  6
Continuous
 62
     7
370
    25
100
AcDbCircle
 10
73.1169782222
 20
87.2341139439
 30
0.0
 40
0.25
100
AcDbArc
 50
0.0
 51
90.0
  0
LINE
  5
1C5
330
1F
100
AcDbEntity
  8
0
  6
Continuous
 62
     7
370
    25
100
AcDbLine
 10
63.616978375
 20
87.2341139551
 30
0.0
 11
63.616978375
 21
87.484113996
 31
0.0
  0
LINE
  5
1C6
330
1F
100
AcDbEntity
  8
0
  6
Continuous
 62
     7
370
    25
100
AcDbLine
 10
63.616978375
 20
87.484113996
 30
0.0
 11
64.2972731941
 21
87.484113996
 31
0.0
  0
LINE
  5
1C7
330
1F
100
AcDbEntity
  8
0
  6
Continuous
 62
     7
370
    25
100
AcDbLine
 10
73.3669781105
 20
86.7341138731
 30
0.0
 11
73.3669781105
 21
87.2341139551
 31
0.0
  0
LINE
  5
1C8
330
1F
100
AcDbEntity
  8
0
  6
Continuous
 62
     7
370
    25
100
AcDbLine
 10
73.1169780695
 20
75.4841138917
 30
0.0
 11
72.4366832503
 21
75.4841138917
 31
0.0
  0
LINE
  5
1C9
330
1F
100
AcDbEntity
  8
0
  6
Continuous
 62
     7
370
    25
100
AcDbLine
 10
73.1169780695
 20
75.4841138917
 30
0.0
 11
73.1169780695
 21
75.7341139327
 31
0.0
  0
LINE
  5
1CA
330
1F
100
AcDbEntity
  8
0
  6
Continuous
 62
     7
370
    25
100
AcDbLine
 10
64.2972731941
 20
75.4841138917
 30
0.0
 11
63.616978375
 21
75.4841138917
 31
0.0
  0
LINE
  5
1CB
330
1F
100
AcDbEntity
  8
0
  6
Continuous
 62
     7
370
    25
100
AcDbLine
 10
63.616978375
 20
75.4841138917
 30
0.0
 11
63.616978375
 21
75.7341139327
 31
0.0
  0
ARC
  5
1CC
330
1F
100
AcDbEntity
  8
0
  6
Continuous
 62
     7
370
    25
100
AcDbCircle
 10
63.6169782222
 20
87.2341139439
 30
0.0
 40
0.25
100
AcDbArc
 50
90.0
 51
180.0
  0
LINE
  5
1CD
330
1F
100
AcDbEntity
  8
0
  6
Continuous
 62
     7
370
    25
100
AcDbLine
 10
63.366978334
 20
87.2341139551
 30
0.0
 11
63.616978375
 21
87.2341139551
 31
0.0
  0
LINE
  5
1CE
330
1F
100
AcDbEntity
  8
0
  6
Continuous
 62
     7
370
    25
100
AcDbLine
 10
63.366978334
 20
86.7341138731
 30
0.0
 11
63.366978334
 21
87.2341139551
 31
0.0
  0
LINE
  5
1CF
330
1F
100
AcDbEntity
  8
0
  6
Continuous
 62
     7
370
    25
100
AcDbLine
 10
63.366978334
 20
75.7341139327
 30
0.0
 11
63.366978334
 21
76.2341140147
 31
0.0
  0
LINE
  5
1D0
330
1F
100
AcDbEntity
  8
0
  6
Continuous
 62
     7
370
    25
100
AcDbLine
 10
63.366978334
 20
75.7341139327
 30
0.0
 11
63.616978375
 21
75.7341139327
 31
0.0
  0
LINE
  5
1D1
330
1F
100
AcDbEntity
  8
0
  6
Continuous
 62
     7
370
    25
100
AcDbLine
 10
73.3669781105
 20
76.2341140147
 30
0.0
 11
73.3669781105
 21
75.7341139327
 31
0.0
  0
LINE
  5
1D2
330
1F
100
AcDbEntity
  8
0
  6
Continuous
 62
     7
370
    25
100
AcDbLine
 10
73.3669781105
 20
75.7341139327
 30
0.0
 11
73.1169780695
 21
75.7341139327
 31
0.0
  0
ARC
  5
1D3
330
1F
100
AcDbEntity
  8
0
  6
Continuous
 62
     7
370
    25
100
AcDbCircle
 10
63.6169782222
 20
75.7341139439
 30
0.0
 40
0.25
100
AcDbArc
 50
180.0
 51
270.0
  0
ARC
  5
1D4
330
1F
100
AcDbEntity
  8
0
  6
Continuous
 62
     7
370
    25
100
AcDbCircle
 10
73.1169782222
 20
75.7341139439
 30
0.0
 40
0.25
100
AcDbArc
 50
270.0
 51
0.0
  0
LINE
  5
1D5
330
1F
100
AcDbEntity
  8
0
  6
Continuous
 62
     7
370
    25
100
AcDbLine
 10
90.366978103
 20
86.7341138731
 30
0.0
 11
90.366978103
 21
76.2341140147
 31
0.0
  0
LINE
  5
1D6
330
1F
100
AcDbEntity
  8
0
  6
Continuous
 62
     7
370
    25
100
AcDbLine
 10
74.3669782744
 20
87.484113996
 30
0.0
 11
74.3669782744
 21
87.2341139551
 31
0.0
  0
LINE
  5
1D7
330
1F
100
AcDbEntity
  8
0
  6
Continuous
 62
     7
370
    25
100
AcDbLine
 10
74.3669782744
 20
87.2341139551
 30
0.0
 11
73.3669781105
 21
87.2341139551
 31
0.0
  0
LINE
  5
1D8
330
1F
100
AcDbEntity
  8
0
  6
Continuous
 62
     7
370
    25
100
AcDbLine
 10
73.1169780695
 20
87.484113996
 30
0.0
 11
74.3669782744
 21
87.484113996
 31
0.0
  0
SPLINE
  5
1D9
330
1F
100
AcDbEntity
  8
0
  6
Continuous
 62
     7
370
    25
100
AcDbSpline
210
0.0
220
0.0
230
1.0
 70
     8
 71
     3
 72
    22
 73
    18
 74
     0
 42
0.000000001
 43
0.00000001
 40
0.0
 40
0.0
 40
0.0
 40
0.0
 40
0.0625000000121793
 40
0.0625000000121793
 40
0.1250000000121793
 40
0.1250000000121793
 40
0.1875000000121793
 40
0.1875000000121793
 40
0.2500000000121793
 40
0.2500000000121793
 40
0.3125000000121793
 40
0.3125000000121793
 40
0.3750000000121793
 40
0.3750000000121793
 40
0.4375000000121793
 40
0.4375000000121793
 40
0.5000000000121793
 40
0.5000000000121793
 40
0.5000000000121793
 40
0.5000000000121793
 10
76.3669782222031
 20
87.4841139438744
 30
0.0
 10
76.36697159972937
 20
87.48411394401377
 30
0.0
 10
76.35428484830264
 20
87.48301534194056
 30
0.0
 10
76.30355112750945
 20
87.47911112081309
 30
0.0
 10
76.26739681989287
 20
87.47645969962367
 30
0.0
 10
76.17366639854454
 20
87.4709408818479
 30
0.0
 10
76.11954869660403
 20
87.4682904863698
 30
0.0
 10
75.99709117915795
 20
87.46439024063461
 30
0.0
 10
75.93310535062878
 20
87.46328716030403
 30
0.0
 10
75.80085110643076
 20
87.46329816788577
 30
0.0
 10
75.73671576309314
 20
87.46439390173116
 30
0.0
 10
75.61455727330787
 20
87.46828682452424
 30
0.0
 10
75.56028068837446
 20
87.47094032917832
 30
0.0
 10
75.46656899998274
 20
87.4764602512464
 30
0.0
 10
75.43039307402688
 20
87.47911095888429
 30
0.0
 10
75.37968384865576
 20
87.48301550312527
 30
0.0
 10
75.36697822770014
 20
87.4841139438744
 30
0.0
 10
75.36697822221996
 20
87.4841139438744
 30
0.0
  0
SPLINE
  5
1DA
330
1F
100
AcDbEntity
  8
0
  6
Continuous
 62
     7
370
    25
100
AcDbSpline
210
0.0
220
0.0
230
1.0
 70
    24
 71
     3
 72
    14
 73
    10
 74
     0
 42
0.000000001
 43
0.00000001
 40
0.0
 40
0.0
 40
0.0
 40
0.0
 40
0.25
 40
0.25
 40
0.5
 40
0.5
 40
0.75
 40
0.75
 40
1.0
 40
1.0
 40
1.0
 40
1.0
 10
75.11697822221996
 20
87.4841139438744
 30
0.0
 10
75.11697822221996
 20
87.4841139438744
 30
0.0
 10
75.11697822221996
 20
87.47426903013681
 30
0.0
 10
75.11697822221996
 20
87.43477692382773
 30
0.0
 10
75.11697822221996
 20
87.40512928465247
 30
0.0
 10
75.11697822221996
 20
87.32570014744883
 30
0.0
 10
75.11697822221996
 20
87.27591772337955
 30
0.0
 10
75.11697822221996
 20
87.15568873704494
 30
0.0
 10
75.11697822221996
 20
87.08524070443778
 30
0.0
 10
75.11697822221996
 20
87.0041139438744
 30
0.0
  0
SPLINE
  5
1DB
330
1F
100
AcDbEntity
  8
0
  6
Continuous
 62
     7
370
    25
100
AcDbSpline
210
0.0
220
0.0
230
1.0
 70
    24
 71
     3
 72
    14
 73
    10
 74
     0
 42
0.000000001
 43
0.00000001
 40
0.0
 40
0.0
 40
0.0
 40
0.0
 40
0.25
 40
0.25
 40
0.5
 40
0.5
 40
0.75
 40
0.75
 40
1.0
 40
1.0
 40
1.0
 40
1.0
 10
75.11697822221996
 20
75.4841139438744
 30
0.0
 10
75.11697822221996
 20
75.4841139438744
 30
0.0
 10
75.11697822221996
 20
75.493958857612
 30
0.0
 10
75.11697822221996
 20
75.53345096392108
 30
0.0
 10
75.11697822221996
 20
75.56309860309634
 30
0.0
 10
75.11697822221996
 20
75.64252774029997
 30
0.0
 10
75.11697822221996
 20
75.69231016436926
 30
0.0
 10
75.11697822221996
 20
75.81253915070388
 30
0.0
 10
75.11697822221996
 20
75.88298718331103
 30
0.0
 10
75.11697822221996
 20
75.96411394387441
 30
0.0
  0
LINE
  5
1DC
330
1F
100
AcDbEntity
  8
0
  6
Continuous
 62
     7
370
    25
100
AcDbLine
 10
75.1169783973
 20
77.58457552
 30
0.0
 11
75.1169783973
 21
75.9641138214
 31
0.0
  0
LINE
  5
1DD
330
1F
100
AcDbEntity
  8
0
  6
Continuous
 62
     7
370
    25
100
AcDbLine
 10
75.1169783973
 20
87.0041140664
 30
0.0
 11
75.1169783973
 21
85.3836523677
 31
0.0
  0
LINE
  5
1DE
330
1F
100
AcDbEntity
  8
0
  6
Continuous
 62
     7
370
    25
100
AcDbLine
 10
73.3669781105
 20
75.7341139327
 30
0.0
 11
74.3669782744
 21
75.7341139327
 31
0.0
  0
LINE
  5
1DF
330
1F
100
AcDbEntity
  8
0
  6
Continuous
 62
     7
370
    25
100
AcDbLine
 10
74.3669782744
 20
75.7341139327
 30
0.0
 11
74.3669782744
 21
75.4841138917
 31
0.0
  0
LINE
  5
1E0
330
1F
100
AcDbEntity
  8
0
  6
Continuous
 62
     7
370
    25
100
AcDbLine
 10
74.3669782744
 20
75.4841138917
 30
0.0
 11
73.1169780695
 21
75.4841138917
 31
0.0
  0
LWPOLYLINE
  5
1E1
330
1F
100
AcDbEntity
  8
0
  6
Continuous
 62
     7
370
    25
100
AcDbPolyline
 90
        9
 70
   128
 43
0.0
 10
74.8669783563
 20
85.5461332324
 10
74.8717821182
 20
85.5144347373
 10
74.8860085362
 20
85.483954412
 10
74.9091109239
 20
85.4558638605
 10
74.9402017311
 20
85.43124202
 10
74.9780856051
 20
85.4110351141
 10
75.0213073545
 20
85.3960203315
 10
75.0682054997
 20
85.3867743938
 10
75.1169783973
 20
85.3836523677
  0
LWPOLYLINE
  5
1E2
330
1F
100
AcDbEntity
  8
0
  6
Continuous
 62
     7
370
    25
100
AcDbPolyline
 90
        9
 70
   128
 43
0.0
 10
75.1169783973
 20
77.58457552
 10
75.0682054997
 20
77.5814534939
 10
75.0213073545
 20
77.5722075562
 10
74.9780856051
 20
77.5571927737
 10
74.9402017311
 20
77.5369858678
 10
74.9091109239
 20
77.5123640272
 10
74.8860085362
 20
77.4842734757
 10
74.8717821182
 20
77.4537931505
 10
74.8669783563
 20
77.4220946553
  0
ARC
  5
1E3
330
1F
100
AcDbEntity
  8
0
  6
Continuous
 62
     7
370
    25
100
AcDbCircle
 10
74.6169782222
 20
87.2341139439
 30
0.0
 40
0.25
100
AcDbArc
 50
0.0
 51
90.0
  0
LINE
  5
1E4
330
1F
100
AcDbEntity
  8
0
  6
Continuous
 62
     7
370
    25
100
AcDbLine
 10
74.6169783154
 20
87.2341139551
 30
0.0
 11
74.8669783563
 21
87.2341139551
 31
0.0
  0
LINE
  5
1E5
330
1F
100
AcDbEntity
  8
0
  6
Continuous
 62
     7
370
    25
100
AcDbLine
 10
74.6169783154
 20
87.484113996
 30
0.0
 11
74.6169783154
 21
87.2341139551
 31
0.0
  0
LINE
  5
1E6
330
1F
100
AcDbEntity
  8
0
  6
Continuous
 62
     7
370
    25
100
AcDbLine
 10
74.6169783154
 20
87.2341139551
 30
0.0
 11
74.3669782744
 21
87.2341139551
 31
0.0
  0
LINE
  5
1E7
330
1F
100
AcDbEntity
  8
0
  6
Continuous
 62
     7
370
    25
100
AcDbLine
 10
74.3669782744
 20
87.484113996
 30
0.0
 11
74.6169783154
 21
87.484113996
 31
0.0
  0
LINE
  5
1E8
330
1F
100
AcDbEntity
  8
0
  6
Continuous
 62
     7
370
    25
100
AcDbLine
 10
74.8669783563
 20
87.2341139551
 30
0.0
 11
74.8669783563
 21
85.5461332324
 31
0.0
  0
LINE
  5
1E9
330
1F
100
AcDbEntity
  8
0
  6
Continuous
 62
     7
370
    25
100
AcDbLine
 10
74.3669782744
 20
75.7341139327
 30
0.0
 11
74.6169783154
 21
75.7341139327
 31
0.0
  0
LINE
  5
1EA
330
1F
100
AcDbEntity
  8
0
  6
Continuous
 62
     7
370
    25
100
AcDbLine
 10
74.8669783563
 20
77.4220946553
 30
0.0
 11
74.8669783563
 21
75.7341139327
 31
0.0
  0
LINE
  5
1EB
330
1F
100
AcDbEntity
  8
0
  6
Continuous
 62
     7
370
    25
100
AcDbLine
 10
74.8669783563
 20
75.7341139327
 30
0.0
 11
74.6169783154
 21
75.7341139327
 31
0.0
  0
LINE
  5
1EC
330
1F
100
AcDbEntity
  8
0
  6
Continuous
 62
     7
370
    25
100
AcDbLine
 10
74.6169783154
 20
75.7341139327
 30
0.0
 11
74.6169783154
 21
75.4841138917
 31
0.0
  0
LINE
  5
1ED
330
1F
100
AcDbEntity
  8
0
  6
Continuous
 62
     7
370
    25
100
AcDbLine
 10
74.6169783154
 20
75.4841138917
 30
0.0
 11
74.3669782744
 21
75.4841138917
 31
0.0
  0
ARC
  5
1EE
330
1F
100
AcDbEntity
  8
0
  6
Continuous
 62
     7
370
    25
100
AcDbCircle
 10
74.6169782222
 20
75.7341139439
 30
0.0
 40
0.25
100
AcDbArc
 50
270.0
 51
0.0
  0
SPLINE
  5
1EF
330
1F
100
AcDbEntity
  8
0
  6
Continuous
 62
     7
370
    25
100
AcDbSpline
210
0.0
220
0.0
230
1.0
 70
     8
 71
     3
 72
    12
 73
     8
 74
     0
 42
0.000000001
 43
0.00000001
 40
0.0
 40
0.0
 40
0.0
 40
0.0
 40
0.25
 40
0.25
 40
0.5
 40
0.5
 40
1.0
 40
1.0
 40
1.0
 40
1.0
 10
74.94019362647938
 20
87.07690169098002
 30
0.0
 10
74.92597999644575
 20
87.09067216439102
 30
0.0
 10
74.91327847269318
 20
87.10673618424227
 30
0.0
 10
74.89221104335074
 20
87.14012748843761
 30
0.0
 10
74.88384513776087
 20
87.15745477278172
 30
0.0
 10
74.86721795663621
 20
87.20634577997204
 30
0.0
 10
74.86697822221996
 20
87.2341139438744
 30
0.0
 10
74.86697822221996
 20
87.2341139438744
 30
0.0
  0
SPLINE
  5
1F0
330
1F
100
AcDbEntity
  8
0
  6
Continuous
 62
     7
370
    25
100
AcDbSpline
210
0.0
220
0.0
230
1.0
 70
     8
 71
     3
 72
    10
 73
     6
 74
     0
 42
0.000000001
 43
0.00000001
 40
0.0
 40
0.0
 40
0.0
 40
0.0
 40
0.5
 40
0.5
 40
1.0
 40
1.0
 40
1.0
 40
1.0
 10
74.94019362647938
 20
87.07690169098002
 30
0.0
 10
74.96862088654666
 20
87.04936074415801
 30
0.0
 10
75.0028475247135
 20
87.02974761026834
 30
0.0
 10
75.06586957025108
 20
87.00743873697999
 30
0.0
 10
75.09445528954306
 20
87.0041139438744
 30
0.0
 10
75.11697822221996
 20
87.0041139438744
 30
0.0
  0
SPLINE
  5
1F1
330
1F
100
AcDbEntity
  8
0
  6
Continuous
 62
     7
370
    25
100
AcDbSpline
210
0.0
220
0.0
230
1.0
 70
     8
 71
     3
 72
    10
 73
     6
 74
     0
 42
0.000000001
 43
0.00000001
 40
0.0
 40
0.0
 40
0.0
 40
0.0
 40
0.5
 40
0.5
 40
1.0
 40
1.0
 40
1.0
 40
1.0
 10
74.94019362647938
 20
75.89132619676879
 30
0.0
 10
74.96862088654666
 20
75.9188671435908
 30
0.0
 10
75.0028475247135
 20
75.93848027748047
 30
0.0
 10
75.06586957025108
 20
75.9607891507688
 30
0.0
 10
75.09445528954306
 20
75.96411394387441
 30
0.0
 10
75.11697822221996
 20
75.96411394387441
 30
0.0
  0
SPLINE
  5
1F2
330
1F
100
AcDbEntity
  8
0
  6
Continuous
 62
     7
370
    25
100
AcDbSpline
210
0.0
220
0.0
230
1.0
 70
     8
 71
     3
 72
    12
 73
     8
 74
     0
 42
0.000000001
 43
0.00000001
 40
0.0
 40
0.0
 40
0.0
 40
0.0
 40
0.25
 40
0.25
 40
0.5
 40
0.5
 40
1.0
 40
1.0
 40
1.0
 40
1.0
 10
74.94019362647938
 20
75.89132619676879
 30
0.0
 10
74.92597999644575
 20
75.87755572335779
 30
0.0
 10
74.91327847269318
 20
75.86149170350654
 30
0.0
 10
74.89221104335074
 20
75.82810039931121
 30
0.0
 10
74.88384513776087
 20
75.81077311496709
 30
0.0
 10
74.86721795663621
 20
75.76188210777677
 30
0.0
 10
74.86697822221996
 20
75.7341139438744
 30
0.0
 10
74.86697822221996
 20
75.7341139438744
 30
0.0
  0
LINE
  5
1F3
330
1F
100
AcDbEntity
  8
0
  6
Continuous
 62
     7
370
    25
100
AcDbLine
 10
67.8669781985
 20
79.5476222486
 30
0.0
 11
67.8669781985
 21
83.4206056391
 31
0.0
  0
SPLINE
  5
1F4
330
1F
100
AcDbEntity
  8
0
  6
Continuous
 62
     7
370
    25
100
AcDbSpline
210
0.0
220
0.0
230
1.0
 70
     8
 71
     3
 72
    12
 73
     8
 74
     0
 42
0.000000001
 43
0.00000001
 40
0.0
 40
0.0
 40
0.0
 40
0.0
 40
0.25
 40
0.25
 40
0.5
 40
0.5
 40
1.0
 40
1.0
 40
1.0
 40
1.0
 10
74.86898582250964
 20
87.48282072654587
 30
0.0
 10
74.85872236322051
 20
87.4828105691887
 30
0.0
 10
74.85114358342373
 20
87.47425414307726
 30
0.0
 10
74.83673012797466
 20
87.45288078684236
 30
0.0
 10
74.82989545232236
 20
87.44006385671888
 30
0.0
 10
74.80356969932193
 20
87.41447036057531
 30
0.0
 10
74.79390274796096
 20
87.41074280872668
 30
0.0
 10
74.7937549175158
 20
87.41089063917183
 30
0.0
  0
SPLINE
  5
1F5
330
1F
100
AcDbEntity
  8
0
  6
Continuous
 62
     7
370
    25
100
AcDbSpline
210
0.0
220
0.0
230
1.0
 70
     8
 71
     3
 72
    10
 73
     6
 74
     0
 42
0.000000001
 43
0.00000001
 40
0.0
 40
0.0
 40
0.0
 40
0.0
 40
0.5
 40
0.5
 40
1.0
 40
1.0
 40
1.0
 40
1.0
 10
74.86898582250964
 20
87.48282072654587
 30
0.0
 10
74.8279319853531
 20
87.48278009711724
 30
0.0
 10
74.78385763304007
 20
87.48313865587404
 30
0.0
 10
74.69250636352814
 20
87.48813721045684
 30
0.0
 10
74.65975658203111
 20
87.4841139438744
 30
0.0
 10
74.61697822221996
 20
87.4841139438744
 30
0.0
  0
SPLINE
  5
1F6
330
1F
100
AcDbEntity
  8
0
  6
Continuous
 62
     7
370
    25
100
AcDbSpline
210
0.0
220
0.0
230
1.0
 70
     8
 71
     3
 72
    14
 73
    10
 74
     0
 42
0.000000001
 43
0.00000001
 40
0.0
 40
0.0
 40
0.0
 40
0.0
 40
0.25
 40
0.25
 40
0.5
 40
0.5
 40
0.75
 40
0.75
 40
1.0
 40
1.0
 40
1.0
 40
1.0
 10
74.86898582250964
 20
87.48282072654587
 30
0.0
 10
74.87924928179878
 20
87.48283088390302
 30
0.0
 10
74.89391417222953
 20
87.47429647151
 30
0.0
 10
74.92564955041303
 20
87.43825098340479
 30
0.0
 10
74.94272003816579
 20
87.41073990769257
 30
0.0
 10
74.97286934603207
 20
87.3348535691301
 30
0.0
 10
74.97870081618197
 20
87.29061659672867
 30
0.0
 10
74.9725946929604
 20
87.19137744711
 30
0.0
 10
74.96065709958894
 20
87.1363752698928
 30
0.0
 10
74.94019362647938
 20
87.07690169098002
 30
0.0
  0
SPLINE
  5
1F7
330
1F
100
AcDbEntity
  8
0
  6
Continuous
 62
     7
370
    25
100
AcDbSpline
210
0.0
220
0.0
230
1.0
 70
     8
 71
     3
 72
    12
 73
     8
 74
     0
 42
0.000000001
 43
0.00000001
 40
0.0
 40
0.0
 40
0.0
 40
0.0
 40
0.25
 40
0.25
 40
0.5
 40
0.5
 40
1.0
 40
1.0
 40
1.0
 40
1.0
 10
74.86898582250964
 20
75.48540716120294
 30
0.0
 10
74.85872236322051
 20
75.48541731856011
 30
0.0
 10
74.85114358342373
 20
75.49397374467155
 30
0.0
 10
74.83673012797466
 20
75.51534710090647
 30
0.0
 10
74.82989545232236
 20
75.52816403102992
 30
0.0
 10
74.80356969932194
 20
75.5537575271735
 30
0.0
 10
74.79390274796096
 20
75.55748507902213
 30
0.0
 10
74.7937549175158
 20
75.55733724857699
 30
0.0
  0
SPLINE
  5
1F8
330
1F
100
AcDbEntity
  8
0
  6
Continuous
 62
     7
370
    25
100
AcDbSpline
210
0.0
220
0.0
230
1.0
 70
     8
 71
     3
 72
    12
 73
     8
 74
     0
 42
0.000000001
 43
0.00000001
 40
0.0
 40
0.0
 40
0.0
 40
0.0
 40
0.25
 40
0.25
 40
0.5
 40
0.5
 40
1.0
 40
1.0
 40
1.0
 40
1.0
 10
74.86898582250964
 20
75.48540716120294
 30
0.0
 10
74.87924928179878
 20
75.48539700384579
 30
0.0
 10
74.89391417222953
 20
75.49393141623881
 30
0.0
 10
74.92564955041303
 20
75.52997690434403
 30
0.0
 10
74.94272003816579
 20
75.55748798005624
 30
0.0
 10
74.98794399996522
 20
75.67131748789993
 30
0.0
 10
74.98112057269852
 20
75.77237903894326
 30
0.0
 10
74.94019362647938
 20
75.89132619676879
 30
0.0
  0
SPLINE
  5
1F9
330
1F
100
AcDbEntity
  8
0
  6
Continuous
 62
     7
370
    25
100
AcDbSpline
210
0.0
220
0.0
230
1.0
 70
     8
 71
     3
 72
    10
 73
     6
 74
     0
 42
0.000000001
 43
0.00000001
 40
0.0
 40
0.0
 40
0.0
 40
0.0
 40
0.5
 40
0.5
 40
1.0
 40
1.0
 40
1.0
 40
1.0
 10
74.86898582250964
 20
75.48540716120294
 30
0.0
 10
74.8279319853531
 20
75.48544779063157
 30
0.0
 10
74.78385763304007
 20
75.48508923187477
 30
0.0
 10
74.69250636352814
 20
75.48009067729197
 30
0.0
 10
74.65975658203111
 20
75.4841139438744
 30
0.0
 10
74.61697822221996
 20
75.4841139438744
 30
0.0
  0
SPLINE
  5
1FA
330
1F
100
AcDbEntity
  8
0
  6
Continuous
 62
     7
370
    25
100
AcDbSpline
210
0.0
220
0.0
230
1.0
 70
     8
 71
     3
 72
    10
 73
     6
 74
     0
 42
0.000000001
 43
0.00000001
 40
0.0
 40
0.0
 40
0.0
 40
0.0
 40
0.5
 40
0.5
 40
1.0
 40
1.0
 40
1.0
 40
1.0
 10
74.86898582250964
 20
87.48282072654587
 30
0.0
 10
74.91003965966618
 20
87.48286135597448
 30
0.0
 10
74.95351649004718
 20
87.48330656082271
 30
0.0
 10
75.04257518977153
 20
87.47978095987146
 30
0.0
 10
75.07467855929518
 20
87.4841139438744
 30
0.0
 10
75.11697822221996
 20
87.4841139438744
 30
0.0
  0
SPLINE
  5
1FB
330
1F
100
AcDbEntity
  8
0
  6
Continuous
 62
     7
370
    25
100
AcDbSpline
210
0.0
220
0.0
230
1.0
 70
     8
 71
     3
 72
    10
 73
     6
 74
     0
 42
0.000000001
 43
0.00000001
 40
0.0
 40
0.0
 40
0.0
 40
0.0
 40
0.5
 40
0.5
 40
1.0
 40
1.0
 40
1.0
 40
1.0
 10
74.86898582250964
 20
75.48540716120294
 30
0.0
 10
74.91003965966618
 20
75.48536653177433
 30
0.0
 10
74.95351649004718
 20
75.4849213269261
 30
0.0
 10
75.04257518977153
 20
75.48844692787735
 30
0.0
 10
75.07467855929518
 20
75.4841139438744
 30
0.0
 10
75.11697822221996
 20
75.4841139438744
 30
0.0
  0
LINE
  5
1FC
330
1F
100
AcDbEntity
  8
0
  6
Continuous
 62
     8
370
    25
100
AcDbLine
 10
73.3669781105
 20
87.2341139551
 30
0.0
 11
72.7828586453
 21
87.2341139551
 31
0.0
  0
LINE
  5
1FD
330
1F
100
AcDbEntity
  8
0
  6
Continuous
 62
     8
370
    25
100
AcDbLine
 10
63.9510977992
 20
87.2341139551
 30
0.0
 11
63.616978375
 21
87.2341139551
 31
0.0
  0
LINE
  5
1FE
330
1F
100
AcDbEntity
  8
0
  6
Continuous
 62
     8
370
    25
100
AcDbLine
 10
63.616978375
 20
87.2341139551
 30
0.0
 11
63.616978375
 21
86.9613393518
 31
0.0
  0
LINE
  5
1FF
330
1F
100
AcDbEntity
  8
0
  6
Continuous
 62
     8
370
    25
100
AcDbLine
 10
63.616978375
 20
75.7341139327
 30
0.0
 11
63.9510977992
 21
75.7341139327
 31
0.0
  0
LINE
  5
200
330
1F
100
AcDbEntity
  8
0
  6
Continuous
 62
     8
370
    25
100
AcDbLine
 10
63.616978375
 20
76.0068885359
 30
0.0
 11
63.616978375
 21
75.7341139327
 31
0.0
  0
LINE
  5
201
330
1F
100
AcDbEntity
  8
0
  6
Continuous
 62
     8
370
    25
100
AcDbLine
 10
73.1169780695
 20
75.7341139327
 30
0.0
 11
73.1169780695
 21
76.0068885359
 31
0.0
  0
LINE
  5
202
330
1F
100
AcDbEntity
  8
0
  6
Continuous
 62
     8
370
    25
100
AcDbLine
 10
72.7828586453
 20
75.7341139327
 30
0.0
 11
73.1169780695
 21
75.7341139327
 31
0.0
  0
LINE
  5
203
330
1F
100
AcDbEntity
  8
0
  6
Continuous
 62
     8
370
    25
100
AcDbLine
 10
77.8669779167
 20
75.4841138917
 30
0.0
 11
77.8669779167
 21
87.484113996
 31
0.0
  0
LINE
  5
204
330
1F
100
AcDbEntity
  8
0
  6
Continuous
 62
     8
370
    25
100
AcDbLine
 10
74.3669782744
 20
85.553818972
 30
0.0
 11
74.3669782744
 21
87.2341139551
 31
0.0
  0
SPLINE
  5
205
330
1F
100
AcDbEntity
  8
0
  6
Continuous
 62
     8
370
    25
100
AcDbSpline
210
0.0
220
0.0
230
1.0
 70
     8
 71
     3
 72
    11
 73
     7
 74
     0
 42
0.000000001
 43
0.00000001
 40
0.0
 40
0.0
 40
0.0
 40
0.0
 40
0.0193614791439783
 40
0.2377960367894841
 40
0.6020320268959939
 40
1.0
 40
1.0
 40
1.0
 40
1.0
 10
74.80327123561383
 20
78.1735732528563
 30
0.0
 10
74.80799487608179
 20
78.1714774073714
 30
0.0
 10
74.8660102257431
 20
78.14573641174154
 30
0.0
 10
74.9702398661016
 20
78.03137510611586
 30
0.0
 10
75.09071365467054
 20
77.83305959996015
 30
0.0
 10
75.1079689340863
 20
77.66981177038791
 30
0.0
 10
75.1169783973086
 20
77.58457552000837
 30
0.0
  0
SPLINE
  5
206
330
1F
100
AcDbEntity
  8
0
  6
Continuous
 62
     8
370
    25
100
AcDbSpline
210
0.0
220
0.0
230
1.0
 70
     8
 71
     3
 72
    12
 73
     8
 74
     0
 42
0.000000001
 43
0.00000001
 40
0.0
 40
0.0
 40
0.0
 40
0.0
 40
0.2361394364301569
 40
0.4722661795800547
 40
0.7821592468680486
 40
0.9739093702313757
 40
0.9999999999999999
 40
0.9999999999999999
 40
0.9999999999999999
 40
0.9999999999999999
 10
75.1169783973086
 20
85.38365236774044
 30
0.0
 10
75.1135932684181
 20
85.33355146258893
 30
0.0
 10
75.10682319259904
 20
85.23335234537625
 30
0.0
 10
75.04997705131838
 20
85.06608284567086
 30
0.0
 10
74.95537567750101
 20
84.91941049028704
 30
0.0
 10
74.86111816612389
 20
84.82123453291082
 30
0.0
 10
74.8080562170896
 20
84.7971254013284
 30
0.0
 10
74.80170102575303
 20
84.79423786804037
 30
0.0
  0
LINE
  5
207
330
1F
100
AcDbEntity
  8
0
  6
Continuous
 62
     8
370
    25
100
AcDbLine
 10
74.3669782744
 20
75.7341139327
 30
0.0
 11
74.3669782744
 21
77.4144089158
 31
0.0
  0
SPLINE
  5
208
330
1F
100
AcDbEntity
  8
0
  6
Continuous
 62
     8
370
    25
100
AcDbSpline
210
0.0
220
0.0
230
1.0
 70
     8
 71
     3
 72
    10
 73
     6
 74
     0
 42
0.000000001
 43
0.00000001
 40
0.0
 40
0.0
 40
0.0
 40
0.0
 40
0.5142298856286683
 40
0.838223842047999
 40
1.0
 40
1.0
 40
1.0
 40
1.0
 10
74.8669783563304
 20
85.54613323241429
 30
0.0
 10
74.86011590116325
 20
85.44192862479431
 30
0.0
 10
74.84892971051809
 20
85.2720692117197
 30
0.0
 10
74.79415792295033
 20
85.068938661944
 30
0.0
 10
74.74171569380194
 20
84.98069786547572
 30
0.0
 10
74.72425084346415
 20
84.95131100818472
 30
0.0
  0
SPLINE
  5
209
330
1F
100
AcDbEntity
  8
0
  6
Continuous
 62
     8
370
    25
100
AcDbSpline
210
0.0
220
0.0
230
1.0
 70
     8
 71
     3
 72
    10
 73
     6
 74
     0
 42
0.000000001
 43
0.00000001
 40
0.0
 40
0.0
 40
0.0
 40
0.0
 40
0.1770128250533166
 40
0.5632418482559205
 40
1.0
 40
1.0
 40
1.0
 40
1.0
 10
74.72596308001758
 20
78.01274688273625
 30
0.0
 10
74.74469832162032
 20
77.98068597029321
 30
0.0
 10
74.80431248858632
 20
77.87867049443295
 30
0.0
 10
74.85192055965335
 20
77.67508485813131
 30
0.0
 10
74.8617577650675
 20
77.50980725171553
 30
0.0
 10
74.8669783563304
 20
77.42209465533452
 30
0.0
  0
LINE
  5
20A
330
1F
100
AcDbEntity
  8
0
  6
Continuous
 62
     8
370
    25
100
AcDbLine
 10
74.6169783154
 20
85.1583486731
 30
0.0
 11
74.6169783154
 21
87.2341139551
 31
0.0
  0
LINE
  5
20B
330
1F
100
AcDbEntity
  8
0
  6
Continuous
 62
     8
370
    25
100
AcDbLine
 10
74.6169783154
 20
75.7341139327
 30
0.0
 11
74.6169783154
 21
77.8098792146
 31
0.0
  0
SPLINE
  5
20C
330
1F
100
AcDbEntity
  8
0
  6
Continuous
 62
     8
370
    25
100
AcDbSpline
210
0.0
220
0.0
230
1.0
 70
     8
 71
     3
 72
    14
 73
    10
 74
     0
 42
0.000000001
 43
0.00000001
 40
0.0
 40
0.0
 40
0.0
 40
0.0
 40
0.25
 40
0.25
 40
0.5
 40
0.5
 40
0.75
 40
0.75
 40
1.0
 40
1.0
 40
1.0
 40
1.0
 10
75.61697822221996
 20
87.7841139438744
 30
0.0
 10
75.61697822794744
 20
87.7841139440868
 30
0.0
 10
75.64177660499207
 20
87.78287452029852
 30
0.0
 10
75.73384388014526
 20
87.77994732651864
 30
0.0
 10
75.80003561937362
 20
87.77856229665589
 30
0.0
 10
75.93424708854775
 20
87.7785544192591
 30
0.0
 10
76.00075856939009
 20
87.77996726368293
 30
0.0
 10
76.09191697384607
 20
87.782866631114
 30
0.0
 10
76.11696886114083
 20
87.78411408309877
 30
0.0
 10
76.11697822192878
 20
87.78411394386116
 30
0.0
  0
LWPOLYLINE
  5
20D
330
1F
100
AcDbEntity
  8
0
  6
Continuous
 62
     8
370
    25
100
AcDbPolyline
 90
       13
 70
   128
 43
0.0
 10
76.3669748769
 20
87.5341134454
 10
76.3669786022
 20
87.5341139111
 10
76.33802844
 20
87.5311737257
 10
76.254061328
 20
87.5236397918
 10
76.1256640756
 20
87.5149673159
 10
75.9680540279
 20
87.5090324628
 10
75.7994883672
 20
87.5084434013
 10
75.6406713256
 20
87.5133263256
 10
75.5070744992
 20
87.5215261552
 10
75.4133918301
 20
87.5294964138
 10
75.3695405067
 20
87.5338433619
 10
75.3669784383
 20
87.5341139111
 10
75.3669784383
 20
87.5341139111
  0
INSERT
  5
219
330
1F
100
AcDbEntity
  8
0
  6
Continuous
 62
     7
370
    18
100
AcDbBlockReference
  2
SW_CENTERMARKSYMBOL_1
 10
68.3669782222
 20
81.4841139439
 30
0.0
  0
LINE
  5
21A
330
1F
100
AcDbEntity
  8
0
  6
Continuous
 62
     7
370
    18
100
AcDbLine
 10
89.5017524997
 20
75.73457564
 30
0.0
 11
78.3679782222
 21
75.3866451939
 31
0.0
  0
LINE
  5
21B
330
1F
100
AcDbEntity
  8
0
  6
Continuous
 62
     7
370
    18
100
AcDbLine
 10
89.5017524997
 20
87.2336522477
 30
0.0
 11
78.3679782222
 21
87.5815826939
 31
0.0
  0
LINE
  5
21C
330
1F
100
AcDbEntity
  8
0
  6
Continuous
 62
     7
370
    18
100
AcDbLine
 10
78.3679782222
 20
88.2500826939
 30
0.0
 11
78.3679782222
 21
74.7181451939
 31
0.0
  0
ARC
  5
21D
330
1F
100
AcDbEntity
  8
0
  6
Continuous
 62
     7
370
    18
100
AcDbCircle
 10
68.3669782222
 20
81.4841139439
 30
0.0
 40
4.929554999999999
100
AcDbArc
 50
75.0
 51
345.0
  0
ENDSEC
  0
SECTION
  2
OBJECTS
  0
DICTIONARY
  5
C
330
0
100
AcDbDictionary
281
     1
  3
ACAD_GROUP
350
D
  3
ACAD_LAYOUT
350
1A
  3
ACAD_MLINESTYLE
350
17
  3
ACAD_PLOTSETTINGS
350
19
  3
ACAD_PLOTSTYLENAME
350
E
  3
ACAD_SCALELIST
350
47
  0
DICTIONARY
  5
D
102
{ACAD_REACTORS
330
C
102
}
330
C
100
AcDbDictionary
281
     1
  0
DICTIONARY
  5
1A
102
{ACAD_REACTORS
330
C
102
}
330
C
100
AcDbDictionary
281
     1
  3
Layout1
350
1E
  3
Layout2
350
26
  3
Model
350
22
  0
DICTIONARY
  5
17
102
{ACAD_REACTORS
330
C
102
}
330
C
100
AcDbDictionary
281
     1
  3
Standard
350
18
  0
DICTIONARY
  5
19
102
{ACAD_REACTORS
330
C
102
}
330
C
100
AcDbDictionary
281
     1
  0
ACDBDICTIONARYWDFLT
  5
E
102
{ACAD_REACTORS
330
C
102
}
330
C
100
AcDbDictionary
281
     1
  3
Normal
350
F
100
AcDbDictionaryWithDefault
340
F
  0
DICTIONARY
  5
47
102
{ACAD_REACTORS
330
C
102
}
330
C
100
AcDbDictionary
281
     1
  3
A0
350
48
  3
A1
350
49
  3
A2
350
4A
  3
A3
350
4B
  3
A4
350
4C
  3
A5
350
4D
  3
A6
350
4E
  3
A7
350
4F
  3
A8
350
50
  3
A9
350
51
  3
B0
350
52
  3
B1
350
53
  3
B2
350
54
  3
B3
350
55
  3
B4
350
56
  3
B5
350
57
  3
B6
350
58
  3
B7
350
59
  3
B8
350
5A
  3
B9
350
5B
  3
C0
350
5C
  3
C1
350
5D
  3
C2
350
5E
  3
C3
350
5F
  3
C4
350
60
  3
C5
350
61
  3
C6
350
62
  3
C7
350
63
  3
C8
350
64
  3
C9
350
65
  3
D0
350
66
  3
D1
350
67
  3
D2
350
68
  0
LAYOUT
  5
1E
102
{ACAD_REACTORS
330
1A
102
}
330
1A
100
AcDbPlotSettings
  1

  2
none_device
  4

  6

 40
0.0
 41
0.0
 42
0.0
 43
0.0
 44
0.0
 45
0.0
 46
0.0
 47
0.0
 48
0.0
 49
0.0
140
0.0
141
0.0
142
1.0
143
1.0
 70
   688
 72
     1
 73
     0
 74
     5
  7

 75
    16
147
1.0
148
0.0
149
0.0
100
AcDbLayout
  1
Layout1
 70
     1
 71
     1
 10
0.0
 20
0.0
 11
420.0
 21
297.0
 12
0.0
 22
0.0
 32
0.0
 14
1.0000000000E+20
 24
1.0000000000E+20
 34
1.0000000000E+20
 15
-1.0000000000E+20
 25
-1.0000000000E+20
 35
-1.0000000000E+20
146
0.0
 13
0.0
 23
0.0
 33
0.0
 16
1.0
 26
0.0
 36
0.0
 17
0.0
 27
1.0
 37
0.0
 76
     0
330
1B
  0
LAYOUT
  5
26
102
{ACAD_REACTORS
330
1A
102
}
330
1A
100
AcDbPlotSettings
  1

  2
none_device
  4

  6

 40
0.0
 41
0.0
 42
0.0
 43
0.0
 44
0.0
 45
0.0
 46
0.0
 47
0.0
 48
0.0
 49
0.0
140
0.0
141
0.0
142
1.0
143
1.0
 70
   688
 72
     1
 73
     0
 74
     5
  7

 75
    16
147
1.0
148
0.0
149
0.0
100
AcDbLayout
  1
Layout2
 70
     1
 71
     2
 10
0.0
 20
0.0
 11
0.0
 21
0.0
 12
0.0
 22
0.0
 32
0.0
 14
0.0
 24
0.0
 34
0.0
 15
0.0
 25
0.0
 35
0.0
146
0.0
 13
0.0
 23
0.0
 33
0.0
 16
1.0
 26
0.0
 36
0.0
 17
0.0
 27
1.0
 37
0.0
 76
     0
330
23
  0
LAYOUT
  5
22
102
{ACAD_REACTORS
330
1A
102
}
330
1A
100
AcDbPlotSettings
  1

  2
none_device
  4
Letter_(8.50_x_11.00_Inches)
  6

 40
6.35
 41
6.35
 42
6.35000508
 43
6.35000508
 44
215.9
 45
279.4
 46
0.0
 47
0.0
 48
0.0
 49
0.0
140
0.0
141
0.0
142
1.0
143
1.0
 70
  1712
 72
     1
 73
     0
 74
     0
  7

 75
     0
147
1.0
148
0.0
149
0.0
100
AcDbLayout
  1
Model
 70
     1
 71
     0
 10
0.0
 20
0.0
 11
215.9
 21
139.7
 12
0.0
 22
0.0
 32
0.0
 14
0.0
 24
0.0
 34
0.0
 15
215.9
 25
139.7
 35
0.0
146
0.0
 13
0.0
 23
0.0
 33
0.0
 16
1.0
 26
0.0
 36
0.0
 17
0.0
 27
1.0
 37
0.0
 76
     0
330
1F
331
29
  0
MLINESTYLE
  5
18
102
{ACAD_REACTORS
330
17
102
}
330
17
100
AcDbMlineStyle
  2
Standard
 70
     0
  3

 62
   256
 51
90.0
 52
90.0
 71
     2
 49
0.5
 62
   256
  6
BYLAYER
 49
-0.5
 62
   256
  6
BYLAYER
  0
ACDBPLACEHOLDER
  5
F
102
{ACAD_REACTORS
330
E
102
}
330
E
  0
SCALE
  5
48
102
{ACAD_REACTORS
330
47
102
}
330
47
100
AcDbScale
 70
     0
300
1:1
140
1.0
141
1.0
290
     1
  0
SCALE
  5
49
102
{ACAD_REACTORS
330
47
102
}
330
47
100
AcDbScale
 70
     0
300
1:2
140
1.0
141
2.0
290
     0
  0
SCALE
  5
4A
102
{ACAD_REACTORS
330
47
102
}
330
47
100
AcDbScale
 70
     0
300
1:4
140
1.0
141
4.0
290
     0
  0
SCALE
  5
4B
102
{ACAD_REACTORS
330
47
102
}
330
47
100
AcDbScale
 70
     0
300
1:5
140
1.0
141
5.0
290
     0
  0
SCALE
  5
4C
102
{ACAD_REACTORS
330
47
102
}
330
47
100
AcDbScale
 70
     0
300
1:8
140
1.0
141
8.0
290
     0
  0
SCALE
  5
4D
102
{ACAD_REACTORS
330
47
102
}
330
47
100
AcDbScale
 70
     0
300
1:10
140
1.0
141
10.0
290
     0
  0
SCALE
  5
4E
102
{ACAD_REACTORS
330
47
102
}
330
47
100
AcDbScale
 70
     0
300
1:16
140
1.0
141
16.0
290
     0
  0
SCALE
  5
4F
102
{ACAD_REACTORS
330
47
102
}
330
47
100
AcDbScale
 70
     0
300
1:20
140
1.0
141
20.0
290
     0
  0
SCALE
  5
50
102
{ACAD_REACTORS
330
47
102
}
330
47
100
AcDbScale
 70
     0
300
1:30
140
1.0
141
30.0
290
     0
  0
SCALE
  5
51
102
{ACAD_REACTORS
330
47
102
}
330
47
100
AcDbScale
 70
     0
300
1:40
140
1.0
141
40.0
290
     0
  0
SCALE
  5
52
102
{ACAD_REACTORS
330
47
102
}
330
47
100
AcDbScale
 70
     0
300
1:50
140
1.0
141
50.0
290
     0
  0
SCALE
  5
53
102
{ACAD_REACTORS
330
47
102
}
330
47
100
AcDbScale
 70
     0
300
1:100
140
1.0
141
100.0
290
     0
  0
SCALE
  5
54
102
{ACAD_REACTORS
330
47
102
}
330
47
100
AcDbScale
 70
     0
300
2:1
140
2.0
141
1.0
290
     0
  0
SCALE
  5
55
102
{ACAD_REACTORS
330
47
102
}
330
47
100
AcDbScale
 70
     0
300
4:1
140
4.0
141
1.0
290
     0
  0
SCALE
  5
56
102
{ACAD_REACTORS
330
47
102
}
330
47
100
AcDbScale
 70
     0
300
8:1
140
8.0
141
1.0
290
     0
  0
SCALE
  5
57
102
{ACAD_REACTORS
330
47
102
}
330
47
100
AcDbScale
 70
     0
300
10:1
140
10.0
141
1.0
290
     0
  0
SCALE
  5
58
102
{ACAD_REACTORS
330
47
102
}
330
47
100
AcDbScale
 70
     0
300
100:1
140
100.0
141
1.0
290
     0
  0
SCALE
  5
59
102
{ACAD_REACTORS
330
47
102
}
330
47
100
AcDbScale
 70
     0
300
1/128" = 1'-0"
140
0.0078125
141
12.0
290
     0
  0
SCALE
  5
5A
102
{ACAD_REACTORS
330
47
102
}
330
47
100
AcDbScale
 70
     0
300
1/64" = 1'-0"
140
0.015625
141
12.0
290
     0
  0
SCALE
  5
5B
102
{ACAD_REACTORS
330
47
102
}
330
47
100
AcDbScale
 70
     0
300
1/32" = 1'-0"
140
0.03125
141
12.0
290
     0
  0
SCALE
  5
5C
102
{ACAD_REACTORS
330
47
102
}
330
47
100
AcDbScale
 70
     0
300
1/16" = 1'-0"
140
0.0625
141
12.0
290
     0
  0
SCALE
  5
5D
102
{ACAD_REACTORS
330
47
102
}
330
47
100
AcDbScale
 70
     0
300
3/32" = 1'-0"
140
0.09375
141
12.0
290
     0
  0
SCALE
  5
5E
102
{ACAD_REACTORS
330
47
102
}
330
47
100
AcDbScale
 70
     0
300
1/8" = 1'-0"
140
0.125
141
12.0
290
     0
  0
SCALE
  5
5F
102
{ACAD_REACTORS
330
47
102
}
330
47
100
AcDbScale
 70
     0
300
3/16" = 1'-0"
140
0.1875
141
12.0
290
     0
  0
SCALE
  5
60
102
{ACAD_REACTORS
330
47
102
}
330
47
100
AcDbScale
 70
     0
300
1/4" = 1'-0"
140
0.25
141
12.0
290
     0
  0
SCALE
  5
61
102
{ACAD_REACTORS
330
47
102
}
330
47
100
AcDbScale
 70
     0
300
3/8" = 1'-0"
140
0.375
141
12.0
290
     0
  0
SCALE
  5
62
102
{ACAD_REACTORS
330
47
102
}
330
47
100
AcDbScale
 70
     0
300
1/2" = 1'-0"
140
0.5
141
12.0
290
     0
  0
SCALE
  5
63
102
{ACAD_REACTORS
330
47
102
}
330
47
100
AcDbScale
 70
     0
300
3/4" = 1'-0"
140
0.75
141
12.0
290
     0
  0
SCALE
  5
64
102
{ACAD_REACTORS
330
47
102
}
330
47
100
AcDbScale
 70
     0
300
1" = 1'-0"
140
1.0
141
12.0
290
     0
  0
SCALE
  5
65
102
{ACAD_REACTORS
330
47
102
}
330
47
100
AcDbScale
 70
     0
300
1-1/2" = 1'-0"
140
1.5
141
12.0
290
     0
  0
SCALE
  5
66
102
{ACAD_REACTORS
330
47
102
}
330
47
100
AcDbScale
 70
     0
300
3" = 1'-0"
140
3.0
141
12.0
290
     0
  0
SCALE
  5
67
102
{ACAD_REACTORS
330
47
102
}
330
47
100
AcDbScale
 70
     0
300
6" = 1'-0"
140
6.0
141
12.0
290
     0
  0
SCALE
  5
68
102
{ACAD_REACTORS
330
47
102
}
330
47
100
AcDbScale
 70
     0
300
1'-0" = 1'-0"
140
12.0
141
12.0
290
     0
  0
ENDSEC
  0
EOF
