  0
SECTION
  2
HEADER
  9
$ACADVER
  1
AC1015
  9
$ACADMAINTVER
 70
     6
  9
$DWGCODEPAGE
  3
DOS932
  9
$INSBASE
 10
0.0
 20
0.0
 30
0.0
  9
$EXTMIN
 10
0.0
 20
0.0
 30
0.0
  9
$EXTMAX
 10
431.8
 20
279.4
 30
0.0
  9
$LIMMIN
 10
0.0
 20
0.0
  9
$LIMMAX
 10
431.8
 20
279.4
  9
$ORTHOMODE
 70
     0
  9
$REGENMODE
 70
     1
  9
$FILLMODE
 70
     1
  9
$QTEXTMODE
 70
     0
  9
$MIRRTEXT
 70
     1
  9
$LTSCALE
 40
1.0
  9
$ATTMODE
 70
     1
  9
$TEXTSIZE
 40
3.5
  9
$TRACEWID
 40
1.0
  9
$TEXTSTYLE
  7
Standard
  9
$CLAYER
  8
0
  9
$CELTYPE
  6
ByLayer
  9
$CECOLOR
 62
   256
  9
$CELTSCALE
 40
1.0
  9
$DISPSILH
 70
     0
  9
$DIMSCALE
 40
1.0
  9
$DIMASZ
 40
3.302
  9
$DIMEXO
 40
1.0
  9
$DIMDLI
 40
3.75
  9
$DIMRND
 40
0.0
  9
$DIMDLE
 40
0.0
  9
$DIMEXE
 40
1.0
  9
$DIMTP
 40
0.0
  9
$DIMTM
 40
0.0
  9
$DIMTXT
 40
3.5
  9
$DIMCEN
 40
2.5
  9
$DIMTSZ
 40
0.0
  9
$DIMTOL
 70
     0
  9
$DIMLIM
 70
     0
  9
$DIMTIH
 70
     1
  9
$DIMTOH
 70
     1
  9
$DIMSE1
 70
     0
  9
$DIMSE2
 70
     0
  9
$DIMTAD
 70
     1
  9
$DIMZIN
 70
     1
  9
$DIMBLK
  1

  9
$DIMASO
 70
     1
  9
$DIMSHO
 70
     1
  9
$DIMPOST
  1

  9
$DIMAPOST
  1

  9
$DIMALT
 70
     0
  9
$DIMALTD
 70
     3
  9
$DIMALTF
 40
0.0393700787
  9
$DIMLFAC
 40
1.0
  9
$DIMTOFL
 70
     1
  9
$DIMTVP
 40
0.0
  9
$DIMTIX
 70
     0
  9
$DIMSOXD
 70
     0
  9
$DIMSAH
 70
     0
  9
$DIMBLK1
  1

  9
$DIMBLK2
  1

  9
$DIMSTYLE
  2
ISO-25
  9
$DIMCLRD
 70
     0
  9
$DIMCLRE
 70
     0
  9
$DIMCLRT
 70
     0
  9
$DIMTFAC
 40
1.0
  9
$DIMGAP
 40
1.524
  9
$DIMJUST
 70
     0
  9
$DIMSD1
 70
     0
  9
$DIMSD2
 70
     0
  9
$DIMTOLJ
 70
     0
  9
$DIMTZIN
 70
     1
  9
$DIMALTZ
 70
     0
  9
$DIMALTTZ
 70
     0
  9
$DIMUPT
 70
     0
  9
$DIMDEC
 70
     2
  9
$DIMTDEC
 70
     2
  9
$DIMALTU
 70
     2
  9
$DIMALTTD
 70
     3
  9
$DIMTXSTY
  7
Standard
  9
$DIMAUNIT
 70
     0
  9
$DIMADEC
 70
     2
  9
$DIMALTRND
 40
0.0
  9
$DIMAZIN
 70
     0
  9
$DIMDSEP
 70
    44
  9
$DIMATFIT
 70
     3
  9
$DIMFRAC
 70
     0
  9
$DIMLDRBLK
  1

  9
$DIMLUNIT
 70
     2
  9
$DIMLWD
 70
    -2
  9
$DIMLWE
 70
    -2
  9
$DIMTMOVE
 70
     0
  9
$LUNITS
 70
     2
  9
$LUPREC
 70
     2
  9
$SKETCHINC
 40
1.0
  9
$FILLETRAD
 40
10.0
  9
$AUNITS
 70
     0
  9
$AUPREC
 70
     2
  9
$MENU
  1
.
  9
$ELEVATION
 40
0.0
  9
$PELEVATION
 40
0.0
  9
$THICKNESS
 40
0.0
  9
$LIMCHECK
 70
     0
  9
$CHAMFERA
 40
0.0
  9
$CHAMFERB
 40
0.0
  9
$CHAMFERC
 40
0.0
  9
$CHAMFERD
 40
0.0
  9
$SKPOLY
 70
     0
  9
$TDCREATE
 40
2459285.675239097
  9
$TDUCREATE
 40
2459285.300239097
  9
$TDUPDATE
 40
2459285.675239884
  9
$TDUUPDATE
 40
2459285.300239884
  9
$TDINDWG
 40
0.0000000116
  9
$TDUSRTIMER
 40
0.0000000116
  9
$USRTIMER
 70
     1
  9
$ANGBASE
 50
0.0
  9
$ANGDIR
 70
     0
  9
$PDMODE
 70
     0
  9
$PDSIZE
 40
-1.0
  9
$PLINEWID
 40
0.0
  9
$SPLFRAME
 70
     0
  9
$SPLINETYPE
 70
     6
  9
$SPLINESEGS
 70
     8
  9
$HANDSEED
  5
24B
  9
$SURFTAB1
 70
     6
  9
$SURFTAB2
 70
     6
  9
$SURFTYPE
 70
     6
  9
$SURFU
 70
     6
  9
$SURFV
 70
     6
  9
$UCSBASE
  2

  9
$UCSNAME
  2

  9
$UCSORG
 10
0.0
 20
0.0
 30
0.0
  9
$UCSXDIR
 10
1.0
 20
0.0
 30
0.0
  9
$UCSYDIR
 10
0.0
 20
1.0
 30
0.0
  9
$UCSORTHOREF
  2

  9
$UCSORTHOVIEW
 70
     0
  9
$UCSORGTOP
 10
0.0
 20
0.0
 30
0.0
  9
$UCSORGBOTTOM
 10
0.0
 20
0.0
 30
0.0
  9
$UCSORGLEFT
 10
0.0
 20
0.0
 30
0.0
  9
$UCSORGRIGHT
 10
0.0
 20
0.0
 30
0.0
  9
$UCSORGFRONT
 10
0.0
 20
0.0
 30
0.0
  9
$UCSORGBACK
 10
0.0
 20
0.0
 30
0.0
  9
$PUCSBASE
  2

  9
$PUCSNAME
  2

  9
$PUCSORG
 10
0.0
 20
0.0
 30
0.0
  9
$PUCSXDIR
 10
1.0
 20
0.0
 30
0.0
  9
$PUCSYDIR
 10
0.0
 20
1.0
 30
0.0
  9
$PUCSORTHOREF
  2

  9
$PUCSORTHOVIEW
 70
     0
  9
$PUCSORGTOP
 10
0.0
 20
0.0
 30
0.0
  9
$PUCSORGBOTTOM
 10
0.0
 20
0.0
 30
0.0
  9
$PUCSORGLEFT
 10
0.0
 20
0.0
 30
0.0
  9
$PUCSORGRIGHT
 10
0.0
 20
0.0
 30
0.0
  9
$PUCSORGFRONT
 10
0.0
 20
0.0
 30
0.0
  9
$PUCSORGBACK
 10
0.0
 20
0.0
 30
0.0
  9
$USERI1
 70
     0
  9
$USERI2
 70
     0
  9
$USERI3
 70
     0
  9
$USERI4
 70
     0
  9
$USERI5
 70
     0
  9
$USERR1
 40
0.0
  9
$USERR2
 40
0.0
  9
$USERR3
 40
0.0
  9
$USERR4
 40
0.0
  9
$USERR5
 40
0.0
  9
$WORLDVIEW
 70
     1
  9
$SHADEDGE
 70
     3
  9
$SHADEDIF
 70
    70
  9
$TILEMODE
 70
     1
  9
$MAXACTVP
 70
    64
  9
$PINSBASE
 10
0.0
 20
0.0
 30
0.0
  9
$PLIMCHECK
 70
     0
  9
$PEXTMIN
 10
1.0000000000E+20
 20
1.0000000000E+20
 30
1.0000000000E+20
  9
$PEXTMAX
 10
-1.0000000000E+20
 20
-1.0000000000E+20
 30
-1.0000000000E+20
  9
$PLIMMIN
 10
0.0
 20
0.0
  9
$PLIMMAX
 10
420.0
 20
297.0
  9
$UNITMODE
 70
     0
  9
$VISRETAIN
 70
     1
  9
$PLINEGEN
 70
     0
  9
$PSLTSCALE
 70
     1
  9
$TREEDEPTH
 70
  3020
  9
$CMLSTYLE
  2
Standard
  9
$CMLJUST
 70
     0
  9
$CMLSCALE
 40
20.0
  9
$PROXYGRAPHICS
 70
     1
  9
$MEASUREMENT
 70
     1
  9
$CELWEIGHT
370
    -1
  9
$ENDCAPS
280
     0
  9
$JOINSTYLE
280
     0
  9
$LWDISPLAY
290
     1
  9
$INSUNITS
 70
     4
  9
$HYPERLINKBASE
  1

  9
$STYLESHEET
  1

  9
$XEDIT
290
     1
  9
$CEPSNTYPE
380
     0
  9
$PSTYLEMODE
290
     1
  9
$FINGERPRINTGUID
  2
{F98A844C-2DC8-483F-AF16-DA650C9D744A}
  9
$VERSIONGUID
  2
{FAEB1C32-E019-11D5-929B-00C0DF256EC4}
  9
$EXTNAMES
290
     1
  9
$PSVPSCALE
 40
0.0
  9
$OLESTARTUP
290
     0
  0
ENDSEC
  0
SECTION
  2
CLASSES
  0
CLASS
  1
ACDBDICTIONARYWDFLT
  2
AcDbDictionaryWithDefault
  3
ObjectDBX Classes
 90
        0
280
     0
281
     0
  0
CLASS
  1
VISUALSTYLE
  2
AcDbVisualStyle
  3
ObjectDBX Classes
 90
     4095
280
     0
281
     0
  0
CLASS
  1
MATERIAL
  2
AcDbMaterial
  3
ObjectDBX Classes
 90
     1153
280
     0
281
     0
  0
CLASS
  1
SCALE
  2
AcDbScale
  3
ObjectDBX Classes
 90
     1153
280
     0
281
     0
  0
CLASS
  1
TABLESTYLE
  2
AcDbTableStyle
  3
ObjectDBX Classes
 90
     4095
280
     0
281
     0
  0
CLASS
  1
MLEADERSTYLE
  2
AcDbMLeaderStyle
  3
ACDB_MLEADERSTYLE_CLASS
 90
     4095
280
     0
281
     0
  0
CLASS
  1
SUN
  2
AcDbSun
  3
SCENEOE
 90
     1153
280
     0
281
     0
  0
CLASS
  1
ACDBPLACEHOLDER
  2
AcDbPlaceHolder
  3
ObjectDBX Classes
 90
        0
280
     0
281
     0
  0
CLASS
  1
LAYOUT
  2
AcDbLayout
  3
ObjectDBX Classes
 90
        0
280
     0
281
     0
  0
ENDSEC
  0
SECTION
  2
TABLES
  0
TABLE
  2
VPORT
  5
8
330
0
100
AcDbSymbolTable
 70
     1
  0
VPORT
  5
29
330
8
100
AcDbSymbolTableRecord
100
AcDbViewportTableRecord
  2
*Active
 70
     0
 10
0.0
 20
0.0
 11
1.0
 21
1.0
 12
215.9
 22
139.7
 13
0.0
 23
0.0
 14
10.0
 24
10.0
 15
10.0
 25
10.0
 16
0.0
 26
0.0
 36
1.0
 17
0.0
 27
0.0
 37
0.0
 40
279.4
 41
1.5454545455
 42
50.0
 43
0.0
 44
0.0
 50
0.0
 51
0.0
 71
     0
 72
  2000
 73
     1
 74
     3
 75
     0
 76
     0
 77
     0
 78
     0
281
     0
 65
     1
110
0.0
120
0.0
130
0.0
111
1.0
121
0.0
131
0.0
112
0.0
122
1.0
132
0.0
 79
     0
146
0.0
  0
ENDTAB
  0
TABLE
  2
LTYPE
  5
5
330
0
100
AcDbSymbolTable
 70
     6
  0
LTYPE
  5
14
330
5
100
AcDbSymbolTableRecord
100
AcDbLinetypeTableRecord
  2
ByBlock
 70
     0
  3

 72
    65
 73
     0
 40
0.0
  0
LTYPE
  5
15
330
5
100
AcDbSymbolTableRecord
100
AcDbLinetypeTableRecord
  2
ByLayer
 70
     0
  3

 72
    65
 73
     0
 40
0.0
  0
LTYPE
  5
16
330
5
100
AcDbSymbolTableRecord
100
AcDbLinetypeTableRecord
  2
Continuous
 70
     0
  3
Solid line
 72
    65
 73
     0
 40
0.0
  0
LTYPE
  5
6E
330
5
100
AcDbSymbolTableRecord
100
AcDbLinetypeTableRecord
  2
HIDDEN
 70
     0
  3
Hidden __ __ __ __ __ __ __ __ __ __ __ __ __ __
 72
    65
 73
     2
 40
1.905
 49
1.27
 74
     0
 49
-0.635
 74
     0
  0
LTYPE
  5
6F
330
5
100
AcDbSymbolTableRecord
100
AcDbLinetypeTableRecord
  2
PHANTOM
 70
     0
  3
Phantom ______  __  __  ______  __  __  ______
 72
    65
 73
     6
 40
12.7
 49
6.35
 74
     0
 49
-1.27
 74
     0
 49
1.27
 74
     0
 49
-1.27
 74
     0
 49
1.27
 74
     0
 49
-1.27
 74
     0
  0
LTYPE
  5
70
330
5
100
AcDbSymbolTableRecord
100
AcDbLinetypeTableRecord
  2
CENTER
 70
     0
  3
Center ____ _ ____ _ ____ _ ____ _ ____ _ ____
 72
    65
 73
     4
 40
10.16
 49
6.35
 74
     0
 49
-1.27
 74
     0
 49
1.27
 74
     0
 49
-1.27
 74
     0
  0
LTYPE
  5
71
330
5
100
AcDbSymbolTableRecord
100
AcDbLinetypeTableRecord
  2
CENTERX2
 70
     0
  3
Center (2x) ________  __  ________  __  _____
 72
    65
 73
     4
 40
20.32
 49
12.7
 74
     0
 49
-2.54
 74
     0
 49
2.54
 74
     0
 49
-2.54
 74
     0
  0
LTYPE
  5
72
330
5
100
AcDbSymbolTableRecord
100
AcDbLinetypeTableRecord
  2
DOT2
 70
     0
  3
Dot (.5x) ........................................
 72
    65
 73
     2
 40
0.635
 49
0.0
 74
     0
 49
-0.635
 74
     0
  0
ENDTAB
  0
TABLE
  2
LAYER
  5
2
330
0
100
AcDbSymbolTable
 70
     1
  0
LAYER
  5
10
330
2
100
AcDbSymbolTableRecord
100
AcDbLayerTableRecord
  2
0
 70
     0
 62
     7
  6
Continuous
370
    -3
390
F
  0
ENDTAB
  0
TABLE
  2
STYLE
  5
3
330
0
100
AcDbSymbolTable
 70
     2
  0
STYLE
  5
11
330
3
100
AcDbSymbolTableRecord
100
AcDbTextStyleTableRecord
  2
Standard
 70
     0
 40
0.0
 41
1.0
 50
0.0
 71
     0
 42
3.5
  3
txt
  4
bigfont
  0
STYLE
  5
73
330
3
100
AcDbSymbolTableRecord
100
AcDbTextStyleTableRecord
  2
SLDTEXTSTYLE0
 70
     0
 40
0.0
 41
0.7
 50
0.0
 71
     0
 42
3.5
  3
TXT
  4
bigfont
  0
ENDTAB
  0
TABLE
  2
VIEW
  5
6
330
0
100
AcDbSymbolTable
 70
     0
  0
ENDTAB
  0
TABLE
  2
UCS
  5
7
330
0
100
AcDbSymbolTable
 70
     0
  0
ENDTAB
  0
TABLE
  2
APPID
  5
9
330
0
100
AcDbSymbolTable
 70
     1
  0
APPID
  5
12
330
9
100
AcDbSymbolTableRecord
100
AcDbRegAppTableRecord
  2
ACAD
 70
     0
  0
ENDTAB
  0
TABLE
  2
DIMSTYLE
  5
A
330
0
100
AcDbSymbolTable
 70
     1
100
AcDbDimStyleTable
  0
DIMSTYLE
105
27
330
A
100
AcDbSymbolTableRecord
100
AcDbDimStyleTableRecord
  2
ISO-25
 70
     0
 41
2.5
 42
0.625
 43
3.75
 44
1.25
 73
     0
 74
     0
 77
     1
 78
     8
140
2.5
141
2.5
143
0.0393700787
147
0.625
171
     3
172
     1
178
     0
271
     2
272
     2
274
     3
278
    44
283
     0
284
     8
340
11
  0
ENDTAB
  0
TABLE
  2
BLOCK_RECORD
  5
1
330
0
100
AcDbSymbolTable
 70
     3
  0
BLOCK_RECORD
  5
1F
330
1
100
AcDbSymbolTableRecord
100
AcDbBlockTableRecord
  2
*Model_Space
340
22
  0
BLOCK_RECORD
  5
1B
330
1
100
AcDbSymbolTableRecord
100
AcDbBlockTableRecord
  2
*Paper_Space
340
1E
  0
BLOCK_RECORD
  5
23
330
1
100
AcDbSymbolTableRecord
100
AcDbBlockTableRecord
  2
*Paper_Space0
340
26
  0
BLOCK_RECORD
  5
1DC
330
1
100
AcDbSymbolTableRecord
100
AcDbBlockTableRecord
  2
SW_CENTERMARKSYMBOL_0
340
0
102
{BLKREFS
331
1E7
102
}
  0
BLOCK_RECORD
  5
23B
330
1
100
AcDbSymbolTableRecord
100
AcDbBlockTableRecord
  2
SW_CENTERMARKSYMBOL_1
340
0
102
{BLKREFS
331
246
102
}
  0
ENDTAB
  0
ENDSEC
  0
SECTION
  2
BLOCKS
  0
BLOCK
  5
20
330
1F
100
AcDbEntity
  8
0
100
AcDbBlockBegin
  2
*Model_Space
 70
     0
 10
0.0
 20
0.0
 30
0.0
  3
*Model_Space
  1

  0
ENDBLK
  5
21
330
1F
100
AcDbEntity
  8
0
100
AcDbBlockEnd
  0
BLOCK
  5
1C
330
1B
100
AcDbEntity
 67
     1
  8
0
100
AcDbBlockBegin
  2
*Paper_Space
 70
     0
 10
0.0
 20
0.0
 30
0.0
  3
*Paper_Space
  1

  0
ENDBLK
  5
1D
330
1B
100
AcDbEntity
 67
     1
  8
0
100
AcDbBlockEnd
  0
BLOCK
  5
24
330
23
100
AcDbEntity
  8
0
100
AcDbBlockBegin
  2
*Paper_Space0
 70
     0
 10
0.0
 20
0.0
 30
0.0
  3
*Paper_Space0
  1

  0
ENDBLK
  5
25
330
23
100
AcDbEntity
  8
0
100
AcDbBlockEnd
  0
BLOCK
  5
1DD
330
1DC
100
AcDbEntity
  8
0
100
AcDbBlockBegin
  2
SW_CENTERMARKSYMBOL_0
 70
     0
 10
0.0
 20
0.0
 30
0.0
  3
SW_CENTERMARKSYMBOL_0
  1

  0
LINE
  5
1DF
330
1DC
100
AcDbEntity
  8
0
  6
Continuous
 62
     0
370
    18
100
AcDbLine
 10
0.0
 20
0.0
 30
0.0
 11
0.0
 21
2.5
 31
0.0
  0
LINE
  5
1E0
330
1DC
100
AcDbEntity
  8
0
  6
Continuous
 62
     0
370
    18
100
AcDbLine
 10
0.0
 20
0.0
 30
0.0
 11
-2.5
 21
0.0
 31
0.0
  0
LINE
  5
1E1
330
1DC
100
AcDbEntity
  8
0
  6
Continuous
 62
     0
370
    18
100
AcDbLine
 10
0.0
 20
0.0
 30
0.0
 11
0.0
 21
-2.5
 31
0.0
  0
LINE
  5
1E2
330
1DC
100
AcDbEntity
  8
0
  6
Continuous
 62
     0
370
    18
100
AcDbLine
 10
0.0
 20
0.0
 30
0.0
 11
2.5
 21
0.0
 31
0.0
  0
LINE
  5
1E3
330
1DC
100
AcDbEntity
  8
0
  6
Continuous
 62
     0
370
    18
100
AcDbLine
 10
0.0
 20
5.0
 30
0.0
 11
0.0
 21
28.0440631212
 31
0.0
  0
LINE
  5
1E4
330
1DC
100
AcDbEntity
  8
0
  6
Continuous
 62
     0
370
    18
100
AcDbLine
 10
-5.0
 20
0.0
 30
0.0
 11
-9.5
 21
0.0
 31
0.0
  0
LINE
  5
1E5
330
1DC
100
AcDbEntity
  8
0
  6
Continuous
 62
     0
370
    18
100
AcDbLine
 10
0.0
 20
-5.0
 30
0.0
 11
0.0
 21
-9.5
 31
0.0
  0
LINE
  5
1E6
330
1DC
100
AcDbEntity
  8
0
  6
Continuous
 62
     0
370
    18
100
AcDbLine
 10
5.0
 20
0.0
 30
0.0
 11
9.5
 21
0.0
 31
0.0
  0
ENDBLK
  5
1DE
330
1DC
100
AcDbEntity
  8
0
100
AcDbBlockEnd
  0
BLOCK
  5
23C
330
23B
100
AcDbEntity
  8
0
100
AcDbBlockBegin
  2
SW_CENTERMARKSYMBOL_1
 70
     0
 10
0.0
 20
0.0
 30
0.0
  3
SW_CENTERMARKSYMBOL_1
  1

  0
LINE
  5
23E
330
23B
100
AcDbEntity
  8
0
  6
Continuous
 62
     0
370
    18
100
AcDbLine
 10
0.0
 20
0.0
 30
0.0
 11
0.0
 21
2.5
 31
0.0
  0
LINE
  5
23F
330
23B
100
AcDbEntity
  8
0
  6
Continuous
 62
     0
370
    18
100
AcDbLine
 10
0.0
 20
0.0
 30
0.0
 11
-2.5
 21
0.0
 31
0.0
  0
LINE
  5
240
330
23B
100
AcDbEntity
  8
0
  6
Continuous
 62
     0
370
    18
100
AcDbLine
 10
0.0
 20
0.0
 30
0.0
 11
0.0
 21
-2.5
 31
0.0
  0
LINE
  5
241
330
23B
100
AcDbEntity
  8
0
  6
Continuous
 62
     0
370
    18
100
AcDbLine
 10
0.0
 20
0.0
 30
0.0
 11
2.5
 21
0.0
 31
0.0
  0
LINE
  5
242
330
23B
100
AcDbEntity
  8
0
  6
Continuous
 62
     0
370
    18
100
AcDbLine
 10
0.0
 20
5.0
 30
0.0
 11
0.0
 21
11.5
 31
0.0
  0
LINE
  5
243
330
23B
100
AcDbEntity
  8
0
  6
Continuous
 62
     0
370
    18
100
AcDbLine
 10
-5.0
 20
0.0
 30
0.0
 11
-11.5
 21
0.0
 31
0.0
  0
LINE
  5
244
330
23B
100
AcDbEntity
  8
0
  6
Continuous
 62
     0
370
    18
100
AcDbLine
 10
0.0
 20
-5.0
 30
0.0
 11
0.0
 21
-11.5
 31
0.0
  0
LINE
  5
245
330
23B
100
AcDbEntity
  8
0
  6
Continuous
 62
     0
370
    18
100
AcDbLine
 10
5.0
 20
0.0
 30
0.0
 11
23.7358174523
 21
0.0
 31
0.0
  0
ENDBLK
  5
23D
330
23B
100
AcDbEntity
  8
0
100
AcDbBlockEnd
  0
ENDSEC
  0
SECTION
  2
ENTITIES
  0
MTEXT
  5
74
330
1F
100
AcDbEntity
  8
0
  6
Continuous
 62
     7
370
     0
100
AcDbMText
 10
150.887604281
 20
115.2596220316
 30
0.0
 40
3.7041666667
 41
0.0
 71
     1
 72
     1
  1
5R-LK1012
  7
SLDTEXTSTYLE0
 73
     1
 44
1.0
  0
LINE
  5
75
330
1F
100
AcDbEntity
  8
0
  6
Continuous
 62
     7
370
    25
100
AcDbLine
 10
111.4500092486
 20
99.0260647399
 30
0.0
 11
111.4500092486
 21
87.5260647399
 31
0.0
  0
LINE
  5
76
330
1F
100
AcDbEntity
  8
0
  6
Continuous
 62
     7
370
    25
100
AcDbLine
 10
129.4500092486
 20
87.5260647399
 30
0.0
 11
129.4500092486
 21
99.0260647399
 31
0.0
  0
LINE
  5
77
330
1F
100
AcDbEntity
  8
0
  6
Continuous
 62
     7
370
    25
100
AcDbLine
 10
129.4500092486
 20
99.0260647399
 30
0.0
 11
128.9500092486
 21
99.5260647399
 31
0.0
  0
LINE
  5
78
330
1F
100
AcDbEntity
  8
0
  6
Continuous
 62
     7
370
    25
100
AcDbLine
 10
111.9500092486
 20
99.5260647399
 30
0.0
 11
111.4500092486
 21
99.0260647399
 31
0.0
  0
ARC
  5
79
330
1F
100
AcDbEntity
  8
0
  6
Continuous
 62
     7
370
    25
100
AcDbCircle
 10
112.4500092486
 20
87.5260647399
 30
0.0
 40
1.0
100
AcDbArc
 50
180.0
 51
270.0
  0
ARC
  5
7A
330
1F
100
AcDbEntity
  8
0
  6
Continuous
 62
     7
370
    25
100
AcDbCircle
 10
128.4500092486
 20
87.5260647399
 30
0.0
 40
1.0
100
AcDbArc
 50
270.0
 51
0.0
  0
ARC
  5
7B
330
1F
100
AcDbEntity
  8
0
  6
Continuous
 62
     7
370
    25
100
AcDbCircle
 10
112.4500092486
 20
85.5260647399
 30
0.0
 40
1.0
100
AcDbArc
 50
0.0
 51
90.0
  0
ARC
  5
7C
330
1F
100
AcDbEntity
  8
0
  6
Continuous
 62
     7
370
    25
100
AcDbCircle
 10
128.4500092486
 20
85.5260647399
 30
0.0
 40
1.0
100
AcDbArc
 50
90.0
 51
180.0
  0
LINE
  5
7D
330
1F
100
AcDbEntity
  8
0
  6
Continuous
 62
     7
370
    25
100
AcDbLine
 10
127.4500092486
 20
81.5260647399
 30
0.0
 11
127.4500092486
 21
85.5260647399
 31
0.0
  0
LINE
  5
7E
330
1F
100
AcDbEntity
  8
0
  6
Continuous
 62
     7
370
    25
100
AcDbLine
 10
113.4500092486
 20
85.5260647399
 30
0.0
 11
113.4500092486
 21
69.5260647399
 31
0.0
  0
LINE
  5
7F
330
1F
100
AcDbEntity
  8
0
  6
Continuous
 62
     7
370
    25
100
AcDbLine
 10
115.4500092486
 20
67.5260647399
 30
0.0
 11
130.4500092486
 21
67.5260647399
 31
0.0
  0
LINE
  5
80
330
1F
100
AcDbEntity
  8
0
  6
Continuous
 62
     7
370
    25
100
AcDbLine
 10
130.4500092486
 20
81.5260647399
 30
0.0
 11
127.4500092486
 21
81.5260647399
 31
0.0
  0
LINE
  5
81
330
1F
100
AcDbEntity
  8
0
  6
Continuous
 62
     7
370
    25
100
AcDbLine
 10
130.4500092486
 20
67.5260647399
 30
0.0
 11
130.9500092486
 21
68.0260647399
 31
0.0
  0
LINE
  5
82
330
1F
100
AcDbEntity
  8
0
  6
Continuous
 62
     7
370
    25
100
AcDbLine
 10
130.9500092486
 20
81.0260647399
 30
0.0
 11
130.4500092486
 21
81.5260647399
 31
0.0
  0
LINE
  5
83
330
1F
100
AcDbEntity
  8
0
  6
Continuous
 62
     7
370
    25
100
AcDbLine
 10
130.9500092486
 20
69.4580022399
 30
0.0
 11
140.0950611891
 21
69.743785113
 31
0.0
  0
LINE
  5
84
330
1F
100
AcDbEntity
  8
0
  6
Continuous
 62
     7
370
    25
100
AcDbLine
 10
140.0950611891
 20
79.3083443667
 30
0.0
 11
130.9500092486
 21
79.5941272399
 31
0.0
  0
LINE
  5
85
330
1F
100
AcDbEntity
  8
0
  6
Continuous
 62
     7
370
    25
100
AcDbLine
 10
140.0950611891
 20
69.743785113
 30
0.0
 11
141.4500092486
 21
70.5260647399
 31
0.0
  0
LINE
  5
86
330
1F
100
AcDbEntity
  8
0
  6
Continuous
 62
     7
370
    25
100
AcDbLine
 10
141.4500092486
 20
78.5260647399
 30
0.0
 11
140.0950611891
 21
79.3083443667
 31
0.0
  0
ARC
  5
87
330
1F
100
AcDbEntity
  8
0
  6
Continuous
 62
     7
370
    25
100
AcDbCircle
 10
115.4500092486
 20
69.5260647399
 30
0.0
 40
2.000000000000005
100
AcDbArc
 50
179.7323995453
 51
270.2196324077
  0
LINE
  5
88
330
1F
100
AcDbEntity
  8
0
  6
Continuous
 62
     7
370
    25
100
AcDbLine
 10
129.4500092486
 20
99.0260647399
 30
0.0
 11
111.4500092486
 21
99.0260647399
 31
0.0
  0
LINE
  5
89
330
1F
100
AcDbEntity
  8
0
  6
Continuous
 62
     7
370
    25
100
AcDbLine
 10
111.9500092486
 20
99.5260647399
 30
0.0
 11
128.9500092486
 21
99.5260647399
 31
0.0
  0
LINE
  5
8A
330
1F
100
AcDbEntity
  8
0
  6
Continuous
 62
     7
370
    25
100
AcDbLine
 10
112.4500092494
 20
86.5260647399
 30
0.0
 11
128.4500092486
 21
86.5260647399
 31
0.0
  0
LINE
  5
8B
330
1F
100
AcDbEntity
  8
0
  6
Continuous
 62
     7
370
    25
100
AcDbLine
 10
127.9500092486
 20
80.2760647399
 30
0.0
 11
127.9500092486
 21
77.1718160509
 31
0.0
  0
SPLINE
  5
8C
330
1F
100
AcDbEntity
  8
0
  6
Continuous
 62
     7
370
    25
100
AcDbSpline
210
0.0
220
0.0
230
1.0
 70
     8
 71
     3
 72
    12
 73
     8
 74
     0
 42
0.000000001
 43
0.00000001
 40
0.0
 40
0.0
 40
0.0
 40
0.0
 40
0.25
 40
0.25
 40
0.5
 40
0.5
 40
1.0
 40
1.0
 40
1.0
 40
1.0
 10
127.8767859438501
 20
77.15845010288139
 30
0.0
 10
127.8910632456047
 20
77.1567559580555
 30
0.0
 10
127.9027783530261
 20
77.1548297484994
 30
0.0
 10
127.9218617108163
 20
77.15191428720888
 30
0.0
 10
127.9292299611851
 20
77.1509250354745
 30
0.0
 10
127.9459807241334
 20
77.1514643479271
 30
0.0
 10
127.9500092485549
 20
77.1564999797699
 30
0.0
 10
127.9500092485549
 20
77.17181605094902
 30
0.0
  0
SPLINE
  5
8D
330
1F
100
AcDbEntity
  8
0
  6
Continuous
 62
     7
370
    25
100
AcDbSpline
210
0.0
220
0.0
230
1.0
 70
     8
 71
     3
 72
    10
 73
     6
 74
     0
 42
0.000000001
 43
0.00000001
 40
0.0
 40
0.0
 40
0.0
 40
0.0
 40
0.5
 40
0.5
 40
1.0
 40
1.0
 40
1.0
 40
1.0
 10
127.8767859438501
 20
77.15845010288139
 30
0.0
 10
127.8482313403406
 20
77.16183839253318
 30
0.0
 10
127.8152098052638
 20
77.16517987955008
 30
0.0
 10
127.7522713981178
 20
77.170168708758
 30
0.0
 10
127.7223545260488
 20
77.17181605094902
 30
0.0
 10
127.7000092485549
 20
77.17181605094902
 30
0.0
  0
LINE
  5
8E
330
1F
100
AcDbEntity
  8
0
  6
Continuous
 62
     7
370
    25
100
AcDbLine
 10
127.7000092486
 20
77.1718160509
 30
0.0
 11
127.7000092486
 21
80.2760647399
 31
0.0
  0
LINE
  5
8F
330
1F
100
AcDbEntity
  8
0
  6
Continuous
 62
     7
370
    25
100
AcDbLine
 10
127.7000092486
 20
80.2760647399
 30
0.0
 11
127.9500092486
 21
80.2760647399
 31
0.0
  0
SPLINE
  5
90
330
1F
100
AcDbEntity
  8
0
  6
Continuous
 62
     7
370
    25
100
AcDbSpline
210
0.0
220
0.0
230
1.0
 70
     8
 71
     3
 72
     8
 73
     4
 74
     0
 42
0.000000001
 43
0.00000001
 40
0.0
 40
0.0
 40
0.0
 40
0.0
 40
1.0
 40
1.0
 40
1.0
 40
1.0
 10
114.4345082750369
 20
70.22927833022868
 30
0.0
 10
114.4219924173523
 20
70.32669374934002
 30
0.0
 10
114.4155264899342
 20
70.42557448686729
 30
0.0
 10
114.4155264899342
 20
70.52606473988442
 30
0.0
  0
LINE
  5
91
330
1F
100
AcDbEntity
  8
0
  6
Continuous
 62
     7
370
    25
100
AcDbLine
 10
126.8182957373
 20
80.8943512286
 30
0.0
 11
127.4500092486
 21
81.5260647399
 31
0.0
  0
SPLINE
  5
92
330
1F
100
AcDbEntity
  8
0
  6
Continuous
 62
     7
370
    25
100
AcDbSpline
210
0.0
220
0.0
230
1.0
 70
     8
 71
     3
 72
    12
 73
     8
 74
     0
 42
0.000000001
 43
0.00000001
 40
0.0
 40
0.0
 40
0.0
 40
0.0
 40
0.2500000000000002
 40
0.2500000000000002
 40
0.5000000000000004
 40
0.5000000000000004
 40
1.0
 40
1.0
 40
1.0
 40
1.0
 10
126.4844920071756
 20
81.52606473988443
 30
0.0
 10
126.4844920071756
 20
81.4392589627678
 30
0.0
 10
126.4995908601138
 20
81.35577376423092
 30
0.0
 10
126.5470427183003
 20
81.21179357549265
 30
0.0
 10
126.5779477302165
 20
81.15255744256942
 30
0.0
 10
126.6772814819657
 20
81.00224387441241
 30
0.0
 10
126.7496137537012
 20
80.93987510148366
 30
0.0
 10
126.8182957372522
 20
80.89435122858171
 30
0.0
  0
LINE
  5
93
330
1F
100
AcDbEntity
  8
0
  6
Continuous
 62
     7
370
    25
100
AcDbLine
 10
126.4844920072
 20
81.7760647399
 30
0.0
 11
126.4844920072
 21
81.5260647399
 31
0.0
  0
SPLINE
  5
94
330
1F
100
AcDbEntity
  8
0
  6
Continuous
 62
     7
370
    25
100
AcDbSpline
210
0.0
220
0.0
230
1.0
 70
     8
 71
     3
 72
    14
 73
    10
 74
     0
 42
0.000000001
 43
0.00000001
 40
0.0
 40
0.0
 40
0.0
 40
0.0
 40
0.25
 40
0.25
 40
0.5
 40
0.5
 40
0.75
 40
0.75
 40
1.0
 40
1.0
 40
1.0
 40
1.0
 10
126.4844920071756
 20
81.77606473988442
 30
0.0
 10
126.4844920071756
 20
81.86786713449735
 30
0.0
 10
126.4589818132365
 20
81.95203107341277
 30
0.0
 10
126.392015445447
 20
82.07912675398414
 30
0.0
 10
126.3502008128455
 20
82.12724922323531
 30
0.0
 10
126.260240295164
 20
82.20256700301407
 30
0.0
 10
126.2112333030643
 20
82.22994321610739
 30
0.0
 10
126.109919452525
 20
82.26650506672951
 30
0.0
 10
126.0570508358744
 20
82.27606473988442
 30
0.0
 10
126.0017333864859
 20
82.27606473988442
 30
0.0
  0
LINE
  5
95
330
1F
100
AcDbEntity
  8
0
  6
Continuous
 62
     7
370
    25
100
AcDbLine
 10
123.0045277558
 20
82.2760647399
 30
0.0
 11
126.0017333865
 21
82.2760647399
 31
0.0
  0
SPLINE
  5
96
330
1F
100
AcDbEntity
  8
0
  6
Continuous
 62
     7
370
    25
100
AcDbSpline
210
0.0
220
0.0
230
1.0
 70
    24
 71
     3
 72
    14
 73
    10
 74
     0
 42
0.000000001
 43
0.00000001
 40
0.0
 40
0.0
 40
0.0
 40
0.0
 40
0.25
 40
0.25
 40
0.5
 40
0.5
 40
0.75
 40
0.75
 40
1.0
 40
1.0
 40
1.0
 40
1.0
 10
120.4500092485549
 20
82.27606473988443
 30
0.0
 10
120.6653054790775
 20
82.27606473988443
 30
0.0
 10
120.8806028402207
 20
82.27606473988443
 30
0.0
 10
121.3103366048168
 20
82.27606473988443
 30
0.0
 10
121.5247752742132
 20
82.27606473988443
 30
0.0
 10
121.9518650779233
 20
82.27606473988443
 30
0.0
 10
122.1645184893579
 20
82.27606473988443
 30
0.0
 10
122.5869751918703
 20
82.27606473988442
 30
0.0
 10
122.7967807687555
 20
82.27606473988442
 30
0.0
 10
123.0045277557897
 20
82.27606473988442
 30
0.0
  0
SPLINE
  5
97
330
1F
100
AcDbEntity
  8
0
  6
Continuous
 62
     7
370
    25
100
AcDbSpline
210
0.0
220
0.0
230
1.0
 70
    24
 71
     3
 72
    14
 73
    10
 74
     0
 42
0.000000001
 43
0.00000001
 40
0.0
 40
0.0
 40
0.0
 40
0.0
 40
0.25
 40
0.25
 40
0.5
 40
0.5
 40
0.75
 40
0.75
 40
1.0
 40
1.0
 40
1.0
 40
1.0
 10
120.4500092485549
 20
82.27606473988443
 30
0.0
 10
120.2347130180323
 20
82.27606473988443
 30
0.0
 10
120.0194156568891
 20
82.27606473988443
 30
0.0
 10
119.5896818922931
 20
82.27606473988443
 30
0.0
 10
119.3752432228966
 20
82.27606473988443
 30
0.0
 10
118.9481534191865
 20
82.27606473988443
 30
0.0
 10
118.7355000077519
 20
82.27606473988443
 30
0.0
 10
118.3130433052395
 20
82.27606473988442
 30
0.0
 10
118.1032377283543
 20
82.27606473988442
 30
0.0
 10
117.8954907413201
 20
82.27606473988442
 30
0.0
  0
LINE
  5
98
330
1F
100
AcDbEntity
  8
0
  6
Continuous
 62
     7
370
    25
100
AcDbLine
 10
114.8982851106
 20
82.2760647399
 30
0.0
 11
117.8954907413
 21
82.2760647399
 31
0.0
  0
SPLINE
  5
99
330
1F
100
AcDbEntity
  8
0
  6
Continuous
 62
     7
370
    25
100
AcDbSpline
210
0.0
220
0.0
230
1.0
 70
     8
 71
     3
 72
    14
 73
    10
 74
     0
 42
0.000000001
 43
0.00000001
 40
0.0
 40
0.0
 40
0.0
 40
0.0
 40
0.25
 40
0.25
 40
0.5
 40
0.5
 40
0.75
 40
0.75
 40
1.0
 40
1.0
 40
1.0
 40
1.0
 10
114.8982851106239
 20
82.27606473988442
 30
0.0
 10
114.8430063339983
 20
82.27606473988442
 30
0.0
 10
114.790027655832
 20
82.26651617564829
 30
0.0
 10
114.6882861881059
 20
82.22972605752346
 30
0.0
 10
114.6392419143835
 20
82.2021750102353
 30
0.0
 10
114.5497938694152
 20
82.12717192266514
 30
0.0
 10
114.5079193010907
 20
82.07899154247315
 30
0.0
 10
114.441047672887
 20
81.95202816469633
 30
0.0
 10
114.4155264899342
 20
81.86800568460754
 30
0.0
 10
114.4155264899342
 20
81.77606473988442
 30
0.0
  0
LINE
  5
9A
330
1F
100
AcDbEntity
  8
0
  6
Continuous
 62
     7
370
    25
100
AcDbLine
 10
114.4155264899
 20
70.5260647399
 30
0.0
 11
114.4155264899
 21
81.7760647399
 31
0.0
  0
LINE
  5
9B
330
1F
100
AcDbEntity
  8
0
  6
Continuous
 62
     7
370
    25
100
AcDbLine
 10
126.2000092486
 20
81.7760647399
 30
0.0
 11
123.0957605596
 21
81.7760647399
 31
0.0
  0
LINE
  5
9C
330
1F
100
AcDbEntity
  8
0
  6
Continuous
 62
     7
370
    25
100
AcDbLine
 10
126.2000092486
 20
81.5260647399
 30
0.0
 11
126.2000092486
 21
81.7760647399
 31
0.0
  0
ARC
  5
9D
330
1F
100
AcDbEntity
  8
0
  6
Continuous
 62
     7
370
    25
100
AcDbCircle
 10
127.4500092486
 20
81.5260647399
 30
0.0
 40
1.25
100
AcDbArc
 50
180.0
 51
270.0
  0
LINE
  5
9E
330
1F
100
AcDbEntity
  8
0
  6
Continuous
 62
     7
370
    25
100
AcDbLine
 10
127.7000092486
 20
80.2760647399
 30
0.0
 11
127.4500092486
 21
80.2760647399
 31
0.0
  0
LINE
  5
9F
330
1F
100
AcDbEntity
  8
0
  6
Continuous
 62
     7
370
    25
100
AcDbLine
 10
127.7000092486
 20
77.1718160509
 30
0.0
 11
127.7000092486
 21
74.5260647399
 31
0.0
  0
LINE
  5
A0
330
1F
100
AcDbEntity
  8
0
  6
Continuous
 62
     7
370
    25
100
AcDbLine
 10
127.7000092486
 20
74.5260647399
 30
0.0
 11
127.7000092486
 21
71.8803134288
 31
0.0
  0
LINE
  5
A1
330
1F
100
AcDbEntity
  8
0
  6
Continuous
 62
     7
370
    25
100
AcDbLine
 10
127.7000092486
 20
68.7760647399
 30
0.0
 11
127.7000092486
 21
71.8803134288
 31
0.0
  0
LINE
  5
A2
330
1F
100
AcDbEntity
  8
0
  6
Continuous
 62
     7
370
    25
100
AcDbLine
 10
116.4500092486
 20
68.7760647399
 30
0.0
 11
127.7000092486
 21
68.7760647399
 31
0.0
  0
ARC
  5
A3
330
1F
100
AcDbEntity
  8
0
  6
Continuous
 62
     7
370
    25
100
AcDbCircle
 10
116.4500092486
 20
70.5260647399
 30
0.0
 40
1.75
100
AcDbArc
 50
180.0
 51
270.0
  0
LINE
  5
A4
330
1F
100
AcDbEntity
  8
0
  6
Continuous
 62
     7
370
    25
100
AcDbLine
 10
114.7000092486
 20
81.7760647399
 30
0.0
 11
114.7000092486
 21
70.5260647399
 31
0.0
  0
LINE
  5
A5
330
1F
100
AcDbEntity
  8
0
  6
Continuous
 62
     7
370
    25
100
AcDbLine
 10
117.8042579375
 20
81.7760647399
 30
0.0
 11
114.7000092486
 21
81.7760647399
 31
0.0
  0
LINE
  5
A6
330
1F
100
AcDbEntity
  8
0
  6
Continuous
 62
     7
370
    25
100
AcDbLine
 10
117.8042579375
 20
81.7760647399
 30
0.0
 11
120.4500092486
 21
81.7760647399
 31
0.0
  0
LINE
  5
A7
330
1F
100
AcDbEntity
  8
0
  6
Continuous
 62
     7
370
    25
100
AcDbLine
 10
120.4500092486
 20
81.7760647399
 30
0.0
 11
123.0957605596
 21
81.7760647399
 31
0.0
  0
LINE
  5
A8
330
1F
100
AcDbEntity
  8
0
  6
Continuous
 62
     7
370
    25
100
AcDbLine
 10
125.3019110162
 20
74.3451102445
 30
0.0
 11
126.2771865351
 21
71.618282865
 31
0.0
  0
SPLINE
  5
A9
330
1F
100
AcDbEntity
  8
0
  6
Continuous
 62
     7
370
    25
100
AcDbSpline
210
0.0
220
0.0
230
1.0
 70
     8
 71
     3
 72
    14
 73
    10
 74
     0
 42
0.000000001
 43
0.00000001
 40
0.0
 40
0.0
 40
0.0
 40
0.0
 40
0.25
 40
0.25
 40
0.5
 40
0.5
 40
0.75
 40
0.75
 40
1.0
 40
1.0
 40
1.0
 40
1.0
 10
123.9282634782011
 20
74.34511024452718
 30
0.0
 10
123.9886599014
 20
74.47574762483204
 30
0.0
 10
124.0881894630574
 20
74.58581198999755
 30
0.0
 10
124.3292751538037
 20
74.73558927347072
 30
0.0
 10
124.4705921870972
 20
74.77593521060514
 30
0.0
 10
124.7581854012098
 20
74.7761936415347
 30
0.0
 10
124.8996430570987
 20
74.73637260443695
 30
0.0
 10
125.143262994197
 20
74.58501519028188
 30
0.0
 10
125.2415199931641
 20
74.47573594438222
 30
0.0
 10
125.3019110162438
 20
74.34511024452773
 30
0.0
  0
LINE
  5
AA
330
1F
100
AcDbEntity
  8
0
  6
Continuous
 62
     7
370
    25
100
AcDbLine
 10
122.9532142611
 20
71.6189155946
 30
0.0
 11
123.9282634782
 21
74.3451102445
 31
0.0
  0
SPLINE
  5
AB
330
1F
100
AcDbEntity
  8
0
  6
Continuous
 62
     7
370
    25
100
AcDbSpline
210
0.0
220
0.0
230
1.0
 70
     8
 71
     3
 72
    10
 73
     6
 74
     0
 42
0.000000001
 43
0.00000001
 40
0.0
 40
0.0
 40
0.0
 40
0.0
 40
0.5
 40
0.5
 40
1.0
 40
1.0
 40
1.0
 40
1.0
 10
122.5526103027381
 20
71.48288187159949
 30
0.0
 10
122.6230622009951
 20
71.44411140946934
 30
0.0
 10
122.7083941960899
 20
71.43678906941575
 30
0.0
 10
122.8603801092515
 20
71.48575438445815
 30
0.0
 10
122.9260846745166
 20
71.54306246598283
 30
0.0
 10
122.9532142610657
 20
71.61891559463004
 30
0.0
  0
LINE
  5
AC
330
1F
100
AcDbEntity
  8
0
  6
Continuous
 62
     7
370
    25
100
AcDbLine
 10
121.785000799
 20
71.9053059074
 30
0.0
 11
122.5526103027
 21
71.4828818716
 31
0.0
  0
LINE
  5
AD
330
1F
100
AcDbEntity
  8
0
  6
Continuous
 62
     7
370
    25
100
AcDbLine
 10
122.7847881494
 20
69.9993776936
 30
0.0
 11
121.785000799
 21
71.9053059074
 31
0.0
  0
SPLINE
  5
AE
330
1F
100
AcDbEntity
  8
0
  6
Continuous
 62
     7
370
    25
100
AcDbSpline
210
0.0
220
0.0
230
1.0
 70
     8
 71
     3
 72
    10
 73
     6
 74
     0
 42
0.000000001
 43
0.00000001
 40
0.0
 40
0.0
 40
0.0
 40
0.0
 40
0.5
 40
0.5
 40
1.0
 40
1.0
 40
1.0
 40
1.0
 10
123.2751599929405
 20
69.91080365237922
 30
0.0
 10
123.2030489986185
 20
69.84679788257522
 30
0.0
 10
123.1019448717787
 20
69.81921254432163
 30
0.0
 10
122.9143870137387
 20
69.8530133042854
 30
0.0
 10
122.8295837881464
 20
69.91398226245579
 30
0.0
 10
122.7847881493628
 20
69.99937769358186
 30
0.0
  0
SPLINE
  5
AF
330
1F
100
AcDbEntity
  8
0
  6
Continuous
 62
     7
370
    25
100
AcDbSpline
210
0.0
220
0.0
230
1.0
 70
     8
 71
     3
 72
    14
 73
    10
 74
     0
 42
0.000000001
 43
0.00000001
 40
0.0
 40
0.0
 40
0.0
 40
0.0
 40
0.4999999999999987
 40
0.4999999999999987
 40
0.6249999999999988
 40
0.6249999999999988
 40
0.7499999999999993
 40
0.7499999999999993
 40
1.0
 40
1.0
 40
1.0
 40
1.0
 10
125.9550145015045
 20
69.91080365237912
 30
0.0
 10
125.5869940129346
 20
70.2374588995573
 30
0.0
 10
125.1029462292133
 20
70.41258174294938
 30
0.0
 10
124.4932204431417
 20
70.41260484143855
 30
0.0
 10
124.370113584501
 20
70.40163795904861
 30
0.0
 10
124.1310454920441
 20
70.35875747511844
 30
0.0
 10
124.013858559932
 20
70.32691161839197
 30
0.0
 10
123.6696214976094
 20
70.19890525846318
 30
0.0
 10
123.4591907110423
 20
70.07414944854267
 30
0.0
 10
123.2751599929405
 20
69.91080365237922
 30
0.0
  0
SPLINE
  5
B0
330
1F
100
AcDbEntity
  8
0
  6
Continuous
 62
     7
370
    25
100
AcDbSpline
210
0.0
220
0.0
230
1.0
 70
     8
 71
     3
 72
    10
 73
     6
 74
     0
 42
0.000000001
 43
0.00000001
 40
0.0
 40
0.0
 40
0.0
 40
0.0
 40
0.5
 40
0.5
 40
1.0
 40
1.0
 40
1.0
 40
1.0
 10
126.4453863450824
 20
69.9993776935822
 30
0.0
 10
126.4005873556952
 20
69.91397587508746
 30
0.0
 10
126.3153035100376
 20
69.85278742531173
 30
0.0
 10
126.1278136504368
 20
69.81927690723863
 30
0.0
 10
126.0271345851175
 20
69.846789814914
 30
0.0
 10
125.9550145015045
 20
69.91080365237912
 30
0.0
  0
LINE
  5
B1
330
1F
100
AcDbEntity
  8
0
  6
Continuous
 62
     7
370
    25
100
AcDbLine
 10
127.456733305
 20
71.9273423796
 30
0.0
 11
126.4453863451
 21
69.9993776936
 31
0.0
  0
LINE
  5
B2
330
1F
100
AcDbEntity
  8
0
  6
Continuous
 62
     7
370
    25
100
AcDbLine
 10
126.6817117395
 20
71.4844482992
 30
0.0
 11
127.456733305
 21
71.9273423796
 31
0.0
  0
SPLINE
  5
B3
330
1F
100
AcDbEntity
  8
0
  6
Continuous
 62
     7
370
    25
100
AcDbSpline
210
0.0
220
0.0
230
1.0
 70
     8
 71
     3
 72
    10
 73
     6
 74
     0
 42
0.000000001
 43
0.00000001
 40
0.0
 40
0.0
 40
0.0
 40
0.0
 40
0.5
 40
0.5
 40
1.0
 40
1.0
 40
1.0
 40
1.0
 10
126.2771865351122
 20
71.61828286495415
 30
0.0
 10
126.3046287103024
 20
71.5415557522399
 30
0.0
 10
126.3717113409747
 20
71.48394856687484
 30
0.0
 10
126.5245191954349
 20
71.43599281799139
 30
0.0
 10
126.6111116805998
 20
71.44410316623814
 30
0.0
 10
126.6817117394504
 20
71.48444829923497
 30
0.0
  0
LINE
  5
B4
330
1F
100
AcDbEntity
  8
0
  6
Continuous
 62
     7
370
    25
100
AcDbLine
 10
114.7000092486
 20
82.0260647399
 30
0.0
 11
117.8042579375
 21
82.0260647399
 31
0.0
  0
SPLINE
  5
B5
330
1F
100
AcDbEntity
  8
0
  6
Continuous
 62
     7
370
    25
100
AcDbSpline
210
0.0
220
0.0
230
1.0
 70
     8
 71
     3
 72
    12
 73
     8
 74
     0
 42
0.000000001
 43
0.00000001
 40
0.0
 40
0.0
 40
0.0
 40
0.0
 40
0.25
 40
0.25
 40
0.5
 40
0.5
 40
1.0
 40
1.0
 40
1.0
 40
1.0
 10
117.8176238855579
 20
81.95284143517955
 30
0.0
 10
117.8193180303838
 20
81.96711873693424
 30
0.0
 10
117.8212442399399
 20
81.97883384435566
 30
0.0
 10
117.8241597012304
 20
81.99791720214581
 30
0.0
 10
117.8251489529648
 20
82.0052854525146
 30
0.0
 10
117.8246096405122
 20
82.0220362154629
 30
0.0
 10
117.8195740086694
 20
82.02606473988442
 30
0.0
 10
117.8042579374903
 20
82.02606473988442
 30
0.0
  0
SPLINE
  5
B6
330
1F
100
AcDbEntity
  8
0
  6
Continuous
 62
     7
370
    25
100
AcDbSpline
210
0.0
220
0.0
230
1.0
 70
     8
 71
     3
 72
    10
 73
     6
 74
     0
 42
0.000000001
 43
0.00000001
 40
0.0
 40
0.0
 40
0.0
 40
0.0
 40
0.5
 40
0.5
 40
1.0
 40
1.0
 40
1.0
 40
1.0
 10
117.8176238855579
 20
81.95284143517955
 30
0.0
 10
117.8142355959061
 20
81.92428683167014
 30
0.0
 10
117.8108941088892
 20
81.8912652965933
 30
0.0
 10
117.8059052796813
 20
81.82832688944737
 30
0.0
 10
117.8042579374903
 20
81.79841001737829
 30
0.0
 10
117.8042579374903
 20
81.77606473988442
 30
0.0
  0
LINE
  5
B7
330
1F
100
AcDbEntity
  8
0
  6
Continuous
 62
     7
370
    25
100
AcDbLine
 10
114.7000092486
 20
82.0260647399
 30
0.0
 11
114.7000092486
 21
81.7760647399
 31
0.0
  0
SPLINE
  5
B8
330
1F
100
AcDbEntity
  8
0
  6
Continuous
 62
     7
370
    25
100
AcDbSpline
210
0.0
220
0.0
230
1.0
 70
     8
 71
     3
 72
    10
 73
     6
 74
     0
 42
0.000000001
 43
0.00000001
 40
0.0
 40
0.0
 40
0.0
 40
0.0
 40
0.5
 40
0.5
 40
1.0
 40
1.0
 40
1.0
 40
1.0
 10
127.8767859438501
 20
71.89367937688743
 30
0.0
 10
127.8482313403406
 20
71.89029108723565
 30
0.0
 10
127.8152098052638
 20
71.88694960021876
 30
0.0
 10
127.7522713981178
 20
71.88196077101084
 30
0.0
 10
127.7223545260488
 20
71.88031342881983
 30
0.0
 10
127.7000092485549
 20
71.88031342881983
 30
0.0
  0
SPLINE
  5
B9
330
1F
100
AcDbEntity
  8
0
  6
Continuous
 62
     7
370
    25
100
AcDbSpline
210
0.0
220
0.0
230
1.0
 70
     8
 71
     3
 72
    12
 73
     8
 74
     0
 42
0.000000001
 43
0.00000001
 40
0.0
 40
0.0
 40
0.0
 40
0.0
 40
0.25
 40
0.25
 40
0.5
 40
0.5
 40
1.0
 40
1.0
 40
1.0
 40
1.0
 10
127.8767859438501
 20
71.89367937688743
 30
0.0
 10
127.8910632456047
 20
71.89537352171334
 30
0.0
 10
127.9027783530261
 20
71.89729973126944
 30
0.0
 10
127.9218617108163
 20
71.90021519255994
 30
0.0
 10
127.9292299611851
 20
71.90120444429434
 30
0.0
 10
127.9459807241334
 20
71.90066513184172
 30
0.0
 10
127.9500092485549
 20
71.89562949999892
 30
0.0
 10
127.9500092485549
 20
71.88031342881983
 30
0.0
  0
LINE
  5
BA
330
1F
100
AcDbEntity
  8
0
  6
Continuous
 62
     7
370
    25
100
AcDbLine
 10
127.9500092486
 20
71.8803134288
 30
0.0
 11
127.9500092486
 21
68.7760647399
 31
0.0
  0
LINE
  5
BB
330
1F
100
AcDbEntity
  8
0
  6
Continuous
 62
     7
370
    25
100
AcDbLine
 10
127.7000092486
 20
68.7760647399
 30
0.0
 11
127.9500092486
 21
68.7760647399
 31
0.0
  0
SPLINE
  5
BC
330
1F
100
AcDbEntity
  8
0
  6
Continuous
 62
     7
370
    25
100
AcDbSpline
210
0.0
220
0.0
230
1.0
 70
     8
 71
     3
 72
    12
 73
     8
 74
     0
 42
0.000000001
 43
0.00000001
 40
0.0
 40
0.0
 40
0.0
 40
0.0
 40
0.25
 40
0.25
 40
0.5
 40
0.5
 40
1.0
 40
1.0
 40
1.0
 40
1.0
 10
123.0823946115519
 20
81.95284143517955
 30
0.0
 10
123.080700466726
 20
81.96711873693424
 30
0.0
 10
123.0787742571699
 20
81.97883384435565
 30
0.0
 10
123.0758587958794
 20
81.99791720214583
 30
0.0
 10
123.074869544145
 20
82.0052854525146
 30
0.0
 10
123.0754088565976
 20
82.02203621546289
 30
0.0
 10
123.0804444884404
 20
82.02606473988442
 30
0.0
 10
123.0957605596195
 20
82.02606473988442
 30
0.0
  0
LINE
  5
BD
330
1F
100
AcDbEntity
  8
0
  6
Continuous
 62
     7
370
    25
100
AcDbLine
 10
123.0957605596
 20
82.0260647399
 30
0.0
 11
126.2000092486
 21
82.0260647399
 31
0.0
  0
LINE
  5
BE
330
1F
100
AcDbEntity
  8
0
  6
Continuous
 62
     7
370
    25
100
AcDbLine
 10
126.2000092486
 20
82.0260647399
 30
0.0
 11
126.2000092486
 21
81.7760647399
 31
0.0
  0
SPLINE
  5
BF
330
1F
100
AcDbEntity
  8
0
  6
Continuous
 62
     7
370
    25
100
AcDbSpline
210
0.0
220
0.0
230
1.0
 70
     8
 71
     3
 72
    10
 73
     6
 74
     0
 42
0.000000001
 43
0.00000001
 40
0.0
 40
0.0
 40
0.0
 40
0.0
 40
0.5
 40
0.5
 40
1.0
 40
1.0
 40
1.0
 40
1.0
 10
123.0823946115519
 20
81.95284143517955
 30
0.0
 10
123.0857829012037
 20
81.92428683167014
 30
0.0
 10
123.0891243882206
 20
81.8912652965933
 30
0.0
 10
123.0941132174285
 20
81.82832688944737
 30
0.0
 10
123.0957605596195
 20
81.79841001737829
 30
0.0
 10
123.0957605596195
 20
81.77606473988442
 30
0.0
  0
SPLINE
  5
C0
330
1F
100
AcDbEntity
  8
0
  6
Continuous
 62
     7
370
    25
100
AcDbSpline
210
0.0
220
0.0
230
1.0
 70
    24
 71
     3
 72
    14
 73
    10
 74
     0
 42
0.000000001
 43
0.00000001
 40
0.0
 40
0.0
 40
0.0
 40
0.0
 40
0.25
 40
0.25
 40
0.5
 40
0.5
 40
0.75
 40
0.75
 40
1.0
 40
1.0
 40
1.0
 40
1.0
 10
128.2000092485549
 20
74.52606473988442
 30
0.0
 10
128.2000092485549
 20
74.31076850936184
 30
0.0
 10
128.2000092485549
 20
74.0954711482186
 30
0.0
 10
128.2000092485549
 20
73.66573738362257
 30
0.0
 10
128.2000092485549
 20
73.45129871422611
 30
0.0
 10
128.2000092485549
 20
73.02420891051601
 30
0.0
 10
128.2000092485549
 20
72.81155549908144
 30
0.0
 10
128.2000092485549
 20
72.38909879656904
 30
0.0
 10
128.2000092485549
 20
72.17929321968379
 30
0.0
 10
128.2000092485549
 20
71.97154623264964
 30
0.0
  0
SPLINE
  5
C1
330
1F
100
AcDbEntity
  8
0
  6
Continuous
 62
     7
370
    25
100
AcDbSpline
210
0.0
220
0.0
230
1.0
 70
    24
 71
     3
 72
    14
 73
    10
 74
     0
 42
0.000000001
 43
0.00000001
 40
0.0
 40
0.0
 40
0.0
 40
0.0
 40
0.25
 40
0.25
 40
0.5
 40
0.5
 40
0.75
 40
0.75
 40
1.0
 40
1.0
 40
1.0
 40
1.0
 10
128.2000092485549
 20
74.52606473988442
 30
0.0
 10
128.2000092485549
 20
74.74136097040702
 30
0.0
 10
128.2000092485549
 20
74.95665833155024
 30
0.0
 10
128.2000092485549
 20
75.38639209614625
 30
0.0
 10
128.2000092485549
 20
75.60083076554272
 30
0.0
 10
128.2000092485549
 20
76.02792056925283
 30
0.0
 10
128.2000092485549
 20
76.2405739806874
 30
0.0
 10
128.2000092485549
 20
76.66303068319978
 30
0.0
 10
128.2000092485549
 20
76.87283626008504
 30
0.0
 10
128.2000092485549
 20
77.0805832471192
 30
0.0
  0
LINE
  5
C2
330
1F
100
AcDbEntity
  8
0
  6
Continuous
 62
     7
370
    25
100
AcDbLine
 10
128.2000092486
 20
80.0777888778
 30
0.0
 11
128.2000092486
 21
77.0805832471
 31
0.0
  0
SPLINE
  5
C3
330
1F
100
AcDbEntity
  8
0
  6
Continuous
 62
     7
370
    25
100
AcDbSpline
210
0.0
220
0.0
230
1.0
 70
     8
 71
     3
 72
    14
 73
    10
 74
     0
 42
0.000000001
 43
0.00000001
 40
0.0
 40
0.0
 40
0.0
 40
0.0
 40
0.25
 40
0.25
 40
0.5
 40
0.5
 40
0.75
 40
0.75
 40
1.0
 40
1.0
 40
1.0
 40
1.0
 10
128.2000092485549
 20
80.07778887781545
 30
0.0
 10
128.2000092485549
 20
80.13306765444104
 30
0.0
 10
128.1904606843188
 20
80.18604633260729
 30
0.0
 10
128.1536705661939
 20
80.28778780033343
 30
0.0
 10
128.1261195189058
 20
80.33683207405585
 30
0.0
 10
128.0511164313356
 20
80.42628011902407
 30
0.0
 10
128.0029360511436
 20
80.46815468734866
 30
0.0
 10
127.8759726733668
 20
80.53502631555236
 30
0.0
 10
127.791950193278
 20
80.5605474985051
 30
0.0
 10
127.7000092485549
 20
80.5605474985051
 30
0.0
  0
LINE
  5
C4
330
1F
100
AcDbEntity
  8
0
  6
Continuous
 62
     7
370
    25
100
AcDbLine
 10
127.4500092486
 20
80.5605474985
 30
0.0
 11
127.7000092486
 21
80.5605474985
 31
0.0
  0
SPLINE
  5
C5
330
1F
100
AcDbEntity
  8
0
  6
Continuous
 62
     7
370
    25
100
AcDbSpline
210
0.0
220
0.0
230
1.0
 70
     8
 71
     3
 72
    12
 73
     8
 74
     0
 42
0.000000001
 43
0.00000001
 40
0.0
 40
0.0
 40
0.0
 40
0.0
 40
0.4999999999999991
 40
0.4999999999999991
 40
0.7499999999999996
 40
0.7499999999999996
 40
1.0
 40
1.0
 40
1.0
 40
1.0
 10
126.8182957372522
 20
80.89435122858171
 30
0.0
 10
126.8638196101541
 20
80.82566924503074
 30
0.0
 10
126.9261883830829
 20
80.7533369732952
 30
0.0
 10
127.0765019512399
 20
80.65400322154605
 30
0.0
 10
127.1357380841632
 20
80.62309820962982
 30
0.0
 10
127.2797182729014
 20
80.57564635144331
 30
0.0
 10
127.3632034714383
 20
80.5605474985051
 30
0.0
 10
127.4500092485549
 20
80.5605474985051
 30
0.0
  0
SPLINE
  5
C6
330
1F
100
AcDbEntity
  8
0
  6
Continuous
 62
     7
370
    25
100
AcDbSpline
210
0.0
220
0.0
230
1.0
 70
     8
 71
     3
 72
     8
 73
     4
 74
     0
 42
0.000000001
 43
0.00000001
 40
0.0
 40
0.0
 40
0.0
 40
0.0
 40
1.0
 40
1.0
 40
1.0
 40
1.0
 10
116.4500092485549
 20
68.49158198126374
 30
0.0
 10
116.3495189955378
 20
68.49158198126374
 30
0.0
 10
116.2506382580105
 20
68.49804790868181
 30
0.0
 10
116.1532228388992
 20
68.51056376636639
 30
0.0
  0
LINE
  5
C7
330
1F
100
AcDbEntity
  8
0
  6
Continuous
 62
     7
370
    25
100
AcDbLine
 10
127.7000092486
 20
68.4915819813
 30
0.0
 11
116.4500092486
 21
68.4915819813
 31
0.0
  0
SPLINE
  5
C8
330
1F
100
AcDbEntity
  8
0
  6
Continuous
 62
     7
370
    25
100
AcDbSpline
210
0.0
220
0.0
230
1.0
 70
     8
 71
     3
 72
    14
 73
    10
 74
     0
 42
0.000000001
 43
0.00000001
 40
0.0
 40
0.0
 40
0.0
 40
0.0
 40
0.25
 40
0.25
 40
0.5
 40
0.5
 40
0.75
 40
0.75
 40
1.0
 40
1.0
 40
1.0
 40
1.0
 10
127.7000092485549
 20
68.49158198126372
 30
0.0
 10
127.7918116431678
 20
68.49158198126374
 30
0.0
 10
127.8759755820833
 20
68.51709217520285
 30
0.0
 10
128.0030712626547
 20
68.58405854299232
 30
0.0
 10
128.0511937319058
 20
68.62587317559378
 30
0.0
 10
128.1265115116846
 20
68.71583369327531
 30
0.0
 10
128.1538877247779
 20
68.76484068537502
 30
0.0
 10
128.1904495754
 20
68.8661545359143
 30
0.0
 10
128.2000092485549
 20
68.91902315256492
 30
0.0
 10
128.2000092485549
 20
68.97434060195339
 30
0.0
  0
LINE
  5
C9
330
1F
100
AcDbEntity
  8
0
  6
Continuous
 62
     7
370
    25
100
AcDbLine
 10
128.2000092486
 20
71.9715462326
 30
0.0
 11
128.2000092486
 21
68.974340602
 31
0.0
  0
LINE
  5
CA
330
1F
100
AcDbEntity
  8
0
  6
Continuous
 62
     7
370
    25
100
AcDbLine
 10
130.4500092486
 20
67.5260647399
 30
0.0
 11
130.4500092486
 21
81.5260647399
 31
0.0
  0
SPLINE
  5
CB
330
1F
100
AcDbEntity
  8
0
  6
Continuous
 62
     7
370
    25
100
AcDbSpline
210
0.0
220
0.0
230
1.0
 70
    24
 71
     3
 72
    10
 73
     6
 74
     0
 42
0.000000001
 43
0.00000001
 40
0.0
 40
0.0
 40
0.0
 40
0.0
 40
0.5
 40
0.5
 40
1.0
 40
1.0
 40
1.0
 40
1.0
 10
127.9517290062092
 20
74.52606473988442
 30
0.0
 10
127.910760612413
 20
74.52606473988442
 30
0.0
 10
127.8667961026684
 20
74.52606473988442
 30
0.0
 10
127.7757494629246
 20
74.52606473988442
 30
0.0
 10
127.7428010223438
 20
74.52606473988442
 30
0.0
 10
127.7000092485549
 20
74.52606473988442
 30
0.0
  0
SPLINE
  5
CC
330
1F
100
AcDbEntity
  8
0
  6
Continuous
 62
     7
370
    25
100
AcDbSpline
210
0.0
220
0.0
230
1.0
 70
     8
 71
     3
 72
    12
 73
     8
 74
     0
 42
0.000000001
 43
0.00000001
 40
0.0
 40
0.0
 40
0.0
 40
0.0
 40
0.25
 40
0.25
 40
0.5
 40
0.5
 40
1.0
 40
1.0
 40
1.0
 40
1.0
 10
127.9517290062092
 20
74.52606473988442
 30
0.0
 10
127.9414869077602
 20
74.74475382609077
 30
0.0
 10
127.9339476962068
 20
74.96313662750411
 30
0.0
 10
127.9196181805825
 20
75.40140677953184
 30
0.0
 10
127.9128278765115
 20
75.62129413014623
 30
0.0
 10
127.8865950260582
 20
76.28638868397148
 30
0.0
 10
127.8769123093699
 20
76.71957638904352
 30
0.0
 10
127.8767859438501
 20
77.15845010288139
 30
0.0
  0
SPLINE
  5
CD
330
1F
100
AcDbEntity
  8
0
  6
Continuous
 62
     7
370
    25
100
AcDbSpline
210
0.0
220
0.0
230
1.0
 70
     8
 71
     3
 72
    12
 73
     8
 74
     0
 42
0.000000001
 43
0.00000001
 40
0.0
 40
0.0
 40
0.0
 40
0.0
 40
0.25
 40
0.25
 40
0.5
 40
0.5
 40
1.0
 40
1.0
 40
1.0
 40
1.0
 10
127.9517290062092
 20
74.52606473988442
 30
0.0
 10
127.9414869077601
 20
74.30737565367806
 30
0.0
 10
127.9339476962068
 20
74.08899285226472
 30
0.0
 10
127.9196181805825
 20
73.650722700237
 30
0.0
 10
127.9128278765115
 20
73.43083534962261
 30
0.0
 10
127.8865950260582
 20
72.76574079579736
 30
0.0
 10
127.8769123093699
 20
72.33255309072531
 30
0.0
 10
127.8767859438501
 20
71.89367937688743
 30
0.0
  0
SPLINE
  5
CE
330
1F
100
AcDbEntity
  8
0
  6
Continuous
 62
     7
370
    25
100
AcDbSpline
210
0.0
220
0.0
230
1.0
 70
    24
 71
     3
 72
    10
 73
     6
 74
     0
 42
0.000000001
 43
0.00000001
 40
0.0
 40
0.0
 40
0.0
 40
0.0
 40
0.5
 40
0.5
 40
1.0
 40
1.0
 40
1.0
 40
1.0
 10
120.4500092485549
 20
82.02778449753873
 30
0.0
 10
120.4500092485549
 20
81.98681610374247
 30
0.0
 10
120.4500092485549
 20
81.94285159399796
 30
0.0
 10
120.4500092485549
 20
81.85180495425413
 30
0.0
 10
120.4500092485549
 20
81.81885651367328
 30
0.0
 10
120.4500092485549
 20
81.77606473988442
 30
0.0
  0
SPLINE
  5
CF
330
1F
100
AcDbEntity
  8
0
  6
Continuous
 62
     7
370
    25
100
AcDbSpline
210
0.0
220
0.0
230
1.0
 70
     8
 71
     3
 72
    12
 73
     8
 74
     0
 42
0.000000001
 43
0.00000001
 40
0.0
 40
0.0
 40
0.0
 40
0.0
 40
0.25
 40
0.25
 40
0.5
 40
0.5
 40
1.0
 40
1.0
 40
1.0
 40
1.0
 10
120.4500092485549
 20
82.02778449753873
 30
0.0
 10
120.2313201623486
 20
82.01754239908968
 30
0.0
 10
120.0129373609352
 20
82.01000318753633
 30
0.0
 10
119.5746672089075
 20
81.99567367191199
 30
0.0
 10
119.3547798582931
 20
81.98888336784098
 30
0.0
 10
118.6896853044678
 20
81.9626505173877
 30
0.0
 10
118.2564975993958
 20
81.95296780069938
 30
0.0
 10
117.8176238855579
 20
81.95284143517955
 30
0.0
  0
SPLINE
  5
D0
330
1F
100
AcDbEntity
  8
0
  6
Continuous
 62
     7
370
    25
100
AcDbSpline
210
0.0
220
0.0
230
1.0
 70
     8
 71
     3
 72
    12
 73
     8
 74
     0
 42
0.000000001
 43
0.00000001
 40
0.0
 40
0.0
 40
0.0
 40
0.0
 40
0.25
 40
0.25
 40
0.5
 40
0.5
 40
1.0
 40
1.0
 40
1.0
 40
1.0
 10
120.4500092485549
 20
82.02778449753873
 30
0.0
 10
120.6686983347612
 20
82.01754239908966
 30
0.0
 10
120.8870811361746
 20
82.01000318753633
 30
0.0
 10
121.3253512882023
 20
81.99567367191197
 30
0.0
 10
121.5452386388167
 20
81.98888336784097
 30
0.0
 10
122.210333192642
 20
81.9626505173877
 30
0.0
 10
122.643520897714
 20
81.95296780069938
 30
0.0
 10
123.0823946115519
 20
81.95284143517955
 30
0.0
  0
SPLINE
  5
D1
330
1F
100
AcDbEntity
  8
0
  6
Continuous
 62
     7
370
    25
100
AcDbSpline
210
0.0
220
0.0
230
1.0
 70
     8
 71
     3
 72
    10
 73
     6
 74
     0
 42
0.000000001
 43
0.00000001
 40
0.0
 40
0.0
 40
0.0
 40
0.0
 40
0.5
 40
0.5
 40
1.0
 40
1.0
 40
1.0
 40
1.0
 10
125.0706902078606
 20
74.24924203713424
 30
0.0
 10
125.0706902078606
 20
74.24924203713424
 30
0.0
 10
125.0957077152944
 20
74.25982296766463
 30
0.0
 10
125.180924589805
 20
74.29535775872888
 30
0.0
 10
125.2416141762917
 20
74.3204352769232
 30
0.0
 10
125.3019110162439
 20
74.34511024452775
 30
0.0
  0
SPLINE
  5
D2
330
1F
100
AcDbEntity
  8
0
  6
Continuous
 62
     7
370
    25
100
AcDbSpline
210
0.0
220
0.0
230
1.0
 70
     8
 71
     3
 72
    14
 73
    10
 74
     0
 42
0.000000001
 43
0.00000001
 40
0.0
 40
0.0
 40
0.0
 40
0.0
 40
0.25
 40
0.25
 40
0.5
 40
0.5
 40
0.75
 40
0.75
 40
1.0
 40
1.0
 40
1.0
 40
1.0
 10
125.0706902078606
 20
74.24924203713424
 30
0.0
 10
125.0292421885587
 20
74.33408448161529
 30
0.0
 10
124.9633161333315
 20
74.40424187091136
 30
0.0
 10
124.8014737938719
 20
74.50113181073405
 30
0.0
 10
124.7088695281559
 20
74.52616121091894
 30
0.0
 10
124.5202233132015
 20
74.52596771411746
 30
0.0
 10
124.4273864551239
 20
74.50039456782321
 30
0.0
 10
124.2677746463369
 20
74.40474074380775
 30
0.0
 10
124.2009394861685
 20
74.33409917936639
 30
0.0
 10
124.1594842865846
 20
74.24924203713412
 30
0.0
  0
SPLINE
  5
D3
330
1F
100
AcDbEntity
  8
0
  6
Continuous
 62
     7
370
    25
100
AcDbSpline
210
0.0
220
0.0
230
1.0
 70
     8
 71
     3
 72
    10
 73
     6
 74
     0
 42
0.000000001
 43
0.00000001
 40
0.0
 40
0.0
 40
0.0
 40
0.0
 40
0.5
 40
0.5
 40
1.0
 40
1.0
 40
1.0
 40
1.0
 10
124.1594842865846
 20
74.24924203713412
 30
0.0
 10
124.1594842865846
 20
74.24924203713412
 30
0.0
 10
124.1344667791505
 20
74.25982296766418
 30
0.0
 10
124.0492499046396
 20
74.29535775872851
 30
0.0
 10
123.9885603181537
 20
74.32043527692223
 30
0.0
 10
123.9282634782011
 20
74.34511024452718
 30
0.0
  0
LINE
  5
D4
330
1F
100
AcDbEntity
  8
0
  6
Continuous
 62
     7
370
    25
100
AcDbLine
 10
126.2771865351
 20
71.618282865
 30
0.0
 11
126.0417895974
 21
71.534090931
 31
0.0
  0
LINE
  5
D5
330
1F
100
AcDbEntity
  8
0
  6
Continuous
 62
     7
370
    25
100
AcDbLine
 10
126.0417895974
 20
71.534090931
 30
0.0
 11
125.0706902079
 21
74.2492420371
 31
0.0
  0
LINE
  5
D6
330
1F
100
AcDbEntity
  8
0
  6
Continuous
 62
     7
370
    25
100
AcDbLine
 10
124.1594842866
 20
74.2492420371
 30
0.0
 11
123.1886111987
 21
71.5347236607
 31
0.0
  0
LINE
  5
D7
330
1F
100
AcDbEntity
  8
0
  6
Continuous
 62
     7
370
    25
100
AcDbLine
 10
122.9532142611
 20
71.6189155946
 30
0.0
 11
123.1886111987
 21
71.5347236607
 31
0.0
  0
SPLINE
  5
D8
330
1F
100
AcDbEntity
  8
0
  6
Continuous
 62
     7
370
    25
100
AcDbSpline
210
0.0
220
0.0
230
1.0
 70
     8
 71
     3
 72
     8
 73
     4
 74
     0
 42
0.000000001
 43
0.00000001
 40
0.0
 40
0.0
 40
0.0
 40
0.0
 40
1.0
 40
1.0
 40
1.0
 40
1.0
 10
123.0045277557897
 20
82.27606473988442
 30
0.0
 10
123.0005225255327
 20
82.21061205944827
 30
0.0
 10
123.0063448384582
 20
82.14556249444004
 30
0.0
 10
123.0191056478887
 20
82.09928203395769
 30
0.0
  0
SPLINE
  5
D9
330
1F
100
AcDbEntity
  8
0
  6
Continuous
 62
     7
370
    25
100
AcDbSpline
210
0.0
220
0.0
230
1.0
 70
     8
 71
     3
 72
    12
 73
     8
 74
     0
 42
0.000000001
 43
0.00000001
 40
0.0
 40
0.0
 40
0.0
 40
0.0
 40
0.25
 40
0.25
 40
0.5
 40
0.5
 40
1.0
 40
1.0
 40
1.0
 40
1.0
 10
120.4500092485549
 20
82.02778449753873
 30
0.0
 10
120.6686983347612
 20
82.0380265959878
 30
0.0
 10
120.8858772397697
 20
82.0527093104512
 30
0.0
 10
121.3172262743502
 20
82.08453170110906
 30
0.0
 10
121.5313964039221
 20
82.10167137730352
 30
0.0
 10
122.1694110099219
 20
82.14713944303708
 30
0.0
 10
122.5989376332581
 20
82.14030659197294
 30
0.0
 10
123.0191056478887
 20
82.09928203395769
 30
0.0
  0
SPLINE
  5
DA
330
1F
100
AcDbEntity
  8
0
  6
Continuous
 62
     7
370
    25
100
AcDbSpline
210
0.0
220
0.0
230
1.0
 70
    24
 71
     3
 72
    10
 73
     6
 74
     0
 42
0.000000001
 43
0.00000001
 40
0.0
 40
0.0
 40
0.0
 40
0.0
 40
0.5
 40
0.5
 40
1.0
 40
1.0
 40
1.0
 40
1.0
 10
120.4500092485549
 20
82.02778449753873
 30
0.0
 10
120.4500092485549
 20
82.068752891335
 30
0.0
 10
120.4500092485549
 20
82.11220833840693
 30
0.0
 10
120.4500092485549
 20
82.20129418362417
 30
0.0
 10
120.4500092485549
 20
82.23368141223948
 30
0.0
 10
120.4500092485549
 20
82.27606473988443
 30
0.0
  0
SPLINE
  5
DB
330
1F
100
AcDbEntity
  8
0
  6
Continuous
 62
     7
370
    25
100
AcDbSpline
210
0.0
220
0.0
230
1.0
 70
     8
 71
     3
 72
    12
 73
     8
 74
     0
 42
0.000000001
 43
0.00000001
 40
0.0
 40
0.0
 40
0.0
 40
0.0
 40
0.25
 40
0.25
 40
0.5
 40
0.5
 40
1.0
 40
1.0
 40
1.0
 40
1.0
 10
120.4500092485549
 20
82.02778449753873
 30
0.0
 10
120.2313201623486
 20
82.0380265959878
 30
0.0
 10
120.0141412573401
 20
82.0527093104512
 30
0.0
 10
119.5827922227596
 20
82.08453170110907
 30
0.0
 10
119.3686220931877
 20
82.10167137730353
 30
0.0
 10
118.7306074871879
 20
82.14713944303708
 30
0.0
 10
118.3010808638517
 20
82.14030659197294
 30
0.0
 10
117.8809128492211
 20
82.09928203395769
 30
0.0
  0
SPLINE
  5
DC
330
1F
100
AcDbEntity
  8
0
  6
Continuous
 62
     7
370
    25
100
AcDbSpline
210
0.0
220
0.0
230
1.0
 70
     8
 71
     3
 72
    10
 73
     6
 74
     0
 42
0.000000001
 43
0.00000001
 40
0.0
 40
0.0
 40
0.0
 40
0.0
 40
0.5
 40
0.5
 40
1.0
 40
1.0
 40
1.0
 40
1.0
 10
117.8809128492211
 20
82.09928203395769
 30
0.0
 10
117.8882048296787
 20
82.12783585592128
 30
0.0
 10
117.8921019923035
 20
82.16219588765371
 30
0.0
 10
117.8956381962853
 20
82.22523871218283
 30
0.0
 10
117.8954907413201
 20
82.25371762216108
 30
0.0
 10
117.8954907413201
 20
82.27606473988442
 30
0.0
  0
SPLINE
  5
DD
330
1F
100
AcDbEntity
  8
0
  6
Continuous
 62
     7
370
    25
100
AcDbSpline
210
0.0
220
0.0
230
1.0
 70
     8
 71
     3
 72
    14
 73
    10
 74
     0
 42
0.000000001
 43
0.00000001
 40
0.0
 40
0.0
 40
0.0
 40
0.0
 40
0.25
 40
0.25
 40
0.5
 40
0.5
 40
0.75
 40
0.75
 40
1.0
 40
1.0
 40
1.0
 40
1.0
 10
127.9517290062092
 20
74.52606473988442
 30
0.0
 10
127.9619711046583
 20
74.74475382609077
 30
0.0
 10
127.9766538191217
 20
74.96193273109925
 30
0.0
 10
128.0084762097796
 20
75.39328176567967
 30
0.0
 10
128.025615885974
 20
75.60745189525161
 30
0.0
 10
128.0559279297964
 20
76.03279496591817
 30
0.0
 10
128.0617977279859
 20
76.24651238941885
 30
0.0
 10
128.0557031739056
 20
76.67265347241121
 30
0.0
 10
128.0437388216358
 20
76.88507713190292
 30
0.0
 10
128.0232265426282
 20
77.09516113921825
 30
0.0
  0
SPLINE
  5
DE
330
1F
100
AcDbEntity
  8
0
  6
Continuous
 62
     7
370
    25
100
AcDbSpline
210
0.0
220
0.0
230
1.0
 70
     8
 71
     3
 72
     8
 73
     4
 74
     0
 42
0.000000001
 43
0.00000001
 40
0.0
 40
0.0
 40
0.0
 40
0.0
 40
1.0
 40
1.0
 40
1.0
 40
1.0
 10
128.0232265426282
 20
77.09516113921825
 30
0.0
 10
128.0695070031105
 20
77.08240032978769
 30
0.0
 10
128.1345565681188
 20
77.07657801686223
 30
0.0
 10
128.2000092485549
 20
77.0805832471192
 30
0.0
  0
SPLINE
  5
DF
330
1F
100
AcDbEntity
  8
0
  6
Continuous
 62
     7
370
    25
100
AcDbSpline
210
0.0
220
0.0
230
1.0
 70
    24
 71
     3
 72
    10
 73
     6
 74
     0
 42
0.000000001
 43
0.00000001
 40
0.0
 40
0.0
 40
0.0
 40
0.0
 40
0.5
 40
0.5
 40
1.0
 40
1.0
 40
1.0
 40
1.0
 10
127.9517290062092
 20
74.52606473988442
 30
0.0
 10
127.9926974000055
 20
74.52606473988442
 30
0.0
 10
128.0361528470774
 20
74.52606473988442
 30
0.0
 10
128.1252386922946
 20
74.52606473988442
 30
0.0
 10
128.15762592091
 20
74.52606473988442
 30
0.0
 10
128.2000092485549
 20
74.52606473988442
 30
0.0
  0
SPLINE
  5
E0
330
1F
100
AcDbEntity
  8
0
  6
Continuous
 62
     7
370
    25
100
AcDbSpline
210
0.0
220
0.0
230
1.0
 70
     8
 71
     3
 72
    10
 73
     6
 74
     0
 42
0.000000001
 43
0.00000001
 40
0.0
 40
0.0
 40
0.0
 40
0.0
 40
0.5
 40
0.5
 40
1.0
 40
1.0
 40
1.0
 40
1.0
 10
128.0232265426282
 20
71.9569683405506
 30
0.0
 10
128.0517803645918
 20
71.96426032100824
 30
0.0
 10
128.0861403963242
 20
71.96815748363305
 30
0.0
 10
128.1491832208533
 20
71.97169368761477
 30
0.0
 10
128.1776621308316
 20
71.97154623264964
 30
0.0
 10
128.2000092485549
 20
71.97154623264964
 30
0.0
  0
SPLINE
  5
E1
330
1F
100
AcDbEntity
  8
0
  6
Continuous
 62
     7
370
    25
100
AcDbSpline
210
0.0
220
0.0
230
1.0
 70
     8
 71
     3
 72
    14
 73
    10
 74
     0
 42
0.000000001
 43
0.00000001
 40
0.0
 40
0.0
 40
0.0
 40
0.0
 40
0.25
 40
0.25
 40
0.5
 40
0.5
 40
0.75
 40
0.75
 40
1.0
 40
1.0
 40
1.0
 40
1.0
 10
127.9517290062092
 20
74.52606473988442
 30
0.0
 10
127.9619711046583
 20
74.30737565367806
 30
0.0
 10
127.9766538191217
 20
74.09019674866958
 30
0.0
 10
128.0084762097795
 20
73.65884771408916
 30
0.0
 10
128.025615885974
 20
73.44467758451721
 30
0.0
 10
128.0559279297964
 20
73.01933451385068
 30
0.0
 10
128.0617977279859
 20
72.80561709035
 30
0.0
 10
128.0557031739056
 20
72.37947600735761
 30
0.0
 10
128.0437388216358
 20
72.1670523478659
 30
0.0
 10
128.0232265426282
 20
71.9569683405506
 30
0.0
  0
SPLINE
  5
E2
330
1F
100
AcDbEntity
  8
0
  6
Continuous
 62
     7
370
    25
100
AcDbSpline
210
0.0
220
0.0
230
1.0
 70
     8
 71
     3
 72
    15
 73
    11
 74
     0
 42
0.000000001
 43
0.00000001
 40
0.0
 40
0.0
 40
0.0
 40
0.0
 40
0.0425877399909041
 40
0.1028282325346875
 40
0.1864706729280299
 40
0.2956205441869006
 40
0.4311891005861807
 40
0.5936297641565581
 40
0.7831876993469636
 40
1.0
 40
1.0
 40
1.0
 40
1.0
 10
127.9500092485549
 20
77.17181605094902
 30
0.0
 10
127.950015041657
 20
77.16899672746851
 30
0.0
 10
127.9500290291204
 20
77.16218946203236
 30
0.0
 10
127.9505207299522
 20
77.15364926569147
 30
0.0
 10
127.9521480839108
 20
77.14435158316107
 30
0.0
 10
127.9559732322949
 20
77.13454384753408
 30
0.0
 10
127.9633455423357
 20
77.12421820148498
 30
0.0
 10
127.9759635313125
 20
77.11375149003301
 30
0.0
 10
127.9952077335167
 20
77.10341825479233
 30
0.0
 10
128.0134784798869
 20
77.09803388375059
 30
0.0
 10
128.0232265426282
 20
77.09516113921825
 30
0.0
  0
SPLINE
  5
E3
330
1F
100
AcDbEntity
  8
0
  6
Continuous
 62
     7
370
    25
100
AcDbSpline
210
0.0
220
0.0
230
1.0
 70
     8
 71
     3
 72
    12
 73
     8
 74
     0
 42
0.000000001
 43
0.00000001
 40
0.0
 40
0.0
 40
0.0
 40
0.0
 40
0.25
 40
0.25
 40
0.5
 40
0.5
 40
1.0
 40
1.0
 40
1.0
 40
1.0
 10
117.8809128492211
 20
82.09928203395769
 30
0.0
 10
117.8772668589923
 20
82.08500512297591
 30
0.0
 10
117.8727103260598
 20
82.07224258672638
 30
0.0
 10
117.8620917120759
 20
82.0510958338475
 30
0.0
 10
117.8560296310243
 20
82.04271161721816
 30
0.0
 10
117.8360583716234
 20
82.02615080199394
 30
0.0
 10
117.8207075786542
 20
82.02606473988442
 30
0.0
 10
117.8042579374903
 20
82.02606473988442
 30
0.0
  0
SPLINE
  5
E4
330
1F
100
AcDbEntity
  8
0
  6
Continuous
 62
     7
370
    25
100
AcDbSpline
210
0.0
220
0.0
230
1.0
 70
     8
 71
     3
 72
    12
 73
     8
 74
     0
 42
0.000000001
 43
0.00000001
 40
0.0
 40
0.0
 40
0.0
 40
0.0
 40
0.25
 40
0.25
 40
0.5
 40
0.5
 40
1.0
 40
1.0
 40
1.0
 40
1.0
 10
128.0232265426282
 20
71.9569683405506
 30
0.0
 10
128.0089496316464
 20
71.95332235032177
 30
0.0
 10
127.9961870953969
 20
71.94876581738933
 30
0.0
 10
127.975040342518
 20
71.93814720340538
 30
0.0
 10
127.9666561258886
 20
71.93208512235387
 30
0.0
 10
127.9500953106644
 20
71.9121138629529
 30
0.0
 10
127.9500092485549
 20
71.89676306998369
 30
0.0
 10
127.9500092485549
 20
71.88031342881983
 30
0.0
  0
SPLINE
  5
E5
330
1F
100
AcDbEntity
  8
0
  6
Continuous
 62
     7
370
    25
100
AcDbSpline
210
0.0
220
0.0
230
1.0
 70
     8
 71
     3
 72
    14
 73
    10
 74
     0
 42
0.000000001
 43
0.00000001
 40
0.0
 40
0.0
 40
0.0
 40
0.0
 40
0.2455893235675696
 40
0.4556181963142487
 40
0.6303106213393677
 40
0.7701164303669036
 40
0.8759901151610805
 40
0.9502659312389182
 40
1.0
 40
1.0
 40
1.0
 40
1.0
 10
123.0191056478887
 20
82.09928203395769
 30
0.0
 10
123.022397225362
 20
82.0883169946424
 30
0.0
 10
123.0285037717281
 20
82.06797461427024
 30
0.0
 10
123.0404267619873
 20
82.04782260179377
 30
0.0
 10
123.0523558445018
 20
82.03570304232292
 30
0.0
 10
123.0638030518659
 20
82.02949721909053
 30
0.0
 10
123.0746885769127
 20
82.02687752011668
 30
0.0
 10
123.0843758387038
 20
82.02609732577164
 30
0.0
 10
123.0925016922971
 20
82.02607406756876
 30
0.0
 10
123.0957605596195
 20
82.02606473988442
 30
0.0
  0
LINE
  5
E6
330
1F
100
AcDbEntity
  8
0
  6
Continuous
 62
     7
370
    25
100
AcDbLine
 10
127.4500092486
 20
80.5260647399
 30
0.0
 11
127.7000092486
 21
80.5260647399
 31
0.0
  0
LINE
  5
E7
330
1F
100
AcDbEntity
  8
0
  6
Continuous
 62
     7
370
    25
100
AcDbLine
 10
127.7000092486
 20
80.5260647399
 30
0.0
 11
127.7000092486
 21
80.2760647399
 31
0.0
  0
LINE
  5
E8
330
1F
100
AcDbEntity
  8
0
  6
Continuous
 62
     7
370
    25
100
AcDbLine
 10
127.4500092486
 20
80.5260647399
 30
0.0
 11
127.4500092486
 21
80.2760647399
 31
0.0
  0
LINE
  5
E9
330
1F
100
AcDbEntity
  8
0
  6
Continuous
 62
     7
370
    25
100
AcDbLine
 10
116.4500092486
 20
68.7760647399
 30
0.0
 11
116.4500092486
 21
68.5260647399
 31
0.0
  0
ARC
  5
EA
330
1F
100
AcDbEntity
  8
0
  6
Continuous
 62
     7
370
    25
100
AcDbCircle
 10
116.4500092486
 20
70.5260647399
 30
0.0
 40
2.0
100
AcDbArc
 50
180.0
 51
270.0
  0
LINE
  5
EB
330
1F
100
AcDbEntity
  8
0
  6
Continuous
 62
     7
370
    25
100
AcDbLine
 10
114.7000092486
 20
70.5260647399
 30
0.0
 11
114.4500092486
 21
70.5260647399
 31
0.0
  0
ARC
  5
EC
330
1F
100
AcDbEntity
  8
0
  6
Continuous
 62
     7
370
    25
100
AcDbCircle
 10
127.7000092486
 20
68.7760647399
 30
0.0
 40
0.25
100
AcDbArc
 50
270.0
 51
0.0
  0
LINE
  5
ED
330
1F
100
AcDbEntity
  8
0
  6
Continuous
 62
     7
370
    25
100
AcDbLine
 10
127.7000092486
 20
68.7760647399
 30
0.0
 11
127.7000092486
 21
68.5260647399
 31
0.0
  0
LINE
  5
EE
330
1F
100
AcDbEntity
  8
0
  6
Continuous
 62
     7
370
    25
100
AcDbLine
 10
122.3923135467
 20
71.2857396614
 30
0.0
 11
123.0061770507
 21
70.1155110408
 31
0.0
  0
LINE
  5
EF
330
1F
100
AcDbEntity
  8
0
  6
Continuous
 62
     7
370
    25
100
AcDbLine
 10
123.0061770507
 20
70.1155110408
 30
0.0
 11
122.7847881494
 21
69.9993776936
 31
0.0
  0
LINE
  5
F0
330
1F
100
AcDbEntity
  8
0
  6
Continuous
 62
     7
370
    25
100
AcDbLine
 10
122.3923135467
 20
71.2857396614
 30
0.0
 11
121.785000799
 21
71.9053059074
 31
0.0
  0
SPLINE
  5
F1
330
1F
100
AcDbEntity
  8
0
  6
Continuous
 62
     7
370
    25
100
AcDbSpline
210
0.0
220
0.0
230
1.0
 70
     8
 71
     3
 72
    23
 73
    19
 74
     0
 42
0.000000001
 43
0.00000001
 40
0.0
 40
0.0
 40
0.0
 40
0.0
 40
0.0000210594021204
 40
0.0000210594021204
 40
0.0000210594021204
 40
0.0000429122282046
 40
0.0000429122282046
 40
0.0000429122282046
 40
0.0000655452306719
 40
0.0000655452306719
 40
0.0000655452306719
 40
0.000088492665435
 40
0.000088492665435
 40
0.000088492665435
 40
0.0001110534468608
 40
0.0001110534468608
 40
0.0001110534468608
 40
0.000119364715226
 40
0.000119364715226
 40
0.000119364715226
 40
0.000119364715226
 10
123.0061770507449
 20
70.11551104083752
 30
0.0
 10
123.0094379825575
 20
70.10929461697192
 30
0.0
 10
123.0138419138472
 20
70.10357311303713
 30
0.0
 10
123.0189808291213
 20
70.09879094284264
 30
0.0
 10
123.0243125620122
 20
70.09382934048965
 30
0.0
 10
123.0305818207161
 20
70.08973652445502
 30
0.0
 10
123.03724811186
 20
70.0868030221261
 30
0.0
 10
123.044150259762
 20
70.08376573099859
 30
0.0
 10
123.0516699926525
 20
70.08188368743508
 30
0.0
 10
123.0591868850156
 20
70.0812827612704
 30
0.0
 10
123.0668063859074
 20
70.08067363222791
 30
0.0
 10
123.0746360923111
 20
70.08136359296661
 30
0.0
 10
123.082028834288
 20
70.08330657986647
 30
0.0
 10
123.0892971687802
 20
70.08521686954603
 30
0.0
 10
123.0963450068404
 20
70.0883938229259
 30
0.0
 10
123.1025638027874
 20
70.09261335725084
 30
0.0
 10
123.1048836728748
 20
70.09418741942409
 30
0.0
 10
123.1071069383039
 20
70.095914511856
 30
0.0
 10
123.1092036218211
 20
70.09777552963581
 30
0.0
  0
LINE
  5
F2
330
1F
100
AcDbEntity
  8
0
  6
Continuous
 62
     7
370
    25
100
AcDbLine
 10
123.1092036218
 20
70.0977755296
 30
0.0
 11
123.2751599929
 21
69.9108036524
 31
0.0
  0
LINE
  5
F3
330
1F
100
AcDbEntity
  8
0
  6
Continuous
 62
     7
370
    25
100
AcDbLine
 10
126.8378609477
 20
71.2857396614
 30
0.0
 11
127.456733305
 21
71.9273423796
 31
0.0
  0
LINE
  5
F4
330
1F
100
AcDbEntity
  8
0
  6
Continuous
 62
     7
370
    25
100
AcDbLine
 10
126.8378609477
 20
71.2857396614
 30
0.0
 11
126.8057516708
 21
71.2673904833
 31
0.0
  0
LINE
  5
F5
330
1F
100
AcDbEntity
  8
0
  6
Continuous
 62
     7
370
    25
100
AcDbLine
 10
126.6817117395
 20
71.4844482992
 30
0.0
 11
126.8057516708
 21
71.2673904833
 31
0.0
  0
LINE
  5
F6
330
1F
100
AcDbEntity
  8
0
  6
Continuous
 62
     7
370
    25
100
AcDbLine
 10
114.4500092486
 20
81.7760647399
 30
0.0
 11
114.7000092486
 21
81.7760647399
 31
0.0
  0
ARC
  5
F7
330
1F
100
AcDbEntity
  8
0
  6
Continuous
 62
     7
370
    25
100
AcDbCircle
 10
114.7000092486
 20
81.7760647399
 30
0.0
 40
0.25
100
AcDbArc
 50
90.0
 51
180.0
  0
ARC
  5
F8
330
1F
100
AcDbEntity
  8
0
  6
Continuous
 62
     7
370
    25
100
AcDbCircle
 10
127.7000092486
 20
80.2760647399
 30
0.0
 40
0.25
100
AcDbArc
 50
0.0
 51
90.0
  0
LINE
  5
F9
330
1F
100
AcDbEntity
  8
0
  6
Continuous
 62
     7
370
    25
100
AcDbLine
 10
127.7000092486
 20
68.5260647399
 30
0.0
 11
116.4500092486
 21
68.5260647399
 31
0.0
  0
ARC
  5
FA
330
1F
100
AcDbEntity
  8
0
  6
Continuous
 62
     7
370
    25
100
AcDbCircle
 10
127.4500092486
 20
81.5260647399
 30
0.0
 40
1.0
100
AcDbArc
 50
180.0
 51
270.0
  0
LINE
  5
FB
330
1F
100
AcDbEntity
  8
0
  6
Continuous
 62
     7
370
    25
100
AcDbLine
 10
126.4500092486
 20
81.5260647399
 30
0.0
 11
126.2000092486
 21
81.5260647399
 31
0.0
  0
ARC
  5
FC
330
1F
100
AcDbEntity
  8
0
  6
Continuous
 62
     7
370
    25
100
AcDbCircle
 10
126.2000092486
 20
81.7760647399
 30
0.0
 40
0.25
100
AcDbArc
 50
0.0
 51
90.0
  0
LINE
  5
FD
330
1F
100
AcDbEntity
  8
0
  6
Continuous
 62
     7
370
    25
100
AcDbLine
 10
126.2000092486
 20
81.7760647399
 30
0.0
 11
126.4500092486
 21
81.7760647399
 31
0.0
  0
LINE
  5
FE
330
1F
100
AcDbEntity
  8
0
  6
Continuous
 62
     7
370
    25
100
AcDbLine
 10
114.4500092486
 20
70.5260647399
 30
0.0
 11
114.4500092486
 21
81.7760647399
 31
0.0
  0
SPLINE
  5
FF
330
1F
100
AcDbEntity
  8
0
  6
Continuous
 62
     7
370
    25
100
AcDbSpline
210
0.0
220
0.0
230
1.0
 70
     8
 71
     3
 72
    23
 73
    19
 74
     0
 42
0.000000001
 43
0.00000001
 40
0.0
 40
0.0
 40
0.0
 40
0.0
 40
0.0000221251499261
 40
0.0000221251499261
 40
0.0000221251499261
 40
0.0000448428854419
 40
0.0000448428854419
 40
0.0000448428854419
 40
0.000067774629955
 40
0.000067774629955
 40
0.000067774629955
 40
0.0000902663208602
 40
0.0000902663208602
 40
0.0000902663208602
 40
0.000111841557339
 40
0.000111841557339
 40
0.000111841557339
 40
0.0001193253350659
 40
0.0001193253350659
 40
0.0001193253350659
 40
0.0001193253350659
 10
126.1209708726239
 20
70.09777552963578
 30
0.0
 10
126.1264865803789
 20
70.09287978351283
 30
0.0
 10
126.1329402146741
 20
70.0888939093218
 30
0.0
 10
126.1397674269325
 20
70.08610454829856
 30
0.0
 10
126.146776795893
 20
70.08324076439443
 30
0.0
 10
126.1543764280771
 20
70.08155444776484
 30
0.0
 10
126.1619378941725
 20
70.08115854126022
 30
0.0
 10
126.1695693252602
 20
70.08075897149834
 30
0.0
 10
126.177375528465
 20
70.08166250108124
 30
0.0
 10
126.1847098613335
 20
70.08380865061339
 30
0.0
 10
126.1919037751452
 20
70.0859137111606
 30
0.0
 10
126.1988433000007
 20
70.08927526244324
 30
0.0
 10
126.2049263801585
 20
70.09365473862564
 30
0.0
 10
126.2107634116417
 20
70.09785707357658
 30
0.0
 10
126.2159706882272
 20
70.10311569717882
 30
0.0
 10
126.2200682556099
 20
70.10902674591148
 30
0.0
 10
126.2215080717377
 20
70.1111037888255
 30
0.0
 10
126.2228234346733
 20
70.11327298798885
 30
0.0
 10
126.2239974437001
 20
70.11551104083752
 30
0.0
  0
LINE
  5
100
330
1F
100
AcDbEntity
  8
0
  6
Continuous
 62
     7
370
    25
100
AcDbLine
 10
126.2239974437
 20
70.1155110408
 30
0.0
 11
126.4453863451
 21
69.9993776936
 31
0.0
  0
LINE
  5
101
330
1F
100
AcDbEntity
  8
0
  6
Continuous
 62
     7
370
    25
100
AcDbLine
 10
126.1209708726
 20
70.0977755296
 30
0.0
 11
125.9550145015
 21
69.9108036524
 31
0.0
  0
LINE
  5
102
330
1F
100
AcDbEntity
  8
0
  6
Continuous
 62
     7
370
    25
100
AcDbLine
 10
126.2239974437
 20
70.1155110408
 30
0.0
 11
126.8378609477
 21
71.2857396614
 31
0.0
  0
LINE
  5
103
330
1F
100
AcDbEntity
  8
0
  6
Continuous
 62
     7
370
    25
100
AcDbLine
 10
126.4500092486
 20
81.7760647399
 30
0.0
 11
126.4500092486
 21
81.5260647399
 31
0.0
  0
ELLIPSE
  5
104
330
1F
100
AcDbEntity
  8
0
  6
Continuous
 62
     7
370
    25
100
AcDbEllipse
 10
124.3809771972
 20
71.5973093805
 30
0.0
 11
-0.0653756970743018
 21
0.0
 31
0.0
210
0.0
220
0.0
230
1.0
 40
0.9531667975
 41
5.94016136489561
 42
7.853981633974483
  0
LINE
  5
105
330
1F
100
AcDbEntity
  8
0
  6
Continuous
 62
     7
370
    25
100
AcDbLine
 10
124.8491972976
 20
71.5349954367
 30
0.0
 11
124.3809771972
 21
71.5349954367
 31
0.0
  0
ELLIPSE
  5
106
330
1F
100
AcDbEntity
  8
0
  6
Continuous
 62
     7
370
    25
100
AcDbEllipse
 10
124.6150872488
 20
72.2221179756
 30
0.0
 11
0.06537569707427338
 21
0.0
 31
0.0
210
0.0
220
0.0
230
1.0
 40
0.9531667975
 41
0.3430239404202149
 42
2.79856871316951
  0
LINE
  5
107
330
1F
100
AcDbEntity
  8
0
  6
Continuous
 62
     7
370
    25
100
AcDbLine
 10
124.3194101633
 20
71.6182678279
 30
0.0
 11
124.5535202148
 21
72.2430764229
 31
0.0
  0
LINE
  5
108
330
1F
100
AcDbEntity
  8
0
  6
Continuous
 62
     7
370
    25
100
AcDbLine
 10
124.6766542827
 20
72.2430764229
 30
0.0
 11
124.9107643316
 21
71.6182678277
 31
0.0
  0
ELLIPSE
  5
109
330
1F
100
AcDbEntity
  8
0
  6
Continuous
 62
     7
370
    25
100
AcDbEllipse
 10
124.8491972976
 20
71.5973093805
 30
0.0
 11
0.06537569707427338
 21
1.421085471520200E-14
 31
0.0
210
0.0
220
0.0
230
1.0
 40
0.9531667975
 41
4.712388980384496
 42
6.626209245739327
  0
SPLINE
  5
10A
330
1F
100
AcDbEntity
  8
0
  6
Continuous
 62
     7
370
    25
100
AcDbSpline
210
0.0
220
0.0
230
1.0
 70
     8
 71
     3
 72
    10
 73
     6
 74
     0
 42
0.000000001
 43
0.00000001
 40
0.0
 40
0.0
 40
0.0
 40
0.0
 40
0.5
 40
0.5
 40
1.0
 40
1.0
 40
1.0
 40
1.0
 10
126.8057516707599
 20
71.26739048334082
 30
0.0
 10
126.671317123168
 20
71.1905664722809
 30
0.0
 10
126.5056517560064
 20
71.17631698179544
 30
0.0
 10
126.2168723142964
 20
71.27440303683971
 30
0.0
 10
126.0939895258556
 20
71.38814223115735
 30
0.0
 10
126.0417895974421
 20
71.53409093104382
 30
0.0
  0
SPLINE
  5
10B
330
1F
100
AcDbEntity
  8
0
  6
Continuous
 62
     7
370
    25
100
AcDbSpline
210
0.0
220
0.0
230
1.0
 70
     8
 71
     3
 72
    20
 73
    16
 74
     0
 42
0.000000001
 43
0.00000001
 40
0.0
 40
0.0
 40
0.0
 40
0.0
 40
0.2500000000000003
 40
0.2500000000000003
 40
0.3750000000000002
 40
0.3750000000000002
 40
0.5000000000000002
 40
0.5000000000000002
 40
0.6250000000000002
 40
0.6250000000000002
 40
0.7500000000000001
 40
0.7500000000000001
 40
0.8750000000000001
 40
0.8750000000000001
 40
1.0
 40
1.0
 40
1.0
 40
1.0
 10
123.1092036218211
 20
70.09777552963581
 30
0.0
 10
123.3160588381989
 20
70.28138036668871
 30
0.0
 10
123.552408564847
 20
70.42181646651328
 30
0.0
 10
123.9392908881067
 20
70.56602105052163
 30
0.0
 10
124.0709996766401
 20
70.60191023844168
 30
0.0
 10
124.3397080591648
 20
70.650240133772
 30
0.0
 10
124.4780897601569
 20
70.66260509035502
 30
0.0
 10
124.7522494078933
 20
70.66259535317039
 30
0.0
 10
124.888019075409
 20
70.65053642291788
 30
0.0
 10
125.1569533969895
 20
70.60245119950994
 30
0.0
 10
125.2912862000677
 20
70.5658426608895
 30
0.0
 10
125.5475758099911
 20
70.47037111878099
 30
0.0
 10
125.6703973775441
 20
70.41158353959091
 30
0.0
 10
125.9051786923432
 20
70.27145767666308
 30
0.0
 10
126.0175534419748
 20
70.18956891457064
 30
0.0
 10
126.1209708726239
 20
70.09777552963578
 30
0.0
  0
SPLINE
  5
10C
330
1F
100
AcDbEntity
  8
0
  6
Continuous
 62
     7
370
    25
100
AcDbSpline
210
0.0
220
0.0
230
1.0
 70
     8
 71
     3
 72
    10
 73
     6
 74
     0
 42
0.000000001
 43
0.00000001
 40
0.0
 40
0.0
 40
0.0
 40
0.0
 40
0.5
 40
0.5
 40
1.0
 40
1.0
 40
1.0
 40
1.0
 10
123.1886111987356
 20
71.53472366071956
 30
0.0
 10
123.1369942807353
 20
71.39040503226009
 30
0.0
 10
123.0164140566653
 20
71.27728577058835
 30
0.0
 10
122.7298464331902
 20
71.17744602037044
 30
0.0
 10
122.5662388083961
 20
71.19002665807011
 30
0.0
 10
122.4320783037186
 20
71.26385667393409
 30
0.0
  0
LINE
  5
10D
330
1F
100
AcDbEntity
  8
0
  6
Continuous
 62
     7
370
    25
100
AcDbLine
 10
122.5526103027
 20
71.4828818716
 30
0.0
 11
122.4320783037
 21
71.2638566739
 31
0.0
  0
LINE
  5
10E
330
1F
100
AcDbEntity
  8
0
  6
Continuous
 62
     7
370
    25
100
AcDbLine
 10
122.4320783037
 20
71.2638566739
 30
0.0
 11
122.3923135467
 21
71.2857396614
 31
0.0
  0
LINE
  5
10F
330
1F
100
AcDbEntity
  8
0
  6
Continuous
 62
     7
370
    25
100
AcDbLine
 10
130.9500092486
 20
81.0260647399
 30
0.0
 11
130.9500092486
 21
68.0260647399
 31
0.0
  0
ARC
  5
110
330
1F
100
AcDbEntity
  8
0
  6
Continuous
 62
     7
370
    25
100
AcDbCircle
 10
126.2292446309
 20
82.2528780574
 30
0.0
 40
0.2286897211609482
100
AcDbArc
 50
174.1808239121
 51
262.6552867776
  0
ARC
  5
111
330
1F
100
AcDbEntity
  8
0
  6
Continuous
 62
     7
370
    25
100
AcDbCircle
 10
128.176822566
 20
68.7468293576
 30
0.0
 40
0.2286897211608978
100
AcDbArc
 50
84.1808239121
 51
172.6552867776
  0
ARC
  5
112
330
1F
100
AcDbEntity
  8
0
  6
Continuous
 62
     7
370
    25
100
AcDbCircle
 10
114.6707738662
 20
82.2528780574
 30
0.0
 40
0.2286897211609087
100
AcDbArc
 50
277.3447132224
 51
5.819176088
  0
ARC
  5
113
330
1F
100
AcDbEntity
  8
0
  6
Continuous
 62
     7
370
    25
100
AcDbCircle
 10
128.176822566
 20
80.3053001222
 30
0.0
 40
0.2286897211609073
100
AcDbArc
 50
187.3447132224
 51
275.8191760879
  0
LINE
  5
114
330
1F
100
AcDbEntity
  8
0
  6
Continuous
 62
     7
370
    25
100
AcDbLine
 10
140.0950611891
 20
74.5260647399
 30
0.0
 11
140.0950611891
 21
79.3083443667
 31
0.0
  0
LINE
  5
115
330
1F
100
AcDbEntity
  8
0
  6
Continuous
 62
     7
370
    25
100
AcDbLine
 10
140.0950611891
 20
69.743785113
 30
0.0
 11
140.0950611891
 21
74.5260647399
 31
0.0
  0
LINE
  5
116
330
1F
100
AcDbEntity
  8
0
  6
Continuous
 62
     7
370
    25
100
AcDbLine
 10
141.4500092486
 20
78.5260647399
 30
0.0
 11
141.4500092486
 21
70.5260647399
 31
0.0
  0
LINE
  5
117
330
1F
100
AcDbEntity
  8
0
  6
Continuous
 62
     7
370
    25
100
AcDbLine
 10
126.4844920072
 20
81.7760647399
 30
0.0
 11
126.4500092486
 21
81.7760647399
 31
0.0
  0
LINE
  5
118
330
1F
100
AcDbEntity
  8
0
  6
Continuous
 62
     7
370
    25
100
AcDbLine
 10
127.7000092486
 20
68.5260647399
 30
0.0
 11
127.7000092486
 21
68.4915819813
 31
0.0
  0
LINE
  5
119
330
1F
100
AcDbEntity
  8
0
  6
Continuous
 62
     7
370
    25
100
AcDbLine
 10
114.4155264899
 20
81.7760647399
 30
0.0
 11
114.4500092486
 21
81.7760647399
 31
0.0
  0
LINE
  5
11A
330
1F
100
AcDbEntity
  8
0
  6
Continuous
 62
     7
370
    25
100
AcDbLine
 10
127.7000092486
 20
80.5260647399
 30
0.0
 11
127.7000092486
 21
80.5605474985
 31
0.0
  0
LWPOLYLINE
  5
11B
330
1F
100
AcDbEntity
  8
0
  6
Continuous
 62
     7
370
    25
100
AcDbPolyline
 90
        9
 70
   128
 43
0.0
 10
116.1861991066
 20
68.5435400341
 10
116.1824280368
 20
68.5434432473
 10
116.1785183323
 20
68.5421705603
 10
116.1744885522
 20
68.5397280145
 10
116.1703578257
 20
68.5361272045
 10
116.1661457608
 20
68.5313852231
 10
116.1618723518
 20
68.5255245799
 10
116.1575578844
 20
68.5185730949
 10
116.1532228389
 20
68.5105637664
  0
SPLINE
  5
11C
330
1F
100
AcDbEntity
  8
0
  6
Continuous
 62
     7
370
    25
100
AcDbSpline
210
0.0
220
0.0
230
1.0
 70
     8
 71
     3
 72
    14
 73
    10
 74
     0
 42
0.000000001
 43
0.00000001
 40
0.0
 40
0.0
 40
0.0
 40
0.0
 40
0.25
 40
0.25
 40
0.5
 40
0.5
 40
0.75
 40
0.75
 40
1.0
 40
1.0
 40
1.0
 40
1.0
 10
116.1532228388992
 20
68.51056376636639
 30
0.0
 10
115.9373635668014
 20
68.53701470328278
 30
0.0
 10
115.7295320724093
 20
68.59740054913816
 30
0.0
 10
115.3321286814986
 20
68.78968111441874
 30
0.0
 10
115.1536458736182
 20
68.91624890632923
 30
0.0
 10
114.839830060783
 20
69.23015735080084
 30
0.0
 10
114.7128986366914
 20
69.40943966156578
 30
0.0
 10
114.5212317741805
 20
69.8060698208473
 30
0.0
 10
114.4609580242749
 20
70.01342875046724
 30
0.0
 10
114.4345082750369
 20
70.22927833022868
 30
0.0
  0
LWPOLYLINE
  5
11D
330
1F
100
AcDbEntity
  8
0
  6
Continuous
 62
     7
370
    25
100
AcDbPolyline
 90
        9
 70
   128
 43
0.0
 10
114.4674845428
 20
70.262254598
 10
114.4673877559
 20
70.2584835281
 10
114.466115069
 20
70.2545738236
 10
114.4636725232
 20
70.2505440436
 10
114.4600717132
 20
70.246413317
 10
114.4553297317
 20
70.2422012521
 10
114.4494690885
 20
70.2379278432
 10
114.4425176036
 20
70.2336133757
 10
114.434508275
 20
70.2292783302
  0
LINE
  5
11E
330
1F
100
AcDbEntity
  8
0
  6
Continuous
 62
     7
370
    25
100
AcDbLine
 10
116.4500092486
 20
68.5260647399
 30
0.0
 11
116.4500092486
 21
68.4915819813
 31
0.0
  0
LINE
  5
11F
330
1F
100
AcDbEntity
  8
0
  6
Continuous
 62
     7
370
    25
100
AcDbLine
 10
114.4155264899
 20
70.5260647399
 30
0.0
 11
114.4500092486
 21
70.5260647399
 31
0.0
  0
SPLINE
  5
120
330
1F
100
AcDbEntity
  8
0
  6
Continuous
 62
     7
370
    25
100
AcDbSpline
210
0.0
220
0.0
230
1.0
 70
    24
 71
     3
 72
    10
 73
     6
 74
     0
 42
0.000000001
 43
0.00000001
 40
0.0
 40
0.0
 40
0.0
 40
0.0
 40
0.5
 40
0.5
 40
1.0
 40
1.0
 40
1.0
 40
1.0
 10
126.8182957372522
 20
80.89435122858171
 30
0.0
 10
126.7934043667404
 20
80.86945985806989
 30
0.0
 10
126.7754576695695
 20
80.851513160899
 30
0.0
 10
126.749940731503
 20
80.8259962228325
 30
0.0
 10
126.7429024673687
 20
80.81895795869856
 30
0.0
 10
126.742902467368
 20
80.81895795869752
 30
0.0
  0
LINE
  5
121
330
1F
100
AcDbEntity
  8
0
  6
Continuous
 62
     7
370
    25
100
AcDbLine
 10
126.4844920072
 20
81.5260647399
 30
0.0
 11
126.4500092486
 21
81.5260647399
 31
0.0
  0
LINE
  5
122
330
1F
100
AcDbEntity
  8
0
  6
Continuous
 62
     7
370
    25
100
AcDbLine
 10
127.4500092486
 20
80.5260647399
 30
0.0
 11
127.4500092486
 21
80.5605474985
 31
0.0
  0
LINE
  5
123
330
1F
100
AcDbEntity
  8
0
  6
Continuous
 62
     8
370
    25
100
AcDbLine
 10
111.4500092486
 20
87.5260647399
 30
0.0
 11
129.4500092486
 21
87.5260647399
 31
0.0
  0
LINE
  5
124
330
1F
100
AcDbEntity
  8
0
  6
Continuous
 62
     8
370
    25
100
AcDbLine
 10
127.4500092486
 20
85.5260647399
 30
0.0
 11
113.4500092486
 21
85.5260647399
 31
0.0
  0
LINE
  5
125
330
1F
100
AcDbEntity
  8
0
  6
Continuous
 62
     8
370
    25
100
AcDbLine
 10
113.4500092486
 20
69.5260647399
 30
0.0
 11
114.434508275
 21
70.2292783302
 31
0.0
  0
LINE
  5
126
330
1F
100
AcDbEntity
  8
0
  6
Continuous
 62
     8
370
    25
100
AcDbLine
 10
116.1532228389
 20
68.5105637664
 30
0.0
 11
115.4500092486
 21
67.5260647399
 31
0.0
  0
LINE
  5
127
330
1F
100
AcDbEntity
  8
0
  6
Continuous
 62
     7
370
    18
100
AcDbLine
 10
141.0093248418
 20
70.271635479
 30
0.0
 11
132.4500092486
 21
70.0041568667
 31
0.0
  0
LINE
  5
128
330
1F
100
AcDbEntity
  8
0
  6
Continuous
 62
     7
370
    18
100
AcDbLine
 10
141.0093248418
 20
78.7804940007
 30
0.0
 11
132.4500092486
 21
79.047972613
 31
0.0
  0
LINE
  5
129
330
1F
100
AcDbEntity
  8
0
  6
Continuous
 62
     7
370
    18
100
AcDbLine
 10
132.4500092486
 20
79.5472522399
 30
0.0
 11
132.4500092486
 21
69.5048772399
 31
0.0
  0
LINE
  5
12A
330
1F
100
AcDbEntity
  8
0
  6
CENTERX2
 62
     7
370
    18
100
AcDbLine
 10
120.4500092486
 20
66.3134247648
 30
0.0
 11
120.4500092486
 21
101.0260647399
 31
0.0
  0
LINE
  5
12B
330
1F
100
AcDbEntity
  8
0
  6
CENTERX2
 62
     7
370
    18
100
AcDbLine
 10
140.0950611891
 20
74.5260647399
 30
0.0
 11
111.6411991557
 21
74.5260647399
 31
0.0
  0
LINE
  5
12C
330
1F
100
AcDbEntity
  8
0
  6
CENTERX2
 62
     7
370
    18
100
AcDbLine
 10
140.0950611891
 20
74.5260647399
 30
0.0
 11
143.4500092486
 21
74.5260647399
 31
0.0
  0
ARC
  5
12D
330
1F
100
AcDbEntity
  8
0
  6
Continuous
 62
     7
370
    25
100
AcDbCircle
 10
180.1078553732
 20
74.2343223094
 30
0.0
 40
0.500000000000009
100
AcDbArc
 50
293.5781784782
 51
0.0
  0
ARC
  5
12E
330
1F
100
AcDbEntity
  8
0
  6
Continuous
 62
     7
370
    25
100
AcDbCircle
 10
180.1078553732
 20
74.8178071704
 30
0.0
 40
0.500000000000009
100
AcDbArc
 50
0.0
 51
66.4218215218
  0
LINE
  5
12F
330
1F
100
AcDbEntity
  8
0
  6
Continuous
 62
     7
370
    25
100
AcDbLine
 10
182.3078553732
 20
99.0260647399
 30
0.0
 11
181.8078553732
 21
99.5260647399
 31
0.0
  0
LINE
  5
130
330
1F
100
AcDbEntity
  8
0
  6
Continuous
 62
     7
370
    25
100
AcDbLine
 10
164.8078553732
 20
99.5260647399
 30
0.0
 11
164.3078553732
 21
99.0260647399
 31
0.0
  0
LINE
  5
131
330
1F
100
AcDbEntity
  8
0
  6
Continuous
 62
     7
370
    25
100
AcDbLine
 10
164.3078553732
 20
99.0260647399
 30
0.0
 11
164.3078553732
 21
87.5260647399
 31
0.0
  0
LINE
  5
132
330
1F
100
AcDbEntity
  8
0
  6
Continuous
 62
     7
370
    25
100
AcDbLine
 10
182.3078553732
 20
87.5260647399
 30
0.0
 11
182.3078553732
 21
99.0260647399
 31
0.0
  0
ARC
  5
133
330
1F
100
AcDbEntity
  8
0
  6
Continuous
 62
     7
370
    25
100
AcDbCircle
 10
165.3078553732
 20
87.5260647399
 30
0.0
 40
1.0
100
AcDbArc
 50
180.0
 51
270.0
  0
ARC
  5
134
330
1F
100
AcDbEntity
  8
0
  6
Continuous
 62
     7
370
    25
100
AcDbCircle
 10
181.3078553732
 20
87.5260647399
 30
0.0
 40
1.0
100
AcDbArc
 50
270.0
 51
0.0
  0
ARC
  5
135
330
1F
100
AcDbEntity
  8
0
  6
Continuous
 62
     7
370
    25
100
AcDbCircle
 10
165.3078553732
 20
85.5260647399
 30
0.0
 40
1.0
100
AcDbArc
 50
0.0
 51
90.0
  0
ARC
  5
136
330
1F
100
AcDbEntity
  8
0
  6
Continuous
 62
     7
370
    25
100
AcDbCircle
 10
181.3078553732
 20
85.5260647399
 30
0.0
 40
1.0
100
AcDbArc
 50
90.0
 51
180.0
  0
ARC
  5
137
330
1F
100
AcDbEntity
  8
0
  6
Continuous
 62
     7
370
    25
100
AcDbCircle
 10
176.9820899859
 20
80.7760640382
 30
0.0
 40
0.2499994075782602
100
AcDbArc
 50
262.5144907768
 51
269.9783679046
  0
SPLINE
  5
138
330
1F
100
AcDbEntity
  8
0
  6
Continuous
 62
     7
370
    25
100
AcDbSpline
210
0.0
220
0.0
230
1.0
 70
     8
 71
     3
 72
    10
 73
     6
 74
     0
 42
0.000000001
 43
0.00000001
 40
0.0
 40
0.0
 40
0.0
 40
0.0
 40
0.1185368654045877
 40
0.5590058712631627
 40
1.0
 40
1.0
 40
1.0
 40
1.0
 10
166.3077033748253
 20
75.67768751448016
 30
0.0
 10
166.3077004929384
 20
75.63224580580068
 30
0.0
 10
166.3076869022998
 20
75.41794806926646
 30
0.0
 10
166.305214175294
 20
75.03437690793172
 30
0.0
 10
166.3053519293981
 20
74.69556940963044
 30
0.0
 10
166.3054208474829
 20
74.52606473988442
 30
0.0
  0
SPLINE
  5
139
330
1F
100
AcDbEntity
  8
0
  6
Continuous
 62
     7
370
    25
100
AcDbSpline
210
0.0
220
0.0
230
1.0
 70
     8
 71
     3
 72
    10
 73
     6
 74
     0
 42
0.000000001
 43
0.00000001
 40
0.0
 40
0.0
 40
0.0
 40
0.0
 40
0.118536865404573
 40
0.5590058712631321
 40
1.0
 40
1.0
 40
1.0
 40
1.0
 10
180.3080073716146
 20
73.37444196528863
 30
0.0
 10
180.3080102535015
 20
73.41988367396812
 30
0.0
 10
180.3080238441401
 20
73.63418141050232
 30
0.0
 10
180.3104965711459
 20
74.01775257183706
 30
0.0
 10
180.3103588170418
 20
74.35656007013839
 30
0.0
 10
180.310289898957
 20
74.52606473988442
 30
0.0
  0
SPLINE
  5
13A
330
1F
100
AcDbEntity
  8
0
  6
Continuous
 62
     7
370
    25
100
AcDbSpline
210
0.0
220
0.0
230
1.0
 70
     8
 71
     3
 72
    10
 73
     6
 74
     0
 42
0.000000001
 43
0.00000001
 40
0.0
 40
0.0
 40
0.0
 40
0.0
 40
0.3293927708521356
 40
0.6906946635954868
 40
1.0
 40
1.0
 40
1.0
 40
1.0
 10
180.310289898957
 20
74.52606473988442
 30
0.0
 10
180.3103405538733
 20
74.68701283083311
 30
0.0
 10
180.3104467707774
 20
75.02450046678383
 30
0.0
 10
180.3076013902562
 20
75.51267855603098
 30
0.0
 10
180.3076651358
 20
75.83999553728754
 30
0.0
 10
180.3076945372678
 20
75.99096451674087
 30
0.0
  0
SPLINE
  5
13B
330
1F
100
AcDbEntity
  8
0
  6
Continuous
 62
     7
370
    25
100
AcDbSpline
210
0.0
220
0.0
230
1.0
 70
     8
 71
     3
 72
    10
 73
     6
 74
     0
 42
0.000000001
 43
0.00000001
 40
0.0
 40
0.0
 40
0.0
 40
0.0
 40
0.3293927708519883
 40
0.6906946635952802
 40
1.0
 40
1.0
 40
1.0
 40
1.0
 10
166.3054208474829
 20
74.52606473988442
 30
0.0
 10
166.3053701925666
 20
74.36511664893578
 30
0.0
 10
166.3052639756625
 20
74.02762901298513
 30
0.0
 10
166.3081093561838
 20
73.53945092373795
 30
0.0
 10
166.30804561064
 20
73.21213394248124
 30
0.0
 10
166.3080162091722
 20
73.0611649630278
 30
0.0
  0
LINE
  5
13C
330
1F
100
AcDbEntity
  8
0
  6
Continuous
 62
     7
370
    25
100
AcDbLine
 10
180.3078553732
 20
82.2760647399
 30
0.0
 11
180.3078553732
 21
85.5260647399
 31
0.0
  0
LINE
  5
13D
330
1F
100
AcDbEntity
  8
0
  6
Continuous
 62
     7
370
    25
100
AcDbLine
 10
166.3078553732
 20
85.5260647399
 30
0.0
 11
166.3078553732
 21
82.2760647399
 31
0.0
  0
LINE
  5
13E
330
1F
100
AcDbEntity
  8
0
  6
Continuous
 62
     7
370
    25
100
AcDbLine
 10
166.3078553732
 20
71.4464360746
 30
0.0
 11
166.3078553741
 21
71.4464574286
 31
0.0
  0
LINE
  5
13F
330
1F
100
AcDbEntity
  8
0
  6
Continuous
 62
     7
370
    25
100
AcDbLine
 10
180.6078553732
 20
74.8178071704
 30
0.0
 11
180.6078553732
 21
74.2343223094
 31
0.0
  0
LINE
  5
140
330
1F
100
AcDbEntity
  8
0
  6
Continuous
 62
     7
370
    25
100
AcDbLine
 10
180.3078553732
 20
75.2760647399
 30
0.0
 11
180.3078553732
 21
73.7760647399
 31
0.0
  0
CIRCLE
  5
141
330
1F
100
AcDbEntity
  8
0
  6
Continuous
 62
     7
370
    25
100
AcDbCircle
 10
173.3078553732
 20
74.5260647399
 30
0.0
 40
4.0
  0
CIRCLE
  5
142
330
1F
100
AcDbEntity
  8
0
  6
Continuous
 62
     7
370
    25
100
AcDbCircle
 10
173.3078553732
 20
74.5260647399
 30
0.0
 40
4.782279626857616
  0
CIRCLE
  5
143
330
1F
100
AcDbEntity
  8
0
  6
Continuous
 62
     7
370
    25
100
AcDbCircle
 10
173.3078553732
 20
74.5260647399
 30
0.0
 40
2.199999999999989
  0
CIRCLE
  5
144
330
1F
100
AcDbEntity
  8
0
  6
Continuous
 62
     7
370
    25
100
AcDbCircle
 10
173.3078553732
 20
74.5260647399
 30
0.0
 40
2.0
  0
CIRCLE
  5
145
330
1F
100
AcDbEntity
  8
0
  6
Continuous
 62
     7
370
    25
100
AcDbCircle
 10
173.3078553732
 20
74.5260647399
 30
0.0
 40
5.068062499999996
  0
CIRCLE
  5
146
330
1F
100
AcDbEntity
  8
0
  6
Continuous
 62
     7
370
    25
100
AcDbCircle
 10
173.3078553732
 20
74.5260647399
 30
0.0
 40
6.500000000000028
  0
CIRCLE
  5
147
330
1F
100
AcDbEntity
  8
0
  6
Continuous
 62
     7
370
    25
100
AcDbCircle
 10
173.3078553732
 20
74.5260647399
 30
0.0
 40
7.0
  0
LINE
  5
148
330
1F
100
AcDbEntity
  8
0
  6
Continuous
 62
     7
370
    25
100
AcDbLine
 10
173.3078553732
 20
99.0260647399
 30
0.0
 11
164.3078553732
 21
99.0260647399
 31
0.0
  0
LINE
  5
149
330
1F
100
AcDbEntity
  8
0
  6
Continuous
 62
     7
370
    25
100
AcDbLine
 10
182.3078553732
 20
99.0260647399
 30
0.0
 11
173.3078553732
 21
99.0260647399
 31
0.0
  0
LINE
  5
14A
330
1F
100
AcDbEntity
  8
0
  6
Continuous
 62
     7
370
    25
100
AcDbLine
 10
173.3078553732
 20
99.5260647399
 30
0.0
 11
181.8078553732
 21
99.5260647399
 31
0.0
  0
LINE
  5
14B
330
1F
100
AcDbEntity
  8
0
  6
Continuous
 62
     7
370
    25
100
AcDbLine
 10
164.8078553732
 20
99.5260647399
 30
0.0
 11
173.3078553732
 21
99.5260647399
 31
0.0
  0
LINE
  5
14C
330
1F
100
AcDbEntity
  8
0
  6
Continuous
 62
     7
370
    25
100
AcDbLine
 10
173.3078553732
 20
86.5260647399
 30
0.0
 11
181.3078553732
 21
86.5260647399
 31
0.0
  0
LINE
  5
14D
330
1F
100
AcDbEntity
  8
0
  6
Continuous
 62
     7
370
    25
100
AcDbLine
 10
165.3078553732
 20
86.5260647399
 30
0.0
 11
173.3078553732
 21
86.5260647399
 31
0.0
  0
ARC
  5
14E
330
1F
100
AcDbEntity
  8
0
  6
Continuous
 62
     7
370
    25
100
AcDbCircle
 10
176.9820899874
 20
80.7760647399
 30
0.0
 40
0.2500000000000159
100
AcDbArc
 50
239.5496859786
 51
262.5145187188
  0
SPLINE
  5
14F
330
1F
100
AcDbEntity
  8
0
  6
Continuous
 62
     7
370
    25
100
AcDbSpline
210
0.0
220
0.0
230
1.0
 70
     8
 71
     3
 72
    16
 73
    12
 74
     0
 42
0.000000001
 43
0.00000001
 40
0.0
 40
0.0
 40
0.0
 40
0.0
 40
0.499999999999999
 40
0.499999999999999
 40
0.7499999999999998
 40
0.7499999999999998
 40
0.8749999999999996
 40
0.8749999999999996
 40
0.9374999999999998
 40
0.9374999999999998
 40
1.0
 40
1.0
 40
1.0
 40
1.0
 10
177.7237358063839
 20
80.27606473988442
 30
0.0
 10
177.5894576474572
 20
80.32762615680663
 30
0.0
 10
177.4548774661509
 20
80.37555068447038
 30
0.0
 10
177.2551769421264
 20
80.44193394646005
 30
0.0
 10
177.1889261125717
 20
80.46314175724876
 30
0.0
 10
177.0945949307997
 20
80.49236186667112
 30
0.0
 10
177.0636560980065
 20
80.50176948555897
 30
0.0
 10
177.022595204421
 20
80.51408026656529
 30
0.0
 10
177.0098250187174
 20
80.5178765312854
 30
0.0
 10
176.9892969367995
 20
80.52394923351359
 30
0.0
 10
176.9820899873947
 20
80.52606473988442
 30
0.0
 10
176.9820899873947
 20
80.52606473988442
 30
0.0
  0
LINE
  5
150
330
1F
100
AcDbEntity
  8
0
  6
Continuous
 62
     7
370
    25
100
AcDbLine
 10
177.5714640673
 20
80.0777888778
 30
0.0
 11
177.7237358064
 21
80.2760647399
 31
0.0
  0
SPLINE
  5
151
330
1F
100
AcDbEntity
  8
0
  6
Continuous
 62
     7
370
    25
100
AcDbSpline
210
0.0
220
0.0
230
1.0
 70
     8
 71
     3
 72
    16
 73
    12
 74
     0
 42
0.000000001
 43
0.00000001
 40
0.0
 40
0.0
 40
0.0
 40
0.0
 40
0.4999999999999977
 40
0.4999999999999977
 40
0.7499999999999978
 40
0.7499999999999978
 40
0.8749999999999986
 40
0.8749999999999986
 40
0.9374999999999993
 40
0.9374999999999993
 40
1.0
 40
1.0
 40
1.0
 40
1.0
 10
168.891974940056
 20
68.77606473988442
 30
0.0
 10
169.0262530989827
 20
68.72450332296219
 30
0.0
 10
169.160833280289
 20
68.67657879529844
 30
0.0
 10
169.3605338043136
 20
68.61019553330877
 30
0.0
 10
169.4267846338682
 20
68.58898772252007
 30
0.0
 10
169.5211158156402
 20
68.5597676130977
 30
0.0
 10
169.5520546484334
 20
68.55035999420986
 30
0.0
 10
169.5931155420189
 20
68.53804921320354
 30
0.0
 10
169.6058857277225
 20
68.53425294848344
 30
0.0
 10
169.6264138096404
 20
68.52818024625523
 30
0.0
 10
169.6336207590452
 20
68.52606473988442
 30
0.0
 10
169.6336207590452
 20
68.52606473988442
 30
0.0
  0
LINE
  5
152
330
1F
100
AcDbEntity
  8
0
  6
Continuous
 62
     7
370
    25
100
AcDbLine
 10
168.8919749401
 20
68.7760647399
 30
0.0
 11
169.0442466791
 21
68.974340602
 31
0.0
  0
ARC
  5
153
330
1F
100
AcDbEntity
  8
0
  6
Continuous
 62
     7
370
    25
100
AcDbCircle
 10
169.633620759
 20
68.2760647399
 30
0.0
 40
0.2500000000000036
100
AcDbArc
 50
59.5496859786
 51
90.0
  0
SPLINE
  5
154
330
1F
100
AcDbEntity
  8
0
  6
Continuous
 62
     7
370
    25
100
AcDbSpline
210
0.0
220
0.0
230
1.0
 70
     8
 71
     3
 72
    16
 73
    12
 74
     0
 42
0.000000001
 43
0.00000001
 40
0.0
 40
0.0
 40
0.0
 40
0.0
 40
0.0625000000000002
 40
0.0625000000000002
 40
0.1250000000000003
 40
0.1250000000000003
 40
0.2500000000000007
 40
0.2500000000000007
 40
0.5000000000000006
 40
0.5000000000000006
 40
1.0
 40
1.0
 40
1.0
 40
1.0
 10
169.6336207590452
 20
80.52606473988442
 30
0.0
 10
169.6336207590452
 20
80.52606473988442
 30
0.0
 10
169.6263497123956
 20
80.52393031424195
 30
0.0
 10
169.605873407291
 20
80.51787284420556
 30
0.0
 10
169.5932007990724
 20
80.51410577252805
 30
0.0
 10
169.5519950776039
 20
80.50175173616128
 30
0.0
 10
169.521164724704
 20
80.4923769090998
 30
0.0
 10
169.4267782341944
 20
80.46313999009283
 30
0.0
 10
169.3605936616048
 20
80.44195213782311
 30
0.0
 10
169.1613578814072
 20
80.37572847305997
 30
0.0
 10
169.026223536692
 20
80.32761480519436
 30
0.0
 10
168.8919749400561
 20
80.2760647398844
 30
0.0
  0
ARC
  5
155
330
1F
100
AcDbEntity
  8
0
  6
Continuous
 62
     7
370
    25
100
AcDbCircle
 10
169.633620759
 20
80.7760647399
 30
0.0
 40
0.2500000000000159
100
AcDbArc
 50
270.0
 51
300.4503140214
  0
LINE
  5
156
330
1F
100
AcDbEntity
  8
0
  6
Continuous
 62
     7
370
    25
100
AcDbLine
 10
168.8919749401
 20
80.2760647399
 30
0.0
 11
169.0442466791
 21
80.0777888778
 31
0.0
  0
LINE
  5
157
330
1F
100
AcDbEntity
  8
0
  6
Continuous
 62
     7
370
    25
100
AcDbLine
 10
177.5714640673
 20
68.974340602
 30
0.0
 11
177.7237358064
 21
68.7760647399
 31
0.0
  0
SPLINE
  5
158
330
1F
100
AcDbEntity
  8
0
  6
Continuous
 62
     7
370
    25
100
AcDbSpline
210
0.0
220
0.0
230
1.0
 70
     8
 71
     3
 72
    16
 73
    12
 74
     0
 42
0.000000001
 43
0.00000001
 40
0.0
 40
0.0
 40
0.0
 40
0.0
 40
0.0625000000000013
 40
0.0625000000000013
 40
0.1250000000000026
 40
0.1250000000000026
 40
0.2500000000000022
 40
0.2500000000000022
 40
0.5000000000000006
 40
0.5000000000000006
 40
1.0
 40
1.0
 40
1.0
 40
1.0
 10
176.9820899873947
 20
68.52606473988442
 30
0.0
 10
176.9820899873947
 20
68.52606473988442
 30
0.0
 10
176.9893610340443
 20
68.5281991655269
 30
0.0
 10
177.0098373391489
 20
68.53425663556327
 30
0.0
 10
177.0225099473675
 20
68.53802370724077
 30
0.0
 10
177.0637156688361
 20
68.55037774360756
 30
0.0
 10
177.0945460217359
 20
68.55975257066903
 30
0.0
 10
177.1889325122455
 20
68.588989489676
 30
0.0
 10
177.2551170848351
 20
68.61017734194571
 30
0.0
 10
177.4543528650327
 20
68.67640100670889
 30
0.0
 10
177.5894872097479
 20
68.72451467457446
 30
0.0
 10
177.7237358063839
 20
68.77606473988445
 30
0.0
  0
ARC
  5
159
330
1F
100
AcDbEntity
  8
0
  6
Continuous
 62
     7
370
    25
100
AcDbCircle
 10
176.9820899874
 20
68.2760647399
 30
0.0
 40
0.2500000000000036
100
AcDbArc
 50
90.0
 51
120.4503140214
  0
SPLINE
  5
15A
330
1F
100
AcDbEntity
  8
0
  6
Continuous
 62
     7
370
    25
100
AcDbSpline
210
0.0
220
0.0
230
1.0
 70
     8
 71
     3
 72
    10
 73
     6
 74
     0
 42
0.000000001
 43
0.00000001
 40
0.0
 40
0.0
 40
0.0
 40
0.0
 40
0.5
 40
0.5
 40
1.0
 40
1.0
 40
1.0
 40
1.0
 10
179.8980235532525
 20
71.95696834055059
 30
0.0
 10
179.8702173334636
 20
71.96426032100823
 30
0.0
 10
179.850562039552
 20
71.96815748363304
 30
0.0
 10
179.8283287372499
 20
71.97169368761477
 30
0.0
 10
179.8250967525303
 20
71.97154623264963
 30
0.0
 10
179.8250967525303
 20
71.97154623264963
 30
0.0
  0
SPLINE
  5
15B
330
1F
100
AcDbEntity
  8
0
  6
Continuous
 62
     7
370
    25
100
AcDbSpline
210
0.0
220
0.0
230
1.0
 70
     8
 71
     3
 72
    12
 73
     8
 74
     0
 42
0.000000001
 43
0.00000001
 40
0.0
 40
0.0
 40
0.0
 40
0.0
 40
0.25
 40
0.25
 40
0.5
 40
0.5
 40
1.0
 40
1.0
 40
1.0
 40
1.0
 10
179.8980235532525
 20
71.95696834055059
 30
0.0
 10
179.911926663147
 20
71.95332235032176
 30
0.0
 10
179.9281968698612
 20
71.94876581738933
 30
0.0
 10
179.9620831112898
 20
71.93814720340538
 30
0.0
 10
179.9796991460043
 20
71.93208512235387
 30
0.0
 10
180.0294834436897
 20
71.9121138629529
 30
0.0
 10
180.05785537322
 20
71.89676306998369
 30
0.0
 10
180.05785537322
 20
71.88031342881983
 30
0.0
  0
ARC
  5
15C
330
1F
100
AcDbEntity
  8
0
  6
Continuous
 62
     7
370
    25
100
AcDbCircle
 10
173.3078553732
 20
74.5260647399
 30
0.0
 40
7.249999999999998
100
AcDbArc
 50
307.5235132021
 51
338.5966503606
  0
SPLINE
  5
15D
330
1F
100
AcDbEntity
  8
0
  6
Continuous
 62
     7
370
    25
100
AcDbSpline
210
0.0
220
0.0
230
1.0
 70
     8
 71
     3
 72
    15
 73
    11
 74
     0
 42
0.000000001
 43
0.00000001
 40
0.0
 40
0.0
 40
0.0
 40
0.0
 40
0.0425877399909041
 40
0.1028282325346875
 40
0.1864706729280299
 40
0.2956205441869006
 40
0.4311891005861807
 40
0.5936297641565581
 40
0.7831876993469636
 40
1.0
 40
1.0
 40
1.0
 40
1.0
 10
166.55785537322
 20
77.17181605094902
 30
0.0
 10
166.5585708748168
 20
77.16899672746851
 30
0.0
 10
166.5602984556791
 20
77.16218946203236
 30
0.0
 10
166.570172634774
 20
77.15364926569147
 30
0.0
 10
166.5840663145963
 20
77.14435158316107
 30
0.0
 10
166.603563572418
 20
77.13454384753408
 30
0.0
 10
166.6277684252672
 20
77.12421820148498
 30
0.0
 10
166.6561370819313
 20
77.11375149003301
 30
0.0
 10
166.6876762526749
 20
77.10341825479233
 30
0.0
 10
166.7072460452473
 20
77.09803388375059
 30
0.0
 10
166.7176871931874
 20
77.09516113921825
 30
0.0
  0
ARC
  5
15E
330
1F
100
AcDbEntity
  8
0
  6
Continuous
 62
     7
370
    25
100
AcDbCircle
 10
173.3078553732
 20
74.5260647399
 30
0.0
 40
7.25000000000003
100
AcDbArc
 50
127.5235132021
 51
158.5966503606
  0
SPLINE
  5
15F
330
1F
100
AcDbEntity
  8
0
  6
Continuous
 62
     7
370
    25
100
AcDbSpline
210
0.0
220
0.0
230
1.0
 70
     8
 71
     3
 72
     8
 73
     4
 74
     0
 42
0.000000001
 43
0.00000001
 40
0.0
 40
0.0
 40
0.0
 40
0.0
 40
1.0
 40
1.0
 40
1.0
 40
1.0
 10
166.7176871931874
 20
77.09516113921825
 30
0.0
 10
166.7623887568089
 20
77.08240032978769
 30
0.0
 10
166.7890440912128
 20
77.07657801686223
 30
0.0
 10
166.7906139939096
 20
77.0805832471192
 30
0.0
  0
ARC
  5
160
330
1F
100
AcDbEntity
  8
0
  6
Continuous
 62
     7
370
    25
100
AcDbCircle
 10
173.3078553732
 20
74.5260647399
 30
0.0
 40
7.250000000000025
100
AcDbArc
 50
201.4033496394
 51
232.4764867979
  0
SPLINE
  5
161
330
1F
100
AcDbEntity
  8
0
  6
Continuous
 62
     7
370
    25
100
AcDbSpline
210
0.0
220
0.0
230
1.0
 70
     8
 71
     3
 72
    12
 73
     8
 74
     0
 42
0.000000001
 43
0.00000001
 40
0.0
 40
0.0
 40
0.0
 40
0.0
 40
0.25
 40
0.25
 40
0.5
 40
0.5
 40
1.0
 40
1.0
 40
1.0
 40
1.0
 10
166.7176871931874
 20
71.9569683405506
 30
0.0
 10
166.7037840832929
 20
71.95332235032177
 30
0.0
 10
166.6875138765788
 20
71.94876581738933
 30
0.0
 10
166.6536276351501
 20
71.93814720340538
 30
0.0
 10
166.6360116004356
 20
71.93208512235387
 30
0.0
 10
166.5862273027502
 20
71.9121138629529
 30
0.0
 10
166.55785537322
 20
71.89676306998369
 30
0.0
 10
166.55785537322
 20
71.88031342881983
 30
0.0
  0
SPLINE
  5
162
330
1F
100
AcDbEntity
  8
0
  6
Continuous
 62
     7
370
    25
100
AcDbSpline
210
0.0
220
0.0
230
1.0
 70
     8
 71
     3
 72
    10
 73
     6
 74
     0
 42
0.000000001
 43
0.00000001
 40
0.0
 40
0.0
 40
0.0
 40
0.0
 40
0.5
 40
0.5
 40
1.0
 40
1.0
 40
1.0
 40
1.0
 10
166.7176871931874
 20
71.9569683405506
 30
0.0
 10
166.7454934129764
 20
71.96426032100824
 30
0.0
 10
166.7651487068879
 20
71.96815748363305
 30
0.0
 10
166.7873820091901
 20
71.97169368761477
 30
0.0
 10
166.7906139939096
 20
71.97154623264964
 30
0.0
 10
166.7906139939096
 20
71.97154623264964
 30
0.0
  0
SPLINE
  5
163
330
1F
100
AcDbEntity
  8
0
  6
Continuous
 62
     7
370
    25
100
AcDbSpline
210
0.0
220
0.0
230
1.0
 70
     8
 71
     3
 72
     8
 73
     4
 74
     0
 42
0.000000001
 43
0.00000001
 40
0.0
 40
0.0
 40
0.0
 40
0.0
 40
1.0
 40
1.0
 40
1.0
 40
1.0
 10
179.8250967525303
 20
77.0805832471192
 30
0.0
 10
179.8266666552271
 20
77.07657801686223
 30
0.0
 10
179.853321989631
 20
77.08240032978769
 30
0.0
 10
179.8980235532525
 20
77.09516113921825
 30
0.0
  0
ARC
  5
164
330
1F
100
AcDbEntity
  8
0
  6
Continuous
 62
     7
370
    25
100
AcDbCircle
 10
173.3078553732
 20
74.5260647399
 30
0.0
 40
7.250000000000004
100
AcDbArc
 50
21.4033496394
 51
52.4764867979
  0
SPLINE
  5
165
330
1F
100
AcDbEntity
  8
0
  6
Continuous
 62
     7
370
    25
100
AcDbSpline
210
0.0
220
0.0
230
1.0
 70
     8
 71
     3
 72
    14
 73
    10
 74
     0
 42
0.000000001
 43
0.00000001
 40
0.0
 40
0.0
 40
0.0
 40
0.0
 40
0.245589323567575
 40
0.455618196314265
 40
0.6303106213393797
 40
0.77011643036692
 40
0.8759901151610914
 40
0.9502659312389357
 40
1.0
 40
1.0
 40
1.0
 40
1.0
 10
179.8980235532525
 20
77.09516113921825
 30
0.0
 10
179.9099144937917
 20
77.09845271669148
 30
0.0
 10
179.9319746094443
 20
77.10455926305758
 30
0.0
 10
179.9675383077645
 20
77.1164822533168
 30
0.0
 10
179.9983306163677
 20
77.12841133583133
 30
0.0
 10
180.0235701989405
 20
77.13985854319544
 30
0.0
 10
180.0415524918753
 20
77.15074406824223
 30
0.0
 10
180.0544746552912
 20
77.1604313300333
 30
0.0
 10
180.0568876453972
 20
77.16855718362665
 30
0.0
 10
180.05785537322
 20
77.17181605094902
 30
0.0
  0
SPLINE
  5
166
330
1F
100
AcDbEntity
  8
0
  6
Continuous
 62
     7
370
    25
100
AcDbSpline
210
0.0
220
0.0
230
1.0
 70
     8
 71
     3
 72
    12
 73
     8
 74
     0
 42
0.000000001
 43
0.00000001
 40
0.0
 40
0.0
 40
0.0
 40
0.0
 40
0.25
 40
0.25
 40
0.5
 40
0.5
 40
1.0
 40
1.0
 40
1.0
 40
1.0
 10
166.3810786779218
 20
77.15845010288139
 30
0.0
 10
166.3953559796763
 20
77.1567559580555
 30
0.0
 10
166.4127927570578
 20
77.1548297484994
 30
0.0
 10
166.4494163332043
 20
77.15191428720888
 30
0.0
 10
166.4686031319694
 20
77.1509250354745
 30
0.0
 10
166.5219351655347
 20
77.1514643479271
 30
0.0
 10
166.5518520376048
 20
77.1564999797699
 30
0.0
 10
166.55785537322
 20
77.17181605094902
 30
0.0
  0
SPLINE
  5
167
330
1F
100
AcDbEntity
  8
0
  6
Continuous
 62
     7
370
    25
100
AcDbSpline
210
0.0
220
0.0
230
1.0
 70
     8
 71
     3
 72
    12
 73
     8
 74
     0
 42
0.000000001
 43
0.00000001
 40
0.0
 40
0.0
 40
0.0
 40
0.0
 40
0.25
 40
0.25
 40
0.5
 40
0.5
 40
1.0
 40
1.0
 40
1.0
 40
1.0
 10
180.2346320685181
 20
71.89367937688743
 30
0.0
 10
180.2203547667636
 20
71.89537352171334
 30
0.0
 10
180.2029179893822
 20
71.89729973126944
 30
0.0
 10
180.1662944132356
 20
71.90021519255994
 30
0.0
 10
180.1471076144705
 20
71.90120444429434
 30
0.0
 10
180.0937755809052
 20
71.90066513184172
 30
0.0
 10
180.0638587088351
 20
71.89562949999892
 30
0.0
 10
180.05785537322
 20
71.88031342881983
 30
0.0
  0
SPLINE
  5
168
330
1F
100
AcDbEntity
  8
0
  6
Continuous
 62
     7
370
    25
100
AcDbSpline
210
0.0
220
0.0
230
1.0
 70
     8
 71
     3
 72
    12
 73
     8
 74
     0
 42
0.000000001
 43
0.00000001
 40
0.0
 40
0.0
 40
0.0
 40
0.0
 40
0.25
 40
0.25
 40
0.5
 40
0.5
 40
1.0
 40
1.0
 40
1.0
 40
1.0
 10
180.2346320685181
 20
77.15845010288139
 30
0.0
 10
180.2203547667636
 20
77.1567559580555
 30
0.0
 10
180.2029179893822
 20
77.1548297484994
 30
0.0
 10
180.1662944132356
 20
77.15191428720888
 30
0.0
 10
180.1471076144705
 20
77.1509250354745
 30
0.0
 10
180.0937755809052
 20
77.1514643479271
 30
0.0
 10
180.0638587088351
 20
77.1564999797699
 30
0.0
 10
180.05785537322
 20
77.17181605094902
 30
0.0
  0
SPLINE
  5
169
330
1F
100
AcDbEntity
  8
0
  6
Continuous
 62
     7
370
    25
100
AcDbSpline
210
0.0
220
0.0
230
1.0
 70
     8
 71
     3
 72
    12
 73
     8
 74
     0
 42
0.000000001
 43
0.00000001
 40
0.0
 40
0.0
 40
0.0
 40
0.0
 40
0.25
 40
0.25
 40
0.5
 40
0.5
 40
1.0
 40
1.0
 40
1.0
 40
1.0
 10
166.3810786779218
 20
71.89367937688743
 30
0.0
 10
166.3953559796763
 20
71.89537352171334
 30
0.0
 10
166.4127927570578
 20
71.89729973126944
 30
0.0
 10
166.4494163332043
 20
71.90021519255994
 30
0.0
 10
166.4686031319694
 20
71.90120444429434
 30
0.0
 10
166.5219351655347
 20
71.90066513184172
 30
0.0
 10
166.5518520376048
 20
71.89562949999892
 30
0.0
 10
166.55785537322
 20
71.88031342881983
 30
0.0
  0
LINE
  5
16A
330
1F
100
AcDbEntity
  8
0
  6
Continuous
 62
     7
370
    25
100
AcDbLine
 10
166.5578553732
 20
71.8803134288
 30
0.0
 11
166.5578553732
 21
68.7760647399
 31
0.0
  0
LINE
  5
16B
330
1F
100
AcDbEntity
  8
0
  6
Continuous
 62
     7
370
    25
100
AcDbLine
 10
166.5578553732
 20
68.7760647399
 30
0.0
 11
168.8919749401
 21
68.7760647399
 31
0.0
  0
LINE
  5
16C
330
1F
100
AcDbEntity
  8
0
  6
Continuous
 62
     7
370
    25
100
AcDbLine
 10
180.0578553732
 20
80.2760647399
 30
0.0
 11
177.7237358064
 21
80.2760647399
 31
0.0
  0
LINE
  5
16D
330
1F
100
AcDbEntity
  8
0
  6
Continuous
 62
     7
370
    25
100
AcDbLine
 10
180.0578553732
 20
77.1718160509
 30
0.0
 11
180.0578553732
 21
80.2760647399
 31
0.0
  0
LINE
  5
16E
330
1F
100
AcDbEntity
  8
0
  6
Continuous
 62
     7
370
    25
100
AcDbLine
 10
177.7237358064
 20
68.7760647399
 30
0.0
 11
180.0578553732
 21
68.7760647399
 31
0.0
  0
LINE
  5
16F
330
1F
100
AcDbEntity
  8
0
  6
Continuous
 62
     7
370
    25
100
AcDbLine
 10
180.0578553732
 20
68.7760647399
 30
0.0
 11
180.0578553732
 21
71.8803134288
 31
0.0
  0
LINE
  5
170
330
1F
100
AcDbEntity
  8
0
  6
Continuous
 62
     7
370
    25
100
AcDbLine
 10
166.5578553732
 20
80.2760647399
 30
0.0
 11
166.5578553732
 21
77.1718160509
 31
0.0
  0
SPLINE
  5
171
330
1F
100
AcDbEntity
  8
0
  6
Continuous
 62
     7
370
    25
100
AcDbSpline
210
0.0
220
0.0
230
1.0
 70
     8
 71
     3
 72
    10
 73
     6
 74
     0
 42
0.000000001
 43
0.00000001
 40
0.0
 40
0.0
 40
0.0
 40
0.0
 40
0.5
 40
0.5
 40
1.0
 40
1.0
 40
1.0
 40
1.0
 10
166.3810786779218
 20
77.15845010288139
 30
0.0
 10
166.3525240744129
 20
77.16183839253318
 30
0.0
 10
166.3342182482374
 20
77.16517987955008
 30
0.0
 10
166.311883897641
 20
77.170168708758
 30
0.0
 10
166.30785537322
 20
77.17181605094902
 30
0.0
 10
166.30785537322
 20
77.17181605094902
 30
0.0
  0
LINE
  5
172
330
1F
100
AcDbEntity
  8
0
  6
Continuous
 62
     7
370
    25
100
AcDbLine
 10
166.3078553732
 20
77.1718160509
 30
0.0
 11
166.3078553732
 21
80.2760647399
 31
0.0
  0
LINE
  5
173
330
1F
100
AcDbEntity
  8
0
  6
Continuous
 62
     7
370
    25
100
AcDbLine
 10
166.3078553732
 20
80.2760647399
 30
0.0
 11
166.5578553732
 21
80.2760647399
 31
0.0
  0
LINE
  5
174
330
1F
100
AcDbEntity
  8
0
  6
Continuous
 62
     7
370
    25
100
AcDbLine
 10
166.3078553732
 20
68.7760647399
 30
0.0
 11
166.3078553732
 21
71.8803134288
 31
0.0
  0
SPLINE
  5
175
330
1F
100
AcDbEntity
  8
0
  6
Continuous
 62
     7
370
    25
100
AcDbSpline
210
0.0
220
0.0
230
1.0
 70
     8
 71
     3
 72
    10
 73
     6
 74
     0
 42
0.000000001
 43
0.00000001
 40
0.0
 40
0.0
 40
0.0
 40
0.0
 40
0.5
 40
0.5
 40
1.0
 40
1.0
 40
1.0
 40
1.0
 10
166.3810786779218
 20
71.89367937688743
 30
0.0
 10
166.3525240744129
 20
71.89029108723565
 30
0.0
 10
166.3342182482374
 20
71.88694960021876
 30
0.0
 10
166.311883897641
 20
71.88196077101084
 30
0.0
 10
166.30785537322
 20
71.88031342881983
 30
0.0
 10
166.30785537322
 20
71.88031342881983
 30
0.0
  0
LINE
  5
176
330
1F
100
AcDbEntity
  8
0
  6
Continuous
 62
     7
370
    25
100
AcDbLine
 10
166.3078553732
 20
68.7760647399
 30
0.0
 11
166.5578553732
 21
68.7760647399
 31
0.0
  0
SPLINE
  5
177
330
1F
100
AcDbEntity
  8
0
  6
Continuous
 62
     7
370
    25
100
AcDbSpline
210
0.0
220
0.0
230
1.0
 70
     8
 71
     3
 72
    10
 73
     6
 74
     0
 42
0.000000001
 43
0.00000001
 40
0.0
 40
0.0
 40
0.0
 40
0.0
 40
0.5
 40
0.5
 40
1.0
 40
1.0
 40
1.0
 40
1.0
 10
180.2346320685181
 20
71.89367937688743
 30
0.0
 10
180.263186672027
 20
71.89029108723565
 30
0.0
 10
180.2814924982025
 20
71.88694960021876
 30
0.0
 10
180.3038268487989
 20
71.88196077101084
 30
0.0
 10
180.30785537322
 20
71.88031342881983
 30
0.0
 10
180.30785537322
 20
71.88031342881983
 30
0.0
  0
LINE
  5
178
330
1F
100
AcDbEntity
  8
0
  6
Continuous
 62
     7
370
    25
100
AcDbLine
 10
180.3078553732
 20
71.8803134288
 30
0.0
 11
180.3078553732
 21
68.7760647399
 31
0.0
  0
LINE
  5
179
330
1F
100
AcDbEntity
  8
0
  6
Continuous
 62
     7
370
    25
100
AcDbLine
 10
180.0578553732
 20
68.7760647399
 30
0.0
 11
180.3078553732
 21
68.7760647399
 31
0.0
  0
LINE
  5
17A
330
1F
100
AcDbEntity
  8
0
  6
Continuous
 62
     7
370
    25
100
AcDbLine
 10
180.0578553732
 20
80.2760647399
 30
0.0
 11
180.3078553732
 21
80.2760647399
 31
0.0
  0
LINE
  5
17B
330
1F
100
AcDbEntity
  8
0
  6
Continuous
 62
     7
370
    25
100
AcDbLine
 10
180.3078553732
 20
80.2760647399
 30
0.0
 11
180.3078553732
 21
77.1718160509
 31
0.0
  0
SPLINE
  5
17C
330
1F
100
AcDbEntity
  8
0
  6
Continuous
 62
     7
370
    25
100
AcDbSpline
210
0.0
220
0.0
230
1.0
 70
     8
 71
     3
 72
    10
 73
     6
 74
     0
 42
0.000000001
 43
0.00000001
 40
0.0
 40
0.0
 40
0.0
 40
0.0
 40
0.5
 40
0.5
 40
1.0
 40
1.0
 40
1.0
 40
1.0
 10
180.2346320685181
 20
77.15845010288139
 30
0.0
 10
180.263186672027
 20
77.16183839253318
 30
0.0
 10
180.2814924982025
 20
77.16517987955008
 30
0.0
 10
180.3038268487989
 20
77.170168708758
 30
0.0
 10
180.30785537322
 20
77.17181605094902
 30
0.0
 10
180.30785537322
 20
77.17181605094902
 30
0.0
  0
LINE
  5
17D
330
1F
100
AcDbEntity
  8
0
  6
Continuous
 62
     7
370
    25
100
AcDbLine
 10
168.8919749401
 20
80.2760647399
 30
0.0
 11
166.5578553732
 21
80.2760647399
 31
0.0
  0
LINE
  5
17E
330
1F
100
AcDbEntity
  8
0
  6
Continuous
 62
     7
370
    25
100
AcDbLine
 10
166.3078553732
 20
77.1718160509
 30
0.0
 11
166.3078553732
 21
75.6776875145
 31
0.0
  0
LINE
  5
17F
330
1F
100
AcDbEntity
  8
0
  6
Continuous
 62
     7
370
    25
100
AcDbLine
 10
180.3078553732
 20
71.8803134288
 30
0.0
 11
180.3078553732
 21
73.3744419653
 31
0.0
  0
LINE
  5
180
330
1F
100
AcDbEntity
  8
0
  6
Continuous
 62
     7
370
    25
100
AcDbLine
 10
180.3078553732
 20
75.7710744947
 30
0.0
 11
180.3078553732
 21
77.1718160509
 31
0.0
  0
LINE
  5
181
330
1F
100
AcDbEntity
  8
0
  6
Continuous
 62
     7
370
    25
100
AcDbLine
 10
166.3078553732
 20
73.281054985
 30
0.0
 11
166.3078553732
 21
71.8803134288
 31
0.0
  0
LINE
  5
182
330
1F
100
AcDbEntity
  8
0
  6
Continuous
 62
     7
370
    25
100
AcDbLine
 10
180.0578553732
 20
80.2760647399
 30
0.0
 11
180.0578553732
 21
80.5260647399
 31
0.0
  0
ARC
  5
183
330
1F
100
AcDbEntity
  8
0
  6
Continuous
 62
     7
370
    25
100
AcDbCircle
 10
180.0578553732
 20
80.2760647399
 30
0.0
 40
0.25
100
AcDbArc
 50
0.0
 51
90.0
  0
ARC
  5
184
330
1F
100
AcDbEntity
  8
0
  6
Continuous
 62
     7
370
    25
100
AcDbCircle
 10
180.0578553732
 20
68.7760647399
 30
0.0
 40
0.25
100
AcDbArc
 50
270.0
 51
0.0
  0
LINE
  5
185
330
1F
100
AcDbEntity
  8
0
  6
Continuous
 62
     7
370
    25
100
AcDbLine
 10
180.0578553732
 20
68.7760647399
 30
0.0
 11
180.0578553732
 21
68.5260647399
 31
0.0
  0
LINE
  5
186
330
1F
100
AcDbEntity
  8
0
  6
Continuous
 62
     7
370
    25
100
AcDbLine
 10
166.5578553732
 20
80.5260647399
 30
0.0
 11
169.633620759
 21
80.5260647399
 31
0.0
  0
LINE
  5
187
330
1F
100
AcDbEntity
  8
0
  6
Continuous
 62
     7
370
    25
100
AcDbLine
 10
166.5578553732
 20
80.5260647399
 30
0.0
 11
166.5578553732
 21
80.2760647399
 31
0.0
  0
LINE
  5
188
330
1F
100
AcDbEntity
  8
0
  6
Continuous
 62
     7
370
    25
100
AcDbLine
 10
166.5578553732
 20
68.5260647399
 30
0.0
 11
166.5578553732
 21
68.7760647399
 31
0.0
  0
ARC
  5
189
330
1F
100
AcDbEntity
  8
0
  6
Continuous
 62
     7
370
    25
100
AcDbCircle
 10
166.5578553732
 20
68.7760647399
 30
0.0
 40
0.25
100
AcDbArc
 50
180.0
 51
270.0
  0
LINE
  5
18A
330
1F
100
AcDbEntity
  8
0
  6
Continuous
 62
     7
370
    25
100
AcDbLine
 10
169.633620759
 20
68.5260647399
 30
0.0
 11
166.5578553732
 21
68.5260647399
 31
0.0
  0
ARC
  5
18B
330
1F
100
AcDbEntity
  8
0
  6
Continuous
 62
     7
370
    25
100
AcDbCircle
 10
166.5578553732
 20
80.2760647399
 30
0.0
 40
0.25
100
AcDbArc
 50
90.0
 51
180.0
  0
LINE
  5
18C
330
1F
100
AcDbEntity
  8
0
  6
Continuous
 62
     7
370
    25
100
AcDbLine
 10
176.9820899874
 20
80.5260647399
 30
0.0
 11
180.0578553732
 21
80.5260647399
 31
0.0
  0
LINE
  5
18D
330
1F
100
AcDbEntity
  8
0
  6
Continuous
 62
     7
370
    25
100
AcDbLine
 10
180.0578553732
 20
68.5260647399
 30
0.0
 11
176.9820899874
 21
68.5260647399
 31
0.0
  0
SPLINE
  5
18E
330
1F
100
AcDbEntity
  8
0
  6
Continuous
 62
     7
370
    25
100
AcDbSpline
210
0.0
220
0.0
230
1.0
 70
     8
 71
     3
 72
    10
 73
     6
 74
     0
 42
0.000000001
 43
0.00000001
 40
0.0
 40
0.0
 40
0.0
 40
0.0
 40
0.5
 40
0.5
 40
1.0
 40
1.0
 40
1.0
 40
1.0
 10
176.2138710644844
 20
80.89435122858175
 30
0.0
 10
176.2684183881593
 20
80.86945985806989
 30
0.0
 10
176.3271803186234
 20
80.8515131608989
 30
0.0
 10
176.4510014783466
 20
80.82599622283242
 30
0.0
 10
176.5158292209416
 20
80.81895795869865
 30
0.0
 10
176.5798381363855
 20
80.81895795869787
 30
0.0
  0
SPLINE
  5
18F
330
1F
100
AcDbEntity
  8
0
  6
Continuous
 62
     7
370
    25
100
AcDbSpline
210
0.0
220
0.0
230
1.0
 70
     8
 71
     3
 72
    10
 73
     6
 74
     0
 42
0.000000001
 43
0.00000001
 40
0.0
 40
0.0
 40
0.0
 40
0.0
 40
0.5
 40
0.5
 40
1.0
 40
1.0
 40
1.0
 40
1.0
 10
176.5798381363865
 20
80.81895795869787
 30
0.0
 10
176.6896264252053
 20
80.74492525051092
 30
0.0
 10
176.7883428784111
 20
80.67338200406094
 30
0.0
 10
176.9352316344925
 20
80.5632342902929
 30
0.0
 10
176.9820899873947
 20
80.52606473988442
 30
0.0
 10
176.9820899873947
 20
80.52606473988442
 30
0.0
  0
SPLINE
  5
190
330
1F
100
AcDbEntity
  8
0
  6
Continuous
 62
     7
370
    25
100
AcDbSpline
210
0.0
220
0.0
230
1.0
 70
     8
 71
     3
 72
    10
 73
     6
 74
     0
 42
0.000000001
 43
0.00000001
 40
0.0
 40
0.0
 40
0.0
 40
0.0
 40
0.5
 40
0.5
 40
1.0
 40
1.0
 40
1.0
 40
1.0
 10
169.6336207590452
 20
80.52606473988442
 30
0.0
 10
169.6336207590452
 20
80.52606473988442
 30
0.0
 10
169.6804791119475
 20
80.5632342902929
 30
0.0
 10
169.8273678680289
 20
80.67338200406094
 30
0.0
 10
169.9260843212346
 20
80.74492525051092
 30
0.0
 10
170.0358726100534
 20
80.81895795869787
 30
0.0
  0
SPLINE
  5
191
330
1F
100
AcDbEntity
  8
0
  6
Continuous
 62
     7
370
    25
100
AcDbSpline
210
0.0
220
0.0
230
1.0
 70
     8
 71
     3
 72
    10
 73
     6
 74
     0
 42
0.000000001
 43
0.00000001
 40
0.0
 40
0.0
 40
0.0
 40
0.0
 40
0.5
 40
0.5
 40
1.0
 40
1.0
 40
1.0
 40
1.0
 10
170.4018396819555
 20
80.89435122858171
 30
0.0
 10
170.3472923582806
 20
80.86945985806989
 30
0.0
 10
170.2885304278168
 20
80.851513160899
 30
0.0
 10
170.164709268094
 20
80.8259962228325
 30
0.0
 10
170.0998815254991
 20
80.81895795869856
 30
0.0
 10
170.0358726100553
 20
80.81895795869752
 30
0.0
  0
LINE
  5
192
330
1F
100
AcDbEntity
  8
0
  6
Continuous
 62
     7
370
    25
100
AcDbLine
 10
166.5578553732
 20
81.5260647399
 30
0.0
 11
166.5578553732
 21
80.5260647399
 31
0.0
  0
LINE
  5
193
330
1F
100
AcDbEntity
  8
0
  6
Continuous
 62
     7
370
    25
100
AcDbLine
 10
166.5578553732
 20
81.5260647399
 30
0.0
 11
166.3078553732
 21
81.5260647399
 31
0.0
  0
LINE
  5
194
330
1F
100
AcDbEntity
  8
0
  6
Continuous
 62
     7
370
    25
100
AcDbLine
 10
166.3078553732
 20
80.2760647399
 30
0.0
 11
166.3078553732
 21
81.5260647399
 31
0.0
  0
LINE
  5
195
330
1F
100
AcDbEntity
  8
0
  6
Continuous
 62
     7
370
    25
100
AcDbLine
 10
166.5578553732
 20
81.5260647399
 30
0.0
 11
169.633620759
 21
81.5260647399
 31
0.0
  0
SPLINE
  5
196
330
1F
100
AcDbEntity
  8
0
  6
Continuous
 62
     7
370
    25
100
AcDbSpline
210
0.0
220
0.0
230
1.0
 70
     8
 71
     3
 72
    10
 73
     6
 74
     0
 42
0.000000001
 43
0.00000001
 40
0.0
 40
0.0
 40
0.0
 40
0.0
 40
0.5
 40
0.5
 40
1.0
 40
1.0
 40
1.0
 40
1.0
 10
170.0358726100534
 20
80.81895795869787
 30
0.0
 10
169.9260843212346
 20
80.89299066688483
 30
0.0
 10
169.8273678680289
 20
80.98739229660312
 30
0.0
 10
169.6804791119475
 20
81.22574262204849
 30
0.0
 10
169.6336207590452
 20
81.37356985820956
 30
0.0
 10
169.6336207590452
 20
81.52606473988443
 30
0.0
  0
LINE
  5
197
330
1F
100
AcDbEntity
  8
0
  6
Continuous
 62
     7
370
    25
100
AcDbLine
 10
180.0578553732
 20
80.5260647399
 30
0.0
 11
180.0578553732
 21
81.5260647399
 31
0.0
  0
LINE
  5
198
330
1F
100
AcDbEntity
  8
0
  6
Continuous
 62
     7
370
    25
100
AcDbLine
 10
180.0578553732
 20
81.5260647399
 30
0.0
 11
180.3078553732
 21
81.5260647399
 31
0.0
  0
LINE
  5
199
330
1F
100
AcDbEntity
  8
0
  6
Continuous
 62
     7
370
    25
100
AcDbLine
 10
180.3078553732
 20
81.5260647399
 30
0.0
 11
180.3078553732
 21
80.2760647399
 31
0.0
  0
LINE
  5
19A
330
1F
100
AcDbEntity
  8
0
  6
Continuous
 62
     7
370
    25
100
AcDbLine
 10
176.9820899874
 20
81.5260647399
 30
0.0
 11
180.0578553732
 21
81.5260647399
 31
0.0
  0
SPLINE
  5
19B
330
1F
100
AcDbEntity
  8
0
  6
Continuous
 62
     7
370
    25
100
AcDbSpline
210
0.0
220
0.0
230
1.0
 70
     8
 71
     3
 72
    10
 73
     6
 74
     0
 42
0.000000001
 43
0.00000001
 40
0.0
 40
0.0
 40
0.0
 40
0.0
 40
0.5
 40
0.5
 40
1.0
 40
1.0
 40
1.0
 40
1.0
 10
176.9820899873947
 20
81.52606473988443
 30
0.0
 10
176.9820899873947
 20
81.37356985820956
 30
0.0
 10
176.9352316344925
 20
81.22574262204849
 30
0.0
 10
176.7883428784111
 20
80.98739229660312
 30
0.0
 10
176.6896264252053
 20
80.89299066688483
 30
0.0
 10
176.5798381363865
 20
80.81895795869787
 30
0.0
  0
SPLINE
  5
19C
330
1F
100
AcDbEntity
  8
0
  6
Continuous
 62
     7
370
    25
100
AcDbSpline
210
0.0
220
0.0
230
1.0
 70
    24
 71
     3
 72
    14
 73
    10
 74
     0
 42
0.000000001
 43
0.00000001
 40
0.0
 40
0.0
 40
0.0
 40
0.0
 40
0.25
 40
0.25
 40
0.5
 40
0.5
 40
0.75
 40
0.75
 40
1.0
 40
1.0
 40
1.0
 40
1.0
 10
180.30785537322
 20
82.27606473988443
 30
0.0
 10
180.30785537322
 20
82.27606473988443
 30
0.0
 10
180.2979306832946
 20
82.27606473988443
 30
0.0
 10
180.2581359806319
 20
82.27606473988443
 30
0.0
 10
180.2282656354102
 20
82.27606473988443
 30
0.0
 10
180.1482960954783
 20
82.27606473988443
 30
0.0
 10
180.0981962150424
 20
82.27606473988443
 30
0.0
 10
179.9773116660545
 20
82.27606473988442
 30
0.0
 10
179.9065259174659
 20
82.27606473988442
 30
0.0
 10
179.8250967525303
 20
82.27606473988442
 30
0.0
  0
LINE
  5
19D
330
1F
100
AcDbEntity
  8
0
  6
Continuous
 62
     7
370
    25
100
AcDbLine
 10
177.5714640673
 20
82.2760647399
 30
0.0
 11
179.8250967525
 21
82.2760647399
 31
0.0
  0
SPLINE
  5
19E
330
1F
100
AcDbEntity
  8
0
  6
Continuous
 62
     7
370
    25
100
AcDbSpline
210
0.0
220
0.0
230
1.0
 70
     8
 71
     3
 72
    14
 73
    10
 74
     0
 42
0.000000001
 43
0.00000001
 40
0.0
 40
0.0
 40
0.0
 40
0.0
 40
0.25
 40
0.25
 40
0.5
 40
0.5
 40
0.75
 40
0.75
 40
1.0
 40
1.0
 40
1.0
 40
1.0
 10
177.5714640673093
 20
82.27606473988442
 30
0.0
 10
177.4994845446732
 20
82.27606473988442
 30
0.0
 10
177.4276061950082
 20
82.26651617564829
 30
0.0
 10
177.2840703873102
 20
82.22972605752346
 30
0.0
 10
177.2119102470042
 20
82.2021750102353
 30
0.0
 10
177.0753638269804
 20
82.12717192266514
 30
0.0
 10
177.0086239384428
 20
82.07899154247315
 30
0.0
 10
176.8990253356756
 20
81.95202816469632
 30
0.0
 10
176.8553922420784
 20
81.86800568460754
 30
0.0
 10
176.8553922420784
 20
81.77606473988442
 30
0.0
  0
LINE
  5
19F
330
1F
100
AcDbEntity
  8
0
  6
Continuous
 62
     7
370
    25
100
AcDbLine
 10
176.8553922421
 20
81.5260647399
 30
0.0
 11
176.8553922421
 21
81.7760647399
 31
0.0
  0
SPLINE
  5
1A0
330
1F
100
AcDbEntity
  8
0
  6
Continuous
 62
     7
370
    25
100
AcDbSpline
210
0.0
220
0.0
230
1.0
 70
     8
 71
     3
 72
    12
 73
     8
 74
     0
 42
0.000000001
 43
0.00000001
 40
0.0
 40
0.0
 40
0.0
 40
0.0
 40
0.5000000000000004
 40
0.5000000000000004
 40
0.7500000000000002
 40
0.7500000000000002
 40
1.0
 40
1.0
 40
1.0
 40
1.0
 10
176.2138710644845
 20
80.89435122858171
 30
0.0
 10
176.3643817961296
 20
80.93987510148365
 30
0.0
 10
176.5079400937194
 20
81.00224387441241
 30
0.0
 10
176.6921182747712
 20
81.15255744256942
 30
0.0
 10
176.7471081482716
 20
81.21179357549265
 30
0.0
 10
176.8299057855486
 20
81.35577376423092
 30
0.0
 10
176.8553922420784
 20
81.4392589627678
 30
0.0
 10
176.8553922420784
 20
81.52606473988443
 30
0.0
  0
SPLINE
  5
1A1
330
1F
100
AcDbEntity
  8
0
  6
Continuous
 62
     7
370
    25
100
AcDbSpline
210
0.0
220
0.0
230
1.0
 70
     8
 71
     3
 72
    12
 73
     8
 74
     0
 42
0.000000001
 43
0.00000001
 40
0.0
 40
0.0
 40
0.0
 40
0.0
 40
0.2500000000000002
 40
0.2500000000000002
 40
0.5000000000000004
 40
0.5000000000000004
 40
1.0
 40
1.0
 40
1.0
 40
1.0
 10
169.7603185043616
 20
81.52606473988443
 30
0.0
 10
169.7603185043616
 20
81.4392589627678
 30
0.0
 10
169.7858049608913
 20
81.35577376423092
 30
0.0
 10
169.8686025981683
 20
81.21179357549265
 30
0.0
 10
169.9235924716687
 20
81.15255744256942
 30
0.0
 10
170.1077706527205
 20
81.00224387441241
 30
0.0
 10
170.2513289503103
 20
80.93987510148366
 30
0.0
 10
170.4018396819555
 20
80.89435122858171
 30
0.0
  0
LINE
  5
1A2
330
1F
100
AcDbEntity
  8
0
  6
Continuous
 62
     7
370
    25
100
AcDbLine
 10
169.7603185044
 20
81.7760647399
 30
0.0
 11
169.7603185044
 21
81.5260647399
 31
0.0
  0
SPLINE
  5
1A3
330
1F
100
AcDbEntity
  8
0
  6
Continuous
 62
     7
370
    25
100
AcDbSpline
210
0.0
220
0.0
230
1.0
 70
     8
 71
     3
 72
    14
 73
    10
 74
     0
 42
0.000000001
 43
0.00000001
 40
0.0
 40
0.0
 40
0.0
 40
0.0
 40
0.25
 40
0.25
 40
0.5
 40
0.5
 40
0.75
 40
0.75
 40
1.0
 40
1.0
 40
1.0
 40
1.0
 10
169.7603185043616
 20
81.77606473988442
 30
0.0
 10
169.7603185043616
 20
81.86786713449735
 30
0.0
 10
169.7167021902397
 20
81.95203107341277
 30
0.0
 10
169.6069507780134
 20
82.07912675398414
 30
0.0
 10
169.540299664014
 20
82.12724922323531
 30
0.0
 10
169.4029928017181
 20
82.20256700301407
 30
0.0
 10
169.3309257258991
 20
82.22994321610739
 30
0.0
 10
169.1880145378245
 20
82.26650506672951
 30
0.0
 10
169.1162765582902
 20
82.27606473988442
 30
0.0
 10
169.0442466791307
 20
82.27606473988442
 30
0.0
  0
LINE
  5
1A4
330
1F
100
AcDbEntity
  8
0
  6
Continuous
 62
     7
370
    25
100
AcDbLine
 10
166.7906139939
 20
82.2760647399
 30
0.0
 11
169.0442466791
 21
82.2760647399
 31
0.0
  0
SPLINE
  5
1A5
330
1F
100
AcDbEntity
  8
0
  6
Continuous
 62
     7
370
    25
100
AcDbSpline
210
0.0
220
0.0
230
1.0
 70
    24
 71
     3
 72
    14
 73
    10
 74
     0
 42
0.000000001
 43
0.00000001
 40
0.0
 40
0.0
 40
0.0
 40
0.0
 40
0.25
 40
0.25
 40
0.5
 40
0.5
 40
0.75
 40
0.75
 40
1.0
 40
1.0
 40
1.0
 40
1.0
 10
166.30785537322
 20
82.27606473988443
 30
0.0
 10
166.30785537322
 20
82.27606473988443
 30
0.0
 10
166.3177800631453
 20
82.27606473988443
 30
0.0
 10
166.3575747658081
 20
82.27606473988443
 30
0.0
 10
166.3874451110297
 20
82.27606473988443
 30
0.0
 10
166.4674146509616
 20
82.27606473988443
 30
0.0
 10
166.5175145313976
 20
82.27606473988443
 30
0.0
 10
166.6383990803854
 20
82.27606473988442
 30
0.0
 10
166.709184828974
 20
82.27606473988442
 30
0.0
 10
166.7906139939096
 20
82.27606473988442
 30
0.0
  0
LINE
  5
1A6
330
1F
100
AcDbEntity
  8
0
  6
Continuous
 62
     7
370
    25
100
AcDbLine
 10
176.9820899874
 20
81.5260647399
 30
0.0
 11
176.8553922421
 21
81.5260647399
 31
0.0
  0
LINE
  5
1A7
330
1F
100
AcDbEntity
  8
0
  6
Continuous
 62
     7
370
    25
100
AcDbLine
 10
169.7603185044
 20
81.5260647399
 30
0.0
 11
169.633620759
 21
81.5260647399
 31
0.0
  0
LINE
  5
1A8
330
1F
100
AcDbEntity
  8
0
  6
Continuous
 62
     7
370
    25
100
AcDbLine
 10
169.7603185044
 20
81.7760647399
 30
0.0
 11
169.633620759
 21
81.7760647399
 31
0.0
  0
SPLINE
  5
1A9
330
1F
100
AcDbEntity
  8
0
  6
Continuous
 62
     7
370
    25
100
AcDbSpline
210
0.0
220
0.0
230
1.0
 70
     8
 71
     3
 72
    16
 73
    12
 74
     0
 42
0.000000001
 43
0.00000001
 40
0.0
 40
0.0
 40
0.0
 40
0.0
 40
0.5000000000000004
 40
0.5000000000000004
 40
0.7499999999999992
 40
0.7499999999999992
 40
0.8749999999999993
 40
0.8749999999999993
 40
0.9374999999999997
 40
0.9374999999999997
 40
1.0
 40
1.0
 40
1.0
 40
1.0
 10
168.891974940056
 20
82.02606473988442
 30
0.0
 10
169.0262530989827
 20
82.02606473988442
 30
0.0
 10
169.160833280289
 20
82.01170920372051
 30
0.0
 10
169.3605338043135
 20
81.9650590465094
 30
0.0
 10
169.4267846338682
 20
81.94546945724879
 30
0.0
 10
169.5211158156402
 20
81.90261313030098
 30
0.0
 10
169.5520546484334
 20
81.88605619524597
 30
0.0
 10
169.5931155420189
 20
81.85341974733478
 30
0.0
 10
169.6058857277225
 20
81.84128036867295
 30
0.0
 10
169.6264138096404
 20
81.81183202265849
 30
0.0
 10
169.6336207590452
 20
81.79438668899411
 30
0.0
 10
169.6336207590452
 20
81.77606473988442
 30
0.0
  0
LWPOLYLINE
  5
1AA
330
1F
100
AcDbEntity
  8
0
  6
Continuous
 62
     7
370
    25
100
AcDbPolyline
 90
        9
 70
   128
 43
0.0
 10
169.0442466791
 20
82.2760647399
 10
169.0413208204
 20
82.2272921594
 10
169.0326556832
 20
82.1803938818
 10
169.0185842639
 20
82.1371721816
 10
168.9996473193
 20
82.0992880446
 10
168.9765725856
 20
82.0681973368
 10
168.9502468118
 20
82.0450948568
 10
168.9216816827
 20
82.0308684198
 10
168.8919749401
 20
82.0260647399
  0
SPLINE
  5
1AB
330
1F
100
AcDbEntity
  8
0
  6
Continuous
 62
     7
370
    25
100
AcDbSpline
210
0.0
220
0.0
230
1.0
 70
     8
 71
     3
 72
    16
 73
    12
 74
     0
 42
0.000000001
 43
0.00000001
 40
0.0
 40
0.0
 40
0.0
 40
0.0
 40
0.0624999999999998
 40
0.0624999999999998
 40
0.1249999999999995
 40
0.1249999999999995
 40
0.249999999999999
 40
0.249999999999999
 40
0.4999999999999984
 40
0.4999999999999984
 40
1.0
 40
1.0
 40
1.0
 40
1.0
 10
176.9820899873947
 20
81.77606473988442
 30
0.0
 10
176.9820899873947
 20
81.79446988543027
 30
0.0
 10
176.9893610340443
 20
81.81194033203846
 30
0.0
 10
177.0098373391489
 20
81.8412816222739
 30
0.0
 10
177.0225099473675
 20
81.85334796788926
 30
0.0
 10
177.0637156688361
 20
81.88611155684437
 30
0.0
 10
177.0945460217359
 20
81.90258900839702
 30
0.0
 10
177.1889325122455
 20
81.94547616527265
 30
0.0
 10
177.2551170848351
 20
81.96503473055974
 30
0.0
 10
177.4543528650327
 20
82.01160727310995
 30
0.0
 10
177.5894872097479
 20
82.02606473988443
 30
0.0
 10
177.7237358063839
 20
82.02606473988443
 30
0.0
  0
LINE
  5
1AC
330
1F
100
AcDbEntity
  8
0
  6
Continuous
 62
     7
370
    25
100
AcDbLine
 10
176.9820899874
 20
81.7760647399
 30
0.0
 11
176.8553922421
 21
81.7760647399
 31
0.0
  0
LWPOLYLINE
  5
1AD
330
1F
100
AcDbEntity
  8
0
  6
Continuous
 62
     7
370
    25
100
AcDbPolyline
 90
        9
 70
   128
 43
0.0
 10
177.7237358064
 20
82.0260647399
 10
177.6940290638
 20
82.0308684198
 10
177.6654639346
 20
82.0450948568
 10
177.6391381608
 20
82.0681973368
 10
177.6160634271
 20
82.0992880446
 10
177.5971264825
 20
82.1371721816
 10
177.5830550633
 20
82.1803938818
 10
177.5743899261
 20
82.2272921594
 10
177.5714640673
 20
82.2760647399
  0
LINE
  5
1AE
330
1F
100
AcDbEntity
  8
0
  6
Continuous
 62
     7
370
    25
100
AcDbLine
 10
176.9820899874
 20
81.7760647399
 30
0.0
 11
176.9820899874
 21
81.5260647399
 31
0.0
  0
LINE
  5
1AF
330
1F
100
AcDbEntity
  8
0
  6
Continuous
 62
     7
370
    25
100
AcDbLine
 10
169.633620759
 20
81.5260647399
 30
0.0
 11
169.633620759
 21
81.7760647399
 31
0.0
  0
LINE
  5
1B0
330
1F
100
AcDbEntity
  8
0
  6
Continuous
 62
     7
370
    25
100
AcDbLine
 10
180.0578553732
 20
81.5260647399
 30
0.0
 11
180.0578553732
 21
81.7760647399
 31
0.0
  0
LINE
  5
1B1
330
1F
100
AcDbEntity
  8
0
  6
Continuous
 62
     7
370
    25
100
AcDbLine
 10
180.0578553732
 20
81.7760647399
 30
0.0
 11
180.3078553732
 21
81.7760647399
 31
0.0
  0
LINE
  5
1B2
330
1F
100
AcDbEntity
  8
0
  6
Continuous
 62
     7
370
    25
100
AcDbLine
 10
180.3078553732
 20
81.7760647399
 30
0.0
 11
180.3078553732
 21
81.5260647399
 31
0.0
  0
LINE
  5
1B3
330
1F
100
AcDbEntity
  8
0
  6
Continuous
 62
     7
370
    25
100
AcDbLine
 10
166.5578553732
 20
81.7760647399
 30
0.0
 11
166.5578553732
 21
81.5260647399
 31
0.0
  0
LINE
  5
1B4
330
1F
100
AcDbEntity
  8
0
  6
Continuous
 62
     7
370
    25
100
AcDbLine
 10
166.3078553732
 20
81.7760647399
 30
0.0
 11
166.5578553732
 21
81.7760647399
 31
0.0
  0
LINE
  5
1B5
330
1F
100
AcDbEntity
  8
0
  6
Continuous
 62
     7
370
    25
100
AcDbLine
 10
166.3078553732
 20
81.5260647399
 30
0.0
 11
166.3078553732
 21
81.7760647399
 31
0.0
  0
LINE
  5
1B6
330
1F
100
AcDbEntity
  8
0
  6
Continuous
 62
     7
370
    25
100
AcDbLine
 10
166.5578553732
 20
82.0260647399
 30
0.0
 11
168.8919749401
 21
82.0260647399
 31
0.0
  0
LINE
  5
1B7
330
1F
100
AcDbEntity
  8
0
  6
Continuous
 62
     7
370
    25
100
AcDbLine
 10
169.633620759
 20
81.7760647399
 30
0.0
 11
166.5578553732
 21
81.7760647399
 31
0.0
  0
LINE
  5
1B8
330
1F
100
AcDbEntity
  8
0
  6
Continuous
 62
     7
370
    25
100
AcDbLine
 10
166.5578553732
 20
82.0260647399
 30
0.0
 11
166.5578553732
 21
81.7760647399
 31
0.0
  0
LINE
  5
1B9
330
1F
100
AcDbEntity
  8
0
  6
Continuous
 62
     7
370
    25
100
AcDbLine
 10
180.0578553732
 20
81.7760647399
 30
0.0
 11
176.9820899874
 21
81.7760647399
 31
0.0
  0
LINE
  5
1BA
330
1F
100
AcDbEntity
  8
0
  6
Continuous
 62
     7
370
    25
100
AcDbLine
 10
177.7237358064
 20
82.0260647399
 30
0.0
 11
180.0578553732
 21
82.0260647399
 31
0.0
  0
LINE
  5
1BB
330
1F
100
AcDbEntity
  8
0
  6
Continuous
 62
     7
370
    25
100
AcDbLine
 10
180.0578553732
 20
81.7760647399
 30
0.0
 11
180.0578553732
 21
82.0260647399
 31
0.0
  0
ARC
  5
1BC
330
1F
100
AcDbEntity
  8
0
  6
Continuous
 62
     7
370
    25
100
AcDbCircle
 10
180.0578553732
 20
81.7760647399
 30
0.0
 40
0.25
100
AcDbArc
 50
0.0
 51
90.0
  0
ARC
  5
1BD
330
1F
100
AcDbEntity
  8
0
  6
Continuous
 62
     7
370
    25
100
AcDbCircle
 10
166.5578553732
 20
81.7760647399
 30
0.0
 40
0.25
100
AcDbArc
 50
90.0
 51
180.0
  0
SPLINE
  5
1BE
330
1F
100
AcDbEntity
  8
0
  6
Continuous
 62
     7
370
    25
100
AcDbSpline
210
0.0
220
0.0
230
1.0
 70
     8
 71
     3
 72
     8
 73
     4
 74
     0
 42
0.000000001
 43
0.00000001
 40
0.0
 40
0.0
 40
0.0
 40
0.0
 40
1.0
 40
1.0
 40
1.0
 40
1.0
 10
166.7906139939096
 20
82.27606473988442
 30
0.0
 10
166.7890440912128
 20
82.21061205944827
 30
0.0
 10
166.7623887568089
 20
82.14556249444004
 30
0.0
 10
166.7176871931874
 20
82.09928203395769
 30
0.0
  0
SPLINE
  5
1BF
330
1F
100
AcDbEntity
  8
0
  6
Continuous
 62
     7
370
    25
100
AcDbSpline
210
0.0
220
0.0
230
1.0
 70
     8
 71
     3
 72
    14
 73
    10
 74
     0
 42
0.000000001
 43
0.00000001
 40
0.0
 40
0.0
 40
0.0
 40
0.0
 40
0.2455893235675696
 40
0.4556181963142487
 40
0.6303106213393677
 40
0.7701164303669036
 40
0.8759901151610805
 40
0.9502659312389182
 40
1.0
 40
1.0
 40
1.0
 40
1.0
 10
166.7176871931874
 20
82.09928203395769
 30
0.0
 10
166.7057962526482
 20
82.0883169946424
 30
0.0
 10
166.6837361369957
 20
82.06797461427024
 30
0.0
 10
166.6481724386755
 20
82.04782260179377
 30
0.0
 10
166.6173801300723
 20
82.03570304232292
 30
0.0
 10
166.5921405474994
 20
82.02949721909053
 30
0.0
 10
166.5741582545646
 20
82.02687752011668
 30
0.0
 10
166.5612360911487
 20
82.02609732577164
 30
0.0
 10
166.5588231010427
 20
82.02607406756876
 30
0.0
 10
166.55785537322
 20
82.02606473988442
 30
0.0
  0
SPLINE
  5
1C0
330
1F
100
AcDbEntity
  8
0
  6
Continuous
 62
     7
370
    25
100
AcDbSpline
210
0.0
220
0.0
230
1.0
 70
     8
 71
     3
 72
    15
 73
    11
 74
     0
 42
0.000000001
 43
0.00000001
 40
0.0
 40
0.0
 40
0.0
 40
0.0
 40
0.0425877399909108
 40
0.1028282325346858
 40
0.1864706729280343
 40
0.2956205441869044
 40
0.4311891005861843
 40
0.5936297641565587
 40
0.7831876993469675
 40
1.0
 40
1.0
 40
1.0
 40
1.0
 10
180.05785537322
 20
82.02606473988442
 30
0.0
 10
180.0571398716231
 20
82.02607053298657
 30
0.0
 10
180.0554122907608
 20
82.02608452044996
 30
0.0
 10
180.045538111666
 20
82.0265762212817
 30
0.0
 10
180.0316444318436
 20
82.0282035752403
 30
0.0
 10
180.012147174022
 20
82.03202872362438
 30
0.0
 10
179.9879423211727
 20
82.03940103366519
 30
0.0
 10
179.9595736645086
 20
82.052019022642
 30
0.0
 10
179.928034493765
 20
82.07126322484618
 30
0.0
 10
179.9084647011927
 20
82.08953397121644
 30
0.0
 10
179.8980235532525
 20
82.09928203395769
 30
0.0
  0
SPLINE
  5
1C1
330
1F
100
AcDbEntity
  8
0
  6
Continuous
 62
     7
370
    25
100
AcDbSpline
210
0.0
220
0.0
230
1.0
 70
     8
 71
     3
 72
     8
 73
     4
 74
     0
 42
0.000000001
 43
0.00000001
 40
0.0
 40
0.0
 40
0.0
 40
0.0
 40
1.0
 40
1.0
 40
1.0
 40
1.0
 10
179.8980235532525
 20
82.09928203395769
 30
0.0
 10
179.853321989631
 20
82.14556249444003
 30
0.0
 10
179.8266666552271
 20
82.21061205944827
 30
0.0
 10
179.8250967525303
 20
82.27606473988442
 30
0.0
  0
LINE
  5
1C2
330
1F
100
AcDbEntity
  8
0
  6
Continuous
 62
     7
370
    25
100
AcDbLine
 10
175.0399061808
 20
73.5260647399
 30
0.0
 11
171.5758045657
 21
73.5260647399
 31
0.0
  0
SPLINE
  5
1C3
330
1F
100
AcDbEntity
  8
0
  6
Continuous
 62
     7
370
    25
100
AcDbSpline
210
0.0
220
0.0
230
1.0
 70
     8
 71
     3
 72
    14
 73
    10
 74
     0
 42
0.000000001
 43
0.00000001
 40
0.0
 40
0.0
 40
0.0
 40
0.0
 40
0.25
 40
0.25
 40
0.5
 40
0.5
 40
0.75
 40
0.75
 40
1.0
 40
1.0
 40
1.0
 40
1.0
 10
180.3067458339379
 20
82.02778449753873
 30
0.0
 10
180.3067544413231
 20
82.0380265959878
 30
0.0
 10
180.2981633061383
 20
82.0527093104512
 30
0.0
 10
180.261853706628
 20
82.08453170110906
 30
0.0
 10
180.2341352423026
 20
82.10167137730352
 30
0.0
 10
180.1576431405104
 20
82.1319834211259
 30
0.0
 10
180.1131174044047
 20
82.13785321931543
 30
0.0
 10
180.0132482842085
 20
82.13175866523515
 30
0.0
 10
179.957904900118
 20
82.11979431296531
 30
0.0
 10
179.8980235532525
 20
82.09928203395769
 30
0.0
  0
SPLINE
  5
1C4
330
1F
100
AcDbEntity
  8
0
  6
Continuous
 62
     7
370
    25
100
AcDbSpline
210
0.0
220
0.0
230
1.0
 70
     8
 71
     3
 72
    12
 73
     8
 74
     0
 42
0.000000001
 43
0.00000001
 40
0.0
 40
0.0
 40
0.0
 40
0.0
 40
0.25
 40
0.25
 40
0.5
 40
0.5
 40
1.0
 40
1.0
 40
1.0
 40
1.0
 10
180.3067458339379
 20
82.02778449753873
 30
0.0
 10
180.3067372265527
 20
82.01754239908966
 30
0.0
 10
180.2981274162226
 20
82.01000318753633
 30
0.0
 10
180.2766463059523
 20
81.99567367191199
 30
0.0
 10
180.2637750060122
 20
81.98888336784097
 30
0.0
 10
180.238180246197
 20
81.9626505173877
 30
0.0
 10
180.2345057029983
 20
81.95296780069938
 30
0.0
 10
180.2346320685181
 20
81.95284143517955
 30
0.0
  0
LINE
  5
1C5
330
1F
100
AcDbEntity
  8
0
  6
Continuous
 62
     7
370
    25
100
AcDbLine
 10
180.3082104363
 20
81.8341986108
 30
0.0
 11
180.3085960457
 21
81.8973337768
 31
0.0
  0
SPLINE
  5
1C6
330
1F
100
AcDbEntity
  8
0
  6
Continuous
 62
     7
370
    25
100
AcDbSpline
210
0.0
220
0.0
230
1.0
 70
     8
 71
     3
 72
    12
 73
     8
 74
     0
 42
0.000000001
 43
0.00000001
 40
0.0
 40
0.0
 40
0.0
 40
0.0
 40
0.25
 40
0.25
 40
0.5
 40
0.5
 40
1.0
 40
1.0
 40
1.0
 40
1.0
 10
166.308964912502
 20
82.02778449753873
 30
0.0
 10
166.3089735198872
 20
82.01754239908966
 30
0.0
 10
166.3175833302174
 20
82.01000318753633
 30
0.0
 10
166.3390644404876
 20
81.99567367191197
 30
0.0
 10
166.3519357404277
 20
81.98888336784097
 30
0.0
 10
166.377530500243
 20
81.9626505173877
 30
0.0
 10
166.3812050434417
 20
81.95296780069938
 30
0.0
 10
166.3810786779218
 20
81.95284143517955
 30
0.0
  0
LINE
  5
1C7
330
1F
100
AcDbEntity
  8
0
  6
Continuous
 62
     7
370
    25
100
AcDbLine
 10
166.3075003101
 20
81.8341986108
 30
0.0
 11
166.3071147007
 21
81.8973337768
 31
0.0
  0
SPLINE
  5
1C8
330
1F
100
AcDbEntity
  8
0
  6
Continuous
 62
     7
370
    25
100
AcDbSpline
210
0.0
220
0.0
230
1.0
 70
     8
 71
     3
 72
    12
 73
     8
 74
     0
 42
0.000000001
 43
0.00000001
 40
0.0
 40
0.0
 40
0.0
 40
0.0
 40
0.25
 40
0.25
 40
0.5
 40
0.5
 40
1.0
 40
1.0
 40
1.0
 40
1.0
 10
166.308964912502
 20
82.02778449753873
 30
0.0
 10
166.3089563051168
 20
82.0380265959878
 30
0.0
 10
166.3175474403016
 20
82.0527093104512
 30
0.0
 10
166.3538570398119
 20
82.08453170110906
 30
0.0
 10
166.3815755041374
 20
82.10167137730352
 30
0.0
 10
166.4963136568256
 20
82.14713944303708
 30
0.0
 10
166.5979244994565
 20
82.14030659197294
 30
0.0
 10
166.7176871931874
 20
82.09928203395769
 30
0.0
  0
SPLINE
  5
1C9
330
1F
100
AcDbEntity
  8
0
  6
Continuous
 62
     7
370
    25
100
AcDbSpline
210
0.0
220
0.0
230
1.0
 70
     8
 71
     3
 72
    10
 73
     6
 74
     0
 42
0.000000001
 43
0.00000001
 40
0.0
 40
0.0
 40
0.0
 40
0.0
 40
0.5
 40
0.5
 40
1.0
 40
1.0
 40
1.0
 40
1.0
 10
166.308964912502
 20
82.02778449753873
 30
0.0
 10
166.3089304829612
 20
82.068752891335
 30
0.0
 10
166.308548805527
 20
82.11220833840693
 30
0.0
 10
166.3122408196532
 20
82.20129418362417
 30
0.0
 10
166.30785537322
 20
82.23368141223948
 30
0.0
 10
166.30785537322
 20
82.27606473988443
 30
0.0
  0
SPLINE
  5
1CA
330
1F
100
AcDbEntity
  8
0
  6
Continuous
 62
     7
370
    25
100
AcDbSpline
210
0.0
220
0.0
230
1.0
 70
     8
 71
     3
 72
     9
 73
     5
 74
     0
 42
0.000000001
 43
0.00000001
 40
0.0
 40
0.0
 40
0.0
 40
0.0
 40
0.1238836936197441
 40
1.0
 40
1.0
 40
1.0
 40
1.0
 10
180.3061209071257
 20
82.15673956009847
 30
0.0
 10
180.3060362113979
 20
82.15141480084536
 30
0.0
 10
180.3053525400826
 20
82.10843287887046
 30
0.0
 10
180.3060951879934
 20
82.06544600164037
 30
0.0
 10
180.3067458339379
 20
82.02778449753873
 30
0.0
  0
LINE
  5
1CB
330
1F
100
AcDbEntity
  8
0
  6
Continuous
 62
     8
370
    25
100
AcDbLine
 10
173.3078553732
 20
87.5260647399
 30
0.0
 11
182.3078553732
 21
87.5260647399
 31
0.0
  0
LINE
  5
1CC
330
1F
100
AcDbEntity
  8
0
  6
Continuous
 62
     8
370
    25
100
AcDbLine
 10
164.3078553732
 20
87.5260647399
 30
0.0
 11
173.3078553732
 21
87.5260647399
 31
0.0
  0
LINE
  5
1CD
330
1F
100
AcDbEntity
  8
0
  6
Continuous
 62
     8
370
    25
100
AcDbLine
 10
173.3078553732
 20
85.5260647399
 30
0.0
 11
166.3078553732
 21
85.5260647399
 31
0.0
  0
LINE
  5
1CE
330
1F
100
AcDbEntity
  8
0
  6
Continuous
 62
     8
370
    25
100
AcDbLine
 10
180.3078553732
 20
85.5260647399
 30
0.0
 11
173.3078553732
 21
85.5260647399
 31
0.0
  0
SPLINE
  5
1CF
330
1F
100
AcDbEntity
  8
0
  6
Continuous
 62
     8
370
    25
100
AcDbSpline
210
0.0
220
0.0
230
1.0
 70
     8
 71
     3
 72
    10
 73
     6
 74
     0
 42
0.000000001
 43
0.00000001
 40
0.0
 40
0.0
 40
0.0
 40
0.0
 40
0.4326501492475736
 40
0.8618374432536737
 40
1.0
 40
1.0
 40
1.0
 40
1.0
 10
166.7176871931874
 20
71.9569683405506
 30
0.0
 10
166.6549812559265
 20
72.19378714205183
 30
0.0
 10
166.5300712686314
 20
72.66552928926981
 30
0.0
 10
166.4091578586096
 20
73.22142512093568
 30
0.0
 10
166.3757186773196
 20
73.54062905571793
 30
0.0
 10
166.3675754782398
 20
73.61836245371656
 30
0.0
  0
SPLINE
  5
1D0
330
1F
100
AcDbEntity
  8
0
  6
Continuous
 62
     8
370
    25
100
AcDbSpline
210
0.0
220
0.0
230
1.0
 70
     8
 71
     3
 72
    10
 73
     6
 74
     0
 42
0.000000001
 43
0.00000001
 40
0.0
 40
0.0
 40
0.0
 40
0.0
 40
0.4238031596401068
 40
0.8442142737781716
 40
1.0
 40
1.0
 40
1.0
 40
1.0
 10
166.7176871931874
 20
77.09516113921825
 30
0.0
 10
166.654915011427
 20
76.85834952815898
 30
0.0
 10
166.5298730653421
 20
76.38662170427395
 30
0.0
 10
166.4072133544845
 20
75.81903699278327
 30
0.0
 10
166.3728579489191
 20
75.48805407835826
 30
0.0
 10
166.3635693144963
 20
75.39856658019963
 30
0.0
  0
SPLINE
  5
1D1
330
1F
100
AcDbEntity
  8
0
  6
Continuous
 62
     8
370
    25
100
AcDbSpline
210
0.0
220
0.0
230
1.0
 70
     8
 71
     3
 72
     9
 73
     5
 74
     0
 42
0.000000001
 43
0.00000001
 40
0.0
 40
0.0
 40
0.0
 40
0.0
 40
0.4617384645169855
 40
1.0
 40
1.0
 40
1.0
 40
1.0
 10
166.3591997679714
 20
75.36017324540349
 30
0.0
 10
166.3477706019582
 20
75.27355009148526
 30
0.0
 10
166.3230181351585
 20
75.08594788682846
 30
0.0
 10
166.3201496933733
 20
74.89644907581952
 30
0.0
 10
166.3186057214936
 20
74.79444915483364
 30
0.0
  0
SPLINE
  5
1D2
330
1F
100
AcDbEntity
  8
0
  6
Continuous
 62
     8
370
    25
100
AcDbSpline
210
0.0
220
0.0
230
1.0
 70
     8
 71
     3
 72
    10
 73
     6
 74
     0
 42
0.000000001
 43
0.00000001
 40
0.0
 40
0.0
 40
0.0
 40
0.0
 40
0.4326501492476053
 40
0.8618374432537375
 40
1.0
 40
1.0
 40
1.0
 40
1.0
 10
179.8980235532525
 20
77.09516113921825
 30
0.0
 10
179.9607294905134
 20
76.858342337717
 30
0.0
 10
180.0856394778085
 20
76.38660019049904
 30
0.0
 10
180.2065528878303
 20
75.83070435883322
 30
0.0
 10
180.2399920691204
 20
75.511500424051
 30
0.0
 10
180.2481352682001
 20
75.43376702605241
 30
0.0
  0
SPLINE
  5
1D3
330
1F
100
AcDbEntity
  8
0
  6
Continuous
 62
     8
370
    25
100
AcDbSpline
210
0.0
220
0.0
230
1.0
 70
     8
 71
     3
 72
    11
 73
     7
 74
     0
 42
0.000000001
 43
0.00000001
 40
0.0
 40
0.0
 40
0.0
 40
0.0
 40
0.313985688877521
 40
0.6254582918578814
 40
0.8694178120862461
 40
1.0
 40
1.0
 40
1.0
 40
1.0
 10
179.8980235532525
 20
71.95696834055059
 30
0.0
 10
179.9616034719548
 20
72.1937033037742
 30
0.0
 10
180.0882544269397
 20
72.66527844546366
 30
0.0
 10
180.2210662196123
 20
73.33239484352329
 30
0.0
 10
180.2875322884289
 20
73.86345707084435
 30
0.0
 10
180.2946303273751
 20
74.15576763490598
 30
0.0
 10
180.2971050249464
 20
74.25768032493674
 30
0.0
  0
SPLINE
  5
1D4
330
1F
100
AcDbEntity
  8
0
  6
Continuous
 62
     8
370
    25
100
AcDbSpline
210
0.0
220
0.0
230
1.0
 70
     8
 71
     3
 72
    11
 73
     7
 74
     0
 42
0.000000001
 43
0.00000001
 40
0.0
 40
0.0
 40
0.0
 40
0.0
 40
0.303938758818038
 40
0.6103390193261096
 40
0.8507797796611005
 40
0.9999999999999999
 40
0.9999999999999999
 40
0.9999999999999999
 40
0.9999999999999999
 10
166.3810786779218
 20
77.15845010288139
 30
0.0
 10
166.3803997390026
 20
76.9134942955683
 30
0.0
 10
166.3790363626574
 20
76.42159886309663
 30
0.0
 10
166.3602135374658
 20
75.73658422642355
 30
0.0
 10
166.3241762350607
 20
75.17692009146853
 30
0.0
 10
166.3174153224772
 20
74.86319256408366
 30
0.0
 10
166.3148262388495
 20
74.74305097155936
 30
0.0
  0
SPLINE
  5
1D5
330
1F
100
AcDbEntity
  8
0
  6
Continuous
 62
     8
370
    25
100
AcDbSpline
210
0.0
220
0.0
230
1.0
 70
     8
 71
     3
 72
    11
 73
     7
 74
     0
 42
0.000000001
 43
0.00000001
 40
0.0
 40
0.0
 40
0.0
 40
0.0
 40
0.3039387588179327
 40
0.6103390193258974
 40
0.850779779660804
 40
1.0
 40
1.0
 40
1.0
 40
1.0
 10
180.2346320685181
 20
71.89367937688743
 30
0.0
 10
180.2353110074374
 20
72.13863518420052
 30
0.0
 10
180.2366743837825
 20
72.63053061667222
 30
0.0
 10
180.2554972089742
 20
73.3155452533453
 30
0.0
 10
180.2915345113792
 20
73.87520938830059
 30
0.0
 10
180.2982954239628
 20
74.18893691568573
 30
0.0
 10
180.3008845075905
 20
74.30907850821032
 30
0.0
  0
SPLINE
  5
1D6
330
1F
100
AcDbEntity
  8
0
  6
Continuous
 62
     8
370
    25
100
AcDbSpline
210
0.0
220
0.0
230
1.0
 70
     8
 71
     3
 72
    11
 73
     7
 74
     0
 42
0.000000001
 43
0.00000001
 40
0.0
 40
0.0
 40
0.0
 40
0.0
 40
0.30704711138327
 40
0.6165808979985132
 40
0.8594806229521657
 40
0.9999999999999999
 40
0.9999999999999999
 40
0.9999999999999999
 40
0.9999999999999999
 10
180.2346320685181
 20
77.15845010288139
 30
0.0
 10
180.2353156628836
 20
76.91349444231574
 30
0.0
 10
180.2366883878241
 20
76.42159930452739
 30
0.0
 10
180.2554457392067
 20
75.7365826040106
 30
0.0
 10
180.2911320614635
 20
75.18506356827562
 30
0.0
 10
180.297785643334
 20
74.87948882034759
 30
0.0
 10
180.3002241164688
 20
74.76749864302923
 30
0.0
  0
SPLINE
  5
1D7
330
1F
100
AcDbEntity
  8
0
  6
Continuous
 62
     8
370
    25
100
AcDbSpline
210
0.0
220
0.0
230
1.0
 70
     8
 71
     3
 72
    11
 73
     7
 74
     0
 42
0.000000001
 43
0.00000001
 40
0.0
 40
0.0
 40
0.0
 40
0.0
 40
0.3039387588179637
 40
0.6103390193259602
 40
0.850779779660893
 40
1.0
 40
1.0
 40
1.0
 40
1.0
 10
166.3810786779218
 20
71.89367937688743
 30
0.0
 10
166.3803997390026
 20
72.13863518420052
 30
0.0
 10
166.3790363626574
 20
72.6305306166722
 30
0.0
 10
166.3602135374658
 20
73.3155452533453
 30
0.0
 10
166.3241762350607
 20
73.8752093883005
 30
0.0
 10
166.3174153224772
 20
74.18893691568556
 30
0.0
 10
166.3148262388495
 20
74.30907850821008
 30
0.0
  0
LINE
  5
1D8
330
1F
100
AcDbEntity
  8
0
  6
Continuous
 62
     8
370
    25
100
AcDbLine
 10
166.3078553732
 20
74.5260647399
 30
0.0
 11
166.3072977713
 21
74.5260647399
 31
0.0
  0
SPLINE
  5
1D9
330
1F
100
AcDbEntity
  8
0
  6
Continuous
 62
     8
370
    25
100
AcDbSpline
210
0.0
220
0.0
230
1.0
 70
     8
 71
     3
 72
     9
 73
     5
 74
     0
 42
0.000000001
 43
0.00000001
 40
0.0
 40
0.0
 40
0.0
 40
0.0
 40
0.1250376543823382
 40
1.0
 40
1.0
 40
1.0
 40
1.0
 10
180.3085960457422
 20
81.89733377676373
 30
0.0
 10
180.3086371406282
 20
81.90277150943756
 30
0.0
 10
180.3089658007117
 20
81.94626027048868
 30
0.0
 10
180.3077817946547
 20
81.98974073143799
 30
0.0
 10
180.3067458339379
 20
82.02778449753873
 30
0.0
  0
SPLINE
  5
1DA
330
1F
100
AcDbEntity
  8
0
  6
Continuous
 62
     8
370
    25
100
AcDbSpline
210
0.0
220
0.0
230
1.0
 70
     8
 71
     3
 72
     9
 73
     5
 74
     0
 42
0.000000001
 43
0.00000001
 40
0.0
 40
0.0
 40
0.0
 40
0.0
 40
0.1250376544250829
 40
1.0
 40
1.0
 40
1.0
 40
1.0
 10
166.3071147006978
 20
81.89733377675735
 30
0.0
 10
166.3070736058118
 20
81.90277150943331
 30
0.0
 10
166.3067449457282
 20
81.94626027048656
 30
0.0
 10
166.3079289517852
 20
81.98974073143799
 30
0.0
 10
166.308964912502
 20
82.02778449753873
 30
0.0
  0
LINE
  5
1DB
330
1F
100
AcDbEntity
  8
0
  6
Continuous
 62
     8
370
    25
100
AcDbLine
 10
180.3078553732
 20
82.2760647399
 30
0.0
 11
180.3061209071
 21
82.1567395601
 31
0.0
  0
INSERT
  5
1E7
330
1F
100
AcDbEntity
  8
0
  6
Continuous
 62
     7
370
    18
100
AcDbBlockReference
  2
SW_CENTERMARKSYMBOL_0
 10
173.3078553732
 20
74.5260647399
 30
0.0
  0
ARC
  5
1E8
330
1F
100
AcDbEntity
  8
0
  6
Continuous
 62
     7
370
    18
100
AcDbCircle
 10
173.3078553732
 20
74.5260647399
 30
0.0
 40
4.282999999999994
100
AcDbArc
 50
75.0
 51
345.0
  0
ARC
  5
1E9
330
1F
100
AcDbEntity
  8
0
  6
Continuous
 62
     7
370
    25
100
AcDbCircle
 10
129.2417516791
 20
135.6365901846
 30
0.0
 40
0.5
100
AcDbArc
 50
23.5781784782
 51
90.0
  0
ARC
  5
1EA
330
1F
100
AcDbEntity
  8
0
  6
Continuous
 62
     7
370
    25
100
AcDbCircle
 10
128.6582668181
 20
135.6365901846
 30
0.0
 40
0.500000000000022
100
AcDbArc
 50
90.0
 51
156.4218215218
  0
LINE
  5
1EB
330
1F
100
AcDbEntity
  8
0
  6
Continuous
 62
     7
370
    25
100
AcDbLine
 10
128.2000092486
 20
121.8365901846
 30
0.0
 11
130.4500092486
 21
121.8365901846
 31
0.0
  0
LINE
  5
1EC
330
1F
100
AcDbEntity
  8
0
  6
Continuous
 62
     7
370
    25
100
AcDbLine
 10
130.4500092486
 20
135.8365901846
 30
0.0
 11
129.7000092486
 21
135.8365901846
 31
0.0
  0
LINE
  5
1ED
330
1F
100
AcDbEntity
  8
0
  6
Continuous
 62
     7
370
    25
100
AcDbLine
 10
130.4500092486
 20
121.8365901846
 30
0.0
 11
130.9500092486
 21
122.3365901846
 31
0.0
  0
LINE
  5
1EE
330
1F
100
AcDbEntity
  8
0
  6
Continuous
 62
     7
370
    25
100
AcDbLine
 10
130.9500092486
 20
135.3365901846
 30
0.0
 11
130.4500092486
 21
135.8365901846
 31
0.0
  0
LINE
  5
1EF
330
1F
100
AcDbEntity
  8
0
  6
Continuous
 62
     7
370
    25
100
AcDbLine
 10
130.9500092486
 20
123.7685276846
 30
0.0
 11
140.0950611891
 21
124.0543105578
 31
0.0
  0
LINE
  5
1F0
330
1F
100
AcDbEntity
  8
0
  6
Continuous
 62
     7
370
    25
100
AcDbLine
 10
140.0950611891
 20
133.6188698115
 30
0.0
 11
130.9500092486
 21
133.9046526846
 31
0.0
  0
LINE
  5
1F1
330
1F
100
AcDbEntity
  8
0
  6
Continuous
 62
     7
370
    25
100
AcDbLine
 10
140.0950611891
 20
124.0543105578
 30
0.0
 11
141.4500092486
 21
124.8365901846
 31
0.0
  0
LINE
  5
1F2
330
1F
100
AcDbEntity
  8
0
  6
Continuous
 62
     7
370
    25
100
AcDbLine
 10
141.4500092486
 20
132.8365901846
 30
0.0
 11
140.0950611891
 21
133.6188698115
 31
0.0
  0
LINE
  5
1F3
330
1F
100
AcDbEntity
  8
0
  6
Continuous
 62
     7
370
    25
100
AcDbLine
 10
128.6582668181
 20
136.1365901846
 30
0.0
 11
129.2417516791
 21
136.1365901846
 31
0.0
  0
LINE
  5
1F4
330
1F
100
AcDbEntity
  8
0
  6
Continuous
 62
     7
370
    25
100
AcDbLine
 10
128.2000092486
 20
135.8365901846
 30
0.0
 11
129.7000092486
 21
135.8365901846
 31
0.0
  0
CIRCLE
  5
1F5
330
1F
100
AcDbEntity
  8
0
  6
Continuous
 62
     7
370
    25
100
AcDbCircle
 10
120.4500092486
 20
128.8365901846
 30
0.0
 40
6.750000000000014
  0
CIRCLE
  5
1F6
330
1F
100
AcDbEntity
  8
0
  6
Continuous
 62
     7
370
    25
100
AcDbCircle
 10
120.4500092486
 20
128.8365901846
 30
0.0
 40
8.5
  0
CIRCLE
  5
1F7
330
1F
100
AcDbEntity
  8
0
  6
Continuous
 62
     7
370
    25
100
AcDbCircle
 10
120.4500092486
 20
128.8365901846
 30
0.0
 40
9.0
  0
CIRCLE
  5
1F8
330
1F
100
AcDbEntity
  8
0
  6
Continuous
 62
     7
370
    25
100
AcDbCircle
 10
120.4500092486
 20
128.8365901846
 30
0.0
 40
6.103432381750494
  0
CIRCLE
  5
1F9
330
1F
100
AcDbEntity
  8
0
  6
Continuous
 62
     7
370
    25
100
AcDbCircle
 10
120.4500092486
 20
128.8365901846
 30
0.0
 40
5.810616978814224
  0
CIRCLE
  5
1FA
330
1F
100
AcDbEntity
  8
0
  6
Continuous
 62
     7
370
    25
100
AcDbCircle
 10
120.4500092486
 20
128.8365901846
 30
0.0
 40
5.722500000000025
  0
CIRCLE
  5
1FB
330
1F
100
AcDbEntity
  8
0
  6
Continuous
 62
     7
370
    25
100
AcDbCircle
 10
120.4500092486
 20
128.8365901846
 30
0.0
 40
3.999999999999986
  0
LINE
  5
1FC
330
1F
100
AcDbEntity
  8
0
  6
Continuous
 62
     7
370
    25
100
AcDbLine
 10
126.106863498
 20
135.8365901846
 30
0.0
 11
126.2000092486
 21
135.8365901846
 31
0.0
  0
LINE
  5
1FD
330
1F
100
AcDbEntity
  8
0
  6
Continuous
 62
     7
370
    25
100
AcDbLine
 10
114.7000092486
 20
135.8365901846
 30
0.0
 11
114.7931549991
 21
135.8365901846
 31
0.0
  0
LINE
  5
1FE
330
1F
100
AcDbEntity
  8
0
  6
Continuous
 62
     7
370
    25
100
AcDbLine
 10
126.2000092486
 20
121.8365901846
 30
0.0
 11
126.106863498
 21
121.8365901846
 31
0.0
  0
LINE
  5
1FF
330
1F
100
AcDbEntity
  8
0
  6
Continuous
 62
     7
370
    25
100
AcDbLine
 10
114.7931549991
 20
121.8365901846
 30
0.0
 11
114.7000092486
 21
121.8365901846
 31
0.0
  0
ARC
  5
200
330
1F
100
AcDbEntity
  8
0
  6
Continuous
 62
     7
370
    25
100
AcDbCircle
 10
126.2000092486
 20
135.5865901846
 30
0.0
 40
0.25
100
AcDbArc
 50
0.0
 51
90.0
  0
ARC
  5
201
330
1F
100
AcDbEntity
  8
0
  6
Continuous
 62
     7
370
    25
100
AcDbCircle
 10
114.7000092486
 20
135.5865901846
 30
0.0
 40
0.25
100
AcDbArc
 50
90.0
 51
180.0
  0
LINE
  5
202
330
1F
100
AcDbEntity
  8
0
  6
Continuous
 62
     7
370
    25
100
AcDbLine
 10
126.4500092486
 20
135.5865901846
 30
0.0
 11
126.4500092486
 21
135.5447941171
 31
0.0
  0
LINE
  5
203
330
1F
100
AcDbEntity
  8
0
  6
Continuous
 62
     7
370
    25
100
AcDbLine
 10
114.4500092486
 20
135.5447941171
 30
0.0
 11
114.4500092486
 21
135.5865901846
 31
0.0
  0
LINE
  5
204
330
1F
100
AcDbEntity
  8
0
  6
Continuous
 62
     7
370
    25
100
AcDbLine
 10
126.4500092486
 20
122.1283862521
 30
0.0
 11
126.4500092486
 21
122.0865901846
 31
0.0
  0
LINE
  5
205
330
1F
100
AcDbEntity
  8
0
  6
Continuous
 62
     7
370
    25
100
AcDbLine
 10
114.4500092486
 20
122.0865901846
 30
0.0
 11
114.4500092486
 21
122.1283862521
 31
0.0
  0
ARC
  5
206
330
1F
100
AcDbEntity
  8
0
  6
Continuous
 62
     7
370
    25
100
AcDbCircle
 10
126.2000092486
 20
122.0865901846
 30
0.0
 40
0.25
100
AcDbArc
 50
270.0
 51
0.0
  0
ARC
  5
207
330
1F
100
AcDbEntity
  8
0
  6
Continuous
 62
     7
370
    25
100
AcDbCircle
 10
114.7000092486
 20
122.0865901846
 30
0.0
 40
0.25
100
AcDbArc
 50
180.0
 51
270.0
  0
LINE
  5
208
330
1F
100
AcDbEntity
  8
0
  6
Continuous
 62
     7
370
    25
100
AcDbLine
 10
127.4500092486
 20
135.5865901846
 30
0.0
 11
126.4500092486
 21
135.5865901846
 31
0.0
  0
LINE
  5
209
330
1F
100
AcDbEntity
  8
0
  6
Continuous
 62
     7
370
    25
100
AcDbLine
 10
127.4500092486
 20
135.8365901846
 30
0.0
 11
127.4500092486
 21
135.5865901846
 31
0.0
  0
LINE
  5
20A
330
1F
100
AcDbEntity
  8
0
  6
Continuous
 62
     7
370
    25
100
AcDbLine
 10
126.2000092486
 20
135.8365901846
 30
0.0
 11
127.4500092486
 21
135.8365901846
 31
0.0
  0
SPLINE
  5
20B
330
1F
100
AcDbEntity
  8
0
  6
Continuous
 62
     7
370
    25
100
AcDbSpline
210
0.0
220
0.0
230
1.0
 70
    24
 71
     3
 72
    14
 73
    10
 74
     0
 42
0.000000001
 43
0.00000001
 40
0.0
 40
0.0
 40
0.0
 40
0.0
 40
0.25
 40
0.25
 40
0.5
 40
0.5
 40
0.75
 40
0.75
 40
1.0
 40
1.0
 40
1.0
 40
1.0
 10
128.2000092485549
 20
121.8365901846288
 30
0.0
 10
128.2000092485549
 20
121.8365901846288
 30
0.0
 10
128.2000092485549
 20
121.8465148745542
 30
0.0
 10
128.2000092485549
 20
121.8863095772169
 30
0.0
 10
128.2000092485549
 20
121.9161799224386
 30
0.0
 10
128.2000092485549
 20
121.9961494623705
 30
0.0
 10
128.2000092485549
 20
122.0462493428064
 30
0.0
 10
128.2000092485549
 20
122.1671338917943
 30
0.0
 10
128.2000092485549
 20
122.2379196403829
 30
0.0
 10
128.2000092485549
 20
122.3193488053185
 30
0.0
  0
SPLINE
  5
20C
330
1F
100
AcDbEntity
  8
0
  6
Continuous
 62
     7
370
    25
100
AcDbSpline
210
0.0
220
0.0
230
1.0
 70
    24
 71
     3
 72
    14
 73
    10
 74
     0
 42
0.000000001
 43
0.00000001
 40
0.0
 40
0.0
 40
0.0
 40
0.0
 40
0.25
 40
0.25
 40
0.5
 40
0.5
 40
0.75
 40
0.75
 40
1.0
 40
1.0
 40
1.0
 40
1.0
 10
128.2000092485549
 20
135.8365901846288
 30
0.0
 10
128.2000092485549
 20
135.8365901846288
 30
0.0
 10
128.2000092485549
 20
135.8266654947034
 30
0.0
 10
128.2000092485549
 20
135.7868707920407
 30
0.0
 10
128.2000092485549
 20
135.7570004468191
 30
0.0
 10
128.2000092485549
 20
135.6770309068871
 30
0.0
 10
128.2000092485549
 20
135.6269310264512
 30
0.0
 10
128.2000092485549
 20
135.5060464774634
 30
0.0
 10
128.2000092485549
 20
135.4352607288748
 30
0.0
 10
128.2000092485549
 20
135.3538315639392
 30
0.0
  0
LINE
  5
20D
330
1F
100
AcDbEntity
  8
0
  6
Continuous
 62
     7
370
    25
100
AcDbLine
 10
130.4500092486
 20
121.8365901846
 30
0.0
 11
130.4500092486
 21
135.8365901846
 31
0.0
  0
LINE
  5
20E
330
1F
100
AcDbEntity
  8
0
  6
Continuous
 62
     7
370
    25
100
AcDbLine
 10
130.9500092486
 20
135.3365901846
 30
0.0
 11
130.9500092486
 21
122.3365901846
 31
0.0
  0
LINE
  5
20F
330
1F
100
AcDbEntity
  8
0
  6
Continuous
 62
     7
370
    25
100
AcDbLine
 10
126.4500092486
 20
122.0865901846
 30
0.0
 11
127.4500092486
 21
122.0865901846
 31
0.0
  0
LINE
  5
210
330
1F
100
AcDbEntity
  8
0
  6
Continuous
 62
     7
370
    25
100
AcDbLine
 10
127.4500092486
 20
122.0865901846
 30
0.0
 11
127.4500092486
 21
121.8365901846
 31
0.0
  0
LINE
  5
211
330
1F
100
AcDbEntity
  8
0
  6
Continuous
 62
     7
370
    25
100
AcDbLine
 10
127.4500092486
 20
121.8365901846
 30
0.0
 11
126.2000092486
 21
121.8365901846
 31
0.0
  0
LINE
  5
212
330
1F
100
AcDbEntity
  8
0
  6
Continuous
 62
     7
370
    25
100
AcDbLine
 10
127.9500092486
 20
135.5865901846
 30
0.0
 11
127.7000092486
 21
135.5865901846
 31
0.0
  0
LINE
  5
213
330
1F
100
AcDbEntity
  8
0
  6
Continuous
 62
     7
370
    25
100
AcDbLine
 10
127.7000092486
 20
135.8365901846
 30
0.0
 11
127.7000092486
 21
135.5865901846
 31
0.0
  0
ARC
  5
214
330
1F
100
AcDbEntity
  8
0
  6
Continuous
 62
     7
370
    25
100
AcDbCircle
 10
127.7000092486
 20
135.5865901846
 30
0.0
 40
0.25
100
AcDbArc
 50
0.0
 51
90.0
  0
LINE
  5
215
330
1F
100
AcDbEntity
  8
0
  6
Continuous
 62
     7
370
    25
100
AcDbLine
 10
127.7000092486
 20
135.5865901846
 30
0.0
 11
127.4500092486
 21
135.5865901846
 31
0.0
  0
LINE
  5
216
330
1F
100
AcDbEntity
  8
0
  6
Continuous
 62
     7
370
    25
100
AcDbLine
 10
127.4500092486
 20
135.8365901846
 30
0.0
 11
127.7000092486
 21
135.8365901846
 31
0.0
  0
LINE
  5
217
330
1F
100
AcDbEntity
  8
0
  6
Continuous
 62
     7
370
    25
100
AcDbLine
 10
127.9500092486
 20
135.5865901846
 30
0.0
 11
127.9500092486
 21
133.8115273702
 31
0.0
  0
LINE
  5
218
330
1F
100
AcDbEntity
  8
0
  6
Continuous
 62
     7
370
    25
100
AcDbLine
 10
127.4500092486
 20
122.0865901846
 30
0.0
 11
127.7000092486
 21
122.0865901846
 31
0.0
  0
LINE
  5
219
330
1F
100
AcDbEntity
  8
0
  6
Continuous
 62
     7
370
    25
100
AcDbLine
 10
127.9500092486
 20
123.8616529991
 30
0.0
 11
127.9500092486
 21
122.0865901846
 31
0.0
  0
LINE
  5
21A
330
1F
100
AcDbEntity
  8
0
  6
Continuous
 62
     7
370
    25
100
AcDbLine
 10
127.7000092486
 20
122.0865901846
 30
0.0
 11
127.9500092486
 21
122.0865901846
 31
0.0
  0
LINE
  5
21B
330
1F
100
AcDbEntity
  8
0
  6
Continuous
 62
     7
370
    25
100
AcDbLine
 10
127.7000092486
 20
122.0865901846
 30
0.0
 11
127.7000092486
 21
121.8365901846
 31
0.0
  0
LINE
  5
21C
330
1F
100
AcDbEntity
  8
0
  6
Continuous
 62
     7
370
    25
100
AcDbLine
 10
127.7000092486
 20
121.8365901846
 30
0.0
 11
127.4500092486
 21
121.8365901846
 31
0.0
  0
ARC
  5
21D
330
1F
100
AcDbEntity
  8
0
  6
Continuous
 62
     7
370
    25
100
AcDbCircle
 10
127.7000092486
 20
122.0865901846
 30
0.0
 40
0.25
100
AcDbArc
 50
270.0
 51
0.0
  0
SPLINE
  5
21E
330
1F
100
AcDbEntity
  8
0
  6
Continuous
 62
     7
370
    25
100
AcDbSpline
210
0.0
220
0.0
230
1.0
 70
     8
 71
     3
 72
     8
 73
     4
 74
     0
 42
0.000000001
 43
0.00000001
 40
0.0
 40
0.0
 40
0.0
 40
0.0
 40
1.0
 40
1.0
 40
1.0
 40
1.0
 10
128.2000092485549
 20
135.3538315639392
 30
0.0
 10
128.1345565681188
 20
135.355401466636
 30
0.0
 10
128.0695070031105
 20
135.3820568010399
 30
0.0
 10
128.0232265426282
 20
135.4267583646614
 30
0.0
  0
SPLINE
  5
21F
330
1F
100
AcDbEntity
  8
0
  6
Continuous
 62
     7
370
    25
100
AcDbSpline
210
0.0
220
0.0
230
1.0
 70
     8
 71
     3
 72
    14
 73
    10
 74
     0
 42
0.000000001
 43
0.00000001
 40
0.0
 40
0.0
 40
0.0
 40
0.0
 40
0.245589323567575
 40
0.455618196314265
 40
0.6303106213393797
 40
0.77011643036692
 40
0.8759901151610914
 40
0.9502659312389357
 40
1.0
 40
1.0
 40
1.0
 40
1.0
 10
128.0232265426282
 20
135.4267583646614
 30
0.0
 10
128.0122615033129
 20
135.4386493052006
 30
0.0
 10
127.9919191229408
 20
135.4607094208531
 30
0.0
 10
127.9717671104643
 20
135.4962731191733
 30
0.0
 10
127.9596475509934
 20
135.5270654277765
 30
0.0
 10
127.953441727761
 20
135.5523050103494
 30
0.0
 10
127.9508220287872
 20
135.5702873032842
 30
0.0
 10
127.9500418344421
 20
135.5832094667001
 30
0.0
 10
127.9500185762392
 20
135.5856224568061
 30
0.0
 10
127.9500092485549
 20
135.5865901846288
 30
0.0
  0
SPLINE
  5
220
330
1F
100
AcDbEntity
  8
0
  6
Continuous
 62
     7
370
    25
100
AcDbSpline
210
0.0
220
0.0
230
1.0
 70
     8
 71
     3
 72
    15
 73
    11
 74
     0
 42
0.000000001
 43
0.00000001
 40
0.0
 40
0.0
 40
0.0
 40
0.0
 40
0.0425877399909041
 40
0.1028282325346875
 40
0.1864706729280299
 40
0.2956205441869006
 40
0.4311891005861807
 40
0.5936297641565581
 40
0.7831876993469636
 40
1.0
 40
1.0
 40
1.0
 40
1.0
 10
127.9500092485549
 20
122.0865901846288
 30
0.0
 10
127.950015041657
 20
122.0873056862256
 30
0.0
 10
127.9500290291204
 20
122.0890332670879
 30
0.0
 10
127.9505207299522
 20
122.0989074461828
 30
0.0
 10
127.9521480839108
 20
122.1128011260052
 30
0.0
 10
127.9559732322949
 20
122.1322983838268
 30
0.0
 10
127.9633455423357
 20
122.1565032366761
 30
0.0
 10
127.9759635313125
 20
122.1848718933402
 30
0.0
 10
127.9952077335167
 20
122.2164110640838
 30
0.0
 10
128.0134784798869
 20
122.2359808566561
 30
0.0
 10
128.0232265426282
 20
122.2464220045963
 30
0.0
  0
SPLINE
  5
221
330
1F
100
AcDbEntity
  8
0
  6
Continuous
 62
     7
370
    25
100
AcDbSpline
210
0.0
220
0.0
230
1.0
 70
     8
 71
     3
 72
     8
 73
     4
 74
     0
 42
0.000000001
 43
0.00000001
 40
0.0
 40
0.0
 40
0.0
 40
0.0
 40
1.0
 40
1.0
 40
1.0
 40
1.0
 10
128.0232265426282
 20
122.2464220045963
 30
0.0
 10
128.0695070031105
 20
122.2911235682177
 30
0.0
 10
128.1345565681188
 20
122.3177789026217
 30
0.0
 10
128.2000092485549
 20
122.3193488053185
 30
0.0
  0
LINE
  5
222
330
1F
100
AcDbEntity
  8
0
  6
Continuous
 62
     7
370
    25
100
AcDbLine
 10
140.0950611891
 20
124.0543105578
 30
0.0
 11
140.0950611891
 21
133.6188698115
 31
0.0
  0
LINE
  5
223
330
1F
100
AcDbEntity
  8
0
  6
Continuous
 62
     7
370
    25
100
AcDbLine
 10
141.4500092486
 20
132.8365901846
 30
0.0
 11
141.4500092486
 21
124.8365901846
 31
0.0
  0
SPLINE
  5
224
330
1F
100
AcDbEntity
  8
0
  6
Continuous
 62
     7
370
    25
100
AcDbSpline
210
0.0
220
0.0
230
1.0
 70
     8
 71
     3
 72
    12
 73
     8
 74
     0
 42
0.000000001
 43
0.00000001
 40
0.0
 40
0.0
 40
0.0
 40
0.0
 40
0.25
 40
0.25
 40
0.5
 40
0.5
 40
1.0
 40
1.0
 40
1.0
 40
1.0
 10
127.9517290062092
 20
135.8354806453468
 30
0.0
 10
127.9619711046583
 20
135.8354892527319
 30
0.0
 10
127.9766538191217
 20
135.8268981175471
 30
0.0
 10
128.0084762097795
 20
135.7905885180369
 30
0.0
 10
128.025615885974
 20
135.7628700537114
 30
0.0
 10
128.0710839517075
 20
135.6481319010232
 30
0.0
 10
128.0642511006434
 20
135.5465210583923
 30
0.0
 10
128.0232265426282
 20
135.4267583646614
 30
0.0
  0
SPLINE
  5
225
330
1F
100
AcDbEntity
  8
0
  6
Continuous
 62
     7
370
    25
100
AcDbSpline
210
0.0
220
0.0
230
1.0
 70
     8
 71
     3
 72
    12
 73
     8
 74
     0
 42
0.000000001
 43
0.00000001
 40
0.0
 40
0.0
 40
0.0
 40
0.0
 40
0.25
 40
0.25
 40
0.5
 40
0.5
 40
1.0
 40
1.0
 40
1.0
 40
1.0
 10
127.9517290062092
 20
135.8354806453468
 30
0.0
 10
127.9414869077601
 20
135.8354720379616
 30
0.0
 10
127.9339476962068
 20
135.8268622276314
 30
0.0
 10
127.9196181805825
 20
135.8053811173611
 30
0.0
 10
127.9128278765115
 20
135.792509817421
 30
0.0
 10
127.8865950260582
 20
135.7669150576058
 30
0.0
 10
127.8769123093699
 20
135.7632405144071
 30
0.0
 10
127.8767859438501
 20
135.763366879927
 30
0.0
  0
SPLINE
  5
226
330
1F
100
AcDbEntity
  8
0
  6
Continuous
 62
     7
370
    25
100
AcDbSpline
210
0.0
220
0.0
230
1.0
 70
     8
 71
     3
 72
    10
 73
     6
 74
     0
 42
0.000000001
 43
0.00000001
 40
0.0
 40
0.0
 40
0.0
 40
0.0
 40
0.5
 40
0.5
 40
1.0
 40
1.0
 40
1.0
 40
1.0
 10
127.9517290062092
 20
135.8354806453468
 30
0.0
 10
127.910760612413
 20
135.8354462158059
 30
0.0
 10
127.8667961026684
 20
135.8357544261429
 30
0.0
 10
127.7757494629246
 20
135.8407091595234
 30
0.0
 10
127.7428010223438
 20
135.8365901846288
 30
0.0
 10
127.7000092485549
 20
135.8365901846288
 30
0.0
  0
SPLINE
  5
227
330
1F
100
AcDbEntity
  8
0
  6
Continuous
 62
     7
370
    25
100
AcDbSpline
210
0.0
220
0.0
230
1.0
 70
     8
 71
     3
 72
    14
 73
    10
 74
     0
 42
0.000000001
 43
0.00000001
 40
0.0
 40
0.0
 40
0.0
 40
0.0
 40
0.25
 40
0.25
 40
0.5
 40
0.5
 40
0.75
 40
0.75
 40
1.0
 40
1.0
 40
1.0
 40
1.0
 10
127.9517290062092
 20
121.8376997239109
 30
0.0
 10
127.9619711046583
 20
121.8376911165257
 30
0.0
 10
127.9766538191217
 20
121.8462822517105
 30
0.0
 10
128.0084762097796
 20
121.8825918512208
 30
0.0
 10
128.025615885974
 20
121.9103103155462
 30
0.0
 10
128.0559279297964
 20
121.9868024173384
 30
0.0
 10
128.0617977279859
 20
122.0313281534441
 30
0.0
 10
128.0557031739056
 20
122.1311972736403
 30
0.0
 10
128.0437388216358
 20
122.1865406577308
 30
0.0
 10
128.0232265426282
 20
122.2464220045963
 30
0.0
  0
SPLINE
  5
228
330
1F
100
AcDbEntity
  8
0
  6
Continuous
 62
     7
370
    25
100
AcDbSpline
210
0.0
220
0.0
230
1.0
 70
     8
 71
     3
 72
    12
 73
     8
 74
     0
 42
0.000000001
 43
0.00000001
 40
0.0
 40
0.0
 40
0.0
 40
0.0
 40
0.25
 40
0.25
 40
0.5
 40
0.5
 40
1.0
 40
1.0
 40
1.0
 40
1.0
 10
127.9517290062092
 20
121.8376997239109
 30
0.0
 10
127.9414869077602
 20
121.8377083312961
 30
0.0
 10
127.9339476962068
 20
121.8463181416262
 30
0.0
 10
127.9196181805825
 20
121.8677992518965
 30
0.0
 10
127.9128278765115
 20
121.8806705518366
 30
0.0
 10
127.8865950260582
 20
121.9062653116518
 30
0.0
 10
127.8769123093699
 20
121.9099398548505
 30
0.0
 10
127.8767859438501
 20
121.9098134893307
 30
0.0
  0
SPLINE
  5
229
330
1F
100
AcDbEntity
  8
0
  6
Continuous
 62
     7
370
    25
100
AcDbSpline
210
0.0
220
0.0
230
1.0
 70
     8
 71
     3
 72
    10
 73
     6
 74
     0
 42
0.000000001
 43
0.00000001
 40
0.0
 40
0.0
 40
0.0
 40
0.0
 40
0.5
 40
0.5
 40
1.0
 40
1.0
 40
1.0
 40
1.0
 10
127.9517290062092
 20
121.8376997239109
 30
0.0
 10
127.910760612413
 20
121.8377341534517
 30
0.0
 10
127.8667961026684
 20
121.8374259431147
 30
0.0
 10
127.7757494629246
 20
121.8324712097343
 30
0.0
 10
127.7428010223438
 20
121.8365901846288
 30
0.0
 10
127.7000092485549
 20
121.8365901846288
 30
0.0
  0
SPLINE
  5
22A
330
1F
100
AcDbEntity
  8
0
  6
Continuous
 62
     7
370
    25
100
AcDbSpline
210
0.0
220
0.0
230
1.0
 70
     8
 71
     3
 72
    10
 73
     6
 74
     0
 42
0.000000001
 43
0.00000001
 40
0.0
 40
0.0
 40
0.0
 40
0.0
 40
0.5
 40
0.5
 40
1.0
 40
1.0
 40
1.0
 40
1.0
 10
127.9517290062092
 20
135.8354806453468
 30
0.0
 10
127.9926974000055
 20
135.8355150748876
 30
0.0
 10
128.0361528470774
 20
135.8358967523217
 30
0.0
 10
128.1252386922946
 20
135.8322047381955
 30
0.0
 10
128.15762592091
 20
135.8365901846288
 30
0.0
 10
128.2000092485549
 20
135.8365901846288
 30
0.0
  0
SPLINE
  5
22B
330
1F
100
AcDbEntity
  8
0
  6
Continuous
 62
     7
370
    25
100
AcDbSpline
210
0.0
220
0.0
230
1.0
 70
     8
 71
     3
 72
    10
 73
     6
 74
     0
 42
0.000000001
 43
0.00000001
 40
0.0
 40
0.0
 40
0.0
 40
0.0
 40
0.5
 40
0.5
 40
1.0
 40
1.0
 40
1.0
 40
1.0
 10
127.9517290062092
 20
121.8376997239109
 30
0.0
 10
127.9926974000055
 20
121.8376652943701
 30
0.0
 10
128.0361528470774
 20
121.8372836169359
 30
0.0
 10
128.1252386922946
 20
121.8409756310621
 30
0.0
 10
128.15762592091
 20
121.8365901846288
 30
0.0
 10
128.2000092485549
 20
121.8365901846288
 30
0.0
  0
SPLINE
  5
22C
330
1F
100
AcDbEntity
  8
0
  6
Continuous
 62
     7
370
    25
100
AcDbSpline
210
0.0
220
0.0
230
1.0
 70
     8
 71
     3
 72
    26
 73
    22
 74
     0
 42
0.000000001
 43
0.00000001
 40
0.0
 40
0.0
 40
0.0
 40
0.0
 40
0.1250000000000001
 40
0.1250000000000001
 40
0.2500000000000003
 40
0.2500000000000003
 40
0.3125000000000003
 40
0.3125000000000003
 40
0.3750000000000002
 40
0.3750000000000002
 40
0.5000000000000002
 40
0.5000000000000002
 40
0.5625000000000003
 40
0.5625000000000003
 40
0.6250000000000002
 40
0.6250000000000002
 40
0.7500000000000001
 40
0.7500000000000001
 40
0.8750000000000001
 40
0.8750000000000001
 40
1.0
 40
1.0
 40
1.0
 40
1.0
 10
124.0555605240214
 20
127.104539377059
 30
0.0
 10
123.88431433426
 20
127.167553331375
 30
0.0
 10
123.7194467306968
 20
127.2437635284886
 30
0.0
 10
123.4096039473541
 20
127.4373409639331
 30
0.0
 10
123.2652649422775
 20
127.555070053656
 30
0.0
 10
123.0854453602418
 20
127.7729431490148
 30
0.0
 10
123.0312381442966
 20
127.8533333522693
 30
0.0
 10
122.9401806637692
 20
128.0242117004003
 30
0.0
 10
122.9026234772527
 20
128.1153955776651
 30
0.0
 10
122.8129820163912
 20
128.4077154357701
 30
0.0
 10
122.785866593445
 20
128.6206714524343
 30
0.0
 10
122.7856621035305
 20
128.942188143524
 30
0.0
 10
122.7923780254287
 20
129.0479007346328
 30
0.0
 10
122.8203951533236
 20
129.2563974528365
 30
0.0
 10
122.8421497738069
 20
129.3598296082583
 30
0.0
 10
122.9307488766538
 20
129.6509639591238
 30
0.0
 10
123.0246452390271
 20
129.82619413609
 30
0.0
 10
123.263761562173
 20
130.1166614998897
 30
0.0
 10
123.4084779665899
 20
130.2349146163058
 30
0.0
 10
123.7168578081456
 20
130.428018057563
 30
0.0
 10
123.8834963652545
 20
130.5053260474686
 30
0.0
 10
124.0555605240189
 20
130.5686409921977
 30
0.0
  0
LINE
  5
22D
330
1F
100
AcDbEntity
  8
0
  6
Continuous
 62
     8
370
    25
100
AcDbLine
 10
126.2000092486
 20
135.8365901846
 30
0.0
 11
126.2000092486
 21
135.7602813967
 31
0.0
  0
LINE
  5
22E
330
1F
100
AcDbEntity
  8
0
  6
Continuous
 62
     8
370
    25
100
AcDbLine
 10
114.7000092486
 20
135.8365901846
 30
0.0
 11
114.7000092486
 21
135.7602813967
 31
0.0
  0
LINE
  5
22F
330
1F
100
AcDbEntity
  8
0
  6
Continuous
 62
     8
370
    25
100
AcDbLine
 10
126.2000092486
 20
121.9128989726
 30
0.0
 11
126.2000092486
 21
121.8365901846
 31
0.0
  0
LINE
  5
230
330
1F
100
AcDbEntity
  8
0
  6
Continuous
 62
     8
370
    25
100
AcDbLine
 10
114.7000092486
 20
121.9128989726
 30
0.0
 11
114.7000092486
 21
121.8365901846
 31
0.0
  0
LINE
  5
231
330
1F
100
AcDbEntity
  8
0
  6
Continuous
 62
     8
370
    25
100
AcDbLine
 10
126.4500092486
 20
135.5865901846
 30
0.0
 11
126.4029496985
 21
135.5865901846
 31
0.0
  0
LINE
  5
232
330
1F
100
AcDbEntity
  8
0
  6
Continuous
 62
     8
370
    25
100
AcDbLine
 10
114.4500092486
 20
135.5865901846
 30
0.0
 11
114.4970687987
 21
135.5865901846
 31
0.0
  0
LINE
  5
233
330
1F
100
AcDbEntity
  8
0
  6
Continuous
 62
     8
370
    25
100
AcDbLine
 10
126.4029496985
 20
122.0865901846
 30
0.0
 11
126.4500092486
 21
122.0865901846
 31
0.0
  0
LINE
  5
234
330
1F
100
AcDbEntity
  8
0
  6
Continuous
 62
     8
370
    25
100
AcDbLine
 10
114.4970687987
 20
122.0865901846
 30
0.0
 11
114.4500092486
 21
122.0865901846
 31
0.0
  0
LINE
  5
235
330
1F
100
AcDbEntity
  8
0
  6
Continuous
 62
     8
370
    25
100
AcDbLine
 10
127.4500092486
 20
134.4934444341
 30
0.0
 11
127.4500092486
 21
135.5865901846
 31
0.0
  0
LINE
  5
236
330
1F
100
AcDbEntity
  8
0
  6
Continuous
 62
     8
370
    25
100
AcDbLine
 10
128.2000092486
 20
124.2608388802
 30
0.0
 11
128.2000092486
 21
122.3193488053
 31
0.0
  0
LINE
  5
237
330
1F
100
AcDbEntity
  8
0
  6
Continuous
 62
     8
370
    25
100
AcDbLine
 10
128.2000092486
 20
135.3538315639
 30
0.0
 11
128.2000092486
 21
133.4123414891
 31
0.0
  0
LINE
  5
238
330
1F
100
AcDbEntity
  8
0
  6
Continuous
 62
     8
370
    25
100
AcDbLine
 10
127.4500092486
 20
122.0865901846
 30
0.0
 11
127.4500092486
 21
123.1797359351
 31
0.0
  0
LINE
  5
239
330
1F
100
AcDbEntity
  8
0
  6
Continuous
 62
     8
370
    25
100
AcDbLine
 10
127.7000092486
 20
134.1692724366
 30
0.0
 11
127.7000092486
 21
135.5865901846
 31
0.0
  0
LINE
  5
23A
330
1F
100
AcDbEntity
  8
0
  6
Continuous
 62
     8
370
    25
100
AcDbLine
 10
127.7000092486
 20
122.0865901846
 30
0.0
 11
127.7000092486
 21
123.5039079327
 31
0.0
  0
INSERT
  5
246
330
1F
100
AcDbEntity
  8
0
  6
Continuous
 62
     7
370
    18
100
AcDbBlockReference
  2
SW_CENTERMARKSYMBOL_1
 10
120.4500092486
 20
128.8365901846
 30
0.0
  0
LINE
  5
247
330
1F
100
AcDbEntity
  8
0
  6
Continuous
 62
     7
370
    18
100
AcDbLine
 10
141.0093248418
 20
124.5821609238
 30
0.0
 11
132.4500092486
 21
124.3146823115
 31
0.0
  0
LINE
  5
248
330
1F
100
AcDbEntity
  8
0
  6
Continuous
 62
     7
370
    18
100
AcDbLine
 10
141.0093248418
 20
133.0910194455
 30
0.0
 11
132.4500092486
 21
133.3584980578
 31
0.0
  0
LINE
  5
249
330
1F
100
AcDbEntity
  8
0
  6
Continuous
 62
     7
370
    18
100
AcDbLine
 10
132.4500092486
 20
133.8577776846
 30
0.0
 11
132.4500092486
 21
123.8154026846
 31
0.0
  0
ARC
  5
24A
330
1F
100
AcDbEntity
  8
0
  6
Continuous
 62
     7
370
    18
100
AcDbCircle
 10
120.4500092486
 20
128.8365901846
 30
0.0
 40
6.562684818208125
100
AcDbArc
 50
75.0
 51
345.0
  0
ENDSEC
  0
SECTION
  2
OBJECTS
  0
DICTIONARY
  5
C
330
0
100
AcDbDictionary
281
     1
  3
ACAD_GROUP
350
D
  3
ACAD_LAYOUT
350
1A
  3
ACAD_MLINESTYLE
350
17
  3
ACAD_PLOTSETTINGS
350
19
  3
ACAD_PLOTSTYLENAME
350
E
  3
ACAD_SCALELIST
350
47
  0
DICTIONARY
  5
D
102
{ACAD_REACTORS
330
C
102
}
330
C
100
AcDbDictionary
281
     1
  0
DICTIONARY
  5
1A
102
{ACAD_REACTORS
330
C
102
}
330
C
100
AcDbDictionary
281
     1
  3
Layout1
350
1E
  3
Layout2
350
26
  3
Model
350
22
  0
DICTIONARY
  5
17
102
{ACAD_REACTORS
330
C
102
}
330
C
100
AcDbDictionary
281
     1
  3
Standard
350
18
  0
DICTIONARY
  5
19
102
{ACAD_REACTORS
330
C
102
}
330
C
100
AcDbDictionary
281
     1
  0
ACDBDICTIONARYWDFLT
  5
E
102
{ACAD_REACTORS
330
C
102
}
330
C
100
AcDbDictionary
281
     1
  3
Normal
350
F
100
AcDbDictionaryWithDefault
340
F
  0
DICTIONARY
  5
47
102
{ACAD_REACTORS
330
C
102
}
330
C
100
AcDbDictionary
281
     1
  3
A0
350
48
  3
A1
350
49
  3
A2
350
4A
  3
A3
350
4B
  3
A4
350
4C
  3
A5
350
4D
  3
A6
350
4E
  3
A7
350
4F
  3
A8
350
50
  3
A9
350
51
  3
B0
350
52
  3
B1
350
53
  3
B2
350
54
  3
B3
350
55
  3
B4
350
56
  3
B5
350
57
  3
B6
350
58
  3
B7
350
59
  3
B8
350
5A
  3
B9
350
5B
  3
C0
350
5C
  3
C1
350
5D
  3
C2
350
5E
  3
C3
350
5F
  3
C4
350
60
  3
C5
350
61
  3
C6
350
62
  3
C7
350
63
  3
C8
350
64
  3
C9
350
65
  3
D0
350
66
  3
D1
350
67
  3
D2
350
68
  0
LAYOUT
  5
1E
102
{ACAD_REACTORS
330
1A
102
}
330
1A
100
AcDbPlotSettings
  1

  2
none_device
  4

  6

 40
0.0
 41
0.0
 42
0.0
 43
0.0
 44
0.0
 45
0.0
 46
0.0
 47
0.0
 48
0.0
 49
0.0
140
0.0
141
0.0
142
1.0
143
1.0
 70
   688
 72
     1
 73
     0
 74
     5
  7

 75
    16
147
1.0
148
0.0
149
0.0
100
AcDbLayout
  1
Layout1
 70
     1
 71
     1
 10
0.0
 20
0.0
 11
420.0
 21
297.0
 12
0.0
 22
0.0
 32
0.0
 14
1.0000000000E+20
 24
1.0000000000E+20
 34
1.0000000000E+20
 15
-1.0000000000E+20
 25
-1.0000000000E+20
 35
-1.0000000000E+20
146
0.0
 13
0.0
 23
0.0
 33
0.0
 16
1.0
 26
0.0
 36
0.0
 17
0.0
 27
1.0
 37
0.0
 76
     0
330
1B
  0
LAYOUT
  5
26
102
{ACAD_REACTORS
330
1A
102
}
330
1A
100
AcDbPlotSettings
  1

  2
none_device
  4

  6

 40
0.0
 41
0.0
 42
0.0
 43
0.0
 44
0.0
 45
0.0
 46
0.0
 47
0.0
 48
0.0
 49
0.0
140
0.0
141
0.0
142
1.0
143
1.0
 70
   688
 72
     1
 73
     0
 74
     5
  7

 75
    16
147
1.0
148
0.0
149
0.0
100
AcDbLayout
  1
Layout2
 70
     1
 71
     2
 10
0.0
 20
0.0
 11
0.0
 21
0.0
 12
0.0
 22
0.0
 32
0.0
 14
0.0
 24
0.0
 34
0.0
 15
0.0
 25
0.0
 35
0.0
146
0.0
 13
0.0
 23
0.0
 33
0.0
 16
1.0
 26
0.0
 36
0.0
 17
0.0
 27
1.0
 37
0.0
 76
     0
330
23
  0
LAYOUT
  5
22
102
{ACAD_REACTORS
330
1A
102
}
330
1A
100
AcDbPlotSettings
  1

  2
none_device
  4
Letter_(8.50_x_11.00_Inches)
  6

 40
6.35
 41
6.35
 42
6.35000508
 43
6.35000508
 44
215.9
 45
279.4
 46
0.0
 47
0.0
 48
0.0
 49
0.0
140
0.0
141
0.0
142
1.0
143
1.0
 70
  1712
 72
     1
 73
     0
 74
     0
  7

 75
     0
147
1.0
148
0.0
149
0.0
100
AcDbLayout
  1
Model
 70
     1
 71
     0
 10
0.0
 20
0.0
 11
431.8
 21
279.4
 12
0.0
 22
0.0
 32
0.0
 14
0.0
 24
0.0
 34
0.0
 15
431.8
 25
279.4
 35
0.0
146
0.0
 13
0.0
 23
0.0
 33
0.0
 16
1.0
 26
0.0
 36
0.0
 17
0.0
 27
1.0
 37
0.0
 76
     0
330
1F
331
29
  0
MLINESTYLE
  5
18
102
{ACAD_REACTORS
330
17
102
}
330
17
100
AcDbMlineStyle
  2
Standard
 70
     0
  3

 62
   256
 51
90.0
 52
90.0
 71
     2
 49
0.5
 62
   256
  6
BYLAYER
 49
-0.5
 62
   256
  6
BYLAYER
  0
ACDBPLACEHOLDER
  5
F
102
{ACAD_REACTORS
330
E
102
}
330
E
  0
SCALE
  5
48
102
{ACAD_REACTORS
330
47
102
}
330
47
100
AcDbScale
 70
     0
300
1:1
140
1.0
141
1.0
290
     1
  0
SCALE
  5
49
102
{ACAD_REACTORS
330
47
102
}
330
47
100
AcDbScale
 70
     0
300
1:2
140
1.0
141
2.0
290
     0
  0
SCALE
  5
4A
102
{ACAD_REACTORS
330
47
102
}
330
47
100
AcDbScale
 70
     0
300
1:4
140
1.0
141
4.0
290
     0
  0
SCALE
  5
4B
102
{ACAD_REACTORS
330
47
102
}
330
47
100
AcDbScale
 70
     0
300
1:5
140
1.0
141
5.0
290
     0
  0
SCALE
  5
4C
102
{ACAD_REACTORS
330
47
102
}
330
47
100
AcDbScale
 70
     0
300
1:8
140
1.0
141
8.0
290
     0
  0
SCALE
  5
4D
102
{ACAD_REACTORS
330
47
102
}
330
47
100
AcDbScale
 70
     0
300
1:10
140
1.0
141
10.0
290
     0
  0
SCALE
  5
4E
102
{ACAD_REACTORS
330
47
102
}
330
47
100
AcDbScale
 70
     0
300
1:16
140
1.0
141
16.0
290
     0
  0
SCALE
  5
4F
102
{ACAD_REACTORS
330
47
102
}
330
47
100
AcDbScale
 70
     0
300
1:20
140
1.0
141
20.0
290
     0
  0
SCALE
  5
50
102
{ACAD_REACTORS
330
47
102
}
330
47
100
AcDbScale
 70
     0
300
1:30
140
1.0
141
30.0
290
     0
  0
SCALE
  5
51
102
{ACAD_REACTORS
330
47
102
}
330
47
100
AcDbScale
 70
     0
300
1:40
140
1.0
141
40.0
290
     0
  0
SCALE
  5
52
102
{ACAD_REACTORS
330
47
102
}
330
47
100
AcDbScale
 70
     0
300
1:50
140
1.0
141
50.0
290
     0
  0
SCALE
  5
53
102
{ACAD_REACTORS
330
47
102
}
330
47
100
AcDbScale
 70
     0
300
1:100
140
1.0
141
100.0
290
     0
  0
SCALE
  5
54
102
{ACAD_REACTORS
330
47
102
}
330
47
100
AcDbScale
 70
     0
300
2:1
140
2.0
141
1.0
290
     0
  0
SCALE
  5
55
102
{ACAD_REACTORS
330
47
102
}
330
47
100
AcDbScale
 70
     0
300
4:1
140
4.0
141
1.0
290
     0
  0
SCALE
  5
56
102
{ACAD_REACTORS
330
47
102
}
330
47
100
AcDbScale
 70
     0
300
8:1
140
8.0
141
1.0
290
     0
  0
SCALE
  5
57
102
{ACAD_REACTORS
330
47
102
}
330
47
100
AcDbScale
 70
     0
300
10:1
140
10.0
141
1.0
290
     0
  0
SCALE
  5
58
102
{ACAD_REACTORS
330
47
102
}
330
47
100
AcDbScale
 70
     0
300
100:1
140
100.0
141
1.0
290
     0
  0
SCALE
  5
59
102
{ACAD_REACTORS
330
47
102
}
330
47
100
AcDbScale
 70
     0
300
1/128" = 1'-0"
140
0.0078125
141
12.0
290
     0
  0
SCALE
  5
5A
102
{ACAD_REACTORS
330
47
102
}
330
47
100
AcDbScale
 70
     0
300
1/64" = 1'-0"
140
0.015625
141
12.0
290
     0
  0
SCALE
  5
5B
102
{ACAD_REACTORS
330
47
102
}
330
47
100
AcDbScale
 70
     0
300
1/32" = 1'-0"
140
0.03125
141
12.0
290
     0
  0
SCALE
  5
5C
102
{ACAD_REACTORS
330
47
102
}
330
47
100
AcDbScale
 70
     0
300
1/16" = 1'-0"
140
0.0625
141
12.0
290
     0
  0
SCALE
  5
5D
102
{ACAD_REACTORS
330
47
102
}
330
47
100
AcDbScale
 70
     0
300
3/32" = 1'-0"
140
0.09375
141
12.0
290
     0
  0
SCALE
  5
5E
102
{ACAD_REACTORS
330
47
102
}
330
47
100
AcDbScale
 70
     0
300
1/8" = 1'-0"
140
0.125
141
12.0
290
     0
  0
SCALE
  5
5F
102
{ACAD_REACTORS
330
47
102
}
330
47
100
AcDbScale
 70
     0
300
3/16" = 1'-0"
140
0.1875
141
12.0
290
     0
  0
SCALE
  5
60
102
{ACAD_REACTORS
330
47
102
}
330
47
100
AcDbScale
 70
     0
300
1/4" = 1'-0"
140
0.25
141
12.0
290
     0
  0
SCALE
  5
61
102
{ACAD_REACTORS
330
47
102
}
330
47
100
AcDbScale
 70
     0
300
3/8" = 1'-0"
140
0.375
141
12.0
290
     0
  0
SCALE
  5
62
102
{ACAD_REACTORS
330
47
102
}
330
47
100
AcDbScale
 70
     0
300
1/2" = 1'-0"
140
0.5
141
12.0
290
     0
  0
SCALE
  5
63
102
{ACAD_REACTORS
330
47
102
}
330
47
100
AcDbScale
 70
     0
300
3/4" = 1'-0"
140
0.75
141
12.0
290
     0
  0
SCALE
  5
64
102
{ACAD_REACTORS
330
47
102
}
330
47
100
AcDbScale
 70
     0
300
1" = 1'-0"
140
1.0
141
12.0
290
     0
  0
SCALE
  5
65
102
{ACAD_REACTORS
330
47
102
}
330
47
100
AcDbScale
 70
     0
300
1-1/2" = 1'-0"
140
1.5
141
12.0
290
     0
  0
SCALE
  5
66
102
{ACAD_REACTORS
330
47
102
}
330
47
100
AcDbScale
 70
     0
300
3" = 1'-0"
140
3.0
141
12.0
290
     0
  0
SCALE
  5
67
102
{ACAD_REACTORS
330
47
102
}
330
47
100
AcDbScale
 70
     0
300
6" = 1'-0"
140
6.0
141
12.0
290
     0
  0
SCALE
  5
68
102
{ACAD_REACTORS
330
47
102
}
330
47
100
AcDbScale
 70
     0
300
1'-0" = 1'-0"
140
12.0
141
12.0
290
     0
  0
ENDSEC
  0
EOF
